  0
SECTION
  2
HEADER
  9
$ACADVER
  1
AC1009
  9
$DWGCODEPAGE
  3
ansi_932
  9
$INSBASE
 10
0.0
 20
0.0
 30
0.0
  9
$EXTMIN
 10
-579.1259175018031
 20
-506.0361946556588
 30
0.0
  9
$EXTMAX
 10
1377.426194512268
 20
769.7058814088243
 30
50.0
  9
$LIMMIN
 10
-2970.0
 20
-2100.0
  9
$LIMMAX
 10
2970.0
 20
2100.0
  9
$ORTHOMODE
 70
     0
  9
$REGENMODE
 70
     0
  9
$FILLMODE
 70
     1
  9
$QTEXTMODE
 70
     0
  9
$MIRRTEXT
 70
     0
  9
$DRAGMODE
 70
     2
  9
$LTSCALE
 40
20.0
  9
$OSMODE
 70
    37
  9
$ATTMODE
 70
     1
  9
$TEXTSIZE
 40
64.0
  9
$TRACEWID
 40
0.05
  9
$TEXTSTYLE
  7
STANDARD
  9
$CLAYER
  8
DEFPOINTS
  9
$CELTYPE
  6
CONTINUOUS
  9
$CECOLOR
 62
     8
  9
$DIMSCALE
 40
1.0
  9
$DIMASZ
 40
12.0
  9
$DIMEXO
 40
20.0
  9
$DIMDLI
 40
200.0
  9
$DIMRND
 40
0.0
  9
$DIMDLE
 40
0.0
  9
$DIMEXE
 40
20.0
  9
$DIMTP
 40
0.0
  9
$DIMTM
 40
0.0
  9
$DIMTXT
 40
64.0
  9
$DIMCEN
 40
0.09
  9
$DIMTSZ
 40
0.0
  9
$DIMTOL
 70
     0
  9
$DIMLIM
 70
     0
  9
$DIMTIH
 70
     0
  9
$DIMTOH
 70
     0
  9
$DIMSE1
 70
     0
  9
$DIMSE2
 70
     0
  9
$DIMTAD
 70
     1
  9
$DIMZIN
 70
     8
  9
$DIMBLK
  1
DOT1
  9
$DIMASO
 70
     1
  9
$DIMSHO
 70
     0
  9
$DIMPOST
  1

  9
$DIMAPOST
  1

  9
$DIMALT
 70
     0
  9
$DIMALTD
 70
     2
  9
$DIMALTF
 40
25.4
  9
$DIMLFAC
 40
1.0
  9
$DIMTOFL
 70
     1
  9
$DIMTVP
 40
0.0
  9
$DIMTIX
 70
     1
  9
$DIMSOXD
 70
     0
  9
$DIMSAH
 70
     1
  9
$DIMBLK1
  1
ORIGIN
  9
$DIMBLK2
  1
ORIGIN
  9
$DIMSTYLE
  2
STANDARD
  9
$DIMCLRD
 70
     0
  9
$DIMCLRE
 70
     0
  9
$DIMCLRT
 70
     0
  9
$DIMTFAC
 40
1.0
  9
$DIMGAP
 40
0.09
  9
$LUNITS
 70
     2
  9
$LUPREC
 70
     4
  9
$SKETCHINC
 40
0.1
  9
$FILLETRAD
 40
3.0
  9
$AUNITS
 70
     1
  9
$AUPREC
 70
     3
  9
$MENU
  1
ACAD
  9
$ELEVATION
 40
0.0
  9
$PELEVATION
 40
0.0
  9
$THICKNESS
 40
50.0
  9
$LIMCHECK
 70
     0
  9
$CHAMFERA
 40
0.0
  9
$CHAMFERB
 40
0.0
  9
$SKPOLY
 70
     0
  9
$TDCREATE
 40
2452310.657101389
  9
$TDUPDATE
 40
2457485.556292546
  9
$TDINDWG
 40
0.0868565046
  9
$TDUSRTIMER
 40
0.0868561458
  9
$USRTIMER
 70
     1
  9
$ANGBASE
 50
0.0
  9
$ANGDIR
 70
     0
  9
$PDMODE
 70
     3
  9
$PDSIZE
 40
-2.0
  9
$PLINEWID
 40
0.0
  9
$COORDS
 70
     1
  9
$SPLFRAME
 70
     0
  9
$SPLINETYPE
 70
     6
  9
$SPLINESEGS
 70
     8
  9
$ATTDIA
 70
     0
  9
$ATTREQ
 70
     1
  9
$HANDLING
 70
     1
  9
$HANDSEED
  5
3E0
  9
$SURFTAB1
 70
     6
  9
$SURFTAB2
 70
     6
  9
$SURFTYPE
 70
     6
  9
$SURFU
 70
     6
  9
$SURFV
 70
     6
  9
$UCSNAME
  2

  9
$UCSORG
 10
0.0
 20
0.0
 30
0.0
  9
$UCSXDIR
 10
1.0
 20
0.0
 30
0.0
  9
$UCSYDIR
 10
0.0
 20
1.0
 30
0.0
  9
$PUCSNAME
  2

  9
$PUCSORG
 10
0.0
 20
0.0
 30
0.0
  9
$PUCSXDIR
 10
1.0
 20
0.0
 30
0.0
  9
$PUCSYDIR
 10
0.0
 20
1.0
 30
0.0
  9
$USERI1
 70
     0
  9
$USERI2
 70
     0
  9
$USERI3
 70
     0
  9
$USERI4
 70
     0
  9
$USERI5
 70
     0
  9
$USERR1
 40
20.0
  9
$USERR2
 40
0.0
  9
$USERR3
 40
0.0
  9
$USERR4
 40
0.0
  9
$USERR5
 40
0.0
  9
$WORLDVIEW
 70
     1
  9
$SHADEDGE
 70
     3
  9
$SHADEDIF
 70
    70
  9
$TILEMODE
 70
     1
  9
$MAXACTVP
 70
    64
  9
$PLIMCHECK
 70
     0
  9
$PEXTMIN
 10
1.000000000000000E+20
 20
1.000000000000000E+20
 30
1.000000000000000E+20
  9
$PEXTMAX
 10
-1.000000000000000E+20
 20
-1.000000000000000E+20
 30
-1.000000000000000E+20
  9
$PLIMMIN
 10
0.0
 20
0.0
  9
$PLIMMAX
 10
12.0
 20
9.0
  9
$UNITMODE
 70
     0
  9
$VISRETAIN
 70
     1
  9
$PLINEGEN
 70
     0
  9
$PSLTSCALE
 70
     1
  0
ENDSEC
  0
SECTION
  2
TABLES
  0
TABLE
  2
VPORT
 70
     1
  0
VPORT
  2
*ACTIVE
 70
     0
 10
0.0
 20
0.0
 11
1.0
 21
1.0
 12
375.5086053221566
 22
129.1312248151976
 13
0.0
 23
0.0
 14
1.0
 24
1.0
 15
0.0
 25
0.0
 16
0.0
 26
0.0
 36
1.0
 17
0.0
 27
0.0
 37
0.0
 40
1701.573437001308
 41
1.493654822335025
 42
50.0
 43
0.0
 44
0.0
 50
0.0
 51
0.0
 71
     0
 72
   100
 73
     1
 74
     0
 75
     0
 76
     0
 77
     0
 78
     0
  0
ENDTAB
  0
TABLE
  2
LTYPE
 70
     2
  0
LTYPE
  2
CONTINUOUS
 70
     0
  3
実線
 72
    65
 73
     0
 40
0.0
  0
LTYPE
  2
DASHDOT
 70
     0
  3
____ _ ____ _ ____ _ ____ _ ____ _ ____ _ ____
 72
    65
 73
     4
 40
5.5
 49
4.0
 49
-0.6
 49
0.3
 49
-0.6
  0
ENDTAB
  0
TABLE
  2
LAYER
 70
    12
  0
LAYER
  2
0
 70
     0
 62
     7
  6
CONTINUOUS
  0
LAYER
  2
DEFPOINTS
 70
     0
 62
     7
  6
CONTINUOUS
  0
LAYER
  2
SIZE
 70
     0
 62
    30
  6
CONTINUOUS
  0
LAYER
  2
BASIS
 70
     0
 62
     6
  6
DASHDOT
  0
LAYER
  2
OUTLINE
 70
     0
 62
     3
  6
CONTINUOUS
  0
LAYER
  2
DETAIL
 70
     0
 62
     5
  6
CONTINUOUS
  0
LAYER
  2
ARRANGE
 70
     0
 62
     1
  6
CONTINUOUS
  0
LAYER
  2
ETC
 70
     0
 62
    61
  6
CONTINUOUS
  0
LAYER
  2
FIX
 70
     0
 62
    11
  6
CONTINUOUS
  0
LAYER
  2
NOTE
 70
     0
 62
     4
  6
CONTINUOUS
  0
LAYER
  2
SERVICESPACE
 70
     0
 62
     2
  6
DASHDOT
  0
LAYER
  2
SYMBOLLINE
 70
     0
 62
    15
  6
CONTINUOUS
  0
ENDTAB
  0
TABLE
  2
STYLE
 70
     1
  0
STYLE
  2
STANDARD
 70
     0
 40
64.0
 41
0.9
 50
0.0
 71
     0
 42
64.0
  3
SIMPLEX.shx
  4
BIGFONT.shx
  0
ENDTAB
  0
TABLE
  2
VIEW
 70
     1
  0
VIEW
  2
ALL
 70
     0
 40
4282.619807999997
 10
0.0
 20
41.30990399999999
 41
5940.0
 11
0.0
 21
0.0
 31
1.0
 12
0.0
 22
0.0
 32
0.0
 42
50.0
 43
0.0
 44
0.0
 50
0.0
 71
     0
  0
ENDTAB
  0
TABLE
  2
UCS
 70
     0
  0
ENDTAB
  0
TABLE
  2
APPID
 70
     1
  0
APPID
  2
ACAD
 70
     0
  0
ENDTAB
  0
TABLE
  2
DIMSTYLE
 70
     1
  0
DIMSTYLE
  2
STANDARD
 70
     0
  3

  4

  5

  6

  7

 40
1.0
 41
0.18
 42
0.0625
 43
0.38
 44
0.18
 45
0.0
 46
0.0
 47
0.0
 48
0.0
140
0.18
141
0.09
142
0.0
143
25.4
144
1.0
145
0.0
146
1.0
147
0.09
 71
     0
 72
     0
 73
     1
 74
     1
 75
     0
 76
     0
 77
     0
 78
     0
170
     0
171
     2
172
     0
173
     0
174
     0
175
     0
176
     0
177
     0
178
     0
  0
ENDTAB
  0
ENDSEC
  0
SECTION
  2
BLOCKS
  0
BLOCK
  8
0
  2
$MODEL_SPACE
 70
     0
 10
0.0
 20
0.0
 30
0.0
  3
$MODEL_SPACE
  1

  0
ENDBLK
  5
27A
  8
0
  0
BLOCK
 67
     1
  8
0
  2
$PAPER_SPACE
 70
     0
 10
0.0
 20
0.0
 30
0.0
  3
$PAPER_SPACE
  1

  0
ENDBLK
  5
276
 67
     1
  8
0
  0
BLOCK
  8
0
  2
DOT1
 70
     0
 10
0.0
 20
0.0
 30
0.0
  3
DOT1
  1

  0
CIRCLE
  5
295
  8
SIZE
  6
CONTINUOUS
 62
     7
 10
0.0
 20
0.0
 30
0.0
 40
3.0
  0
ENDBLK
  5
296
  8
0
  0
BLOCK
  8
0
  2
_ORIGIN
 70
     0
 10
0.0
 20
0.0
 30
0.0
  3
_ORIGIN
  1

  0
CIRCLE
  5
299
  8
0
  6
CONTINUOUS
 62
     7
 10
0.0
 20
0.0
 30
0.0
 40
0.5
  0
LINE
  5
29A
  8
0
  6
CONTINUOUS
 62
     7
 10
0.0
 20
0.0
 30
0.0
 11
-1.0
 21
0.0
 31
0.0
  0
ENDBLK
  5
29B
  8
0
  0
ENDSEC
  0
SECTION
  2
ENTITIES
  0
LINE
  5
29C
  8
BASIS
  6
DASHDOT
 62
     6
 10
0.0
 20
390.4472849999998
 30
0.0
 11
0.0
 21
-391.7615439999998
 31
0.0
  0
LINE
  5
29D
  8
BASIS
  6
DASHDOT
 62
     6
 10
-399.2959159999996
 20
0.0
 30
0.0
 11
399.9370540000002
 21
0.0
 31
0.0
  0
LINE
  5
29E
  8
DETAIL
  6
CONTINUOUS
 62
     5
 10
354.9999999999999
 20
324.9999999999999
 30
0.0
 11
354.9999999999999
 21
-324.9999999999998
 31
0.0
  0
LINE
  5
29F
  8
DETAIL
  6
CONTINUOUS
 62
     5
 10
-354.9999999999996
 20
324.9999999999999
 30
0.0
 11
-354.9999999999996
 21
-324.9999999999998
 31
0.0
  0
LINE
  5
2A0
  8
DETAIL
  6
CONTINUOUS
 62
     5
 10
-324.9999999999997
 20
354.9999999999999
 30
0.0
 11
325.0
 21
354.9999999999999
 31
0.0
  0
LINE
  5
2A1
  8
DETAIL
  6
CONTINUOUS
 62
     5
 10
-324.9999999999997
 20
-354.9999999999998
 30
0.0
 11
325.0
 21
-354.9999999999998
 31
0.0
  0
LINE
  5
2A2
  8
NOTE
  6
CONTINUOUS
 62
     4
 10
-324.9999999999997
 20
304.9999999999999
 30
0.0
 11
-324.9999999999997
 21
344.9999999999999
 31
0.0
  0
LINE
  5
2A3
  8
NOTE
  6
CONTINUOUS
 62
     4
 10
-344.9999999999997
 20
324.9999999999999
 30
0.0
 11
-304.9999999999997
 21
324.9999999999999
 31
0.0
  0
TEXT
  5
2A4
  8
NOTE
  6
CONTINUOUS
 62
     4
 10
-720.7617119999999
 20
489.0883670000001
 30
0.0
 40
64.0
  1
4-φ14
 41
0.9
  0
LINE
  5
2A5
  8
NOTE
  6
CONTINUOUS
 62
     4
 10
-749.0653209999999
 20
463.9888179999999
 30
0.0
 11
-431.955846
 21
463.9888179999999
 31
0.0
  0
LINE
  5
2A6
  8
NOTE
  6
CONTINUOUS
 62
     4
 10
-324.9999999999997
 20
324.9999999999999
 30
0.0
 11
-431.955846
 21
463.9888179999999
 31
0.0
  0
LINE
  5
2A7
  8
NOTE
  6
CONTINUOUS
 62
     4
 10
-356.9591449999996
 20
349.0543769999998
 30
0.0
 11
-324.9999999999997
 21
324.9999999999999
 31
0.0
  0
LINE
  5
2A8
  8
NOTE
  6
CONTINUOUS
 62
     4
 10
-324.9999999999997
 20
324.9999999999999
 30
0.0
 11
-340.6502419999997
 21
361.8112740000001
 31
0.0
  0
POINT
  5
2A9
  8
ARRANGE
  6
CONTINUOUS
 62
     1
 10
0.0
 20
0.0
 30
0.0
  0
CIRCLE
  5
2AA
  8
ARRANGE
  6
CONTINUOUS
 62
     1
 10
0.0
 20
0.0
 30
0.0
 40
40.0
  0
LINE
  5
2AB
  8
SIZE
  6
CONTINUOUS
 62
    30
 10
325.0
 20
364.9999999999999
 30
0.0
 11
325.0
 21
496.0316879999999
 31
0.0
  0
LINE
  5
2AC
  8
SIZE
  6
CONTINUOUS
 62
    30
 10
-324.9999999999997
 20
364.9999999999999
 30
0.0
 11
-324.9999999999997
 21
496.0316879999999
 31
0.0
  0
LINE
  5
2AD
  8
SIZE
  6
CONTINUOUS
 62
    30
 10
313.0
 20
476.0316879999999
 30
0.0
 11
-312.9999999999997
 21
476.0316879999999
 31
0.0
  0
CIRCLE
  5
2AE
  8
SIZE
  6
CONTINUOUS
 62
    30
 10
325.0
 20
476.0316879999999
 30
0.0
 40
6.0
  0
LINE
  5
2AF
  8
SIZE
  6
CONTINUOUS
 62
    30
 10
325.0
 20
476.0316879999999
 30
0.0
 11
313.0
 21
476.0316879999999
 31
0.0
  0
CIRCLE
  5
2B0
  8
SIZE
  6
CONTINUOUS
 62
    30
 10
-324.9999999999997
 20
476.0316879999999
 30
0.0
 40
6.0
  0
LINE
  5
2B1
  8
SIZE
  6
CONTINUOUS
 62
    30
 10
-324.9999999999997
 20
476.0316879999999
 30
0.0
 11
-312.9999999999997
 21
476.0316879999999
 31
0.0
  0
TEXT
  5
2B2
  8
SIZE
  6
CONTINUOUS
 62
    30
 10
-83.65714285714286
 20
501.0316879999999
 30
0.0
 40
64.0
  1
650
 41
0.9
 72
     1
 11
0.0
 21
501.0316879999999
 31
0.0
  0
LINE
  5
2B3
  8
SIZE
  6
CONTINUOUS
 62
    30
 10
354.9999999999999
 20
344.9999999999999
 30
0.0
 11
354.9999999999999
 21
622.5476539999999
 31
0.0
  0
LINE
  5
2B4
  8
SIZE
  6
CONTINUOUS
 62
    30
 10
-354.9999999999996
 20
344.9999999999999
 30
0.0
 11
-354.9999999999996
 21
622.5476539999999
 31
0.0
  0
LINE
  5
2B5
  8
SIZE
  6
CONTINUOUS
 62
    30
 10
342.9999999999999
 20
602.5476539999999
 30
0.0
 11
-342.9999999999996
 21
602.5476539999999
 31
0.0
  0
CIRCLE
  5
2B6
  8
SIZE
  6
CONTINUOUS
 62
    30
 10
354.9999999999999
 20
602.5476539999999
 30
0.0
 40
6.0
  0
LINE
  5
2B7
  8
SIZE
  6
CONTINUOUS
 62
    30
 10
354.9999999999999
 20
602.5476539999999
 30
0.0
 11
342.9999999999999
 21
602.5476539999999
 31
0.0
  0
CIRCLE
  5
2B8
  8
SIZE
  6
CONTINUOUS
 62
    30
 10
-354.9999999999996
 20
602.5476539999999
 30
0.0
 40
6.0
  0
LINE
  5
2B9
  8
SIZE
  6
CONTINUOUS
 62
    30
 10
-354.9999999999996
 20
602.5476539999999
 30
0.0
 11
-342.9999999999996
 21
602.5476539999999
 31
0.0
  0
TEXT
  5
2BA
  8
SIZE
  6
CONTINUOUS
 62
    30
 10
-82.28571428571429
 20
627.5476539999999
 30
0.0
 40
64.0
  1
710
 41
0.9
 72
     1
 11
0.0
 21
627.5476539999999
 31
0.0
  0
LINE
  5
2BB
  8
SIZE
  6
CONTINUOUS
 62
    30
 10
364.9999999999999
 20
324.9999999999999
 30
0.0
 11
584.1368090000002
 21
324.9999999999999
 31
0.0
  0
LINE
  5
2BC
  8
SIZE
  6
CONTINUOUS
 62
    30
 10
364.9999999999999
 20
-324.9999999999998
 30
0.0
 11
584.1368090000002
 21
-324.9999999999998
 31
0.0
  0
LINE
  5
2BD
  8
SIZE
  6
CONTINUOUS
 62
    30
 10
564.1368090000002
 20
312.9999999999999
 30
0.0
 11
564.1368090000002
 21
-312.9999999999998
 31
0.0
  0
CIRCLE
  5
2BE
  8
SIZE
  6
CONTINUOUS
 62
    30
 10
564.1368090000002
 20
324.9999999999999
 30
0.0
 40
6.0
  0
LINE
  5
2BF
  8
SIZE
  6
CONTINUOUS
 62
    30
 10
564.1368090000002
 20
324.9999999999999
 30
0.0
 11
564.1368090000002
 21
312.9999999999999
 31
0.0
  0
CIRCLE
  5
2C0
  8
SIZE
  6
CONTINUOUS
 62
    30
 10
564.1368090000002
 20
-324.9999999999998
 30
0.0
 40
6.0
  0
LINE
  5
2C1
  8
SIZE
  6
CONTINUOUS
 62
    30
 10
564.1368090000002
 20
-324.9999999999998
 30
0.0
 11
564.1368090000002
 21
-312.9999999999998
 31
0.0
  0
TEXT
  5
2C2
  8
SIZE
  6
CONTINUOUS
 62
    30
 10
539.1368090000001
 20
-83.65714285714286
 30
0.0
 40
64.0
  1
650
 50
90.0
 41
0.9
 72
     1
 11
539.1368090000001
 21
0.0
 31
0.0
  0
LINE
  5
2C3
  8
SIZE
  6
CONTINUOUS
 62
    30
 10
345.0000000000001
 20
354.9999999999999
 30
0.0
 11
725.6240440000003
 21
354.9999999999999
 31
0.0
  0
LINE
  5
2C4
  8
SIZE
  6
CONTINUOUS
 62
    30
 10
345.0000000000001
 20
-354.9999999999998
 30
0.0
 11
725.6240440000003
 21
-354.9999999999998
 31
0.0
  0
LINE
  5
2C5
  8
SIZE
  6
CONTINUOUS
 62
    30
 10
705.6240440000004
 20
342.9999999999999
 30
0.0
 11
705.6240440000004
 21
-342.9999999999998
 31
0.0
  0
CIRCLE
  5
2C6
  8
SIZE
  6
CONTINUOUS
 62
    30
 10
705.6240440000004
 20
354.9999999999999
 30
0.0
 40
6.0
  0
LINE
  5
2C7
  8
SIZE
  6
CONTINUOUS
 62
    30
 10
705.6240440000004
 20
354.9999999999999
 30
0.0
 11
705.6240440000004
 21
342.9999999999999
 31
0.0
  0
CIRCLE
  5
2C8
  8
SIZE
  6
CONTINUOUS
 62
    30
 10
705.6240440000004
 20
-354.9999999999998
 30
0.0
 40
6.0
  0
LINE
  5
2C9
  8
SIZE
  6
CONTINUOUS
 62
    30
 10
705.6240440000004
 20
-354.9999999999998
 30
0.0
 11
705.6240440000004
 21
-342.9999999999998
 31
0.0
  0
TEXT
  5
2CA
  8
SIZE
  6
CONTINUOUS
 62
    30
 10
680.6240440000004
 20
-82.28571428571429
 30
0.0
 40
64.0
  1
710
 50
90.0
 41
0.9
 72
     1
 11
680.6240440000004
 21
0.0
 31
0.0
  0
CIRCLE
  5
2CB
  8
DETAIL
  6
CONTINUOUS
 62
     5
 10
-324.9999999999997
 20
324.9999999999999
 30
0.0
 40
7.0
  0
CIRCLE
  5
2CC
  8
FIX
  6
CONTINUOUS
 62
    11
 39
50.0
 10
-324.9999999999997
 20
324.9999999999999
 30
0.0
 40
7.0
  0
LINE
  5
2CD
  8
SIZE
  6
CONTINUOUS
 62
    30
 10
305.0
 20
-19.99999999999998
 30
0.0
 11
305.0
 21
-545.3682059999998
 31
0.0
  0
LINE
  5
2CE
  8
SIZE
  6
CONTINUOUS
 62
    30
 10
-304.9999999999997
 20
-19.99999999999998
 30
0.0
 11
-304.9999999999997
 21
-545.3682059999998
 31
0.0
  0
LINE
  5
2CF
  8
SIZE
  6
CONTINUOUS
 62
    30
 10
292.9999999999999
 20
-525.3682059999996
 30
0.0
 11
-292.9999999999997
 21
-525.3682059999996
 31
0.0
  0
CIRCLE
  5
2D0
  8
SIZE
  6
CONTINUOUS
 62
    30
 10
305.0
 20
-525.3682059999996
 30
0.0
 40
6.0
  0
LINE
  5
2D1
  8
SIZE
  6
CONTINUOUS
 62
    30
 10
305.0
 20
-525.3682059999996
 30
0.0
 11
292.9999999999999
 21
-525.3682059999996
 31
0.0
  0
CIRCLE
  5
2D2
  8
SIZE
  6
CONTINUOUS
 62
    30
 10
-304.9999999999997
 20
-525.3682059999996
 30
0.0
 40
6.0
  0
LINE
  5
2D3
  8
SIZE
  6
CONTINUOUS
 62
    30
 10
-304.9999999999997
 20
-525.3682059999996
 30
0.0
 11
-292.9999999999997
 21
-525.3682059999996
 31
0.0
  0
TEXT
  5
2D4
  8
SIZE
  6
CONTINUOUS
 62
    30
 10
-106.9714285714286
 20
-500.3682059999997
 30
0.0
 40
64.0
  1
φ610
 41
0.9
 72
     1
 11
0.0
 21
-500.3682059999997
 31
0.0
  0
ARC
  5
2D5
  8
DETAIL
  6
CONTINUOUS
 62
     5
 10
-324.9999999999997
 20
324.9999999999999
 30
0.0
 40
30.0
 50
90.0
 51
180.0
  0
ARC
  5
2D6
  8
DETAIL
  6
CONTINUOUS
 62
     5
 10
-324.9999999999997
 20
-324.9999999999998
 30
0.0
 40
30.0
 50
180.0
 51
270.0
  0
ARC
  5
2D7
  8
DETAIL
  6
CONTINUOUS
 62
     5
 10
325.0
 20
-324.9999999999998
 30
0.0
 40
30.0
 50
270.0
 51
0.0
  0
ARC
  5
2D8
  8
DETAIL
  6
CONTINUOUS
 62
     5
 10
325.0
 20
324.9999999999999
 30
0.0
 40
30.0
 50
0.0
 51
90.0
  0
CIRCLE
  5
2D9
  8
FIX
  6
CONTINUOUS
 62
    11
 39
50.0
 10
325.0
 20
324.9999999999999
 30
0.0
 40
7.0
  0
CIRCLE
  5
2DA
  8
DETAIL
  6
CONTINUOUS
 62
     5
 10
325.0
 20
324.9999999999999
 30
0.0
 40
7.0
  0
LINE
  5
2DB
  8
NOTE
  6
CONTINUOUS
 62
     4
 10
325.0
 20
304.9999999999999
 30
0.0
 11
325.0
 21
344.9999999999999
 31
0.0
  0
LINE
  5
2DC
  8
NOTE
  6
CONTINUOUS
 62
     4
 10
345.0000000000001
 20
324.9999999999999
 30
0.0
 11
305.0
 21
324.9999999999999
 31
0.0
  0
CIRCLE
  5
2DD
  8
FIX
  6
CONTINUOUS
 62
    11
 39
50.0
 10
-324.9999999999997
 20
-324.9999999999998
 30
0.0
 40
7.0
  0
CIRCLE
  5
2DE
  8
DETAIL
  6
CONTINUOUS
 62
     5
 10
-324.9999999999997
 20
-324.9999999999998
 30
0.0
 40
7.0
  0
LINE
  5
2DF
  8
NOTE
  6
CONTINUOUS
 62
     4
 10
-324.9999999999997
 20
-304.9999999999998
 30
0.0
 11
-324.9999999999997
 21
-344.9999999999998
 31
0.0
  0
LINE
  5
2E0
  8
NOTE
  6
CONTINUOUS
 62
     4
 10
-344.9999999999997
 20
-324.9999999999998
 30
0.0
 11
-304.9999999999997
 21
-324.9999999999998
 31
0.0
  0
CIRCLE
  5
2E1
  8
FIX
  6
CONTINUOUS
 62
    11
 39
50.0
 10
325.0
 20
-324.9999999999998
 30
0.0
 40
7.0
  0
CIRCLE
  5
2E2
  8
DETAIL
  6
CONTINUOUS
 62
     5
 10
325.0
 20
-324.9999999999998
 30
0.0
 40
7.0
  0
LINE
  5
2E3
  8
NOTE
  6
CONTINUOUS
 62
     4
 10
325.0
 20
-304.9999999999998
 30
0.0
 11
325.0
 21
-344.9999999999998
 31
0.0
  0
LINE
  5
2E4
  8
NOTE
  6
CONTINUOUS
 62
     4
 10
345.0000000000001
 20
-324.9999999999998
 30
0.0
 11
305.0
 21
-324.9999999999998
 31
0.0
  0
CIRCLE
  5
2E5
  8
DETAIL
  6
CONTINUOUS
 62
     5
 10
0.0
 20
0.0
 30
0.0
 40
305.0
  0
ARC
  5
2E6
  8
OUTLINE
  6
CONTINUOUS
 62
     3
 10
-324.9999999999997
 20
324.9999999999999
 30
0.0
 40
30.0
 50
90.0
 51
180.0
  0
LINE
  5
2E7
  8
OUTLINE
  6
CONTINUOUS
 62
     3
 10
-354.9999999999996
 20
324.9999999999999
 30
0.0
 11
-354.9999999999996
 21
-324.9999999999998
 31
0.0
  0
LINE
  5
2E8
  8
OUTLINE
  6
CONTINUOUS
 62
     3
 10
-324.9999999999997
 20
354.9999999999999
 30
0.0
 11
325.0
 21
354.9999999999999
 31
0.0
  0
ARC
  5
2E9
  8
OUTLINE
  6
CONTINUOUS
 62
     3
 10
325.0
 20
324.9999999999999
 30
0.0
 40
30.0
 50
0.0
 51
90.0
  0
LINE
  5
2EA
  8
OUTLINE
  6
CONTINUOUS
 62
     3
 10
354.9999999999999
 20
324.9999999999999
 30
0.0
 11
354.9999999999999
 21
-324.9999999999998
 31
0.0
  0
ARC
  5
2EB
  8
OUTLINE
  6
CONTINUOUS
 62
     3
 10
325.0
 20
-324.9999999999998
 30
0.0
 40
30.0
 50
270.0
 51
0.0
  0
LINE
  5
2EC
  8
OUTLINE
  6
CONTINUOUS
 62
     3
 10
-324.9999999999997
 20
-354.9999999999998
 30
0.0
 11
325.0
 21
-354.9999999999998
 31
0.0
  0
ARC
  5
2ED
  8
OUTLINE
  6
CONTINUOUS
 62
     3
 10
-324.9999999999997
 20
-324.9999999999998
 30
0.0
 40
30.0
 50
180.0
 51
270.0
  0
LINE
  5
2EE
  8
DETAIL
  6
CONTINUOUS
 62
     5
 10
-96.59117999999988
 20
103.6109929999998
 30
0.0
 11
-215.5411979999999
 21
215.7938639999999
 31
0.0
  0
LINE
  5
2EF
  8
DETAIL
  6
CONTINUOUS
 62
     5
 10
-98.57959699999982
 20
112.4966459999999
 30
0.0
 11
-211.9053649999998
 21
219.3652579999999
 31
0.0
  0
LINE
  5
2F0
  8
DETAIL
  6
CONTINUOUS
 62
     5
 10
91.50067899999996
 20
105.8210759999998
 30
0.0
 11
211.900859
 21
219.3696100000001
 31
0.0
  0
LINE
  5
2F1
  8
DETAIL
  6
CONTINUOUS
 62
     5
 10
96.59117999999998
 20
103.6109929999998
 30
0.0
 11
215.5367440000001
 21
215.7983129999998
 31
0.0
  0
LINE
  5
2F2
  8
DETAIL
  6
CONTINUOUS
 62
     5
 10
94.99999999999997
 20
77.52870499999989
 30
0.0
 11
94.99999999999997
 21
99.95313199999988
 31
0.0
  0
LINE
  5
2F3
  8
DETAIL
  6
CONTINUOUS
 62
     5
 10
89.90950000000001
 20
79.4076259999999
 30
0.0
 11
89.90950000000001
 21
102.1632149999998
 31
0.0
  0
ARC
  5
2F4
  8
DETAIL
  6
CONTINUOUS
 62
     5
 10
99.99999999999997
 20
99.95313199999988
 30
0.0
 40
5.0
 50
132.981643
 51
180.0
  0
ARC
  5
2F5
  8
DETAIL
  6
CONTINUOUS
 62
     5
 10
94.90950000000001
 20
102.1632149999998
 30
0.0
 40
5.0
 50
132.9816529999998
 51
180.0
  0
ARC
  5
2F6
  8
DETAIL
  6
CONTINUOUS
 62
     5
 10
317.7922850000001
 20
203.9154259999998
 30
0.0
 40
426.289734
 50
169.622365
 51
206.42848
  0
ARC
  5
2F7
  8
DETAIL
  6
CONTINUOUS
 62
     5
 10
-98.57321599999986
 20
280.1648109999998
 30
0.0
 40
3.0
 50
109.383917
 51
169.6223650000001
  0
ARC
  5
2F8
  8
DETAIL
  6
CONTINUOUS
 62
     5
 10
198.082234
 20
211.9467819999999
 30
0.0
 40
9.9
 50
260.3189929999998
 51
46.93663700000007
  0
ARC
  5
2F9
  8
DETAIL
  6
CONTINUOUS
 62
     5
 10
171.406155
 20
55.57318700000003
 30
0.0
 40
148.73264
 50
80.318993
 51
177.751654
  0
ARC
  5
2FA
  8
DETAIL
  6
CONTINUOUS
 62
     5
 10
0.0
 20
0.0
 30
0.0
 40
300.0
 50
46.936637
 51
109.383917
  0
ARC
  5
2FB
  8
DETAIL
  6
CONTINUOUS
 62
     5
 10
72.53722399999998
 20
-345.9340509999998
 30
0.0
 40
386.55383
 50
54.53114600000001
 51
93.0725
  0
ARC
  5
2FC
  8
DETAIL
  6
CONTINUOUS
 62
     5
 10
-159.5809139999999
 20
-197.2014109999999
 30
0.0
 40
253.47222
 50
341.9806479999999
 51
36.178125
  0
ARC
  5
2FD
  8
DETAIL
  6
CONTINUOUS
 62
     5
 10
89.06663999999998
 20
-278.0847599999998
 30
0.0
 40
8.0
 50
161.9806480000001
 51
287.7595319999999
  0
ARC
  5
2FE
  8
DETAIL
  6
CONTINUOUS
 62
     5
 10
0.0
 20
0.0
 30
0.0
 40
300.0
 50
287.7595319999999
 51
353.5127089999999
  0
LINE
  5
2FF
  8
DETAIL
  6
CONTINUOUS
 62
     5
 10
211.796918
 20
-212.4666219999998
 30
0.0
 11
215.432792
 21
-215.9020889999999
 31
0.0
  0
LINE
  5
300
  8
DETAIL
  6
CONTINUOUS
 62
     5
 10
208.156169
 20
-216.0347409999999
 30
0.0
 11
211.794573
 21
-219.4722279999998
 31
0.0
  0
LINE
  5
301
  8
DETAIL
  6
CONTINUOUS
 62
     5
 10
-210.1874719999999
 20
-214.0589329999999
 30
0.0
 11
-213.7173969999998
 21
-217.6002619999998
 31
0.0
  0
LINE
  5
302
  8
DETAIL
  6
CONTINUOUS
 62
     5
 10
-213.7820209999998
 20
-210.4691129999999
 30
0.0
 11
-217.3122749999998
 21
-214.0102219999998
 31
0.0
  0
LINE
  5
303
  8
DETAIL
  6
CONTINUOUS
 62
     5
 10
-206.9625649999998
 20
-224.0345879999999
 30
0.0
 11
-203.4308179999999
 21
-220.4901409999999
 31
0.0
  0
ARC
  5
304
  8
DETAIL
  6
CONTINUOUS
 62
     5
 10
-216.2857699999997
 20
-3.674025999999984
 30
0.0
 40
223.9435049999999
 50
275.413268
 51
343.9759199999999
  0
ARC
  5
305
  8
DETAIL
  6
CONTINUOUS
 62
     5
 10
-126.5429909999999
 20
120.0665459999999
 30
0.0
 40
149.3598509999999
 50
193.289612
 51
294.8983039999999
  0
ARC
  5
306
  8
DETAIL
  6
CONTINUOUS
 62
     5
 10
-279.6888339999997
 20
83.8937179999999
 30
0.0
 40
8.0
 50
13.28961200000002
 51
163.303186
  0
ARC
  5
307
  8
DETAIL
  6
CONTINUOUS
 62
     5
 10
0.0
 20
0.0
 30
0.0
 40
300.0
 50
163.303186
 51
228.8483269999999
  0
LINE
  5
308
  8
DETAIL
  6
CONTINUOUS
 62
     5
 10
-94.99999999999987
 20
77.52870599999999
 30
0.0
 11
-94.99999999999987
 21
-25.92456599999997
 31
0.0
  0
ARC
  5
309
  8
DETAIL
  6
CONTINUOUS
 62
     5
 10
-0.0000019999999097
 20
-172.0164499999999
 30
0.0
 40
267.01645
 50
69.15853900000002
 51
84.06519600000001
  0
LINE
  5
30A
  8
DETAIL
  6
CONTINUOUS
 62
     5
 10
94.99999999999997
 20
77.52870499999989
 30
0.0
 11
94.99999999999997
 21
39.966567
 31
0.0
  0
ARC
  5
30B
  8
DETAIL
  6
CONTINUOUS
 62
     5
 10
-0.0000019999999097
 20
172.0164499999999
 30
0.0
 40
267.01645
 50
267.4895119999998
 51
284.811189
  0
CIRCLE
  5
30C
  8
DETAIL
  6
CONTINUOUS
 62
     5
 10
0.0
 20
0.0
 30
0.0
 40
65.5
  0
ARC
  5
30D
  8
DETAIL
  6
CONTINUOUS
 62
     5
 10
-195.4422139999998
 20
-223.6321559999999
 30
0.0
 40
3.0
 50
228.8483270000001
 51
275.4132679999998
  0
ARC
  5
30E
  8
DETAIL
  6
CONTINUOUS
 62
     5
 10
-0.0000019999999097
 20
-172.0164499999999
 30
0.0
 40
267.01645
 50
109.6770999999999
 51
110.84146
  0
ARC
  5
30F
  8
DETAIL
  6
CONTINUOUS
 62
     5
 10
295.098292
 20
-33.55589599999999
 30
0.0
 40
3.0
 50
353.5127089999996
 51
54.53114600000102
  0
LINE
  5
310
  8
SIZE
  6
CONTINUOUS
 62
    30
 10
-627.343146
 20
151.5246009999998
 30
0.0
 11
-303.2789559999997
 21
73.25213199999989
 31
0.0
  0
LINE
  5
311
  8
SIZE
  6
CONTINUOUS
 62
    30
 10
303.2789559999999
 20
-73.25213199999997
 30
0.0
 11
314.943531
 21
-76.06952199999998
 31
0.0
  0
TEXT
  5
312
  8
SIZE
  6
CONTINUOUS
 62
    30
 10
-603.8378545022953
 20
171.5661203547857
 30
0.0
 40
63.99999999999999
  1
φ600
 50
346.4212269999998
 41
0.9
 72
     1
 11
-499.8564859999996
 21
146.4511539999998
 31
0.0
  0
LINE
  5
313
  8
SIZE
  6
CONTINUOUS
 62
    30
 10
291.614381
 20
-70.43474199999997
 30
0.0
 11
-291.6143809999996
 21
70.43474199999999
 31
0.0
  0
CIRCLE
  5
314
  8
SIZE
  6
CONTINUOUS
 62
    30
 10
291.614381
 20
-70.43474199999997
 30
0.0
 40
6.0
  0
LINE
  5
315
  8
SIZE
  6
CONTINUOUS
 62
    30
 10
291.614381
 20
-70.43474199999997
 30
0.0
 11
303.2789559999999
 21
-73.25213199999997
 31
0.0
  0
CIRCLE
  5
316
  8
SIZE
  6
CONTINUOUS
 62
    30
 10
-291.6143809999996
 20
70.43474199999999
 30
0.0
 40
6.0
  0
LINE
  5
317
  8
SIZE
  6
CONTINUOUS
 62
    30
 10
-291.6143809999996
 20
70.43474199999999
 30
0.0
 11
-303.2789559999997
 21
73.25213199999989
 31
0.0
  0
TEXT
  5
318
  8
ETC
  6
CONTINUOUS
 62
    61
 10
590.3439338712142
 20
666.3738700644826
 30
0.0
 40
64.0
  1
EH-60DTB3_3
 41
0.9
  0
TEXT
  5
319
  8
ETC
  6
CONTINUOUS
 62
    61
 10
692.3593419575546
 20
490.1871608384454
 30
0.0
 40
50.0
  1
EH-60DTB3
 41
0.9
  0
TEXT
  5
31A
  8
ETC
  6
CONTINUOUS
 62
    61
 10
587.1360068712139
 20
566.3735890644828
 30
0.0
 40
64.0
  1
産業扇
 41
0.9
  0
TEXT
  5
31B
  8
ETC
  6
CONTINUOUS
 62
    61
 10
587.1360068712139
 20
566.3735890644828
 30
0.0
 40
64.0
  1
産業扇
 41
0.9
  0
ENDSEC
  0
EOF
