  0
SECTION
  2
HEADER
  9
$ACADVER
  1
AC1009
  9
$DWGCODEPAGE
  3
ansi_932
  9
$INSBASE
 10
0.0
 20
0.0
 30
0.0
  9
$EXTMIN
 10
-397.355563287674
 20
-426.7931439193924
 30
0.0
  9
$EXTMAX
 10
1310.839757334365
 20
838.3624172757029
 30
0.0
  9
$LIMMIN
 10
-2970.0
 20
-2100.0
  9
$LIMMAX
 10
2970.0
 20
2100.0
  9
$ORTHOMODE
 70
     0
  9
$REGENMODE
 70
     0
  9
$FILLMODE
 70
     1
  9
$QTEXTMODE
 70
     0
  9
$MIRRTEXT
 70
     0
  9
$DRAGMODE
 70
     2
  9
$LTSCALE
 40
20.0
  9
$OSMODE
 70
    37
  9
$ATTMODE
 70
     1
  9
$TEXTSIZE
 40
64.0
  9
$TRACEWID
 40
0.05
  9
$TEXTSTYLE
  7
STANDARD
  9
$CLAYER
  8
SIZE
  9
$CELTYPE
  6
CONTINUOUS
  9
$CECOLOR
 62
     8
  9
$DIMSCALE
 40
1.0
  9
$DIMASZ
 40
12.0
  9
$DIMEXO
 40
20.0
  9
$DIMDLI
 40
200.0
  9
$DIMRND
 40
0.0
  9
$DIMDLE
 40
0.0
  9
$DIMEXE
 40
20.0
  9
$DIMTP
 40
0.0
  9
$DIMTM
 40
0.0
  9
$DIMTXT
 40
64.0
  9
$DIMCEN
 40
0.09
  9
$DIMTSZ
 40
0.0
  9
$DIMTOL
 70
     0
  9
$DIMLIM
 70
     0
  9
$DIMTIH
 70
     0
  9
$DIMTOH
 70
     0
  9
$DIMSE1
 70
     0
  9
$DIMSE2
 70
     0
  9
$DIMTAD
 70
     1
  9
$DIMZIN
 70
     8
  9
$DIMBLK
  1
DOT1
  9
$DIMASO
 70
     1
  9
$DIMSHO
 70
     0
  9
$DIMPOST
  1

  9
$DIMAPOST
  1

  9
$DIMALT
 70
     0
  9
$DIMALTD
 70
     2
  9
$DIMALTF
 40
25.4
  9
$DIMLFAC
 40
1.0
  9
$DIMTOFL
 70
     1
  9
$DIMTVP
 40
0.0
  9
$DIMTIX
 70
     1
  9
$DIMSOXD
 70
     0
  9
$DIMSAH
 70
     1
  9
$DIMBLK1
  1
ORIGIN
  9
$DIMBLK2
  1
ORIGIN
  9
$DIMSTYLE
  2
STANDARD
  9
$DIMCLRD
 70
     0
  9
$DIMCLRE
 70
     0
  9
$DIMCLRT
 70
     0
  9
$DIMTFAC
 40
1.0
  9
$DIMGAP
 40
0.09
  9
$LUNITS
 70
     2
  9
$LUPREC
 70
     4
  9
$SKETCHINC
 40
0.1
  9
$FILLETRAD
 40
5.0
  9
$AUNITS
 70
     1
  9
$AUPREC
 70
     3
  9
$MENU
  1
ACAD
  9
$ELEVATION
 40
0.0
  9
$PELEVATION
 40
0.0
  9
$THICKNESS
 40
50.0
  9
$LIMCHECK
 70
     0
  9
$CHAMFERA
 40
0.0
  9
$CHAMFERB
 40
0.0
  9
$SKPOLY
 70
     0
  9
$TDCREATE
 40
2452310.657101389
  9
$TDUPDATE
 40
2457485.556294352
  9
$TDINDWG
 40
0.2273007292
  9
$TDUSRTIMER
 40
0.2273001968
  9
$USRTIMER
 70
     1
  9
$ANGBASE
 50
0.0
  9
$ANGDIR
 70
     0
  9
$PDMODE
 70
     3
  9
$PDSIZE
 40
-2.0
  9
$PLINEWID
 40
0.0
  9
$COORDS
 70
     1
  9
$SPLFRAME
 70
     0
  9
$SPLINETYPE
 70
     6
  9
$SPLINESEGS
 70
     8
  9
$ATTDIA
 70
     0
  9
$ATTREQ
 70
     1
  9
$HANDLING
 70
     1
  9
$HANDSEED
  5
533
  9
$SURFTAB1
 70
     6
  9
$SURFTAB2
 70
     6
  9
$SURFTYPE
 70
     6
  9
$SURFU
 70
     6
  9
$SURFV
 70
     6
  9
$UCSNAME
  2

  9
$UCSORG
 10
0.0
 20
0.0
 30
0.0
  9
$UCSXDIR
 10
1.0
 20
0.0
 30
0.0
  9
$UCSYDIR
 10
0.0
 20
1.0
 30
0.0
  9
$PUCSNAME
  2

  9
$PUCSORG
 10
0.0
 20
0.0
 30
0.0
  9
$PUCSXDIR
 10
1.0
 20
0.0
 30
0.0
  9
$PUCSYDIR
 10
0.0
 20
1.0
 30
0.0
  9
$USERI1
 70
     0
  9
$USERI2
 70
     0
  9
$USERI3
 70
     0
  9
$USERI4
 70
     0
  9
$USERI5
 70
     0
  9
$USERR1
 40
20.0
  9
$USERR2
 40
0.0
  9
$USERR3
 40
0.0
  9
$USERR4
 40
0.0
  9
$USERR5
 40
0.0
  9
$WORLDVIEW
 70
     1
  9
$SHADEDGE
 70
     3
  9
$SHADEDIF
 70
    70
  9
$TILEMODE
 70
     1
  9
$MAXACTVP
 70
    64
  9
$PLIMCHECK
 70
     0
  9
$PEXTMIN
 10
1.000000000000000E+20
 20
1.000000000000000E+20
 30
1.000000000000000E+20
  9
$PEXTMAX
 10
-1.000000000000000E+20
 20
-1.000000000000000E+20
 30
-1.000000000000000E+20
  9
$PLIMMIN
 10
0.0
 20
0.0
  9
$PLIMMAX
 10
12.0
 20
9.0
  9
$UNITMODE
 70
     0
  9
$VISRETAIN
 70
     1
  9
$PLINEGEN
 70
     0
  9
$PSLTSCALE
 70
     1
  0
ENDSEC
  0
SECTION
  2
TABLES
  0
TABLE
  2
VPORT
 70
     1
  0
VPORT
  2
*ACTIVE
 70
     0
 10
0.0
 20
0.0
 11
1.0
 21
1.0
 12
450.8995209089244
 22
202.4715443935813
 13
0.0
 23
0.0
 14
1.0
 24
1.0
 15
0.0
 25
0.0
 16
0.0
 26
0.0
 36
1.0
 17
0.0
 27
0.0
 37
0.0
 40
1698.341274585817
 41
1.493654822335025
 42
50.0
 43
0.0
 44
0.0
 50
0.0
 51
0.0
 71
     0
 72
   100
 73
     1
 74
     0
 75
     0
 76
     0
 77
     0
 78
     0
  0
ENDTAB
  0
TABLE
  2
LTYPE
 70
     2
  0
LTYPE
  2
CONTINUOUS
 70
     0
  3
実線
 72
    65
 73
     0
 40
0.0
  0
LTYPE
  2
DASHDOT
 70
     0
  3
____ _ ____ _ ____ _ ____ _ ____ _ ____ _ ____
 72
    65
 73
     4
 40
5.5
 49
4.0
 49
-0.6
 49
0.3
 49
-0.6
  0
ENDTAB
  0
TABLE
  2
LAYER
 70
    12
  0
LAYER
  2
0
 70
     0
 62
     7
  6
CONTINUOUS
  0
LAYER
  2
SIZE
 70
     0
 62
    30
  6
CONTINUOUS
  0
LAYER
  2
BASIS
 70
     0
 62
     6
  6
DASHDOT
  0
LAYER
  2
OUTLINE
 70
     0
 62
     3
  6
CONTINUOUS
  0
LAYER
  2
DETAIL
 70
     0
 62
     5
  6
CONTINUOUS
  0
LAYER
  2
ARRANGE
 70
     0
 62
     1
  6
CONTINUOUS
  0
LAYER
  2
DEFPOINTS
 70
     0
 62
     7
  6
CONTINUOUS
  0
LAYER
  2
ETC
 70
     0
 62
    61
  6
CONTINUOUS
  0
LAYER
  2
FIX
 70
     0
 62
    11
  6
CONTINUOUS
  0
LAYER
  2
NOTE
 70
     0
 62
     4
  6
CONTINUOUS
  0
LAYER
  2
SERVICESPACE
 70
     0
 62
     2
  6
DASHDOT
  0
LAYER
  2
SYMBOLLINE
 70
     0
 62
    15
  6
CONTINUOUS
  0
ENDTAB
  0
TABLE
  2
STYLE
 70
     1
  0
STYLE
  2
STANDARD
 70
     0
 40
64.0
 41
0.9
 50
0.0
 71
     0
 42
64.0
  3
SIMPLEX.shx
  4
BIGFONT.shx
  0
ENDTAB
  0
TABLE
  2
VIEW
 70
     1
  0
VIEW
  2
ALL
 70
     0
 40
4282.619807999997
 10
0.0
 20
41.30990399999999
 41
5940.0
 11
0.0
 21
0.0
 31
1.0
 12
0.0
 22
0.0
 32
0.0
 42
50.0
 43
0.0
 44
0.0
 50
0.0
 71
     0
  0
ENDTAB
  0
TABLE
  2
UCS
 70
     0
  0
ENDTAB
  0
TABLE
  2
APPID
 70
     1
  0
APPID
  2
ACAD
 70
     0
  0
ENDTAB
  0
TABLE
  2
DIMSTYLE
 70
     1
  0
DIMSTYLE
  2
STANDARD
 70
     0
  3

  4

  5

  6

  7

 40
1.0
 41
0.18
 42
0.0625
 43
0.38
 44
0.18
 45
0.0
 46
0.0
 47
0.0
 48
0.0
140
0.18
141
0.09
142
0.0
143
25.4
144
1.0
145
0.0
146
1.0
147
0.09
 71
     0
 72
     0
 73
     1
 74
     1
 75
     0
 76
     0
 77
     0
 78
     0
170
     0
171
     2
172
     0
173
     0
174
     0
175
     0
176
     0
177
     0
178
     0
  0
ENDTAB
  0
ENDSEC
  0
SECTION
  2
BLOCKS
  0
BLOCK
  8
0
  2
$MODEL_SPACE
 70
     0
 10
0.0
 20
0.0
 30
0.0
  3
$MODEL_SPACE
  1

  0
ENDBLK
  5
342
  8
0
  0
BLOCK
 67
     1
  8
0
  2
$PAPER_SPACE
 70
     0
 10
0.0
 20
0.0
 30
0.0
  3
$PAPER_SPACE
  1

  0
ENDBLK
  5
33E
 67
     1
  8
0
  0
BLOCK
  8
0
  2
DOT1
 70
     0
 10
0.0
 20
0.0
 30
0.0
  3
DOT1
  1

  0
CIRCLE
  5
35D
  8
SIZE
  6
CONTINUOUS
 62
     7
 10
0.0
 20
0.0
 30
0.0
 40
3.0
  0
ENDBLK
  5
35E
  8
0
  0
BLOCK
  8
0
  2
_ORIGIN
 70
     0
 10
0.0
 20
0.0
 30
0.0
  3
_ORIGIN
  1

  0
CIRCLE
  5
361
  8
0
  6
CONTINUOUS
 62
     7
 10
0.0
 20
0.0
 30
0.0
 40
0.5
  0
LINE
  5
362
  8
0
  6
CONTINUOUS
 62
     7
 10
0.0
 20
0.0
 30
0.0
 11
-1.0
 21
0.0
 31
0.0
  0
ENDBLK
  5
363
  8
0
  0
ENDSEC
  0
SECTION
  2
ENTITIES
  0
LINE
  5
364
  8
DETAIL
  6
CONTINUOUS
 62
     5
 10
0.0
 20
-354.9999999999999
 30
0.0
 11
0.0
 21
354.9999999999999
 31
0.0
  0
LINE
  5
365
  8
BASIS
  6
DASHDOT
 62
     6
 10
54.26140099999992
 20
0.0
 30
0.0
 11
-335.8014249999998
 21
0.0
 31
0.0
  0
LINE
  5
366
  8
DETAIL
  6
CONTINUOUS
 62
     5
 10
-20.0000000000002
 20
299.9999999999998
 30
0.0
 11
-179.4608339999999
 21
299.9999999999998
 31
0.0
  0
LINE
  5
367
  8
DETAIL
  6
CONTINUOUS
 62
     5
 10
-20.0000000000002
 20
-299.9999999999997
 30
0.0
 11
-179.4608339999999
 21
-299.9999999999997
 31
0.0
  0
LINE
  5
368
  8
DETAIL
  6
CONTINUOUS
 62
     5
 10
-10.0
 20
-347.9999999999997
 30
0.0
 11
-10.0
 21
-335.4999999999998
 31
0.0
  0
LINE
  5
369
  8
DETAIL
  6
CONTINUOUS
 62
     5
 10
-3.000000000000114
 20
-354.9999999999999
 30
0.0
 11
0.0
 21
-354.9999999999999
 31
0.0
  0
LINE
  5
36A
  8
DETAIL
  6
CONTINUOUS
 62
     5
 10
-3.000000000000114
 20
354.9999999999999
 30
0.0
 11
0.0
 21
354.9999999999999
 31
0.0
  0
LINE
  5
36B
  8
DETAIL
  6
CONTINUOUS
 62
     5
 10
-10.0
 20
-335.4999999999998
 30
0.0
 11
-10.0
 21
335.4999999999999
 31
0.0
  0
LINE
  5
36C
  8
DETAIL
  6
CONTINUOUS
 62
     5
 10
-10.0
 20
335.4999999999999
 30
0.0
 11
-10.0
 21
347.9999999999998
 31
0.0
  0
LINE
  5
36D
  8
DETAIL
  6
CONTINUOUS
 62
     5
 10
-221.4608339999999
 20
-90.0
 30
0.0
 11
-221.4608339999999
 21
0.0
 31
0.0
  0
LINE
  5
36E
  8
NOTE
  6
CONTINUOUS
 62
     4
 10
-20.0000000000002
 20
324.9999999999998
 30
0.0
 11
19.99999999999989
 21
324.9999999999998
 31
0.0
  0
LINE
  5
36F
  8
NOTE
  6
CONTINUOUS
 62
     4
 10
0.0
 20
344.9999999999999
 30
0.0
 11
0.0
 21
304.9999999999999
 31
0.0
  0
LINE
  5
370
  8
NOTE
  6
CONTINUOUS
 62
     4
 10
-20.0000000000002
 20
-324.9999999999998
 30
0.0
 11
19.99999999999989
 21
-324.9999999999998
 31
0.0
  0
LINE
  5
371
  8
NOTE
  6
CONTINUOUS
 62
     4
 10
0.0
 20
-304.9999999999997
 30
0.0
 11
0.0
 21
-344.9999999999997
 31
0.0
  0
LINE
  5
372
  8
DETAIL
  6
CONTINUOUS
 62
     5
 10
-20.0000000000002
 20
331.2857649999998
 30
0.0
 11
-10.0
 21
331.2857649999998
 31
0.0
  0
LINE
  5
373
  8
DETAIL
  6
CONTINUOUS
 62
     5
 10
-20.0000000000002
 20
-332.0540109999998
 30
0.0
 11
-10.0
 21
-332.0540109999998
 31
0.0
  0
LINE
  5
374
  8
DETAIL
  6
CONTINUOUS
 62
     5
 10
-221.4608339999999
 20
-90.0
 30
0.0
 11
-221.4608339999999
 21
-224.9999999999999
 31
0.0
  0
LINE
  5
375
  8
DETAIL
  6
CONTINUOUS
 62
     5
 10
-221.4608339999999
 20
0.0
 30
0.0
 11
-221.4608339999999
 21
224.9999999999998
 31
0.0
  0
LINE
  5
376
  8
DETAIL
  6
CONTINUOUS
 62
     5
 10
-20.0000000000002
 20
-332.0540109999998
 30
0.0
 11
-20.0000000000002
 21
331.2857649999998
 31
0.0
  0
ARC
  5
377
  8
DETAIL
  6
CONTINUOUS
 62
     5
 10
-3.000000000000114
 20
347.9999999999998
 30
0.0
 40
7.0
 50
90.0
 51
180.0
  0
ARC
  5
378
  8
DETAIL
  6
CONTINUOUS
 62
     5
 10
-3.000000000000114
 20
-347.9999999999997
 30
0.0
 40
7.0
 50
180.0
 51
270.0
  0
LINE
  5
379
  8
DETAIL
  6
CONTINUOUS
 62
     5
 10
-92.99999999999989
 20
-274.9999999999998
 30
0.0
 11
-92.99999999999989
 21
274.9999999999998
 31
0.0
  0
LINE
  5
37A
  8
DETAIL
  6
CONTINUOUS
 62
     5
 10
-92.99999999999989
 20
299.9999999999998
 30
0.0
 11
-92.99999999999989
 21
352.4999999999999
 31
0.0
  0
LINE
  5
37B
  8
DETAIL
  6
CONTINUOUS
 62
     5
 10
-92.99999999999989
 20
-299.9999999999997
 30
0.0
 11
-92.99999999999989
 21
-352.4999999999999
 31
0.0
  0
POINT
  5
37C
  8
ARRANGE
  6
CONTINUOUS
 62
     1
 10
0.0
 20
0.0
 30
0.0
  0
CIRCLE
  5
37D
  8
ARRANGE
  6
CONTINUOUS
 62
     1
 10
0.0
 20
0.0
 30
0.0
 40
40.0
  0
LINE
  5
37E
  8
SIZE
  6
CONTINUOUS
 62
    30
 10
0.0
 20
374.9999999999999
 30
0.0
 11
0.0
 21
448.537785
 31
0.0
  0
LINE
  5
37F
  8
SIZE
  6
CONTINUOUS
 62
    30
 10
-10.0
 20
367.9999999999999
 30
0.0
 11
-10.0
 21
448.537785
 31
0.0
  0
LINE
  5
380
  8
SIZE
  6
CONTINUOUS
 62
    30
 10
-22.00000000000009
 20
428.5377849999998
 30
0.0
 11
-33.99999999999989
 21
428.5377849999998
 31
0.0
  0
LINE
  5
381
  8
SIZE
  6
CONTINUOUS
 62
    30
 10
11.99999999999983
 20
428.5377849999998
 30
0.0
 11
156.2857139999999
 21
428.5377849999998
 31
0.0
  0
LINE
  5
382
  8
SIZE
  6
CONTINUOUS
 62
    30
 10
-10.0
 20
428.5377849999998
 30
0.0
 11
0.0
 21
428.5377849999998
 31
0.0
  0
CIRCLE
  5
383
  8
SIZE
  6
CONTINUOUS
 62
    30
 10
-10.0
 20
428.5377849999998
 30
0.0
 40
6.0
  0
LINE
  5
384
  8
SIZE
  6
CONTINUOUS
 62
    30
 10
-10.0
 20
428.5377849999998
 30
0.0
 11
-22.00000000000009
 21
428.5377849999998
 31
0.0
  0
CIRCLE
  5
385
  8
SIZE
  6
CONTINUOUS
 62
    30
 10
0.0
 20
428.5377849999998
 30
0.0
 40
6.0
  0
LINE
  5
386
  8
SIZE
  6
CONTINUOUS
 62
    30
 10
0.0
 20
428.5377849999998
 30
0.0
 11
11.99999999999983
 21
428.5377849999998
 31
0.0
  0
TEXT
  5
387
  8
SIZE
  6
CONTINUOUS
 62
    30
 10
31.17142842857136
 20
453.5377849999998
 30
0.0
 40
64.0
  1
10
 41
0.9
 72
     1
 11
90.14285699999994
 21
453.5377849999998
 31
0.0
  0
POINT
  5
388
  8
DEFPOINTS
  6
CONTINUOUS
 62
    30
 10
0.0
 20
354.9999999999999
 30
0.0
  0
POINT
  5
389
  8
DEFPOINTS
  6
CONTINUOUS
 62
    30
 10
-10.0
 20
347.9999999999998
 30
0.0
  0
POINT
  5
38A
  8
DEFPOINTS
  6
CONTINUOUS
 62
    30
 10
-10.0
 20
428.5377849999998
 30
0.0
  0
LINE
  5
38B
  8
SIZE
  6
CONTINUOUS
 62
    30
 10
0.0
 20
374.9999999999999
 30
0.0
 11
0.0
 21
577.9475309999997
 31
0.0
  0
LINE
  5
38C
  8
SIZE
  6
CONTINUOUS
 62
    30
 10
-99.99999999999989
 20
372.4999999999998
 30
0.0
 11
-99.99999999999989
 21
577.9475309999997
 31
0.0
  0
LINE
  5
38D
  8
SIZE
  6
CONTINUOUS
 62
    30
 10
-87.99999999999989
 20
557.9475309999996
 30
0.0
 11
-12.0
 21
557.9475309999996
 31
0.0
  0
LINE
  5
38E
  8
SIZE
  6
CONTINUOUS
 62
    30
 10
0.0
 20
557.9475309999996
 30
0.0
 11
199.1428569999998
 21
557.9475309999996
 31
0.0
  0
CIRCLE
  5
38F
  8
SIZE
  6
CONTINUOUS
 62
    30
 10
-99.99999999999989
 20
557.9475309999996
 30
0.0
 40
6.0
  0
LINE
  5
390
  8
SIZE
  6
CONTINUOUS
 62
    30
 10
-99.99999999999989
 20
557.9475309999996
 30
0.0
 11
-87.99999999999989
 21
557.9475309999996
 31
0.0
  0
CIRCLE
  5
391
  8
SIZE
  6
CONTINUOUS
 62
    30
 10
0.0
 20
557.9475309999996
 30
0.0
 40
6.0
  0
LINE
  5
392
  8
SIZE
  6
CONTINUOUS
 62
    30
 10
0.0
 20
557.9475309999996
 30
0.0
 11
-12.0
 21
557.9475309999996
 31
0.0
  0
TEXT
  5
393
  8
SIZE
  6
CONTINUOUS
 62
    30
 10
19.1714289999999
 20
582.9475309999996
 30
0.0
 40
64.0
  1
100
 41
0.9
 72
     1
 11
105.5714289999999
 21
582.9475309999996
 31
0.0
  0
POINT
  5
394
  8
DEFPOINTS
  6
CONTINUOUS
 62
    30
 10
0.0
 20
354.9999999999999
 30
0.0
  0
POINT
  5
395
  8
DEFPOINTS
  6
CONTINUOUS
 62
    30
 10
-99.99999999999989
 20
352.4999999999999
 30
0.0
  0
POINT
  5
396
  8
DEFPOINTS
  6
CONTINUOUS
 62
    30
 10
-99.99999999999989
 20
557.9475309999996
 30
0.0
  0
LINE
  5
397
  8
NOTE
  6
CONTINUOUS
 62
     4
 10
0.0
 20
-324.9999999999998
 30
0.0
 11
79.21065099999993
 21
-488.7781819999998
 31
0.0
  0
LINE
  5
398
  8
NOTE
  6
CONTINUOUS
 62
     4
 10
6.704563000000007
 20
-364.4341079999999
 30
0.0
 11
0.0
 21
-324.9999999999998
 31
0.0
  0
LINE
  5
399
  8
NOTE
  6
CONTINUOUS
 62
     4
 10
0.0
 20
-324.9999999999998
 30
0.0
 11
25.52337599999993
 21
-355.7986569999999
 31
0.0
  0
LINE
  5
39A
  8
SIZE
  6
CONTINUOUS
 62
    30
 10
40.0
 20
324.9999999999998
 30
0.0
 11
258.8216180000001
 21
324.9999999999998
 31
0.0
  0
LINE
  5
39B
  8
SIZE
  6
CONTINUOUS
 62
    30
 10
40.0
 20
-324.9999999999998
 30
0.0
 11
258.8216180000001
 21
-324.9999999999998
 31
0.0
  0
LINE
  5
39C
  8
SIZE
  6
CONTINUOUS
 62
    30
 10
238.8216179999999
 20
312.9999999999999
 30
0.0
 11
238.8216179999999
 21
-312.9999999999997
 31
0.0
  0
CIRCLE
  5
39D
  8
SIZE
  6
CONTINUOUS
 62
    30
 10
238.8216179999999
 20
324.9999999999998
 30
0.0
 40
6.0
  0
LINE
  5
39E
  8
SIZE
  6
CONTINUOUS
 62
    30
 10
238.8216179999999
 20
324.9999999999998
 30
0.0
 11
238.8216179999999
 21
312.9999999999999
 31
0.0
  0
CIRCLE
  5
39F
  8
SIZE
  6
CONTINUOUS
 62
    30
 10
238.8216179999999
 20
-324.9999999999998
 30
0.0
 40
6.0
  0
LINE
  5
3A0
  8
SIZE
  6
CONTINUOUS
 62
    30
 10
238.8216179999999
 20
-324.9999999999998
 30
0.0
 11
238.8216179999999
 21
-312.9999999999997
 31
0.0
  0
TEXT
  5
3A1
  8
SIZE
  6
CONTINUOUS
 62
    30
 10
213.821618
 20
-89.77480885714286
 30
0.0
 40
64.0
  1
650
 50
90.0
 41
0.9
 72
     1
 11
213.821618
 21
-6.117666
 31
0.0
  0
POINT
  5
3A2
  8
DEFPOINTS
  6
CONTINUOUS
 62
    30
 10
19.99999999999989
 20
324.9999999999998
 30
0.0
  0
POINT
  5
3A3
  8
DEFPOINTS
  6
CONTINUOUS
 62
    30
 10
19.99999999999989
 20
-324.9999999999998
 30
0.0
  0
POINT
  5
3A4
  8
DEFPOINTS
  6
CONTINUOUS
 62
    30
 10
238.8216179999999
 20
-324.9999999999998
 30
0.0
  0
LINE
  5
3A5
  8
SIZE
  6
CONTINUOUS
 62
    30
 10
19.99999999999989
 20
354.9999999999999
 30
0.0
 11
390.9011820000001
 21
354.9999999999999
 31
0.0
  0
LINE
  5
3A6
  8
SIZE
  6
CONTINUOUS
 62
    30
 10
19.99999999999989
 20
-354.9999999999999
 30
0.0
 11
390.9011820000001
 21
-354.9999999999999
 31
0.0
  0
LINE
  5
3A7
  8
SIZE
  6
CONTINUOUS
 62
    30
 10
370.9011819999999
 20
342.9999999999999
 30
0.0
 11
370.9011819999999
 21
-342.9999999999999
 31
0.0
  0
CIRCLE
  5
3A8
  8
SIZE
  6
CONTINUOUS
 62
    30
 10
370.9011819999999
 20
354.9999999999999
 30
0.0
 40
6.0
  0
LINE
  5
3A9
  8
SIZE
  6
CONTINUOUS
 62
    30
 10
370.9011819999999
 20
354.9999999999999
 30
0.0
 11
370.9011819999999
 21
342.9999999999999
 31
0.0
  0
CIRCLE
  5
3AA
  8
SIZE
  6
CONTINUOUS
 62
    30
 10
370.9011819999999
 20
-354.9999999999999
 30
0.0
 40
6.0
  0
LINE
  5
3AB
  8
SIZE
  6
CONTINUOUS
 62
    30
 10
370.9011819999999
 20
-354.9999999999999
 30
0.0
 11
370.9011819999999
 21
-342.9999999999999
 31
0.0
  0
TEXT
  5
3AC
  8
SIZE
  6
CONTINUOUS
 62
    30
 10
345.9011819999999
 20
-82.28571428571429
 30
0.0
 40
64.0
  1
710
 50
90.0
 41
0.9
 72
     1
 11
345.9011819999999
 21
0.0
 31
0.0
  0
POINT
  5
3AD
  8
DEFPOINTS
  6
CONTINUOUS
 62
    30
 10
0.0
 20
354.9999999999999
 30
0.0
  0
POINT
  5
3AE
  8
DEFPOINTS
  6
CONTINUOUS
 62
    30
 10
0.0
 20
-354.9999999999999
 30
0.0
  0
POINT
  5
3AF
  8
DEFPOINTS
  6
CONTINUOUS
 62
    30
 10
370.9011819999999
 20
-354.9999999999999
 30
0.0
  0
LINE
  5
3B0
  8
DETAIL
  6
CONTINUOUS
 62
     5
 10
-99.99999999999989
 20
299.9999999999998
 30
0.0
 11
-99.99999999999989
 21
352.4999999999999
 31
0.0
  0
LINE
  5
3B1
  8
DETAIL
  6
CONTINUOUS
 62
     5
 10
-99.99999999999989
 20
-274.9999999999998
 30
0.0
 11
-99.99999999999989
 21
274.9999999999998
 31
0.0
  0
LINE
  5
3B2
  8
DETAIL
  6
CONTINUOUS
 62
     5
 10
-99.99999999999989
 20
-299.9999999999997
 30
0.0
 11
-99.99999999999989
 21
-352.4999999999999
 31
0.0
  0
LINE
  5
3B3
  8
DETAIL
  6
CONTINUOUS
 62
     5
 10
-99.99999999999989
 20
352.4999999999999
 30
0.0
 11
-92.99999999999989
 21
352.4999999999999
 31
0.0
  0
LINE
  5
3B4
  8
DETAIL
  6
CONTINUOUS
 62
     5
 10
-99.99999999999989
 20
-352.4999999999999
 30
0.0
 11
-92.99999999999989
 21
-352.4999999999999
 31
0.0
  0
LINE
  5
3B5
  8
DETAIL
  6
CONTINUOUS
 62
     5
 10
-259.4608339999997
 20
92.5379499999998
 30
0.0
 11
-221.4608339999999
 21
92.5379499999998
 31
0.0
  0
LINE
  5
3B6
  8
SIZE
  6
CONTINUOUS
 62
    30
 10
-10.0
 20
367.9999999999999
 30
0.0
 11
-10.0
 21
448.537785
 31
0.0
  0
LINE
  5
3B7
  8
SIZE
  6
CONTINUOUS
 62
    30
 10
-20.0000000000002
 20
351.285765
 30
0.0
 11
-20.0000000000002
 21
448.537785
 31
0.0
  0
LINE
  5
3B8
  8
SIZE
  6
CONTINUOUS
 62
    30
 10
2.0
 20
428.5377849999998
 30
0.0
 11
13.99999999999983
 21
428.5377849999998
 31
0.0
  0
LINE
  5
3B9
  8
SIZE
  6
CONTINUOUS
 62
    30
 10
-31.99999999999989
 20
428.5377849999998
 30
0.0
 11
-255.2501839999999
 21
428.5377849999998
 31
0.0
  0
LINE
  5
3BA
  8
SIZE
  6
CONTINUOUS
 62
    30
 10
-10.0
 20
428.5377849999998
 30
0.0
 11
-20.0000000000002
 21
428.5377849999998
 31
0.0
  0
CIRCLE
  5
3BB
  8
SIZE
  6
CONTINUOUS
 62
    30
 10
-10.0
 20
428.5377849999998
 30
0.0
 40
6.0
  0
LINE
  5
3BC
  8
SIZE
  6
CONTINUOUS
 62
    30
 10
-10.0
 20
428.5377849999998
 30
0.0
 11
2.0
 21
428.5377849999998
 31
0.0
  0
CIRCLE
  5
3BD
  8
SIZE
  6
CONTINUOUS
 62
    30
 10
-20.0000000000002
 20
428.5377849999998
 30
0.0
 40
6.0
  0
LINE
  5
3BE
  8
SIZE
  6
CONTINUOUS
 62
    30
 10
-20.0000000000002
 20
428.5377849999998
 30
0.0
 11
-31.99999999999989
 21
428.5377849999998
 31
0.0
  0
TEXT
  5
3BF
  8
SIZE
  6
CONTINUOUS
 62
    30
 10
-248.0787545714285
 20
453.5377849999998
 30
0.0
 40
64.0
  1
10
 41
0.9
 72
     1
 11
-189.1073259999999
 21
453.5377849999998
 31
0.0
  0
POINT
  5
3C0
  8
DEFPOINTS
  6
CONTINUOUS
 62
    30
 10
-10.0
 20
347.9999999999998
 30
0.0
  0
POINT
  5
3C1
  8
DEFPOINTS
  6
CONTINUOUS
 62
    30
 10
-20.0000000000002
 20
331.2857649999998
 30
0.0
  0
POINT
  5
3C2
  8
DEFPOINTS
  6
CONTINUOUS
 62
    30
 10
-20.0000000000002
 20
428.5377849999998
 30
0.0
  0
TEXT
  5
3C3
  8
NOTE
  6
CONTINUOUS
 62
     4
 10
85.1487219999999
 20
-463.6786339999998
 30
0.0
 40
64.0
  1
4-φ14
 41
0.9
  0
LINE
  5
3C4
  8
NOTE
  6
CONTINUOUS
 62
     4
 10
393.772331
 20
-488.7781819999998
 30
0.0
 11
79.21065099999993
 21
-488.7781819999998
 31
0.0
  0
CIRCLE
  5
3C5
  8
FIX
  6
CONTINUOUS
 62
    11
 10
0.0
 20
-324.9999999999998
 30
0.0
 40
7.0
  0
CIRCLE
  5
3C6
  8
FIX
  6
CONTINUOUS
 62
    11
 10
0.0
 20
324.9999999999998
 30
0.0
 40
7.0
  0
LINE
  5
3C7
  8
SIZE
  6
CONTINUOUS
 62
    30
 10
-283.5099419999999
 20
65.5
 30
0.0
 11
-463.5072549999998
 21
65.5
 31
0.0
  0
LINE
  5
3C8
  8
SIZE
  6
CONTINUOUS
 62
    30
 10
-283.5099419999999
 20
-65.5
 30
0.0
 11
-463.5072549999998
 21
-65.5
 31
0.0
  0
LINE
  5
3C9
  8
SIZE
  6
CONTINUOUS
 62
    30
 10
-443.5072549999998
 20
53.49999999999999
 30
0.0
 11
-443.5072549999998
 21
-53.5
 31
0.0
  0
TEXT
  5
3CA
  8
SIZE
  6
CONTINUOUS
 62
    30
 10
-468.5072549999998
 20
-100.3498411428571
 30
0.0
 40
64.0
  1
φ131
 50
90.0
 41
0.9
 72
     1
 11
-468.5072549999998
 21
-1.60698399999999
 31
0.0
  0
CIRCLE
  5
3CB
  8
SIZE
  6
CONTINUOUS
 62
    30
 10
-443.5072549999998
 20
65.5
 30
0.0
 40
6.0
  0
LINE
  5
3CC
  8
SIZE
  6
CONTINUOUS
 62
    30
 10
-443.5072549999998
 20
65.5
 30
0.0
 11
-443.5072549999998
 21
53.49999999999999
 31
0.0
  0
CIRCLE
  5
3CD
  8
SIZE
  6
CONTINUOUS
 62
    30
 10
-443.5072549999998
 20
-65.5
 30
0.0
 40
6.0
  0
LINE
  5
3CE
  8
SIZE
  6
CONTINUOUS
 62
    30
 10
-443.5072549999998
 20
-65.5
 30
0.0
 11
-443.5072549999998
 21
-53.5
 31
0.0
  0
POINT
  5
3CF
  8
DEFPOINTS
  6
CONTINUOUS
 62
    30
 10
-263.5099419999999
 20
65.5
 30
0.0
  0
POINT
  5
3D0
  8
DEFPOINTS
  6
CONTINUOUS
 62
    30
 10
-263.5099419999999
 20
-65.5
 30
0.0
  0
POINT
  5
3D1
  8
DEFPOINTS
  6
CONTINUOUS
 62
    30
 10
-443.5072549999998
 20
-65.5
 30
0.0
  0
LINE
  5
3D2
  8
DETAIL
  6
CONTINUOUS
 62
     5
 10
-285.9999999999998
 20
-57.49999999999998
 30
0.0
 11
-285.9999999999998
 21
57.49999999999999
 31
0.0
  0
LINE
  5
3D3
  8
DETAIL
  6
CONTINUOUS
 62
     5
 10
-270.9999999999999
 20
-61.463131
 30
0.0
 11
-270.9999999999999
 21
61.463131
 31
0.0
  0
LINE
  5
3D4
  8
DETAIL
  6
CONTINUOUS
 62
     5
 10
-259.4517869999999
 20
-95.0
 30
0.0
 11
-263.5099419999999
 21
-95.0
 31
0.0
  0
LINE
  5
3D5
  8
DETAIL
  6
CONTINUOUS
 62
     5
 10
-259.4517869999999
 20
95.00093199999989
 30
0.0
 11
-263.5099419999999
 21
95.00093199999989
 31
0.0
  0
LINE
  5
3D6
  8
DETAIL
  6
CONTINUOUS
 62
     5
 10
-259.4608339999997
 20
219.9999999999999
 30
0.0
 11
-259.4608339999997
 21
-219.9999999999999
 31
0.0
  0
LINE
  5
3D7
  8
DETAIL
  6
CONTINUOUS
 62
     5
 10
-263.5099419999999
 20
65.5
 30
0.0
 11
-277.9999999999999
 21
65.5
 31
0.0
  0
LINE
  5
3D8
  8
DETAIL
  6
CONTINUOUS
 62
     5
 10
-263.5099419999999
 20
-65.5
 30
0.0
 11
-277.9999999999999
 21
-65.5
 31
0.0
  0
ARC
  5
3D9
  8
DETAIL
  6
CONTINUOUS
 62
     5
 10
-277.9999999999999
 20
57.49999999999999
 30
0.0
 40
8.0
 50
90.0
 51
180.0
  0
ARC
  5
3DA
  8
DETAIL
  6
CONTINUOUS
 62
     5
 10
-277.9999999999999
 20
-57.49999999999998
 30
0.0
 40
8.0
 50
180.0
 51
270.0
  0
LINE
  5
3DB
  8
DETAIL
  6
CONTINUOUS
 62
     5
 10
-20.0000000000002
 20
274.9999999999998
 30
0.0
 11
-171.4608339999999
 21
274.9999999999998
 31
0.0
  0
LINE
  5
3DC
  8
DETAIL
  6
CONTINUOUS
 62
     5
 10
-20.0000000000002
 20
-274.9999999999998
 30
0.0
 11
-171.4608339999999
 21
-274.9999999999998
 31
0.0
  0
ARC
  5
3DD
  8
DETAIL
  6
CONTINUOUS
 62
     5
 10
-171.4608339999999
 20
224.9999999999998
 30
0.0
 40
50.0
 50
90.0
 51
180.0
  0
ARC
  5
3DE
  8
DETAIL
  6
CONTINUOUS
 62
     5
 10
-171.4608339999999
 20
-224.9999999999999
 30
0.0
 40
50.0
 50
180.0
 51
270.0
  0
ARC
  5
3DF
  8
DETAIL
  6
CONTINUOUS
 62
     5
 10
-179.4608339999999
 20
219.9999999999999
 30
0.0
 40
80.0
 50
90.0
 51
180.0
  0
ARC
  5
3E0
  8
DETAIL
  6
CONTINUOUS
 62
     5
 10
-179.4608339999999
 20
-219.9999999999999
 30
0.0
 40
80.0
 50
180.0
 51
270.0
  0
LINE
  5
3E1
  8
SIZE
  6
CONTINUOUS
 62
    30
 10
-114.9999999999999
 20
352.4999999999999
 30
0.0
 11
-593.1314079999997
 21
352.4999999999999
 31
0.0
  0
LINE
  5
3E2
  8
SIZE
  6
CONTINUOUS
 62
    30
 10
-114.9999999999999
 20
-352.4999999999999
 30
0.0
 11
-593.1314079999997
 21
-352.4999999999999
 31
0.0
  0
LINE
  5
3E3
  8
SIZE
  6
CONTINUOUS
 62
    30
 10
-573.1314079999997
 20
340.4999999999999
 30
0.0
 11
-573.1314079999997
 21
-340.4999999999998
 31
0.0
  0
CIRCLE
  5
3E4
  8
SIZE
  6
CONTINUOUS
 62
    30
 10
-573.1314079999997
 20
352.4999999999999
 30
0.0
 40
6.0
  0
LINE
  5
3E5
  8
SIZE
  6
CONTINUOUS
 62
    30
 10
-573.1314079999997
 20
352.4999999999999
 30
0.0
 11
-573.1314079999997
 21
340.4999999999999
 31
0.0
  0
CIRCLE
  5
3E6
  8
SIZE
  6
CONTINUOUS
 62
    30
 10
-573.1314079999997
 20
-352.4999999999999
 30
0.0
 40
6.0
  0
LINE
  5
3E7
  8
SIZE
  6
CONTINUOUS
 62
    30
 10
-573.1314079999997
 20
-352.4999999999999
 30
0.0
 11
-573.1314079999997
 21
-340.4999999999998
 31
0.0
  0
TEXT
  5
3E8
  8
SIZE
  6
CONTINUOUS
 62
    30
 10
-598.1314079999997
 20
-106.9714285714286
 30
0.0
 40
64.0
  1
φ705
 50
90.0
 41
0.9
 72
     1
 11
-598.1314079999997
 21
0.0
 31
0.0
  0
POINT
  5
3E9
  8
DEFPOINTS
  6
CONTINUOUS
 62
    30
 10
-94.99999999999989
 20
352.4999999999999
 30
0.0
  0
POINT
  5
3EA
  8
DEFPOINTS
  6
CONTINUOUS
 62
    30
 10
-94.99999999999989
 20
-352.4999999999999
 30
0.0
  0
POINT
  5
3EB
  8
DEFPOINTS
  6
CONTINUOUS
 62
    30
 10
-573.1314079999997
 20
-352.4999999999999
 30
0.0
  0
ARC
  5
3EC
  8
DETAIL
  6
CONTINUOUS
 62
     5
 10
-51.94774099999998
 20
350.0323939999998
 30
0.0
 40
46.069328
 50
206.9885279999999
 51
280.6790029999999
  0
LINE
  5
3ED
  8
DETAIL
  6
CONTINUOUS
 62
     5
 10
-43.41079499999989
 20
304.7609509999998
 30
0.0
 11
-20.0000000000002
 21
307.6959409999999
 31
0.0
  0
ARC
  5
3EE
  8
DETAIL
  6
CONTINUOUS
 62
     5
 10
-51.94774099999998
 20
-350.032394
 30
0.0
 40
46.069328
 50
79.32099699999998
 51
153.011472
  0
LINE
  5
3EF
  8
DETAIL
  6
CONTINUOUS
 62
     5
 10
-43.41079499999989
 20
-304.7609509999998
 30
0.0
 11
-20.0000000000002
 21
-307.6959409999999
 31
0.0
  0
LINE
  5
3F0
  8
DETAIL
  6
CONTINUOUS
 62
     5
 10
-259.4608339999997
 20
-92.53794999999998
 30
0.0
 11
-221.4608339999999
 21
-92.53794999999998
 31
0.0
  0
LINE
  5
3F1
  8
DETAIL
  6
CONTINUOUS
 62
     5
 10
-263.5099419999999
 20
95.00093199999989
 30
0.0
 11
-263.5099419999999
 21
65.5
 31
0.0
  0
LINE
  5
3F2
  8
DETAIL
  6
CONTINUOUS
 62
     5
 10
-263.5099419999999
 20
65.5
 30
0.0
 11
-270.9999999999999
 21
61.463131
 31
0.0
  0
LINE
  5
3F3
  8
DETAIL
  6
CONTINUOUS
 62
     5
 10
-263.5099419999999
 20
-65.5
 30
0.0
 11
-270.9999999999999
 21
-61.463131
 31
0.0
  0
LINE
  5
3F4
  8
DETAIL
  6
CONTINUOUS
 62
     5
 10
-263.5099419999999
 20
-65.5
 30
0.0
 11
-263.5099419999999
 21
-95.0
 31
0.0
  0
LINE
  5
3F5
  8
SIZE
  6
CONTINUOUS
 62
    30
 10
0.0
 20
374.9999999999999
 30
0.0
 11
0.0
 21
674.6561009999999
 31
0.0
  0
LINE
  5
3F6
  8
SIZE
  6
CONTINUOUS
 62
    30
 10
-285.9999999999998
 20
77.5
 30
0.0
 11
-285.9999999999998
 21
674.6561009999999
 31
0.0
  0
LINE
  5
3F7
  8
SIZE
  6
CONTINUOUS
 62
    30
 10
-12.0
 20
654.6561009999999
 30
0.0
 11
-273.9999999999999
 21
654.6561009999999
 31
0.0
  0
CIRCLE
  5
3F8
  8
SIZE
  6
CONTINUOUS
 62
    30
 10
0.0
 20
654.6561009999999
 30
0.0
 40
6.0
  0
LINE
  5
3F9
  8
SIZE
  6
CONTINUOUS
 62
    30
 10
0.0
 20
654.6561009999999
 30
0.0
 11
-12.0
 21
654.6561009999999
 31
0.0
  0
CIRCLE
  5
3FA
  8
SIZE
  6
CONTINUOUS
 62
    30
 10
-285.9999999999998
 20
654.6561009999999
 30
0.0
 40
6.0
  0
LINE
  5
3FB
  8
SIZE
  6
CONTINUOUS
 62
    30
 10
-285.9999999999998
 20
654.6561009999999
 30
0.0
 11
-273.9999999999999
 21
654.6561009999999
 31
0.0
  0
TEXT
  5
3FC
  8
SIZE
  6
CONTINUOUS
 62
    30
 10
-225.2857142857142
 20
679.6561009999999
 30
0.0
 40
64.0
  1
286
 41
0.9
 72
     1
 11
-142.9999999999999
 21
679.6561009999999
 31
0.0
  0
POINT
  5
3FD
  8
DEFPOINTS
  6
CONTINUOUS
 62
    30
 10
0.0
 20
354.9999999999999
 30
0.0
  0
POINT
  5
3FE
  8
DEFPOINTS
  6
CONTINUOUS
 62
    30
 10
-285.9999999999998
 20
57.49999999999999
 30
0.0
  0
POINT
  5
3FF
  8
DEFPOINTS
  6
CONTINUOUS
 62
    30
 10
-285.9999999999998
 20
654.6561009999999
 30
0.0
  0
LINE
  5
400
  8
OUTLINE
  6
CONTINUOUS
 62
     3
 10
-285.9999999999998
 20
-57.49999999999998
 30
0.0
 11
-285.9999999999998
 21
57.49999999999999
 31
0.0
  0
LINE
  5
401
  8
OUTLINE
  6
CONTINUOUS
 62
     3
 10
-270.9999999999999
 20
-61.463131
 30
0.0
 11
-270.9999999999999
 21
61.463131
 31
0.0
  0
LINE
  5
402
  8
OUTLINE
  6
CONTINUOUS
 62
     3
 10
-221.4608339999999
 20
0.0
 30
0.0
 11
-221.4608339999999
 21
224.9999999999998
 31
0.0
  0
LINE
  5
403
  8
OUTLINE
  6
CONTINUOUS
 62
     3
 10
-259.4608339999997
 20
219.9999999999999
 30
0.0
 11
-259.4608339999997
 21
-219.9999999999999
 31
0.0
  0
LINE
  5
404
  8
OUTLINE
  6
CONTINUOUS
 62
     3
 10
-99.99999999999989
 20
-274.9999999999998
 30
0.0
 11
-99.99999999999989
 21
274.9999999999998
 31
0.0
  0
LINE
  5
405
  8
OUTLINE
  6
CONTINUOUS
 62
     3
 10
-92.99999999999989
 20
-274.9999999999998
 30
0.0
 11
-92.99999999999989
 21
274.9999999999998
 31
0.0
  0
LINE
  5
406
  8
OUTLINE
  6
CONTINUOUS
 62
     3
 10
-20.0000000000002
 20
-332.0540109999998
 30
0.0
 11
-20.0000000000002
 21
331.2857649999998
 31
0.0
  0
LINE
  5
407
  8
OUTLINE
  6
CONTINUOUS
 62
     3
 10
-10.0
 20
-335.4999999999998
 30
0.0
 11
-10.0
 21
335.4999999999999
 31
0.0
  0
LINE
  5
408
  8
OUTLINE
  6
CONTINUOUS
 62
     3
 10
0.0
 20
-354.9999999999999
 30
0.0
 11
0.0
 21
354.9999999999999
 31
0.0
  0
ARC
  5
409
  8
OUTLINE
  6
CONTINUOUS
 62
     3
 10
-51.94774099999998
 20
-350.032394
 30
0.0
 40
46.069328
 50
79.32099699999998
 51
153.011472
  0
LINE
  5
40A
  8
OUTLINE
  6
CONTINUOUS
 62
     3
 10
-99.99999999999989
 20
-299.9999999999997
 30
0.0
 11
-99.99999999999989
 21
-352.4999999999999
 31
0.0
  0
LINE
  5
40B
  8
OUTLINE
  6
CONTINUOUS
 62
     3
 10
-92.99999999999989
 20
-299.9999999999997
 30
0.0
 11
-92.99999999999989
 21
-352.4999999999999
 31
0.0
  0
LINE
  5
40C
  8
OUTLINE
  6
CONTINUOUS
 62
     3
 10
-99.99999999999989
 20
-352.4999999999999
 30
0.0
 11
-92.99999999999989
 21
-352.4999999999999
 31
0.0
  0
LINE
  5
40D
  8
OUTLINE
  6
CONTINUOUS
 62
     3
 10
-10.0
 20
-347.9999999999997
 30
0.0
 11
-10.0
 21
-335.4999999999998
 31
0.0
  0
LINE
  5
40E
  8
OUTLINE
  6
CONTINUOUS
 62
     3
 10
-3.000000000000114
 20
-354.9999999999999
 30
0.0
 11
0.0
 21
-354.9999999999999
 31
0.0
  0
LINE
  5
40F
  8
OUTLINE
  6
CONTINUOUS
 62
     3
 10
-20.0000000000002
 20
-332.0540109999998
 30
0.0
 11
-10.0
 21
-332.0540109999998
 31
0.0
  0
ARC
  5
410
  8
OUTLINE
  6
CONTINUOUS
 62
     3
 10
-3.000000000000114
 20
-347.9999999999997
 30
0.0
 40
7.0
 50
180.0
 51
270.0
  0
LINE
  5
411
  8
OUTLINE
  6
CONTINUOUS
 62
     3
 10
-259.4608339999997
 20
-92.53794999999998
 30
0.0
 11
-221.4608339999999
 21
-92.53794999999998
 31
0.0
  0
ARC
  5
412
  8
OUTLINE
  6
CONTINUOUS
 62
     3
 10
-179.4608339999999
 20
-219.9999999999999
 30
0.0
 40
80.0
 50
180.0
 51
270.0
  0
LINE
  5
413
  8
OUTLINE
  6
CONTINUOUS
 62
     3
 10
-263.5099419999999
 20
-65.5
 30
0.0
 11
-263.5099419999999
 21
-95.0
 31
0.0
  0
LINE
  5
414
  8
OUTLINE
  6
CONTINUOUS
 62
     3
 10
-259.4517869999999
 20
-95.0
 30
0.0
 11
-263.5099419999999
 21
-95.0
 31
0.0
  0
LINE
  5
415
  8
OUTLINE
  6
CONTINUOUS
 62
     3
 10
-263.5099419999999
 20
-65.5
 30
0.0
 11
-277.9999999999999
 21
-65.5
 31
0.0
  0
ARC
  5
416
  8
OUTLINE
  6
CONTINUOUS
 62
     3
 10
-277.9999999999999
 20
-57.49999999999998
 30
0.0
 40
8.0
 50
180.0
 51
270.0
  0
LINE
  5
417
  8
OUTLINE
  6
CONTINUOUS
 62
     3
 10
-263.5099419999999
 20
-65.5
 30
0.0
 11
-270.9999999999999
 21
-61.463131
 31
0.0
  0
LINE
  5
418
  8
OUTLINE
  6
CONTINUOUS
 62
     3
 10
-221.4608339999999
 20
-90.0
 30
0.0
 11
-221.4608339999999
 21
-224.9999999999999
 31
0.0
  0
LINE
  5
419
  8
OUTLINE
  6
CONTINUOUS
 62
     3
 10
-20.0000000000002
 20
-274.9999999999998
 30
0.0
 11
-171.4608339999999
 21
-274.9999999999998
 31
0.0
  0
LINE
  5
41A
  8
OUTLINE
  6
CONTINUOUS
 62
     3
 10
-20.0000000000002
 20
-299.9999999999997
 30
0.0
 11
-179.4608339999999
 21
-299.9999999999997
 31
0.0
  0
ARC
  5
41B
  8
OUTLINE
  6
CONTINUOUS
 62
     3
 10
-171.4608339999999
 20
-224.9999999999999
 30
0.0
 40
50.0
 50
180.0
 51
270.0
  0
LINE
  5
41C
  8
OUTLINE
  6
CONTINUOUS
 62
     3
 10
-43.41079499999989
 20
-304.7609509999998
 30
0.0
 11
-20.0000000000002
 21
-307.6959409999999
 31
0.0
  0
LINE
  5
41D
  8
OUTLINE
  6
CONTINUOUS
 62
     3
 10
-221.4608339999999
 20
-90.0
 30
0.0
 11
-221.4608339999999
 21
0.0
 31
0.0
  0
ARC
  5
41E
  8
OUTLINE
  6
CONTINUOUS
 62
     3
 10
-51.94774099999998
 20
350.0323939999998
 30
0.0
 40
46.069328
 50
206.9885279999999
 51
280.6790029999999
  0
LINE
  5
41F
  8
OUTLINE
  6
CONTINUOUS
 62
     3
 10
-99.99999999999989
 20
299.9999999999998
 30
0.0
 11
-99.99999999999989
 21
352.4999999999999
 31
0.0
  0
LINE
  5
420
  8
OUTLINE
  6
CONTINUOUS
 62
     3
 10
-92.99999999999989
 20
299.9999999999998
 30
0.0
 11
-92.99999999999989
 21
352.4999999999999
 31
0.0
  0
LINE
  5
421
  8
OUTLINE
  6
CONTINUOUS
 62
     3
 10
-259.4608339999997
 20
92.5379499999998
 30
0.0
 11
-221.4608339999999
 21
92.5379499999998
 31
0.0
  0
ARC
  5
422
  8
OUTLINE
  6
CONTINUOUS
 62
     3
 10
-179.4608339999999
 20
219.9999999999999
 30
0.0
 40
80.0
 50
90.0
 51
180.0
  0
LINE
  5
423
  8
OUTLINE
  6
CONTINUOUS
 62
     3
 10
-263.5099419999999
 20
95.00093199999989
 30
0.0
 11
-263.5099419999999
 21
65.5
 31
0.0
  0
LINE
  5
424
  8
OUTLINE
  6
CONTINUOUS
 62
     3
 10
-263.5099419999999
 20
65.5
 30
0.0
 11
-277.9999999999999
 21
65.5
 31
0.0
  0
ARC
  5
425
  8
OUTLINE
  6
CONTINUOUS
 62
     3
 10
-277.9999999999999
 20
57.49999999999999
 30
0.0
 40
8.0
 50
90.0
 51
180.0
  0
LINE
  5
426
  8
OUTLINE
  6
CONTINUOUS
 62
     3
 10
-263.5099419999999
 20
65.5
 30
0.0
 11
-270.9999999999999
 21
61.463131
 31
0.0
  0
LINE
  5
427
  8
OUTLINE
  6
CONTINUOUS
 62
     3
 10
-259.4517869999999
 20
95.00093199999989
 30
0.0
 11
-263.5099419999999
 21
95.00093199999989
 31
0.0
  0
LINE
  5
428
  8
OUTLINE
  6
CONTINUOUS
 62
     3
 10
-20.0000000000002
 20
299.9999999999998
 30
0.0
 11
-179.4608339999999
 21
299.9999999999998
 31
0.0
  0
LINE
  5
429
  8
OUTLINE
  6
CONTINUOUS
 62
     3
 10
-20.0000000000002
 20
274.9999999999998
 30
0.0
 11
-171.4608339999999
 21
274.9999999999998
 31
0.0
  0
ARC
  5
42A
  8
OUTLINE
  6
CONTINUOUS
 62
     3
 10
-171.4608339999999
 20
224.9999999999998
 30
0.0
 40
50.0
 50
90.0
 51
180.0
  0
LINE
  5
42B
  8
OUTLINE
  6
CONTINUOUS
 62
     3
 10
-43.41079499999989
 20
304.7609509999998
 30
0.0
 11
-20.0000000000002
 21
307.6959409999999
 31
0.0
  0
LINE
  5
42C
  8
OUTLINE
  6
CONTINUOUS
 62
     3
 10
-99.99999999999989
 20
352.4999999999999
 30
0.0
 11
-92.99999999999989
 21
352.4999999999999
 31
0.0
  0
LINE
  5
42D
  8
OUTLINE
  6
CONTINUOUS
 62
     3
 10
-3.000000000000114
 20
354.9999999999999
 30
0.0
 11
0.0
 21
354.9999999999999
 31
0.0
  0
LINE
  5
42E
  8
OUTLINE
  6
CONTINUOUS
 62
     3
 10
-10.0
 20
335.4999999999999
 30
0.0
 11
-10.0
 21
347.9999999999998
 31
0.0
  0
LINE
  5
42F
  8
OUTLINE
  6
CONTINUOUS
 62
     3
 10
-20.0000000000002
 20
331.2857649999998
 30
0.0
 11
-10.0
 21
331.2857649999998
 31
0.0
  0
ARC
  5
430
  8
OUTLINE
  6
CONTINUOUS
 62
     3
 10
-3.000000000000114
 20
347.9999999999998
 30
0.0
 40
7.0
 50
90.0
 51
180.0
  0
ARC
  5
431
  8
DETAIL
  6
CONTINUOUS
 62
     5
 10
-87.4407459999999
 20
201.0429479999999
 30
0.0
 40
93.132537
 50
125.974936
 51
184.7293779999999
  0
ARC
  5
432
  8
DETAIL
  6
CONTINUOUS
 62
     5
 10
-340.4699929999999
 20
-48.70608900000001
 30
0.0
 40
301.540096
 50
37.11056399999999
 51
51.974195
  0
LINE
  5
433
  8
DETAIL
  6
CONTINUOUS
 62
     5
 10
-180.2561899999999
 20
193.3642159999999
 30
0.0
 11
-170.5795639999999
 21
193.3642159999999
 31
0.0
  0
ARC
  5
434
  8
DETAIL
  6
CONTINUOUS
 62
     5
 10
-170.5795639999999
 20
163.3642159999998
 30
0.0
 40
30.0
 50
58.07741300000002
 51
90.0
  0
ARC
  5
435
  8
DETAIL
  6
CONTINUOUS
 62
     5
 10
305.492328
 20
-296.4449589999998
 30
0.0
 40
481.395774
 50
147.386594
 51
177.0329369999998
  0
ARC
  5
436
  8
DETAIL
  6
CONTINUOUS
 62
     5
 10
99.09286699999979
 20
-313.2691369999997
 30
0.0
 40
277.5083169999999
 50
135.842724
 51
171.3488729999999
  0
ARC
  5
437
  8
DETAIL
  6
CONTINUOUS
 62
     5
 10
189.299921
 20
88.04074699999998
 30
0.0
 40
363.6750579999999
 50
215.937409
 51
217.298425
  0
ARC
  5
438
  8
DETAIL
  6
CONTINUOUS
 62
     5
 10
16.76646800000003
 20
143.4863979999999
 30
0.0
 40
209.311455
 50
230.750257
 51
236.092075
  0
LINE
  5
439
  8
DETAIL
  6
CONTINUOUS
 62
     5
 10
-111.6865640000001
 20
-15.0
 30
0.0
 11
-111.6865640000001
 21
15.00000000000001
 31
0.0
  0
LINE
  5
43A
  8
DETAIL
  6
CONTINUOUS
 62
     5
 10
-128.036144
 20
-55.49999999999998
 30
0.0
 11
-128.036144
 21
55.49999999999999
 31
0.0
  0
LINE
  5
43B
  8
DETAIL
  6
CONTINUOUS
 62
     5
 10
-171.7337389999999
 20
84.80060699999999
 30
0.0
 11
-171.7337389999999
 21
-84.80060699999999
 31
0.0
  0
LINE
  5
43C
  8
DETAIL
  6
CONTINUOUS
 62
     5
 10
-106.3319109999999
 20
-9.287289000000001
 30
0.0
 11
-106.3319109999999
 21
9.287289000000008
 31
0.0
  0
LINE
  5
43D
  8
DETAIL
  6
CONTINUOUS
 62
     5
 10
-214.301797
 20
-90.0
 30
0.0
 11
-214.301797
 21
90.0
 31
0.0
  0
LINE
  5
43E
  8
DETAIL
  6
CONTINUOUS
 62
     5
 10
-138.0361440000001
 20
-65.5
 30
0.0
 11
-171.7337389999999
 21
-65.5
 31
0.0
  0
ARC
  5
43F
  8
DETAIL
  6
CONTINUOUS
 62
     5
 10
-121.1835470000001
 20
-8.512239000000001
 30
0.0
 40
11.501467
 50
267.202624
 51
325.6614859999999
  0
LINE
  5
440
  8
DETAIL
  6
CONTINUOUS
 62
     5
 10
-121.7448649999999
 20
-20.0
 30
0.0
 11
-128.036144
 21
-20.0
 31
0.0
  0
ARC
  5
441
  8
DETAIL
  6
CONTINUOUS
 62
     5
 10
-138.0361440000001
 20
-55.49999999999998
 30
0.0
 40
10.0
 50
270.0
 51
0.0
  0
LINE
  5
442
  8
DETAIL
  6
CONTINUOUS
 62
     5
 10
-106.3319109999999
 20
-9.287289000000001
 30
0.0
 11
-99.99999999999989
 21
-10.956924
 31
0.0
  0
LINE
  5
443
  8
DETAIL
  6
CONTINUOUS
 62
     5
 10
-106.3319109999999
 20
-5.0
 30
0.0
 11
-111.6865640000001
 21
-5.0
 31
0.0
  0
LINE
  5
444
  8
DETAIL
  6
CONTINUOUS
 62
     5
 10
-106.3319109999999
 20
5.000000000000007
 30
0.0
 11
-111.6865640000001
 21
5.000000000000007
 31
0.0
  0
LINE
  5
445
  8
OUTLINE
  6
CONTINUOUS
 62
     3
 10
-221.4608339999999
 20
-90.0
 30
0.0
 11
-221.4608339999999
 21
0.0
 31
0.0
  0
LINE
  5
446
  8
DETAIL
  6
CONTINUOUS
 62
     5
 10
-221.4608339999999
 20
-90.0
 30
0.0
 11
-221.4608339999999
 21
0.0
 31
0.0
  0
LINE
  5
447
  8
DETAIL
  6
CONTINUOUS
 62
     5
 10
-214.301797
 20
-84.80060699999999
 30
0.0
 11
-171.7337389999999
 21
-84.80060699999999
 31
0.0
  0
LINE
  5
448
  8
DETAIL
  6
CONTINUOUS
 62
     5
 10
-214.301797
 20
-78.80060699999999
 30
0.0
 11
-171.7337389999999
 21
-78.80060699999999
 31
0.0
  0
ARC
  5
449
  8
DETAIL
  6
CONTINUOUS
 62
     5
 10
-219.301797
 20
-90.0
 30
0.0
 40
5.0
 50
270.0
 51
0.0
  0
LINE
  5
44A
  8
DETAIL
  6
CONTINUOUS
 62
     5
 10
-221.4608339999999
 20
-95.0
 30
0.0
 11
-219.301797
 21
-95.0
 31
0.0
  0
LINE
  5
44B
  8
DETAIL
  6
CONTINUOUS
 62
     5
 10
-214.301797
 20
-66.80060699999999
 30
0.0
 11
-171.7337389999999
 21
-66.80060699999999
 31
0.0
  0
LINE
  5
44C
  8
DETAIL
  6
CONTINUOUS
 62
     5
 10
-214.301797
 20
-54.80060699999998
 30
0.0
 11
-171.7337389999999
 21
-54.80060699999998
 31
0.0
  0
LINE
  5
44D
  8
DETAIL
  6
CONTINUOUS
 62
     5
 10
-214.301797
 20
-42.800607
 30
0.0
 11
-171.7337389999999
 21
-42.800607
 31
0.0
  0
LINE
  5
44E
  8
DETAIL
  6
CONTINUOUS
 62
     5
 10
-214.301797
 20
-54.80060699999998
 30
0.0
 11
-171.7337389999999
 21
-54.80060699999998
 31
0.0
  0
LINE
  5
44F
  8
DETAIL
  6
CONTINUOUS
 62
     5
 10
-214.301797
 20
-54.80060699999998
 30
0.0
 11
-171.7337389999999
 21
-54.80060699999998
 31
0.0
  0
LINE
  5
450
  8
DETAIL
  6
CONTINUOUS
 62
     5
 10
-214.301797
 20
-54.80060699999998
 30
0.0
 11
-171.7337389999999
 21
-54.80060699999998
 31
0.0
  0
LINE
  5
451
  8
DETAIL
  6
CONTINUOUS
 62
     5
 10
-214.301797
 20
-30.80060699999999
 30
0.0
 11
-171.7337389999999
 21
-30.80060699999999
 31
0.0
  0
LINE
  5
452
  8
DETAIL
  6
CONTINUOUS
 62
     5
 10
-214.301797
 20
-18.800607
 30
0.0
 11
-171.7337389999999
 21
-18.800607
 31
0.0
  0
LINE
  5
453
  8
DETAIL
  6
CONTINUOUS
 62
     5
 10
-214.301797
 20
-6.800606999999999
 30
0.0
 11
-171.7337389999999
 21
-6.800606999999999
 31
0.0
  0
LINE
  5
454
  8
DETAIL
  6
CONTINUOUS
 62
     5
 10
-138.0361440000001
 20
65.5
 30
0.0
 11
-171.7337389999999
 21
65.5
 31
0.0
  0
ARC
  5
455
  8
DETAIL
  6
CONTINUOUS
 62
     5
 10
-121.1835470000001
 20
8.512239000000001
 30
0.0
 40
11.501467
 50
34.33851399999995
 51
92.79737600000001
  0
LINE
  5
456
  8
DETAIL
  6
CONTINUOUS
 62
     5
 10
-121.7448649999999
 20
19.99999999999999
 30
0.0
 11
-128.036144
 21
19.99999999999999
 31
0.0
  0
ARC
  5
457
  8
DETAIL
  6
CONTINUOUS
 62
     5
 10
-138.0361440000001
 20
55.49999999999999
 30
0.0
 40
10.0
 50
0.0
 51
90.0
  0
LINE
  5
458
  8
DETAIL
  6
CONTINUOUS
 62
     5
 10
-106.3319109999999
 20
9.287289000000008
 30
0.0
 11
-99.99999999999989
 21
10.95692399999999
 31
0.0
  0
LINE
  5
459
  8
DETAIL
  6
CONTINUOUS
 62
     5
 10
-214.301797
 20
84.80060699999999
 30
0.0
 11
-171.7337389999999
 21
84.80060699999999
 31
0.0
  0
LINE
  5
45A
  8
DETAIL
  6
CONTINUOUS
 62
     5
 10
-214.301797
 20
78.80060699999999
 30
0.0
 11
-171.7337389999999
 21
78.80060699999999
 31
0.0
  0
LINE
  5
45B
  8
DETAIL
  6
CONTINUOUS
 62
     5
 10
-214.301797
 20
66.80060699999999
 30
0.0
 11
-171.7337389999999
 21
66.80060699999999
 31
0.0
  0
LINE
  5
45C
  8
DETAIL
  6
CONTINUOUS
 62
     5
 10
-214.301797
 20
54.80060699999999
 30
0.0
 11
-171.7337389999999
 21
54.80060699999999
 31
0.0
  0
LINE
  5
45D
  8
DETAIL
  6
CONTINUOUS
 62
     5
 10
-214.301797
 20
42.80060699999989
 30
0.0
 11
-171.7337389999999
 21
42.80060699999989
 31
0.0
  0
LINE
  5
45E
  8
DETAIL
  6
CONTINUOUS
 62
     5
 10
-214.301797
 20
30.80060700000001
 30
0.0
 11
-171.7337389999999
 21
30.80060700000001
 31
0.0
  0
LINE
  5
45F
  8
DETAIL
  6
CONTINUOUS
 62
     5
 10
-214.301797
 20
18.80060700000001
 30
0.0
 11
-171.7337389999999
 21
18.80060700000001
 31
0.0
  0
LINE
  5
460
  8
DETAIL
  6
CONTINUOUS
 62
     5
 10
-214.301797
 20
6.800606999999992
 30
0.0
 11
-171.7337389999999
 21
6.800606999999992
 31
0.0
  0
ARC
  5
461
  8
DETAIL
  6
CONTINUOUS
 62
     5
 10
-219.301797
 20
90.0
 30
0.0
 40
5.0
 50
0.0
 51
90.0
  0
LINE
  5
462
  8
DETAIL
  6
CONTINUOUS
 62
     5
 10
-221.4608339999999
 20
94.99999999999989
 30
0.0
 11
-219.301797
 21
94.99999999999989
 31
0.0
  0
ARC
  5
463
  8
DETAIL
  6
CONTINUOUS
 62
     5
 10
189.299921
 20
88.04074699999998
 30
0.0
 40
363.6750579999999
 50
204.9730629999999
 51
209.036952
  0
LINE
  5
464
  8
NOTE
  6
CONTINUOUS
 62
     4
 10
-240.7136009999998
 20
-479.4001669999998
 30
0.0
 11
-131.4958780000001
 21
-479.4001669999998
 31
0.0
  0
TEXT
  5
465
  8
NOTE
  6
CONTINUOUS
 62
     4
 10
-226.2427829999999
 20
-457.976174
 30
0.0
 40
64.0
  1
EL
 41
0.9
  0
LINE
  5
466
  8
NOTE
  6
CONTINUOUS
 62
     4
 10
-20.00000299999999
 20
-277.0000029999999
 30
0.0
 11
-131.4958780000001
 21
-479.4001669999998
 31
0.0
  0
LINE
  5
467
  8
NOTE
  6
CONTINUOUS
 62
     4
 10
-28.18285
 20
-316.1540709999998
 30
0.0
 11
-20.00000299999999
 21
-277.0000029999999
 31
0.0
  0
LINE
  5
468
  8
NOTE
  6
CONTINUOUS
 62
     4
 10
-20.00000299999999
 20
-277.0000029999999
 30
0.0
 11
-46.66359
 21
-306.8169969999998
 31
0.0
  0
LINE
  5
469
  8
NOTE
  6
CONTINUOUS
 62
     4
 10
-40.00000299999988
 20
-277.0000029999999
 30
0.0
 11
-0.0000030000002198
 21
-277.0000029999999
 31
0.0
  0
LINE
  5
46A
  8
NOTE
  6
CONTINUOUS
 62
     4
 10
-20.00000299999999
 20
-257.0000029999997
 30
0.0
 11
-20.00000299999999
 21
-297.0000029999998
 31
0.0
  0
TEXT
  5
46B
  8
ETC
  6
CONTINUOUS
 62
    61
 10
426.1781983363254
 20
712.3773791950948
 30
0.0
 40
64.0
  1
EH-60DTB3_4
 41
0.9
  0
TEXT
  5
46C
  8
ETC
  6
CONTINUOUS
 62
    61
 10
528.1936064226657
 20
536.1906699690578
 30
0.0
 40
50.0
  1
EH-60DTB3
 41
0.9
  0
TEXT
  5
46D
  8
ETC
  6
CONTINUOUS
 62
    61
 10
422.9702713363253
 20
612.3770981950948
 30
0.0
 40
64.0
  1
産業扇
 41
0.9
  0
TEXT
  5
46E
  8
ETC
  6
CONTINUOUS
 62
    61
 10
422.9702713363253
 20
612.3770981950948
 30
0.0
 40
64.0
  1
産業扇
 41
0.9
  0
ENDSEC
  0
EOF
