  0
SECTION
  2
HEADER
  9
$ACADVER
  1
AC1009
  9
$INSBASE
 10
0.0
 20
0.0
 30
0.0
  9
$EXTMIN
 10
-1026.466353536196
 20
-843.70421239140524
 30
-0.0015258207003583
  9
$EXTMAX
 10
1441.5847898828611
 20
1219.253548792625
 30
50.000000093132272
  9
$LIMMIN
 10
-2970.0
 20
-2100.0
  9
$LIMMAX
 10
2970.0
 20
2100.0
  9
$ORTHOMODE
 70
     0
  9
$REGENMODE
 70
     0
  9
$FILLMODE
 70
     1
  9
$QTEXTMODE
 70
     0
  9
$MIRRTEXT
 70
     0
  9
$DRAGMODE
 70
     2
  9
$LTSCALE
 40
20.0
  9
$OSMODE
 70
    37
  9
$ATTMODE
 70
     1
  9
$TEXTSIZE
 40
64.0
  9
$TRACEWID
 40
0.05
  9
$TEXTSTYLE
  7
STANDARD
  9
$CLAYER
  8
SIZE
  9
$CELTYPE
  6
CONTINUOUS
  9
$CECOLOR
 62
     8
  9
$DIMSCALE
 40
1.0
  9
$DIMASZ
 40
12.0
  9
$DIMEXO
 40
20.0
  9
$DIMDLI
 40
200.0
  9
$DIMRND
 40
0.0
  9
$DIMDLE
 40
0.0
  9
$DIMEXE
 40
20.0
  9
$DIMTP
 40
0.0
  9
$DIMTM
 40
0.0
  9
$DIMTXT
 40
64.0
  9
$DIMCEN
 40
0.09
  9
$DIMTSZ
 40
0.0
  9
$DIMTOL
 70
     0
  9
$DIMLIM
 70
     0
  9
$DIMTIH
 70
     0
  9
$DIMTOH
 70
     0
  9
$DIMSE1
 70
     0
  9
$DIMSE2
 70
     0
  9
$DIMTAD
 70
     1
  9
$DIMZIN
 70
     8
  9
$DIMBLK
  1
DOT1
  9
$DIMASO
 70
     1
  9
$DIMSHO
 70
     0
  9
$DIMPOST
  1

  9
$DIMAPOST
  1

  9
$DIMALT
 70
     0
  9
$DIMALTD
 70
     2
  9
$DIMALTF
 40
25.399999999999999
  9
$DIMLFAC
 40
1.0
  9
$DIMTOFL
 70
     1
  9
$DIMTVP
 40
0.0
  9
$DIMTIX
 70
     1
  9
$DIMSOXD
 70
     0
  9
$DIMSAH
 70
     1
  9
$DIMBLK1
  1
ORIGIN
  9
$DIMBLK2
  1
ORIGIN
  9
$DIMSTYLE
  2
STANDARD
  9
$DIMCLRD
 70
     0
  9
$DIMCLRE
 70
     0
  9
$DIMCLRT
 70
     0
  9
$DIMTFAC
 40
1.0
  9
$DIMGAP
 40
0.09
  9
$LUNITS
 70
     2
  9
$LUPREC
 70
     4
  9
$SKETCHINC
 40
0.1
  9
$FILLETRAD
 40
15.0
  9
$AUNITS
 70
     1
  9
$AUPREC
 70
     3
  9
$MENU
  1
ACAD
  9
$ELEVATION
 40
0.0
  9
$PELEVATION
 40
0.0
  9
$THICKNESS
 40
50.0
  9
$LIMCHECK
 70
     0
  9
$BLIPMODE
 70
     0
  9
$CHAMFERA
 40
0.0
  9
$CHAMFERB
 40
0.0
  9
$SKPOLY
 70
     0
  9
$TDCREATE
 40
2452310.657101389
  9
$TDUPDATE
 40
2454950.696819305
  9
$TDINDWG
 40
0.1081776389
  9
$TDUSRTIMER
 40
0.1081776389
  9
$USRTIMER
 70
     1
  9
$ANGBASE
 50
0.0
  9
$ANGDIR
 70
     0
  9
$PDMODE
 70
     3
  9
$PDSIZE
 40
-2.0
  9
$PLINEWID
 40
0.0
  9
$COORDS
 70
     0
  9
$SPLFRAME
 70
     0
  9
$SPLINETYPE
 70
     6
  9
$SPLINESEGS
 70
     8
  9
$ATTDIA
 70
     0
  9
$ATTREQ
 70
     1
  9
$HANDLING
 70
     1
  9
$HANDSEED
  5
1A7
  9
$SURFTAB1
 70
     6
  9
$SURFTAB2
 70
     6
  9
$SURFTYPE
 70
     6
  9
$SURFU
 70
     6
  9
$SURFV
 70
     6
  9
$UCSNAME
  2

  9
$UCSORG
 10
0.0
 20
0.0
 30
0.0
  9
$UCSXDIR
 10
1.0
 20
0.0
 30
0.0
  9
$UCSYDIR
 10
0.0
 20
1.0
 30
0.0
  9
$PUCSNAME
  2

  9
$PUCSORG
 10
0.0
 20
0.0
 30
0.0
  9
$PUCSXDIR
 10
1.0
 20
0.0
 30
0.0
  9
$PUCSYDIR
 10
0.0
 20
1.0
 30
0.0
  9
$USERI1
 70
     0
  9
$USERI2
 70
     0
  9
$USERI3
 70
     0
  9
$USERI4
 70
     0
  9
$USERI5
 70
     0
  9
$USERR1
 40
20.0
  9
$USERR2
 40
0.0
  9
$USERR3
 40
0.0
  9
$USERR4
 40
0.0
  9
$USERR5
 40
0.0
  9
$WORLDVIEW
 70
     1
  9
$SHADEDGE
 70
     3
  9
$SHADEDIF
 70
    70
  9
$TILEMODE
 70
     1
  9
$MAXACTVP
 70
    64
  9
$PLIMCHECK
 70
     0
  9
$PEXTMIN
 10
1.0000000000000000E+020
 20
1.0000000000000000E+020
 30
1.0000000000000000E+020
  9
$PEXTMAX
 10
-1.0000000000000000E+020
 20
-1.0000000000000000E+020
 30
-1.0000000000000000E+020
  9
$PLIMMIN
 10
0.0
 20
0.0
  9
$PLIMMAX
 10
12.0
 20
9.0
  9
$UNITMODE
 70
     0
  9
$VISRETAIN
 70
     1
  9
$PLINEGEN
 70
     0
  9
$PSLTSCALE
 70
     1
  0
ENDSEC
  0
SECTION
  2
TABLES
  0
TABLE
  2
VPORT
 70
     1
  0
VPORT
  2
*ACTIVE
 70
     0
 10
0.0
 20
0.0
 11
1.0
 21
1.0
 12
365.05289024344688
 22
198.32615143294609
 13
0.0
 23
0.0
 14
1.0
 24
1.0
 15
0.0
 25
0.0
 16
0.0
 26
0.0
 36
1.0
 17
0.0
 27
0.0
 37
0.0
 40
2336.882705211241
 41
1.3098995695839311
 42
50.0
 43
0.0
 44
0.0
 50
0.0
 51
0.0
 71
     0
 72
   100
 73
     1
 74
     0
 75
     0
 76
     0
 77
     0
 78
     0
  0
ENDTAB
  0
TABLE
  2
LTYPE
 70
     3
  0
LTYPE
  2
CONTINUOUS
 70
     0
  3
実線
 72
    65
 73
     0
 40
0.0
  0
LTYPE
  2
DASHDOT
 70
     0
  3
____ _ ____ _ ____ _ ____ _ ____ _ ____ _ ____
 72
    65
 73
     4
 40
5.5
 49
4.0
 49
-0.6
 49
0.3
 49
-0.6
  0
ENDTAB
  0
TABLE
  2
LAYER
 70
    12
  0
LAYER
  2
0
 70
     0
 62
     7
  6
CONTINUOUS
  0
LAYER
  2
SIZE
 70
     0
 62
    30
  6
CONTINUOUS
  0
LAYER
  2
BASIS
 70
     0
 62
     6
  6
DASHDOT
  0
LAYER
  2
OUTLINE
 70
     0
 62
     3
  6
CONTINUOUS
  0
LAYER
  2
DETAIL
 70
     0
 62
     5
  6
CONTINUOUS
  0
LAYER
  2
ARRANGE
 70
     0
 62
     1
  6
CONTINUOUS
  0
LAYER
  2
DEFPOINTS
 70
     0
 62
     7
  6
CONTINUOUS
  0
LAYER
  2
ETC
 70
     0
 62
    61
  6
CONTINUOUS
  0
LAYER
  2
FIX
 70
     0
 62
    11
  6
CONTINUOUS
  0
LAYER
  2
NOTE
 70
     0
 62
     4
  6
CONTINUOUS
  0
LAYER
  2
SERVICESPACE
 70
     0
 62
     2
  6
DASHDOT
  0
LAYER
  2
SYMBOLLINE
 70
     0
 62
    15
  6
CONTINUOUS
  0
ENDTAB
  0
TABLE
  2
STYLE
 70
     2
  0
STYLE
  2
STANDARD
 70
     0
 40
64.0
 41
0.9
 50
0.0
 71
     0
 42
64.0
  3
SIMPLEX.shx
  4
BIGFONT.shx
  0
STYLE
  2
ANNOTATIVE
 70
     0
 40
0.0
 41
1.0
 50
0.0
 71
     0
 42
0.2
  3
txt
  4

  0
ENDTAB
  0
TABLE
  2
VIEW
 70
     1
  0
VIEW
  2
ALL
 70
     0
 40
4282.6198079999986
 10
0.0
 20
41.309903999999989
 41
5940.0
 11
0.0
 21
0.0
 31
1.0
 12
0.0
 22
0.0
 32
0.0
 42
50.0
 43
0.0
 44
0.0
 50
0.0
 71
     0
  0
ENDTAB
  0
TABLE
  2
UCS
 70
     0
  0
ENDTAB
  0
TABLE
  2
APPID
 70
     4
  0
APPID
  2
ACAD
 70
     0
  0
APPID
  2
ACADANNOTATIVE
 70
     0
  0
APPID
  2
ACAD_MLEADERVER
 70
     0
  0
APPID
  2
ACAD_EXEMPT_FROM_CAD_STANDARDS
 70
     0
  0
ENDTAB
  0
TABLE
  2
DIMSTYLE
 70
     2
  0
DIMSTYLE
  2
STANDARD
 70
     0
  3

  4

  5

  6

  7

 40
1.0
 41
0.18
 42
0.0625
 43
0.38
 44
0.18
 45
0.0
 46
0.0
 47
0.0
 48
0.0
140
0.18
141
0.09
142
0.0
143
25.399999999999999
144
1.0
145
0.0
146
1.0
147
0.09
 71
     0
 72
     0
 73
     1
 74
     1
 75
     0
 76
     0
 77
     0
 78
     0
170
     0
171
     2
172
     0
173
     0
174
     0
175
     0
176
     0
177
     0
178
     0
  0
DIMSTYLE
  2
ANNOTATIVE
 70
     0
  3

  4

  5

  6

  7

 40
1.0
 41
0.18
 42
0.0625
 43
0.38
 44
0.18
 45
0.0
 46
0.0
 47
0.0
 48
0.0
140
0.18
141
0.09
142
0.0
143
25.399999999999999
144
1.0
145
0.0
146
1.0
147
0.09
 71
     0
 72
     0
 73
     1
 74
     1
 75
     0
 76
     0
 77
     0
 78
     0
170
     0
171
     2
172
     0
173
     0
174
     0
175
     0
176
     0
177
     0
178
     0
  0
ENDTAB
  0
ENDSEC
  0
SECTION
  2
BLOCKS
  0
BLOCK
  8
0
  2
$MODEL_SPACE
 70
     0
 10
0.0
 20
0.0
 30
0.0
  3
$MODEL_SPACE
  1

  0
ENDBLK
  5
76
  8
0
  0
BLOCK
 67
     1
  8
0
  2
$PAPER_SPACE
 70
     0
 10
0.0
 20
0.0
 30
0.0
  3
$PAPER_SPACE
  1

  0
ENDBLK
  5
72
 67
     1
  8
0
  0
BLOCK
  8
0
  2
DOT1
 70
     0
 10
0.0
 20
0.0
 30
0.0
  3
DOT1
  1

  0
CIRCLE
  5
8B
  8
SIZE
  6
CONTINUOUS
 62
     7
 10
0.0
 20
0.0
 30
0.0
 40
3.0
  0
ENDBLK
  5
8C
  8
0
  0
BLOCK
  8
0
  2
_ORIGIN
 70
     0
 10
0.0
 20
0.0
 30
0.0
  3
_ORIGIN
  1

  0
CIRCLE
  5
8F
  8
0
  6
CONTINUOUS
 62
     7
 10
0.0
 20
0.0
 30
0.0
 40
0.5
  0
LINE
  5
90
  8
0
  6
CONTINUOUS
 62
     7
 10
0.0
 20
0.0
 30
0.0
 11
-1.0
 21
0.0
 31
0.0
  0
ENDBLK
  5
91
  8
0
  0
ENDSEC
  0
SECTION
  2
ENTITIES
  0
LINE
  5
92
  8
BASIS
  6
DASHDOT
 62
     6
 10
0.0
 20
693.27605999999992
 30
0.0
 11
0.0
 21
-684.99800700000003
 31
0.0
  0
LINE
  5
93
  8
BASIS
  6
DASHDOT
 62
     6
 10
-699.32898599999987
 20
0.0
 30
0.0
 11
699.94710399999985
 21
0.0
 31
0.0
  0
TEXT
  5
94
  8
NOTE
  6
CONTINUOUS
 62
     4
 10
-973.059484
 20
699.02684999999985
 30
0.0
 40
64.0
  1
12-φ15
 41
0.9
  0
LINE
  5
95
  8
NOTE
  6
CONTINUOUS
 62
     4
 10
-979.59033399999998
 20
668.98881799999992
 30
0.0
 11
-636.95584599999995
 21
668.98881799999992
 31
0.0
  0
LINE
  5
96
  8
NOTE
  6
CONTINUOUS
 62
     4
 10
-530.0
 20
530.0
 30
0.0
 11
-636.95584599999995
 21
668.98881799999992
 31
0.0
  0
LINE
  5
97
  8
NOTE
  6
CONTINUOUS
 62
     4
 10
-561.95914500000003
 20
554.05437699999993
 30
0.0
 11
-530.0
 21
530.0
 31
0.0
  0
LINE
  5
98
  8
NOTE
  6
CONTINUOUS
 62
     4
 10
-530.0
 20
530.0
 30
0.0
 11
-545.65024200000005
 21
566.81127400000003
 31
0.0
  0
POINT
  5
9A
  8
ARRANGE
  6
CONTINUOUS
 62
     1
 10
0.0
 20
0.0
 30
0.0
  0
CIRCLE
  5
9B
  8
ARRANGE
  6
CONTINUOUS
 62
     1
 10
0.0
 20
0.0
 30
0.0
 40
40.0
  0
LINE
  5
9D
  8
DETAIL
  6
CONTINUOUS
 62
     5
 10
-565.0
 20
565.0
 30
0.0
 11
565.0
 21
565.0
 31
0.0
  0
LINE
  5
9E
  8
DETAIL
  6
CONTINUOUS
 62
     5
 10
-565.0
 20
-565.0
 30
0.0
 11
565.0
 21
-565.0
 31
0.0
  0
LINE
  5
9F
  8
DETAIL
  6
CONTINUOUS
 62
     5
 10
-565.0
 20
565.0
 30
0.0
 11
-565.0
 21
-565.0
 31
0.0
  0
LINE
  5
A0
  8
DETAIL
  6
CONTINUOUS
 62
     5
 10
565.0
 20
565.0
 30
0.0
 11
565.0
 21
-565.0
 31
0.0
  0
CIRCLE
  5
A1
  8
DETAIL
  6
CONTINUOUS
 62
     5
 10
-530.0
 20
530.0
 30
0.0
 40
7.5
  0
CIRCLE
  5
A2
  8
FIX
  6
CONTINUOUS
 62
    11
 39
50.0
 10
-530.0
 20
530.0
 30
0.0
 40
7.5
  0
LINE
  5
A3
  8
NOTE
  6
CONTINUOUS
 62
     4
 10
-530.0
 20
510.0
 30
0.0
 11
-530.0
 21
550.0
 31
0.0
  0
LINE
  5
A4
  8
NOTE
  6
CONTINUOUS
 62
     4
 10
-550.0
 20
530.0
 30
0.0
 11
-510.0
 21
530.0
 31
0.0
  0
CIRCLE
  5
A5
  8
FIX
  6
CONTINUOUS
 62
    11
 39
50.0
 10
-300.0
 20
530.0
 30
0.0
 40
7.5
  0
LINE
  5
A6
  8
NOTE
  6
CONTINUOUS
 62
     4
 10
-300.0
 20
510.0
 30
0.0
 11
-300.0
 21
550.0
 31
0.0
  0
LINE
  5
A7
  8
NOTE
  6
CONTINUOUS
 62
     4
 10
-320.0
 20
530.0
 30
0.0
 11
-280.0
 21
530.0
 31
0.0
  0
CIRCLE
  5
A8
  8
DETAIL
  6
CONTINUOUS
 62
     5
 10
-300.0
 20
530.0
 30
0.0
 40
7.5
  0
CIRCLE
  5
A9
  8
FIX
  6
CONTINUOUS
 62
    11
 39
50.0
 10
-530.0
 20
300.0
 30
0.0
 40
7.5
  0
LINE
  5
AA
  8
NOTE
  6
CONTINUOUS
 62
     4
 10
-530.0
 20
280.0
 30
0.0
 11
-530.0
 21
320.0
 31
0.0
  0
LINE
  5
AB
  8
NOTE
  6
CONTINUOUS
 62
     4
 10
-550.0
 20
300.0
 30
0.0
 11
-510.0
 21
300.0
 31
0.0
  0
CIRCLE
  5
AC
  8
DETAIL
  6
CONTINUOUS
 62
     5
 10
-530.0
 20
300.0
 30
0.0
 40
7.5
  0
CIRCLE
  5
AD
  8
FIX
  6
CONTINUOUS
 62
    11
 39
50.0
 10
530.0
 20
300.0
 30
0.0
 40
7.5
  0
CIRCLE
  5
AE
  8
FIX
  6
CONTINUOUS
 62
    11
 39
50.0
 10
300.0
 20
530.0
 30
0.0
 40
7.5
  0
CIRCLE
  5
AF
  8
FIX
  6
CONTINUOUS
 62
    11
 39
50.0
 10
530.0
 20
530.0
 30
0.0
 40
7.5
  0
LINE
  5
B0
  8
NOTE
  6
CONTINUOUS
 62
     4
 10
530.0
 20
280.0
 30
0.0
 11
530.0
 21
320.0
 31
0.0
  0
LINE
  5
B1
  8
NOTE
  6
CONTINUOUS
 62
     4
 10
550.0
 20
300.0
 30
0.0
 11
510.0
 21
300.0
 31
0.0
  0
CIRCLE
  5
B2
  8
DETAIL
  6
CONTINUOUS
 62
     5
 10
530.0
 20
300.0
 30
0.0
 40
7.5
  0
LINE
  5
B3
  8
NOTE
  6
CONTINUOUS
 62
     4
 10
530.0
 20
510.0
 30
0.0
 11
530.0
 21
550.0
 31
0.0
  0
LINE
  5
B4
  8
NOTE
  6
CONTINUOUS
 62
     4
 10
550.0
 20
530.0
 30
0.0
 11
510.0
 21
530.0
 31
0.0
  0
CIRCLE
  5
B5
  8
DETAIL
  6
CONTINUOUS
 62
     5
 10
530.0
 20
530.0
 30
0.0
 40
7.5
  0
LINE
  5
B6
  8
NOTE
  6
CONTINUOUS
 62
     4
 10
300.0
 20
510.0
 30
0.0
 11
300.0
 21
550.0
 31
0.0
  0
LINE
  5
B7
  8
NOTE
  6
CONTINUOUS
 62
     4
 10
320.0
 20
530.0
 30
0.0
 11
280.0
 21
530.0
 31
0.0
  0
CIRCLE
  5
B8
  8
DETAIL
  6
CONTINUOUS
 62
     5
 10
300.0
 20
530.0
 30
0.0
 40
7.5
  0
CIRCLE
  5
B9
  8
FIX
  6
CONTINUOUS
 62
    11
 39
50.0
 10
-530.0
 20
-300.0
 30
0.0
 40
7.5
  0
CIRCLE
  5
BA
  8
FIX
  6
CONTINUOUS
 62
    11
 39
50.0
 10
-300.0
 20
-530.0
 30
0.0
 40
7.5
  0
CIRCLE
  5
BB
  8
FIX
  6
CONTINUOUS
 62
    11
 39
50.0
 10
-530.0
 20
-530.0
 30
0.0
 40
7.5
  0
LINE
  5
BC
  8
NOTE
  6
CONTINUOUS
 62
     4
 10
-530.0
 20
-280.0
 30
0.0
 11
-530.0
 21
-320.0
 31
0.0
  0
LINE
  5
BD
  8
NOTE
  6
CONTINUOUS
 62
     4
 10
-550.0
 20
-300.0
 30
0.0
 11
-510.0
 21
-300.0
 31
0.0
  0
CIRCLE
  5
BE
  8
DETAIL
  6
CONTINUOUS
 62
     5
 10
-530.0
 20
-300.0
 30
0.0
 40
7.5
  0
LINE
  5
BF
  8
NOTE
  6
CONTINUOUS
 62
     4
 10
-530.0
 20
-510.0
 30
0.0
 11
-530.0
 21
-550.0
 31
0.0
  0
LINE
  5
C0
  8
NOTE
  6
CONTINUOUS
 62
     4
 10
-550.0
 20
-530.0
 30
0.0
 11
-510.0
 21
-530.0
 31
0.0
  0
CIRCLE
  5
C1
  8
DETAIL
  6
CONTINUOUS
 62
     5
 10
-530.0
 20
-530.0
 30
0.0
 40
7.5
  0
LINE
  5
C2
  8
NOTE
  6
CONTINUOUS
 62
     4
 10
-300.0
 20
-510.0
 30
0.0
 11
-300.0
 21
-550.0
 31
0.0
  0
LINE
  5
C3
  8
NOTE
  6
CONTINUOUS
 62
     4
 10
-320.0
 20
-530.0
 30
0.0
 11
-280.0
 21
-530.0
 31
0.0
  0
CIRCLE
  5
C4
  8
DETAIL
  6
CONTINUOUS
 62
     5
 10
-300.0
 20
-530.0
 30
0.0
 40
7.5
  0
CIRCLE
  5
C5
  8
FIX
  6
CONTINUOUS
 62
    11
 39
50.0
 10
530.0
 20
-530.0
 30
0.0
 40
7.5
  0
CIRCLE
  5
C6
  8
FIX
  6
CONTINUOUS
 62
    11
 39
50.0
 10
300.0
 20
-530.0
 30
0.0
 40
7.5
  0
CIRCLE
  5
C7
  8
FIX
  6
CONTINUOUS
 62
    11
 39
50.0
 10
530.0
 20
-300.0
 30
0.0
 40
7.5
  0
LINE
  5
C8
  8
NOTE
  6
CONTINUOUS
 62
     4
 10
300.0
 20
-510.0
 30
0.0
 11
300.0
 21
-550.0
 31
0.0
  0
LINE
  5
C9
  8
NOTE
  6
CONTINUOUS
 62
     4
 10
320.0
 20
-530.0
 30
0.0
 11
280.0
 21
-530.0
 31
0.0
  0
CIRCLE
  5
CA
  8
DETAIL
  6
CONTINUOUS
 62
     5
 10
300.0
 20
-530.0
 30
0.0
 40
7.5
  0
LINE
  5
CB
  8
NOTE
  6
CONTINUOUS
 62
     4
 10
530.0
 20
-280.0
 30
0.0
 11
530.0
 21
-320.0
 31
0.0
  0
LINE
  5
CC
  8
NOTE
  6
CONTINUOUS
 62
     4
 10
550.0
 20
-300.0
 30
0.0
 11
510.0
 21
-300.0
 31
0.0
  0
CIRCLE
  5
CD
  8
DETAIL
  6
CONTINUOUS
 62
     5
 10
530.0
 20
-300.0
 30
0.0
 40
7.5
  0
LINE
  5
CE
  8
NOTE
  6
CONTINUOUS
 62
     4
 10
530.0
 20
-510.0
 30
0.0
 11
530.0
 21
-550.0
 31
0.0
  0
LINE
  5
CF
  8
NOTE
  6
CONTINUOUS
 62
     4
 10
550.0
 20
-530.0
 30
0.0
 11
510.0
 21
-530.0
 31
0.0
  0
CIRCLE
  5
D0
  8
DETAIL
  6
CONTINUOUS
 62
     5
 10
530.0
 20
-530.0
 30
0.0
 40
7.5
  0
LINE
  5
D1
  8
SIZE
  6
CONTINUOUS
 62
    30
 10
300.0
 20
570.0
 30
0.0
 11
300.0
 21
768.63140099999998
 31
0.0
  0
LINE
  5
D2
  8
SIZE
  6
CONTINUOUS
 62
    30
 10
-300.0
 20
570.0
 30
0.0
 11
-300.0
 21
768.63140099999998
 31
0.0
  0
LINE
  5
D3
  8
SIZE
  6
CONTINUOUS
 62
    30
 10
288.0
 20
748.63140099999998
 30
0.0
 11
-288.0
 21
748.63140099999998
 31
0.0
  0
CIRCLE
  5
D4
  8
SIZE
  6
CONTINUOUS
 62
    30
 10
300.0
 20
748.63140099999998
 30
0.0
 40
6.0
  0
LINE
  5
D5
  8
SIZE
  6
CONTINUOUS
 62
    30
 10
300.0
 20
748.63140099999998
 30
0.0
 11
288.0
 21
748.63140099999998
 31
0.0
  0
CIRCLE
  5
D6
  8
SIZE
  6
CONTINUOUS
 62
    30
 10
-300.0
 20
748.63140099999998
 30
0.0
 40
6.0
  0
LINE
  5
D7
  8
SIZE
  6
CONTINUOUS
 62
    30
 10
-300.0
 20
748.63140099999998
 30
0.0
 11
-288.0
 21
748.63140099999998
 31
0.0
  0
TEXT
  5
D8
  8
SIZE
  6
CONTINUOUS
 62
    30
 10
-74.05714285714285
 20
773.63140099999998
 30
0.0
 40
64.0
  1
600
 41
0.9
 72
     1
 11
0.0
 21
773.63140099999998
 31
0.0
  0
POINT
  5
D9
  8
DEFPOINTS
  6
CONTINUOUS
 62
    30
 10
300.0
 20
550.0
 30
0.0
  0
POINT
  5
DA
  8
DEFPOINTS
  6
CONTINUOUS
 62
    30
 10
-300.0
 20
550.0
 30
0.0
  0
POINT
  5
DB
  8
DEFPOINTS
  6
CONTINUOUS
 62
    30
 10
-300.0
 20
748.63140099999998
 30
0.0
  0
LINE
  5
DC
  8
SIZE
  6
CONTINUOUS
 62
    30
 10
530.0
 20
570.0
 30
0.0
 11
530.0
 21
906.23267799999985
 31
0.0
  0
LINE
  5
DD
  8
SIZE
  6
CONTINUOUS
 62
    30
 10
-530.0
 20
570.0
 30
0.0
 11
-530.0
 21
906.23267799999985
 31
0.0
  0
LINE
  5
DE
  8
SIZE
  6
CONTINUOUS
 62
    30
 10
518.0
 20
886.23267799999996
 30
0.0
 11
-518.0
 21
886.23267799999996
 31
0.0
  0
CIRCLE
  5
DF
  8
SIZE
  6
CONTINUOUS
 62
    30
 10
530.0
 20
886.23267799999996
 30
0.0
 40
6.0
  0
LINE
  5
E0
  8
SIZE
  6
CONTINUOUS
 62
    30
 10
530.0
 20
886.23267799999996
 30
0.0
 11
518.0
 21
886.23267799999996
 31
0.0
  0
CIRCLE
  5
E1
  8
SIZE
  6
CONTINUOUS
 62
    30
 10
-530.0
 20
886.23267799999996
 30
0.0
 40
6.0
  0
LINE
  5
E2
  8
SIZE
  6
CONTINUOUS
 62
    30
 10
-530.0
 20
886.23267799999996
 30
0.0
 11
-518.0
 21
886.23267799999996
 31
0.0
  0
TEXT
  5
E3
  8
SIZE
  6
CONTINUOUS
 62
    30
 10
-96.000000000000014
 20
911.23267799999996
 30
0.0
 40
64.0
  1
1060
 41
0.9
 72
     1
 11
0.0
 21
911.23267799999996
 31
0.0
  0
POINT
  5
E4
  8
DEFPOINTS
  6
CONTINUOUS
 62
    30
 10
530.0
 20
550.0
 30
0.0
  0
POINT
  5
E5
  8
DEFPOINTS
  6
CONTINUOUS
 62
    30
 10
-530.0
 20
550.0
 30
0.0
  0
POINT
  5
E6
  8
DEFPOINTS
  6
CONTINUOUS
 62
    30
 10
-530.0
 20
886.23267799999996
 30
0.0
  0
LINE
  5
E7
  8
SIZE
  6
CONTINUOUS
 62
    30
 10
565.0
 20
585.0
 30
0.0
 11
565.0
 21
1035.2339999999999
 31
0.0
  0
LINE
  5
E8
  8
SIZE
  6
CONTINUOUS
 62
    30
 10
-565.0
 20
585.0
 30
0.0
 11
-565.0
 21
1035.2339999999999
 31
0.0
  0
LINE
  5
E9
  8
SIZE
  6
CONTINUOUS
 62
    30
 10
553.0
 20
1015.234
 30
0.0
 11
-553.0
 21
1015.234
 31
0.0
  0
CIRCLE
  5
EA
  8
SIZE
  6
CONTINUOUS
 62
    30
 10
565.0
 20
1015.234
 30
0.0
 40
6.0
  0
LINE
  5
EB
  8
SIZE
  6
CONTINUOUS
 62
    30
 10
565.0
 20
1015.234
 30
0.0
 11
553.0
 21
1015.234
 31
0.0
  0
CIRCLE
  5
EC
  8
SIZE
  6
CONTINUOUS
 62
    30
 10
-565.0
 20
1015.234
 30
0.0
 40
6.0
  0
LINE
  5
ED
  8
SIZE
  6
CONTINUOUS
 62
    30
 10
-565.0
 20
1015.234
 30
0.0
 11
-553.0
 21
1015.234
 31
0.0
  0
TEXT
  5
EE
  8
SIZE
  6
CONTINUOUS
 62
    30
 10
-90.514285714285705
 20
1040.2339999999999
 30
0.0
 40
64.0
  1
1130
 41
0.9
 72
     1
 11
0.0
 21
1040.2339999999999
 31
0.0
  0
POINT
  5
EF
  8
DEFPOINTS
  6
CONTINUOUS
 62
    30
 10
565.0
 20
565.0
 30
0.0
  0
POINT
  5
F0
  8
DEFPOINTS
  6
CONTINUOUS
 62
    30
 10
-565.0
 20
565.0
 30
0.0
  0
POINT
  5
F1
  8
DEFPOINTS
  6
CONTINUOUS
 62
    30
 10
-565.0
 20
1015.234
 30
0.0
  0
LINE
  5
F2
  8
SIZE
  6
CONTINUOUS
 62
    30
 10
570.0
 20
300.0
 30
0.0
 11
857.63808100000006
 21
300.0
 31
0.0
  0
LINE
  5
F3
  8
SIZE
  6
CONTINUOUS
 62
    30
 10
570.0
 20
-300.0
 30
0.0
 11
857.63808100000006
 21
-300.0
 31
0.0
  0
LINE
  5
F4
  8
SIZE
  6
CONTINUOUS
 62
    30
 10
837.63808099999983
 20
288.0
 30
0.0
 11
837.63808099999983
 21
-288.0
 31
0.0
  0
CIRCLE
  5
F5
  8
SIZE
  6
CONTINUOUS
 62
    30
 10
837.63808099999983
 20
300.0
 30
0.0
 40
6.0
  0
LINE
  5
F6
  8
SIZE
  6
CONTINUOUS
 62
    30
 10
837.63808099999983
 20
300.0
 30
0.0
 11
837.63808099999983
 21
288.0
 31
0.0
  0
CIRCLE
  5
F7
  8
SIZE
  6
CONTINUOUS
 62
    30
 10
837.63808099999983
 20
-300.0
 30
0.0
 40
6.0
  0
LINE
  5
F8
  8
SIZE
  6
CONTINUOUS
 62
    30
 10
837.63808099999983
 20
-300.0
 30
0.0
 11
837.63808099999983
 21
-288.0
 31
0.0
  0
TEXT
  5
F9
  8
SIZE
  6
CONTINUOUS
 62
    30
 10
812.63808099999983
 20
-74.05714285714285
 30
0.0
 40
64.0
  1
600
 50
90.0
 41
0.9
 72
     1
 11
812.63808099999983
 21
0.0
 31
0.0
  0
POINT
  5
FA
  8
DEFPOINTS
  6
CONTINUOUS
 62
    30
 10
550.0
 20
300.0
 30
0.0
  0
POINT
  5
FB
  8
DEFPOINTS
  6
CONTINUOUS
 62
    30
 10
550.0
 20
-300.0
 30
0.0
  0
POINT
  5
FC
  8
DEFPOINTS
  6
CONTINUOUS
 62
    30
 10
837.63808099999983
 20
-300.0
 30
0.0
  0
LINE
  5
FD
  8
SIZE
  6
CONTINUOUS
 62
    30
 10
570.0
 20
530.0
 30
0.0
 11
1003.952
 21
530.0
 31
0.0
  0
LINE
  5
FE
  8
SIZE
  6
CONTINUOUS
 62
    30
 10
570.0
 20
-530.0
 30
0.0
 11
1003.952
 21
-530.0
 31
0.0
  0
LINE
  5
FF
  8
SIZE
  6
CONTINUOUS
 62
    30
 10
983.95185600000002
 20
518.0
 30
0.0
 11
983.95185600000002
 21
-518.0
 31
0.0
  0
CIRCLE
  5
100
  8
SIZE
  6
CONTINUOUS
 62
    30
 10
983.95185600000002
 20
530.0
 30
0.0
 40
6.0
  0
LINE
  5
101
  8
SIZE
  6
CONTINUOUS
 62
    30
 10
983.95185600000002
 20
530.0
 30
0.0
 11
983.95185600000002
 21
518.0
 31
0.0
  0
CIRCLE
  5
102
  8
SIZE
  6
CONTINUOUS
 62
    30
 10
983.95185600000002
 20
-530.0
 30
0.0
 40
6.0
  0
LINE
  5
103
  8
SIZE
  6
CONTINUOUS
 62
    30
 10
983.95185600000002
 20
-530.0
 30
0.0
 11
983.95185600000002
 21
-518.0
 31
0.0
  0
TEXT
  5
104
  8
SIZE
  6
CONTINUOUS
 62
    30
 10
958.95185600000002
 20
-96.000000000000014
 30
0.0
 40
64.0
  1
1060
 50
90.0
 41
0.9
 72
     1
 11
958.95185600000002
 21
0.0
 31
0.0
  0
POINT
  5
105
  8
DEFPOINTS
  6
CONTINUOUS
 62
    30
 10
550.0
 20
530.0
 30
0.0
  0
POINT
  5
106
  8
DEFPOINTS
  6
CONTINUOUS
 62
    30
 10
550.0
 20
-530.0
 30
0.0
  0
POINT
  5
107
  8
DEFPOINTS
  6
CONTINUOUS
 62
    30
 10
983.95185600000002
 20
-530.0
 30
0.0
  0
LINE
  5
108
  8
SIZE
  6
CONTINUOUS
 62
    30
 10
585.0
 20
565.0
 30
0.0
 11
1150.2660000000001
 21
565.0
 31
0.0
  0
LINE
  5
109
  8
SIZE
  6
CONTINUOUS
 62
    30
 10
585.0
 20
-565.0
 30
0.0
 11
1150.2660000000001
 21
-565.0
 31
0.0
  0
LINE
  5
10A
  8
SIZE
  6
CONTINUOUS
 62
    30
 10
1130.2660000000001
 20
553.0
 30
0.0
 11
1130.2660000000001
 21
-553.0
 31
0.0
  0
CIRCLE
  5
10B
  8
SIZE
  6
CONTINUOUS
 62
    30
 10
1130.2660000000001
 20
565.0
 30
0.0
 40
6.0
  0
LINE
  5
10C
  8
SIZE
  6
CONTINUOUS
 62
    30
 10
1130.2660000000001
 20
565.0
 30
0.0
 11
1130.2660000000001
 21
553.0
 31
0.0
  0
CIRCLE
  5
10D
  8
SIZE
  6
CONTINUOUS
 62
    30
 10
1130.2660000000001
 20
-565.0
 30
0.0
 40
6.0
  0
LINE
  5
10E
  8
SIZE
  6
CONTINUOUS
 62
    30
 10
1130.2660000000001
 20
-565.0
 30
0.0
 11
1130.2660000000001
 21
-553.0
 31
0.0
  0
TEXT
  5
10F
  8
SIZE
  6
CONTINUOUS
 62
    30
 10
1105.2660000000001
 20
-90.514285714285705
 30
0.0
 40
64.0
  1
1130
 50
90.0
 41
0.9
 72
     1
 11
1105.2660000000001
 21
0.0
 31
0.0
  0
POINT
  5
110
  8
DEFPOINTS
  6
CONTINUOUS
 62
    30
 10
565.0
 20
565.0
 30
0.0
  0
POINT
  5
111
  8
DEFPOINTS
  6
CONTINUOUS
 62
    30
 10
565.0
 20
-565.0
 30
0.0
  0
POINT
  5
112
  8
DEFPOINTS
  6
CONTINUOUS
 62
    30
 10
1130.2660000000001
 20
-565.0
 30
0.0
  0
LINE
  5
113
  8
SIZE
  6
CONTINUOUS
 62
    30
 10
485.0
 20
-20.0
 30
0.0
 11
485.0
 21
-843.52083300000004
 31
0.0
  0
LINE
  5
114
  8
SIZE
  6
CONTINUOUS
 62
    30
 10
-485.0
 20
-20.0
 30
0.0
 11
-485.0
 21
-843.52083300000004
 31
0.0
  0
LINE
  5
115
  8
SIZE
  6
CONTINUOUS
 62
    30
 10
473.0
 20
-823.52083300000004
 30
0.0
 11
-473.0
 21
-823.52083300000004
 31
0.0
  0
CIRCLE
  5
116
  8
SIZE
  6
CONTINUOUS
 62
    30
 10
485.0
 20
-823.52083300000004
 30
0.0
 40
6.0
  0
LINE
  5
117
  8
SIZE
  6
CONTINUOUS
 62
    30
 10
485.0
 20
-823.52083300000004
 30
0.0
 11
473.0
 21
-823.52083300000004
 31
0.0
  0
CIRCLE
  5
118
  8
SIZE
  6
CONTINUOUS
 62
    30
 10
-485.0
 20
-823.52083300000004
 30
0.0
 40
6.0
  0
LINE
  5
119
  8
SIZE
  6
CONTINUOUS
 62
    30
 10
-485.0
 20
-823.52083300000004
 30
0.0
 11
-473.0
 21
-823.52083300000004
 31
0.0
  0
TEXT
  5
11A
  8
SIZE
  6
CONTINUOUS
 62
    30
 10
-114.3771428571428
 20
-798.52083300000004
 30
0.0
 40
64.0
  1
φ970
 41
0.9
 72
     1
 11
0.0
 21
-798.52083300000004
 31
0.0
  0
POINT
  5
11B
  8
DEFPOINTS
  6
CONTINUOUS
 62
    30
 10
485.0
 20
0.0
 30
0.0
  0
POINT
  5
11C
  8
DEFPOINTS
  6
CONTINUOUS
 62
    30
 10
-485.0
 20
0.0
 30
0.0
  0
POINT
  5
11D
  8
DEFPOINTS
  6
CONTINUOUS
 62
    30
 10
-485.0
 20
-823.52083300000004
 30
0.0
  0
LINE
  5
11E
  8
OUTLINE
  6
CONTINUOUS
 62
     3
 10
-565.0
 20
565.0
 30
0.0
 11
565.0
 21
565.0
 31
0.0
  0
LINE
  5
11F
  8
OUTLINE
  6
CONTINUOUS
 62
     3
 10
-565.0
 20
565.0
 30
0.0
 11
-565.0
 21
-565.0
 31
0.0
  0
LINE
  5
120
  8
OUTLINE
  6
CONTINUOUS
 62
     3
 10
-565.0
 20
-565.0
 30
0.0
 11
565.0
 21
-565.0
 31
0.0
  0
LINE
  5
121
  8
OUTLINE
  6
CONTINUOUS
 62
     3
 10
565.0
 20
565.0
 30
0.0
 11
565.0
 21
-565.0
 31
0.0
  0
CIRCLE
  5
122
  8
DETAIL
  6
CONTINUOUS
 62
     5
 10
0.0
 20
0.0
 30
0.0
 40
485.0
  0
CIRCLE
  5
123
  8
DETAIL
  6
CONTINUOUS
 62
     5
 10
0.0
 20
0.0
 30
0.0
 40
127.5
  0
ARC
  5
124
  8
DETAIL
  6
CONTINUOUS
 62
     5
 10
0.0
 20
0.0
 30
0.0
 40
475.0
 50
48.228513
 51
119.88979500000001
  0
LINE
  5
125
  8
DETAIL
  6
CONTINUOUS
 62
     5
 10
-327.51760000000002
 20
357.71108700000002
 30
0.0
 11
-253.97053399999999
 21
284.16426300000001
 31
0.0
  0
ARC
  5
126
  8
DETAIL
  6
CONTINUOUS
 62
     5
 10
-0.000244
 20
0.0
 30
0.0
 40
180.000013
 50
75.914365000000004
 51
128.18815499999999
  0
ARC
  5
127
  8
DETAIL
  6
CONTINUOUS
 62
     5
 10
-0.000244
 20
0.0
 30
0.0
 40
180.000013
 50
218.187882
 51
255.00019399999999
  0
ARC
  5
128
  8
DETAIL
  6
CONTINUOUS
 62
     5
 10
234.11012400000001
 20
-210.27839700000001
 30
0.0
 40
319.90230600000001
 50
41.351564999999987
 51
105.305762
  0
ARC
  5
129
  8
DETAIL
  6
CONTINUOUS
 62
     5
 10
0.0
 20
0.0
 30
0.0
 40
160.000012
 50
17.149547999999999
 51
28.614211999999998
  0
ARC
  5
12A
  8
DETAIL
  6
CONTINUOUS
 62
     5
 10
0.0
 20
0.0
 30
0.0
 40
475.0
 50
288.228476
 51
359.88975799999997
  0
LINE
  5
12B
  8
DETAIL
  6
CONTINUOUS
 62
     5
 10
327.51714399999997
 20
-357.71150399999999
 30
0.0
 11
320.43906399999997
 21
-350.63343600000002
 31
0.0
  0
LINE
  5
12C
  8
DETAIL
  6
CONTINUOUS
 62
     5
 10
357.71090099999998
 20
-327.51780400000001
 30
0.0
 11
350.63281499999999
 21
-320.43974300000002
 31
0.0
  0
ARC
  5
12D
  8
DETAIL
  6
CONTINUOUS
 62
     5
 10
471.99912599999988
 20
-0.908164
 30
0.0
 40
3.0
 50
359.88975799999997
 51
41.351564999999987
  0
ARC
  5
12E
  8
DETAIL
  6
CONTINUOUS
 62
     5
 10
-142.49268599999999
 20
-257.05098299999997
 30
0.0
 40
305.54293000000001
 50
328.974852
 51
32.100186999999998
  0
ARC
  5
12F
  8
DETAIL
  6
CONTINUOUS
 62
     5
 10
140.76315700000001
 20
-427.41751699999992
 30
0.0
 40
25.0
 50
148.974852
 51
288.228476
  0
LINE
  5
130
  8
DETAIL
  6
CONTINUOUS
 62
     5
 10
140.930722
 20
37.762734000000002
 30
0.0
 11
173.866332
 21
46.587659000000002
 31
0.0
  0
ARC
  5
131
  8
DETAIL
  6
CONTINUOUS
 62
     5
 10
-0.000244
 20
0.0
 30
0.0
 40
180.000013
 50
317.09582
 51
15.000279000000001
  0
LINE
  5
132
  8
DETAIL
  6
CONTINUOUS
 62
     5
 10
152.88589999999999
 20
47.178652
 30
0.0
 11
172.216533
 21
52.358402000000012
 31
0.0
  0
ARC
  5
133
  8
DETAIL
  6
CONTINUOUS
 62
     5
 10
-0.000244
 20
0.0
 30
0.0
 40
180.000013
 50
15.000279000000001
 51
16.910546
  0
ARC
  5
134
  8
DETAIL
  6
CONTINUOUS
 62
     5
 10
0.0
 20
0.0
 30
0.0
 40
160.000012
 50
257.14940799999999
 51
268.61428699999999
  0
LINE
  5
135
  8
DETAIL
  6
CONTINUOUS
 62
     5
 10
-35.585330999999996
 20
-155.99256500000001
 30
0.0
 11
-40.764835999999988
 21
-175.32325499999999
 31
0.0
  0
ARC
  5
136
  8
DETAIL
  6
CONTINUOUS
 62
     5
 10
-0.000244
 20
0.0
 30
0.0
 40
180.000013
 50
255.000303
 51
256.91057000000001
  0
LINE
  5
137
  8
DETAIL
  6
CONTINUOUS
 62
     5
 10
-38.82184500000001
 20
-144.889093
 30
0.0
 11
-46.586303999999991
 21
-173.86701600000001
 31
0.0
  0
LINE
  5
138
  8
DETAIL
  6
CONTINUOUS
 62
     5
 10
327.51753500000001
 20
357.71114599999999
 30
0.0
 11
320.046944
 21
350.24053099999998
 31
0.0
  0
LINE
  5
139
  8
DETAIL
  6
CONTINUOUS
 62
     5
 10
357.71086400000002
 20
327.51784300000003
 30
0.0
 11
120.083158
 21
89.889015000000001
 31
0.0
  0
ARC
  5
13A
  8
DETAIL
  6
CONTINUOUS
 62
     5
 10
293.85915199999999
 20
5.1233909999999998
 30
0.0
 40
305.54293000000001
 50
88.974912000000003
 51
137.82542599999999
  0
ARC
  5
13B
  8
DETAIL
  6
CONTINUOUS
 62
     5
 10
153.62525500000001
 20
83.808782999999991
 30
0.0
 40
14.999997
 50
95.306381999999999
 51
208.61435700000001
  0
ARC
  5
13C
  8
DETAIL
  6
CONTINUOUS
 62
     5
 10
299.77263500000009
 20
335.61341900000002
 30
0.0
 40
25.0
 50
268.97491200000002
 51
48.228513
  0
LINE
  5
13D
  8
DETAIL
  6
CONTINUOUS
 62
     5
 10
12.462577
 20
127.23130999999999
 30
0.0
 11
43.807251000000001
 21
174.5877679999999
 31
0.0
  0
LINE
  5
13E
  8
DETAIL
  6
CONTINUOUS
 62
     5
 10
43.807439999999993
 20
174.58779000000001
 30
0.0
 11
67.420286000000004
 21
210.26264499999999
 31
0.0
  0
ARC
  5
13F
  8
DETAIL
  6
CONTINUOUS
 62
     5
 10
0.0
 20
0.0
 30
0.0
 40
475.0
 50
168.22854899999999
 51
239.88975600000001
  0
ARC
  5
140
  8
DETAIL
  6
CONTINUOUS
 62
     5
 10
-151.366649
 20
251.92756900000001
 30
0.0
 40
305.54293000000001
 50
208.97492199999999
 51
257.825378
  0
LINE
  5
141
  8
DETAIL
  6
CONTINUOUS
 62
     5
 10
-357.71123599999999
 20
-327.51743699999997
 30
0.0
 11
-350.633172
 21
-320.43935199999999
 31
0.0
  0
LINE
  5
142
  8
DETAIL
  6
CONTINUOUS
 62
     5
 10
-327.51782500000002
 20
-357.71088099999997
 30
0.0
 11
-320.43976199999997
 21
-350.63279799999998
 31
0.0
  0
LINE
  5
143
  8
DETAIL
  6
CONTINUOUS
 62
     5
 10
-316.27924000000002
 20
-367.685249
 30
0.0
 11
-309.18782399999998
 21
-360.59380099999998
 31
0.0
  0
ARC
  5
144
  8
DETAIL
  6
CONTINUOUS
 62
     5
 10
-236.78607099999999
 20
-408.30914300000001
 30
0.0
 40
3.0
 50
239.88975600000001
 51
281.35160100000002
  0
ARC
  5
145
  8
DETAIL
  6
CONTINUOUS
 62
     5
 10
-0.000244
 20
0.0
 30
0.0
 40
180.000013
 50
195.91441299999991
 51
218.1879330000001
  0
LINE
  5
146
  8
DETAIL
  6
CONTINUOUS
 62
     5
 10
-116.416873
 20
-52.823278000000002
 30
0.0
 11
-215.79792800000001
 21
-46.744649000000003
 31
0.0
  0
ARC
  5
147
  8
DETAIL
  6
CONTINUOUS
 62
     5
 10
65.051152000000002
 20
307.88448299999999
 30
0.0
 40
319.90230600000001
 50
161.35158799999999
 51
184.25238400000001
  0
LINE
  5
148
  8
DETAIL
  6
CONTINUOUS
 62
     5
 10
-357.71107599999999
 20
327.51761099999999
 30
0.0
 11
-239.18038100000001
 21
208.98726600000001
 31
0.0
  0
ARC
  5
149
  8
DETAIL
  6
CONTINUOUS
 62
     5
 10
65.051152000000002
 20
307.88448299999999
 30
0.0
 40
319.90230600000001
 50
184.25228899999991
 51
225.305601
  0
ARC
  5
14A
  8
DETAIL
  6
CONTINUOUS
 62
     5
 10
0.0
 20
0.0
 30
0.0
 40
160.000012
 50
142.66862800000001
 51
148.61441099999999
  0
ARC
  5
14B
  8
DETAIL
  6
CONTINUOUS
 62
     5
 10
-440.53612299999998
 20
91.803730000000016
 30
0.0
 40
25.0
 50
28.974921999999999
 51
168.22854899999999
  0
ARC
  5
14C
  8
DETAIL
  6
CONTINUOUS
 62
     5
 10
-235.21332899999999
 20
409.2171669999999
 30
0.0
 40
3.0
 50
119.88979500000001
 51
161.35158799999999
  0
ARC
  5
14D
  8
DETAIL
  6
CONTINUOUS
 62
     5
 10
-299.16170399999999
 20
-97.606146999999993
 30
0.0
 40
319.90230600000001
 50
281.35160100000002
 51
345.30557499999998
  0
ARC
  5
14E
  8
DETAIL
  6
CONTINUOUS
 62
     5
 10
-4.2320089999999988
 20
-174.94883300000001
 30
0.0
 40
15.0
 50
345.30557499999998
 51
88.614287000000004
  0
CIRCLE
  5
14F
  8
DETAIL
  6
CONTINUOUS
 62
     5
 10
0.0
 20
0.0
 30
0.0
 40
150.0
  0
LINE
  5
150
  8
DETAIL
  6
CONTINUOUS
 62
     5
 10
-105.95459700000001
 20
106.17731999999999
 30
0.0
 11
-128.202967
 21
127.18573600000001
 31
0.0
  0
LINE
  5
151
  8
DETAIL
  6
CONTINUOUS
 62
     5
 10
-117.699505
 20
109.014191
 30
0.0
 11
-132.25033300000001
 21
122.75379
 31
0.0
  0
ARC
  5
152
  8
DETAIL
  6
CONTINUOUS
 62
     5
 10
2.6714919999999989
 20
3.606665
 30
0.0
 40
160.000012
 50
138.791718
 51
144.275937
  0
ARC
  5
153
  8
DETAIL
  6
CONTINUOUS
 62
     5
 10
2.671621
 20
3.6064569999999989
 30
0.0
 40
180.000013
 50
136.642448
 51
138.552716
  0
ARC
  5
154
  8
DETAIL
  6
CONTINUOUS
 62
     5
 10
-149.394327
 20
91.139118999999994
 30
0.0
 40
15.0
 50
225.305601
 51
328.6144109999999
  0
ARC
  5
155
  8
DETAIL
  6
CONTINUOUS
 62
     5
 10
-67.993130000000008
 20
73.06837800000001
 30
0.0
 40
80.956281000000004
 50
122.32697400000001
 51
138.050847
  0
LINE
  5
156
  8
DETAIL
  6
CONTINUOUS
 62
     5
 10
154.31374
 20
-184.5083909999999
 30
0.0
 11
89.888661999999997
 21
-120.083423
 31
0.0
  0
LINE
  5
157
  8
DETAIL
  6
CONTINUOUS
 62
     5
 10
-127.221802
 20
97.02901700000001
 30
0.0
 11
-120.08256799999999
 21
89.889803999999998
 31
0.0
  0
LINE
  5
158
  8
DETAIL
  6
CONTINUOUS
 62
     5
 10
280.165862
 20
310.35932500000001
 30
0.0
 11
89.889743999999993
 21
120.08261299999999
 31
0.0
  0
LINE
  5
159
  8
SIZE
  6
CONTINUOUS
 62
    30
 10
-1026.125
 20
213.83513099999999
 30
0.0
 11
-476.75798099999992
 21
99.352036000000012
 31
0.0
  0
LINE
  5
15A
  8
SIZE
  6
CONTINUOUS
 62
    30
 10
476.75798099999992
 20
-99.352036000000012
 30
0.0
 11
488.50561099999999
 21
-101.80013599999999
 31
0.0
  0
TEXT
  5
15B
  8
SIZE
  6
CONTINUOUS
 62
    30
 10
-1010.513431432713
 20
236.11886408421481
 30
0.0
 40
64.0
  1
φ950
 50
348.22856300000001
 41
0.9
 72
     1
 11
-898.54172999999992
 21
212.78500700000001
 31
0.0
  0
LINE
  5
15C
  8
SIZE
  6
CONTINUOUS
 62
    30
 10
465.01035200000001
 20
-96.903937000000013
 30
0.0
 11
-465.01035200000001
 21
96.903937000000013
 31
0.0
  0
CIRCLE
  5
15D
  8
SIZE
  6
CONTINUOUS
 62
    30
 10
465.01035200000001
 20
-96.903937000000013
 30
0.0
 40
6.0
  0
LINE
  5
15E
  8
SIZE
  6
CONTINUOUS
 62
    30
 10
465.01035200000001
 20
-96.903937000000013
 30
0.0
 11
476.75798200000003
 21
-99.352036000000012
 31
0.0
  0
CIRCLE
  5
15F
  8
SIZE
  6
CONTINUOUS
 62
    30
 10
-465.01035200000001
 20
96.903937000000013
 30
0.0
 40
6.0
  0
LINE
  5
160
  8
SIZE
  6
CONTINUOUS
 62
    30
 10
-465.01035200000001
 20
96.903937000000013
 30
0.0
 11
-476.75798200000003
 21
99.352036000000012
 31
0.0
  0
POINT
  5
161
  8
DEFPOINTS
  6
CONTINUOUS
 62
    30
 10
-465.01035200000001
 20
96.903937000000013
 30
0.0
  0
POINT
  5
162
  8
DEFPOINTS
  6
CONTINUOUS
 62
    30
 10
465.01035200000001
 20
-96.903937000000013
 30
0.0
  0
TEXT
  5
16A
  8
ETC
  6
CONTINUOUS
 62
    61
 10
837.27867200839205
 20
1055.2494208313451
 30
0.0
 40
64.0
  1
産業扇
 41
0.9
  0
TEXT
  5
16B
  8
ETC
  6
CONTINUOUS
 62
    61
 10
840.48659900839209
 20
1155.249701831345
 30
0.0
 40
64.0
  1
EJ-95GTB3_3
 41
0.9
  0
TEXT
  5
16C
  8
ETC
  6
CONTINUOUS
 62
    61
 10
888.50914057974865
 20
958.42401467480533
 30
0.0
 40
64.0
  1
EJ-95GTB3
 41
0.9
  0
ENDSEC
  0
EOF
