  0
SECTION
  2
HEADER
  9
$ACADVER
  1
AC1009
  9
$DWGCODEPAGE
  3
dos932
  9
$INSBASE
 10
0.0
 20
0.0
 30
0.0
  9
$EXTMIN
 10
-523.88303996283139
 20
-301.84935336216591
 30
-0.0015257624927045
  9
$EXTMAX
 10
967.09901052189343
 20
557.23572575631079
 30
0.0022888765696933
  9
$LIMMIN
 10
-2970.0
 20
-2100.0
  9
$LIMMAX
 10
2970.0
 20
2100.0
  9
$ORTHOMODE
 70
     1
  9
$REGENMODE
 70
     1
  9
$FILLMODE
 70
     1
  9
$QTEXTMODE
 70
     0
  9
$MIRRTEXT
 70
     0
  9
$LTSCALE
 40
20.0
  9
$ATTMODE
 70
     1
  9
$TEXTSIZE
 40
64.0
  9
$TRACEWID
 40
0.05
  9
$TEXTSTYLE
  7
STANDARD
  9
$CLAYER
  8
SIZE
  9
$CELTYPE
  6
CONTINUOUS
  9
$CECOLOR
 62
     7
  9
$DIMSCALE
 40
1.0
  9
$DIMASZ
 40
12.0
  9
$DIMEXO
 40
20.0
  9
$DIMDLI
 40
200.0
  9
$DIMRND
 40
0.0
  9
$DIMDLE
 40
0.0
  9
$DIMEXE
 40
20.0
  9
$DIMTP
 40
0.0
  9
$DIMTM
 40
0.0
  9
$DIMTXT
 40
64.0
  9
$DIMCEN
 40
0.09
  9
$DIMTSZ
 40
0.0
  9
$DIMTOL
 70
     0
  9
$DIMLIM
 70
     0
  9
$DIMTIH
 70
     0
  9
$DIMTOH
 70
     0
  9
$DIMSE1
 70
     0
  9
$DIMSE2
 70
     0
  9
$DIMTAD
 70
     1
  9
$DIMZIN
 70
     8
  9
$DIMBLK
  1

  9
$DIMASO
 70
     1
  9
$DIMSHO
 70
     0
  9
$DIMPOST
  1

  9
$DIMAPOST
  1

  9
$DIMALT
 70
     0
  9
$DIMALTD
 70
     2
  9
$DIMALTF
 40
25.399999999999999
  9
$DIMLFAC
 40
1.0
  9
$DIMTOFL
 70
     1
  9
$DIMTVP
 40
0.0
  9
$DIMTIX
 70
     1
  9
$DIMSOXD
 70
     0
  9
$DIMSAH
 70
     0
  9
$DIMBLK1
  1

  9
$DIMBLK2
  1

  9
$DIMSTYLE
  2
STANDARD
  9
$DIMCLRD
 70
     7
  9
$DIMCLRE
 70
     7
  9
$DIMCLRT
 70
     7
  9
$DIMTFAC
 40
1.0
  9
$DIMGAP
 40
25.0
  9
$LUNITS
 70
     2
  9
$LUPREC
 70
     4
  9
$SKETCHINC
 40
0.1
  9
$FILLETRAD
 40
3.0
  9
$AUNITS
 70
     1
  9
$AUPREC
 70
     3
  9
$MENU
  1
ACAD
  9
$ELEVATION
 40
0.0
  9
$PELEVATION
 40
0.0
  9
$THICKNESS
 40
50.0
  9
$LIMCHECK
 70
     0
  9
$CHAMFERA
 40
0.0
  9
$CHAMFERB
 40
0.0
  9
$SKPOLY
 70
     0
  9
$TDCREATE
 40
2453019.62301037
  9
$TDUPDATE
 40
2458949.440217257
  9
$TDINDWG
 40
1.7125970023
  9
$TDUSRTIMER
 40
1.7125970023
  9
$USRTIMER
 70
     1
  9
$ANGBASE
 50
0.0
  9
$ANGDIR
 70
     0
  9
$PDMODE
 70
     3
  9
$PDSIZE
 40
-2.0
  9
$PLINEWID
 40
0.0
  9
$SPLFRAME
 70
     0
  9
$SPLINETYPE
 70
     6
  9
$SPLINESEGS
 70
     8
  9
$SURFTAB1
 70
     6
  9
$SURFTAB2
 70
     6
  9
$SURFTYPE
 70
     6
  9
$SURFU
 70
     6
  9
$SURFV
 70
     6
  9
$UCSNAME
  2

  9
$UCSORG
 10
0.0
 20
0.0
 30
0.0
  9
$UCSXDIR
 10
1.0
 20
0.0
 30
0.0
  9
$UCSYDIR
 10
0.0
 20
1.0
 30
0.0
  9
$PUCSNAME
  2

  9
$PUCSORG
 10
0.0
 20
0.0
 30
0.0
  9
$PUCSXDIR
 10
1.0
 20
0.0
 30
0.0
  9
$PUCSYDIR
 10
0.0
 20
1.0
 30
0.0
  9
$USERI1
 70
     0
  9
$USERI2
 70
     0
  9
$USERI3
 70
     0
  9
$USERI4
 70
     0
  9
$USERI5
 70
     0
  9
$USERR1
 40
20.0
  9
$USERR2
 40
0.0
  9
$USERR3
 40
0.0
  9
$USERR4
 40
0.0
  9
$USERR5
 40
0.0
  9
$WORLDVIEW
 70
     1
  9
$SHADEDGE
 70
     3
  9
$SHADEDIF
 70
    70
  9
$TILEMODE
 70
     1
  9
$MAXACTVP
 70
    48
  9
$PINSBASE
 10
0.0
 20
0.0
 30
0.0
  9
$PLIMCHECK
 70
     0
  9
$PEXTMIN
 10
-100000000000000000000.0
 20
-100000000000000000000.0
 30
-100000000000000000000.0
  9
$PEXTMAX
 10
100000000000000000000.0
 20
100000000000000000000.0
 30
100000000000000000000.0
  9
$PLIMMIN
 10
0.0
 20
0.0
  9
$PLIMMAX
 10
12.0
 20
9.0
  9
$UNITMODE
 70
     0
  9
$VISRETAIN
 70
     0
  9
$PLINEGEN
 70
     0
  9
$PSLTSCALE
 70
     0
  9
$TREEDEPTH
 70
  3020
  9
$ATTDIA
 70
     0
  9
$ATTREQ
 70
     1
  9
$BLIPMODE
 70
     1
  9
$COORDS
 70
     1
  9
$DRAGMODE
 70
     2
  9
$OSMODE
 70
     0
  9
$HANDLING
 70
     0
  9
$HANDSEED
  5
F1F9
  0
ENDSEC
  0
SECTION
  2
TABLES
  0
TABLE
  2
LTYPE
 70
     2
  0
LTYPE
  2
CONTINUOUS
 70
     0
  3
実線
 72
    65
 73
     0
 40
0.0
  0
LTYPE
  2
DASHDOT
 70
     0
  3
____ _ ____ _ ____ _ ____ _ ____ _ ____ _ ____
 72
    65
 73
     4
 40
5.5
 49
4.0
 49
-0.6
 49
0.3
 49
-0.6
  0
ENDTAB
  0
TABLE
  2
LAYER
 70
    12
  0
LAYER
  2
0
 70
     0
 62
     7
  6
CONTINUOUS
  0
LAYER
  2
BASIS
 70
     0
 62
     6
  6
DASHDOT
  0
LAYER
  2
OUTLINE
 70
     0
 62
     3
  6
CONTINUOUS
  0
LAYER
  2
DETAIL
 70
     0
 62
     5
  6
CONTINUOUS
  0
LAYER
  2
SIZE
 70
     0
 62
    30
  6
CONTINUOUS
  0
LAYER
  2
ARRANGE
 70
     0
 62
     1
  6
CONTINUOUS
  0
LAYER
  2
DEFPOINTS
 70
     0
 62
     7
  6
CONTINUOUS
  0
LAYER
  2
ETC
 70
     0
 62
    61
  6
CONTINUOUS
  0
LAYER
  2
FIX
 70
     0
 62
    11
  6
CONTINUOUS
  0
LAYER
  2
NOTE
 70
     0
 62
     4
  6
CONTINUOUS
  0
LAYER
  2
SERVICESPACE
 70
    64
 62
     2
  6
DASHDOT
  0
LAYER
  2
SYMBOLLINE
 70
    64
 62
    15
  6
CONTINUOUS
  0
ENDTAB
  0
TABLE
  2
STYLE
 70
     1
  0
STYLE
  2
STANDARD
 70
     0
 40
64.0
 41
0.9
 50
0.0
 71
     0
 42
64.0
  3
SIMPLEX.shx
  4
BIGFONT.shx
  0
ENDTAB
  0
TABLE
  2
APPID
 70
    19
  0
APPID
  2
ACAD
 70
     0
  0
APPID
  2
AUTOCAD_POSTSCRIPT_FIGURE
 70
     0
  0
APPID
  2
ACAD_EXEMPT_FROM_CAD_STANDARDS
 70
     0
  0
APPID
  2
ACAD_PSEXT
 70
     0
  0
APPID
  2
ACAUTHENVIRON
 70
     0
  0
APPID
  2
GENIUS_GENOENT_13
 70
     0
  0
APPID
  2
GENIUS_GENCFG_13
 70
     0
  0
APPID
  2
GENIUS_GENCFG0_13
 70
     0
  0
APPID
  2
GENIUS_GENCFG1_13
 70
     0
  0
APPID
  2
GENIUS_GENCFG2_13
 70
     0
  0
APPID
  2
GENIUS_GENCFG3_13
 70
     0
  0
APPID
  2
GENIUS_GENCFG4_13
 70
     0
  0
APPID
  2
GENIUS_GEVCFG0_13
 70
     0
  0
APPID
  2
CONTENTBLOCKICON
 70
     0
  0
APPID
  2
CONTENTBLOCKDESCRIPTION
 70
     0
  0
APPID
  2
ACAD_NAV_VCDISPLAY
 70
     0
  0
APPID
  2
ACAD_MLEADERVER
 70
     0
  0
APPID
  2
ACDBDYNAMICBLOCKTRUENAME
 70
     0
  0
APPID
  2
ACDBDYNAMICBLOCKGUID
 70
     0
  0
ENDTAB
  0
TABLE
  2
DIMSTYLE
 70
     1
  0
DIMSTYLE
  2
STANDARD
 70
     0
  3

  4

  5
_ORIGIN
  6

  7

 40
1.0
 41
12.0
 42
20.0
 43
200.0
 44
20.0
 45
0.0
 46
0.0
 47
0.0
 48
0.0
140
64.0
141
0.09
142
0.0
143
25.399999999999999
144
1.0
145
0.0
146
1.0
147
25.0
 71
     0
 72
     0
 73
     0
 74
     0
 75
     0
 76
     0
 77
     1
 78
     8
170
     0
171
     2
172
     1
173
     0
174
     1
175
     0
176
     7
177
     7
178
     7
  0
ENDTAB
  0
TABLE
  2
VIEW
 70
     1
  0
VIEW
  2
ALL
 70
     0
 40
4282.6198079999986
 10
0.0
 20
41.309904000000003
 41
5940.0
 11
0.0
 21
0.0
 31
1.0
 12
0.0
 22
0.0
 32
0.0
 42
50.0
 43
0.0
 44
0.0
 50
0.0
 71
     0
  0
ENDTAB
  0
TABLE
  2
UCS
 70
     0
  0
ENDTAB
  0
TABLE
  2
VPORT
 70
     1
  0
VPORT
  2
*ACTIVE
 70
     0
 10
0.0
 20
0.0
 11
1.0
 21
1.0
 12
221.60798527953111
 22
127.69318619707251
 13
0.0
 23
0.0
 14
1.0
 24
1.0
 15
0.0
 25
0.0
 16
0.0
 26
0.0
 36
1.0
 17
0.0
 27
0.0
 37
0.0
 40
864.78067080324013
 41
1.747787610619469
 42
50.0
 43
0.0
 44
0.0
 50
0.0
 51
0.0
 71
     0
 72
  1000
 73
     1
 74
     3
 75
     0
 76
     0
 77
     0
 78
     0
  0
ENDTAB
  0
ENDSEC
  0
SECTION
  2
BLOCKS
  0
BLOCK
  8
0
  2
_ORIGIN
 70
     0
 10
0.0
 20
0.0
 30
0.0
  3
_ORIGIN
  1
_ORIGIN
  0
CIRCLE
  8
0
  6
CONTINUOUS
 62
     7
 10
0.0
 20
0.0
 30
0.0
 40
0.5
  0
LINE
  8
0
  6
CONTINUOUS
 62
     7
 10
0.0
 20
0.0
 30
0.0
 11
-1.0
 21
0.0
 31
0.0
  0
ENDBLK
  8
0
  0
ENDSEC
  0
SECTION
  2
ENTITIES
  0
CIRCLE
  8
ARRANGE
  6
CONTINUOUS
 62
     1
 10
0.0
 20
0.0
 30
0.0
 40
40.0
  0
POINT
  8
ARRANGE
  6
CONTINUOUS
 62
     1
 10
0.0
 20
0.0
 30
0.0
  0
TEXT
  8
ETC
  6
CONTINUOUS
 62
    61
 10
237.113296885685
 20
492.97663547859912
 30
0.0
 40
64.0
  1
EWF-25ATA2-Q_1
 41
0.9
  0
TEXT
  8
ETC
  6
CONTINUOUS
 62
    61
 10
232.92730288568461
 20
375.02132546376788
 30
0.0
 40
64.0
  1
産業扇
 41
0.9
  0
TEXT
  8
ETC
  6
CONTINUOUS
 62
    61
 10
283.62870113424083
 20
266.87255257754259
 30
0.0
 40
40.0
  1
EWF-25ATA2-Q
 41
0.9
  0
LINE
  8
NOTE
  6
CONTINUOUS
 62
     4
 10
-165.00000000000051
 20
14.83140142247521
 30
0.0
 11
-165.00000000000051
 21
-29.966219760505741
 31
0.0
  0
LINE
  8
NOTE
  6
CONTINUOUS
 62
     4
 10
164.99999999999949
 20
12.390011101496381
 30
0.0
 11
164.99999999999949
 21
-29.966219760505741
 31
0.0
  0
LINE
  8
SIZE
  6
CONTINUOUS
 62
    30
 10
-184.99999999964851
 20
18.5
 30
0.0
 11
-184.99999999964851
 21
264.96668498765212
 31
0.0
  0
LINE
  8
SIZE
  6
CONTINUOUS
 62
    30
 10
184.99153674125961
 20
18.659116781001391
 30
0.0
 11
184.99153674125961
 21
264.96668498765212
 31
0.0
  0
LINE
  8
SIZE
  6
CONTINUOUS
 62
    30
 10
-172.99999999964851
 20
244.96668498765209
 30
0.0
 11
172.99153674125961
 21
244.96668498765209
 31
0.0
  0
CIRCLE
  8
SIZE
  6
CONTINUOUS
 62
    30
 10
-184.99999999964851
 20
244.96668498765209
 30
0.0
 40
6.0
  0
LINE
  8
SIZE
  6
CONTINUOUS
 62
    30
 10
-184.99999999964851
 20
244.96668498765209
 30
0.0
 11
-172.99999999964851
 21
244.96668498765209
 31
0.0
  0
CIRCLE
  8
SIZE
  6
CONTINUOUS
 62
    30
 10
184.99153674125961
 20
244.96668498765209
 30
0.0
 40
6.0
  0
LINE
  8
SIZE
  6
CONTINUOUS
 62
    30
 10
184.99153674125961
 20
244.96668498765209
 30
0.0
 11
172.99153674125961
 21
244.96668498765209
 31
0.0
  0
TEXT
  8
SIZE
  6
CONTINUOUS
 62
    30
 10
-74.057142857372042
 20
269.96668498765212
 30
0.0
 40
64.0
  1
370
 41
0.9
 72
     1
 11
-0.0000000002291927
 21
269.96668498765212
 31
0.0
  0
POINT
  8
DEFPOINTS
  6
CONTINUOUS
 62
    30
 10
-184.99999999964851
 20
-1.5
 30
0.0
  0
POINT
  8
DEFPOINTS
  6
CONTINUOUS
 62
    30
 10
184.99153674125961
 20
-1.3408832189986131
 30
0.0
  0
POINT
  8
DEFPOINTS
  6
CONTINUOUS
 62
    30
 10
184.99153674125961
 20
244.96668498765209
 30
0.0
  0
LINE
  8
SIZE
  6
CONTINUOUS
 62
    30
 10
-165.00000000000051
 20
29.70070445635406
 30
0.0
 11
-165.00000000000051
 21
151.39419561661629
 31
0.0
  0
LINE
  8
SIZE
  6
CONTINUOUS
 62
    30
 10
164.99999999999949
 20
32.390011101496377
 30
0.0
 11
164.99999999999949
 21
151.39419561661629
 31
0.0
  0
LINE
  8
SIZE
  6
CONTINUOUS
 62
    30
 10
-153.00000000000051
 20
131.39419561661629
 30
0.0
 11
152.99999999999949
 21
131.39419561661629
 31
0.0
  0
CIRCLE
  8
SIZE
  6
CONTINUOUS
 62
    30
 10
-165.00000000000051
 20
131.39419561661629
 30
0.0
 40
6.0
  0
LINE
  8
SIZE
  6
CONTINUOUS
 62
    30
 10
-165.00000000000051
 20
131.39419561661629
 30
0.0
 11
-153.00000000000051
 21
131.39419561661629
 31
0.0
  0
CIRCLE
  8
SIZE
  6
CONTINUOUS
 62
    30
 10
164.99999999999949
 20
131.39419561661629
 30
0.0
 40
6.0
  0
LINE
  8
SIZE
  6
CONTINUOUS
 62
    30
 10
164.99999999999949
 20
131.39419561661629
 30
0.0
 11
152.99999999999949
 21
131.39419561661629
 31
0.0
  0
TEXT
  8
SIZE
  6
CONTINUOUS
 62
    30
 10
-74.057142857143319
 20
156.39419561661629
 30
0.0
 40
64.0
  1
330
 41
0.9
 72
     1
 11
-0.0000000000004547
 21
156.39419561661629
 31
0.0
  0
POINT
  8
DEFPOINTS
  6
CONTINUOUS
 62
    30
 10
-165.00000000000051
 20
9.7007044563540603
 30
0.0
  0
POINT
  8
DEFPOINTS
  6
CONTINUOUS
 62
    30
 10
164.99999999999949
 20
12.390011101496381
 30
0.0
  0
POINT
  8
DEFPOINTS
  6
CONTINUOUS
 62
    30
 10
164.99999999999949
 20
131.39419561661629
 30
0.0
  0
CIRCLE
  8
FIX
  6
CONTINUOUS
 62
    11
 10
-165.00000000000051
 20
0.0
 30
0.0
 40
7.0
  0
CIRCLE
  8
FIX
  6
CONTINUOUS
 62
    11
 10
164.99999999999949
 20
0.0
 30
0.0
 40
7.0
  0
LINE
  8
SIZE
  6
CONTINUOUS
 62
    30
 10
203.5000000001755
 20
0.0
 30
0.0
 11
305.01153923418178
 21
-0.0000000000000568
 31
0.0
  0
LINE
  8
SIZE
  6
CONTINUOUS
 62
    30
 10
199.0000000001755
 20
-9.9999999998241265
 30
0.0
 11
305.01153923418178
 21
-9.9999999998241833
 31
0.0
  0
LINE
  8
SIZE
  6
CONTINUOUS
 62
    30
 10
285.01153923418178
 20
-21.99999999982418
 30
0.0
 11
285.01153923418178
 21
-33.999999999824183
 31
0.0
  0
LINE
  8
SIZE
  6
CONTINUOUS
 62
    30
 10
285.01153923418178
 20
11.99999999999994
 30
0.0
 11
285.01153923418178
 21
156.28571428571419
 31
0.0
  0
LINE
  8
SIZE
  6
CONTINUOUS
 62
    30
 10
285.01153923418178
 20
-9.9999999998241833
 30
0.0
 11
285.01153923418178
 21
-0.0000000000000568
 31
0.0
  0
CIRCLE
  8
SIZE
  6
CONTINUOUS
 62
    30
 10
285.01153923418178
 20
-9.9999999998241833
 30
0.0
 40
6.0
  0
LINE
  8
SIZE
  6
CONTINUOUS
 62
    30
 10
285.01153923418178
 20
-9.9999999998241833
 30
0.0
 11
285.01153923418178
 21
-21.99999999982418
 31
0.0
  0
CIRCLE
  8
SIZE
  6
CONTINUOUS
 62
    30
 10
285.01153923418178
 20
-0.0000000000000568
 30
0.0
 40
6.0
  0
LINE
  8
SIZE
  6
CONTINUOUS
 62
    30
 10
285.01153923418178
 20
-0.0000000000000568
 30
0.0
 11
285.01153923418178
 21
11.99999999999994
 31
0.0
  0
TEXT
  8
SIZE
  6
CONTINUOUS
 62
    30
 10
260.01153923418178
 20
49.000000000000092
 30
0.0
 40
64.0
  1
10
 50
90.0
 41
0.9
 72
     1
 11
260.01153923418178
 21
90.142857142857224
 31
0.0
  0
POINT
  8
DEFPOINTS
  6
CONTINUOUS
 62
    30
 10
183.5000000001755
 20
0.0
 30
0.0
  0
POINT
  8
DEFPOINTS
  6
CONTINUOUS
 62
    30
 10
179.0000000001755
 20
-9.9999999998241265
 30
0.0
  0
POINT
  8
DEFPOINTS
  6
CONTINUOUS
 62
    30
 10
285.01153923418178
 20
-9.9999999998241833
 30
0.0
  0
LINE
  8
SIZE
  6
CONTINUOUS
 62
    30
 10
199.0000000001755
 20
-9.9999999998241265
 30
0.0
 11
305.01153923418178
 21
-9.9999999998241833
 31
0.0
  0
LINE
  8
SIZE
  6
CONTINUOUS
 62
    30
 10
187.99995204888231
 20
-19.99999999984766
 30
0.0
 11
305.01153923418178
 21
-19.99999999984766
 31
0.0
  0
LINE
  8
SIZE
  6
CONTINUOUS
 62
    30
 10
285.01153923418178
 20
2.0000000001758171
 30
0.0
 11
285.01153923418178
 21
14.00000000017582
 31
0.0
  0
LINE
  8
SIZE
  6
CONTINUOUS
 62
    30
 10
285.01153923418178
 20
-31.99999999984766
 30
0.0
 11
285.01153923418161
 21
-242.4285714284191
 31
0.0
  0
LINE
  8
SIZE
  6
CONTINUOUS
 62
    30
 10
285.01153923418178
 20
-9.9999999998241833
 30
0.0
 11
285.01153923418178
 21
-19.99999999984766
 31
0.0
  0
CIRCLE
  8
SIZE
  6
CONTINUOUS
 62
    30
 10
285.01153923418178
 20
-9.9999999998241833
 30
0.0
 40
6.0
  0
LINE
  8
SIZE
  6
CONTINUOUS
 62
    30
 10
285.01153923418178
 20
-9.9999999998241833
 30
0.0
 11
285.01153923418178
 21
2.0000000001758171
 31
0.0
  0
CIRCLE
  8
SIZE
  6
CONTINUOUS
 62
    30
 10
285.01153923418178
 20
-19.99999999984766
 30
0.0
 40
6.0
  0
LINE
  8
SIZE
  6
CONTINUOUS
 62
    30
 10
285.01153923418178
 20
-19.99999999984766
 30
0.0
 11
285.01153923418178
 21
-31.99999999984766
 31
0.0
  0
TEXT
  8
SIZE
  6
CONTINUOUS
 62
    30
 10
260.01153923418178
 20
-217.42857142841899
 30
0.0
 40
64.0
  1
10
 50
90.0
 41
0.9
 72
     1
 11
260.01153923418178
 21
-176.28571428556191
 31
0.0
  0
POINT
  8
DEFPOINTS
  6
CONTINUOUS
 62
    30
 10
179.0000000001755
 20
-9.9999999998241265
 30
0.0
  0
POINT
  8
DEFPOINTS
  6
CONTINUOUS
 62
    30
 10
167.99995204888231
 20
-19.99999999984766
 30
0.0
  0
POINT
  8
DEFPOINTS
  6
CONTINUOUS
 62
    30
 10
285.01153923418178
 20
-19.99999999984766
 30
0.0
  0
LINE
  8
SIZE
  6
CONTINUOUS
 62
    30
 10
203.5000000001755
 20
0.0
 30
0.0
 11
454.52782115711813
 21
-0.0000000000000568
 31
0.0
  0
LINE
  8
SIZE
  6
CONTINUOUS
 62
    30
 10
140.09871939436559
 20
-109.5
 30
0.0
 11
454.52782115711813
 21
-109.5000000000001
 31
0.0
  0
LINE
  8
SIZE
  6
CONTINUOUS
 62
    30
 10
434.52782115711813
 20
-12.00000000000006
 30
0.0
 11
434.52782115711813
 21
-97.500000000000057
 31
0.0
  0
LINE
  8
SIZE
  6
CONTINUOUS
 62
    30
 10
434.52782115711813
 20
-109.5000000000001
 30
0.0
 11
434.52782115711813
 21
-301.67783925122848
 31
0.0
  0
CIRCLE
  8
SIZE
  6
CONTINUOUS
 62
    30
 10
434.52782115711813
 20
-0.0000000000000568
 30
0.0
 40
6.0
  0
LINE
  8
SIZE
  6
CONTINUOUS
 62
    30
 10
434.52782115711813
 20
-0.0000000000000568
 30
0.0
 11
434.52782115711813
 21
-12.00000000000006
 31
0.0
  0
CIRCLE
  8
SIZE
  6
CONTINUOUS
 62
    30
 10
434.52782115711813
 20
-109.5000000000001
 30
0.0
 40
6.0
  0
LINE
  8
SIZE
  6
CONTINUOUS
 62
    30
 10
434.52782115711813
 20
-109.5000000000001
 30
0.0
 11
434.52782115711813
 21
-97.500000000000114
 31
0.0
  0
TEXT
  8
SIZE
  6
CONTINUOUS
 62
    30
 10
409.52782115711813
 20
-276.67783925122842
 30
0.0
 40
64.0
  1
110
 50
90.0
 41
0.9
 72
     1
 11
409.52782115711813
 21
-213.5921249655141
 31
0.0
  0
POINT
  8
DEFPOINTS
  6
CONTINUOUS
 62
    30
 10
183.5000000001755
 20
0.0
 30
0.0
  0
POINT
  8
DEFPOINTS
  6
CONTINUOUS
 62
    30
 10
120.0987193943656
 20
-109.5
 30
0.0
  0
POINT
  8
DEFPOINTS
  6
CONTINUOUS
 62
    30
 10
434.52782115711813
 20
-109.5000000000001
 30
0.0
  0
LINE
  8
SIZE
  6
CONTINUOUS
 62
    30
 10
-203.49999999964851
 20
0.0000000000001137
 30
0.0
 11
-273.70444119371251
 21
0.0000000000001137
 31
0.0
  0
LINE
  8
SIZE
  6
CONTINUOUS
 62
    30
 10
-55.179464174674187
 20
-210.8943083639829
 30
0.0
 11
-273.70444119371251
 21
-210.89430836398279
 31
0.0
  0
LINE
  8
SIZE
  6
CONTINUOUS
 62
    30
 10
-253.70444119371251
 20
-11.99999999999989
 30
0.0
 11
-253.70444119371271
 21
-198.89430836398279
 31
0.0
  0
CIRCLE
  8
SIZE
  6
CONTINUOUS
 62
    30
 10
-253.70444119371251
 20
0.0000000000001137
 30
0.0
 40
6.0
  0
LINE
  8
SIZE
  6
CONTINUOUS
 62
    30
 10
-253.70444119371251
 20
0.0000000000001137
 30
0.0
 11
-253.70444119371251
 21
-11.99999999999989
 31
0.0
  0
CIRCLE
  8
SIZE
  6
CONTINUOUS
 62
    30
 10
-253.70444119371271
 20
-210.89430836398279
 30
0.0
 40
6.0
  0
LINE
  8
SIZE
  6
CONTINUOUS
 62
    30
 10
-253.70444119371271
 20
-210.89430836398279
 30
0.0
 11
-253.70444119371271
 21
-198.89430836398279
 31
0.0
  0
TEXT
  8
SIZE
  6
CONTINUOUS
 62
    30
 10
-278.70444119371251
 20
-157.07857142848329
 30
0.0
 40
64.0
  1
211
 50
90.0
 41
0.9
 72
     1
 11
-278.70444119371251
 21
-100.8499999999119
 31
0.0
  0
POINT
  8
DEFPOINTS
  6
CONTINUOUS
 62
    30
 10
-183.49999999964851
 20
0.0000000000001137
 30
0.0
  0
POINT
  8
DEFPOINTS
  6
CONTINUOUS
 62
    30
 10
-35.179464174674187
 20
-210.8943083639829
 30
0.0
  0
POINT
  8
DEFPOINTS
  6
CONTINUOUS
 62
    30
 10
-253.70444119371271
 20
-210.89430836398279
 30
0.0
  0
TEXT
  8
NOTE
  6
CONTINUOUS
 62
     4
 10
-511.84870452065019
 20
89.632665428528526
 30
0.0
 40
64.0
  1
4-φ10
 41
0.9
  0
LINE
  8
NOTE
  6
CONTINUOUS
 62
     4
 10
-172.93813827906891
 20
8.9992200029997775
 30
0.0
 11
-221.1035928795018
 21
63.602894977615513
 31
0.0
  0
LINE
  8
NOTE
  6
CONTINUOUS
 62
     4
 10
-221.1035928795018
 20
63.602894977615513
 30
0.0
 11
-523.53771521590193
 21
63.602894977615513
 31
0.0
  0
LINE
  8
NOTE
  6
CONTINUOUS
 62
     4
 10
-167.7633986396327
 20
5.5631220774380381
 30
0.0
 11
-165.00000000000051
 21
0.0
 31
0.0
  0
LINE
  8
NOTE
  6
CONTINUOUS
 62
     4
 10
-165.00000000000051
 20
0.0
 30
0.0
 11
-170.17473963943641
 21
3.436097925561739
 31
0.0
  0
LINE
  8
NOTE
  6
CONTINUOUS
 62
     4
 10
-165.00000000000051
 20
0.0
 30
0.0
 11
-172.93813827906891
 21
8.9992200029997775
 31
0.0
  0
ARC
  8
OUTLINE
  6
CONTINUOUS
 62
     3
 10
51.537519453168898
 20
-205.3999999996478
 30
0.0
 40
4.6000000003521677
 50
270.0
 51
322.26696872109801
  0
LINE
  8
OUTLINE
  6
CONTINUOUS
 62
     3
 10
59.273518287147908
 20
-202.91925684718311
 30
0.0
 11
55.175526552993688
 21
-208.21512308820411
 31
0.0
  0
ARC
  8
OUTLINE
  6
CONTINUOUS
 62
     3
 10
61.9624772334505
 20
-204.99999999982401
 30
0.0
 40
3.3999995492956909
 50
90.0
 51
142.26693960340651
  0
LINE
  8
OUTLINE
  6
CONTINUOUS
 62
     3
 10
66.500000000175532
 20
-201.59999999999991
 30
0.0
 11
61.857558115299071
 21
-201.59999999999991
 31
0.0
  0
ARC
  8
OUTLINE
  6
CONTINUOUS
 62
     3
 10
66.500000000175532
 20
-199.9999999996478
 30
0.0
 40
1.599999999823865
 50
270.0
 51
0.0
  0
LINE
  8
OUTLINE
  6
CONTINUOUS
 62
     3
 10
68.099999999999454
 20
-199.9999999996478
 30
0.0
 11
68.099999999999454
 21
-195.4999999996478
 31
0.0
  0
LINE
  8
OUTLINE
  6
CONTINUOUS
 62
     3
 10
68.099999999999454
 20
-195.4999999996478
 30
0.0
 11
93.935768490845476
 21
-195.4999999996478
 31
0.0
  0
ARC
  8
OUTLINE
  6
CONTINUOUS
 62
     3
 10
183.5000000001755
 20
-1.5
 30
0.0
 40
1.5
 50
270.0
 51
90.0
  0
ARC
  8
OUTLINE
  6
CONTINUOUS
 62
     3
 10
-183.50000000017641
 20
-1.5
 30
0.0
 40
1.5
 50
90.0
 51
270.0
  0
LINE
  8
OUTLINE
  6
CONTINUOUS
 62
     3
 10
183.5000000001755
 20
0.0
 30
0.0
 11
-183.50000000017641
 21
0.0
 31
0.0
  0
LINE
  8
OUTLINE
  6
CONTINUOUS
 62
     3
 10
-182.00000000017641
 20
-6.9999999998238991
 30
0.0
 11
-182.00000000017641
 21
-3.0
 31
0.0
  0
ARC
  8
OUTLINE
  6
CONTINUOUS
 62
     3
 10
-179.00000000017641
 20
-6.9999999998238991
 30
0.0
 40
3.0
 50
180.0
 51
270.0
  0
ARC
  8
OUTLINE
  6
CONTINUOUS
 62
     3
 10
-168.0
 20
-16.5
 30
0.0
 40
3.500000000176442
 50
180.0
 51
270.0
  0
LINE
  8
OUTLINE
  6
CONTINUOUS
 62
     3
 10
-171.50000000017641
 20
-16.5
 30
0.0
 11
-171.50000000017641
 21
-12.999999999823901
 31
0.0
  0
LINE
  8
OUTLINE
  6
CONTINUOUS
 62
     3
 10
-182.00000000017641
 20
-3.0
 30
0.0
 11
-183.50000000017641
 21
-3.0
 31
0.0
  0
ARC
  8
OUTLINE
  6
CONTINUOUS
 62
     3
 10
-174.50000000017641
 20
-12.999999999823901
 30
0.0
 40
3.0
 50
0.0
 51
90.0
  0
LINE
  8
OUTLINE
  6
CONTINUOUS
 62
     3
 10
-174.50000000017641
 20
-9.9999999998238991
 30
0.0
 11
-179.00000000017641
 21
-9.9999999998238991
 31
0.0
  0
LINE
  8
OUTLINE
  6
CONTINUOUS
 62
     3
 10
-162.74999999996541
 20
-19.999999999648029
 30
0.0
 11
-168.0
 21
-19.999999999648029
 31
0.0
  0
ARC
  8
OUTLINE
  6
CONTINUOUS
 62
     3
 10
-139.25000000017641
 20
-107.4999999998239
 30
0.0
 40
2.0000000001763349
 50
108.911105425896
 51
251.1016413318041
  0
LINE
  8
OUTLINE
  6
CONTINUOUS
 62
     3
 10
-139.89770926795839
 20
-105.60778629489189
 30
0.0
 11
-139.89770926795839
 21
-60.0
 31
0.0
  0
LINE
  8
OUTLINE
  6
CONTINUOUS
 62
     3
 10
-139.89770926795839
 20
-130.5
 30
0.0
 11
-139.89770926795839
 21
-109.3922137047559
 31
0.0
  0
ARC
  8
OUTLINE
  6
CONTINUOUS
 62
     3
 10
-66.500000000176442
 20
-199.99999999964791
 30
0.0
 40
1.599999999823922
 50
180.0
 51
270.0
  0
LINE
  8
OUTLINE
  6
CONTINUOUS
 62
     3
 10
-93.935768490361852
 20
-195.49999999964791
 30
0.0
 11
-68.100000000000364
 21
-195.49999999964791
 31
0.0
  0
LINE
  8
OUTLINE
  6
CONTINUOUS
 62
     3
 10
-68.100000000000364
 20
-195.49999999964791
 30
0.0
 11
-68.100000000000364
 21
-199.99999999964791
 31
0.0
  0
LINE
  8
OUTLINE
  6
CONTINUOUS
 62
     3
 10
-61.962469203696863
 20
-201.59999999999991
 30
0.0
 11
-66.499963842254147
 21
-201.59999999999991
 31
0.0
  0
ARC
  8
OUTLINE
  6
CONTINUOUS
 62
     3
 10
-61.962469203696863
 20
-204.99999999982401
 30
0.0
 40
3.399999999823784
 50
37.733043617607471
 51
90.0
  0
LINE
  8
OUTLINE
  6
CONTINUOUS
 62
     3
 10
-55.17551747693733
 20
-208.21512296302799
 30
0.0
 11
-59.273508750000467
 21
-202.91925694014071
 31
0.0
  0
ARC
  8
OUTLINE
  6
CONTINUOUS
 62
     3
 10
-51.5375121575712
 20
-205.39999999964749
 30
0.0
 40
4.5999999998240808
 50
217.73304361760739
 51
270.0
  0
LINE
  8
OUTLINE
  6
CONTINUOUS
 62
     3
 10
51.537519453168898
 20
-209.99999999999989
 30
0.0
 11
-51.5375121575712
 21
-209.99999999999989
 31
0.0
  0
ARC
  8
OUTLINE
  6
CONTINUOUS
 62
     3
 10
139.2500000001755
 20
-107.4999999998239
 30
0.0
 40
2.0000000001759481
 50
288.89835866819601
 51
71.08889457411793
  0
LINE
  8
OUTLINE
  6
CONTINUOUS
 62
     3
 10
139.89770926795791
 20
-60.0
 30
0.0
 11
139.89770926795791
 21
-105.6077862948912
 31
0.0
  0
LINE
  8
OUTLINE
  6
CONTINUOUS
 62
     3
 10
139.89770926795791
 20
-109.3922137047565
 30
0.0
 11
139.89770926795791
 21
-130.5
 31
0.0
  0
LINE
  8
OUTLINE
  6
CONTINUOUS
 62
     3
 10
171.5000000001755
 20
-12.999999999823901
 30
0.0
 11
171.5000000001755
 21
-16.5
 31
0.0
  0
ARC
  8
OUTLINE
  6
CONTINUOUS
 62
     3
 10
168.0
 20
-16.5
 30
0.0
 40
3.5000000001759868
 50
270.0
 51
0.0
  0
LINE
  8
OUTLINE
  6
CONTINUOUS
 62
     3
 10
168.0
 20
-19.999999999648029
 30
0.0
 11
162.75078653450649
 21
-19.999999999648029
 31
0.0
  0
ARC
  8
OUTLINE
  6
CONTINUOUS
 62
     3
 10
179.0000000001755
 20
-6.9999999998238991
 30
0.0
 40
3.0
 50
270.0
 51
0.0
  0
LINE
  8
OUTLINE
  6
CONTINUOUS
 62
     3
 10
183.5000000001755
 20
-3.0
 30
0.0
 11
182.0000000001755
 21
-3.0
 31
0.0
  0
LINE
  8
OUTLINE
  6
CONTINUOUS
 62
     3
 10
182.0000000001755
 20
-3.0
 30
0.0
 11
182.0000000001755
 21
-6.9999999998238991
 31
0.0
  0
ARC
  8
OUTLINE
  6
CONTINUOUS
 62
     3
 10
174.5000000001755
 20
-12.999999999823901
 30
0.0
 40
3.0
 50
90.0
 51
180.0
  0
LINE
  8
OUTLINE
  6
CONTINUOUS
 62
     3
 10
179.0000000001755
 20
-9.9999999998238991
 30
0.0
 11
174.5000000001755
 21
-9.9999999998238991
 31
0.0
  0
LINE
  8
DETAIL
  6
CONTINUOUS
 62
     5
 10
-182.00000000017641
 20
-6.9999999998238991
 30
0.0
 11
-182.00000000017641
 21
-3.0
 31
0.0
  0
LINE
  8
DETAIL
  6
CONTINUOUS
 62
     5
 10
-176.66726188943721
 20
-3.499999999647684
 30
0.0
 11
-176.66726188943721
 21
-3.0
 31
0.0
  0
LINE
  8
DETAIL
  6
CONTINUOUS
 62
     5
 10
-171.5000000001767
 20
-16.5
 30
0.0
 11
-171.5000000001767
 21
-12.999999999823901
 31
0.0
  0
LINE
  8
DETAIL
  6
CONTINUOUS
 62
     5
 10
-170.30330085897941
 20
-3.499999999647684
 30
0.0
 11
-170.30330085897941
 21
-3.0
 31
0.0
  0
LINE
  8
DETAIL
  6
CONTINUOUS
 62
     5
 10
-158.9895923598597
 20
-3.499999999647684
 30
0.0
 11
-158.9895923598597
 21
-3.0
 31
0.0
  0
LINE
  8
DETAIL
  6
CONTINUOUS
 62
     5
 10
-149.49390334542301
 20
-12.999999999823901
 30
0.0
 11
-149.49390334542301
 21
-16.999999999647681
 31
0.0
  0
LINE
  8
DETAIL
  6
CONTINUOUS
 62
     5
 10
-144.49390334577521
 20
-12.999999999823901
 30
0.0
 11
-144.49390334577521
 21
-16.55341801267582
 31
0.0
  0
LINE
  8
DETAIL
  6
CONTINUOUS
 62
     5
 10
-139.89770926795811
 20
-130.5
 30
0.0
 11
-139.89770926795811
 21
-60.0
 31
0.0
  0
LINE
  8
DETAIL
  6
CONTINUOUS
 62
     5
 10
-139.89770926795811
 20
-30.0
 30
0.0
 11
-139.89770926795811
 21
-16.999999999647681
 31
0.0
  0
LINE
  8
DETAIL
  6
CONTINUOUS
 62
     5
 10
-139.49390334559919
 20
-16.999999999647681
 30
0.0
 11
-139.49390334559919
 21
-12.999999999823901
 31
0.0
  0
LINE
  8
DETAIL
  6
CONTINUOUS
 62
     5
 10
-137.77638892447229
 20
-60.0
 30
0.0
 11
-137.77638892447229
 21
-130.5
 31
0.0
  0
LINE
  8
DETAIL
  6
CONTINUOUS
 62
     5
 10
-122.22003973838081
 20
-15.999999999823901
 30
0.0
 11
-122.22003973838081
 21
-30.0
 31
0.0
  0
LINE
  8
DETAIL
  6
CONTINUOUS
 62
     5
 10
-120.0987193948947
 20
-15.999999999823901
 30
0.0
 11
-120.0987193948947
 21
-30.0
 31
0.0
  0
LINE
  8
DETAIL
  6
CONTINUOUS
 62
     5
 10
-120.0987193948947
 20
-60.0
 30
0.0
 11
-120.0987193948947
 21
-130.5
 31
0.0
  0
LINE
  8
DETAIL
  6
CONTINUOUS
 62
     5
 10
39.999999999823558
 20
-210.59999999999991
 30
0.0
 11
36.09351706584448
 21
-210.59999999999991
 31
0.0
  0
LINE
  8
DETAIL
  6
CONTINUOUS
 62
     5
 10
33.906482933978403
 20
-210.59999999999991
 30
0.0
 11
-33.906482934507487
 21
-210.59999999999991
 31
0.0
  0
LINE
  8
DETAIL
  6
CONTINUOUS
 62
     5
 10
-36.09351706584539
 20
-210.59999999999991
 30
0.0
 11
-39.999999999824468
 21
-210.59999999999991
 31
0.0
  0
LINE
  8
DETAIL
  6
CONTINUOUS
 62
     5
 10
36.500000000175532
 20
-210.09999999982389
 30
0.0
 11
33.500000000175532
 21
-210.09999999982389
 31
0.0
  0
LINE
  8
DETAIL
  6
CONTINUOUS
 62
     5
 10
-33.500000000176442
 20
-210.09999999982389
 30
0.0
 11
-36.500000000176442
 21
-210.09999999982389
 31
0.0
  0
LINE
  8
DETAIL
  6
CONTINUOUS
 62
     5
 10
-68.100000000000364
 20
-197.49999999982381
 30
0.0
 11
-61.310337911620081
 21
-197.49999999982381
 31
0.0
  0
LINE
  8
DETAIL
  6
CONTINUOUS
 62
     5
 10
61.310337911619172
 20
-197.49999999982381
 30
0.0
 11
68.099999999999454
 21
-197.49999999982381
 31
0.0
  0
LINE
  8
DETAIL
  6
CONTINUOUS
 62
     5
 10
-93.935768490845476
 20
-195.4999999996478
 30
0.0
 11
-62.499999999824468
 21
-195.4999999996478
 31
0.0
  0
LINE
  8
DETAIL
  6
CONTINUOUS
 62
     5
 10
62.499999999823558
 20
-195.4999999996478
 30
0.0
 11
93.935768490844566
 21
-195.4999999996478
 31
0.0
  0
LINE
  8
DETAIL
  6
CONTINUOUS
 62
     5
 10
-33.205755110387827
 20
-178.9999999996476
 30
0.0
 11
33.205755110386917
 21
-178.9999999996476
 31
0.0
  0
LINE
  8
DETAIL
  6
CONTINUOUS
 62
     5
 10
-68.100000000000364
 20
-199.9999999996478
 30
0.0
 11
-68.100000000000364
 21
-195.4999999996478
 31
0.0
  0
LINE
  8
DETAIL
  6
CONTINUOUS
 62
     5
 10
-67.500000000000455
 20
-195.4999999996478
 30
0.0
 11
-67.500000000000455
 21
-197.49999999982381
 31
0.0
  0
LINE
  8
DETAIL
  6
CONTINUOUS
 62
     5
 10
-63.166446789613019
 20
-161.89999999964789
 30
0.0
 11
-63.166446789613019
 21
-163.5
 31
0.0
  0
LINE
  8
DETAIL
  6
CONTINUOUS
 62
     5
 10
-62.499999999824468
 20
-170.4999999998239
 30
0.0
 11
-62.499999999824468
 21
-195.4999999996478
 31
0.0
  0
LINE
  8
DETAIL
  6
CONTINUOUS
 62
     5
 10
-59.499999999824468
 20
-188.3306386927816
 30
0.0
 11
-59.499999999824468
 21
-195.4999999996478
 31
0.0
  0
LINE
  8
DETAIL
  6
CONTINUOUS
 62
     5
 10
-35.743342751937227
 20
-179.3481359836268
 30
0.0
 11
-57.44396585862728
 21
-185.42431050475349
 31
0.0
  0
LINE
  8
DETAIL
  6
CONTINUOUS
 62
     5
 10
-91.814448147359599
 20
-170.4999999998239
 30
0.0
 11
-62.499999999824468
 21
-170.4999999998239
 31
0.0
  0
LINE
  8
DETAIL
  6
CONTINUOUS
 62
     5
 10
62.499999999823558
 20
-170.4999999998239
 30
0.0
 11
91.814448147358689
 21
-170.4999999998239
 31
0.0
  0
LINE
  8
DETAIL
  6
CONTINUOUS
 62
     5
 10
-61.062088342077907
 20
-163.5
 30
0.0
 11
-63.166446789613019
 21
-163.5
 31
0.0
  0
LINE
  8
DETAIL
  6
CONTINUOUS
 62
     5
 10
-63.499938693486463
 20
-161.89999999964789
 30
0.0
 11
-63.166446789613019
 21
-161.89999999964789
 31
0.0
  0
LINE
  8
DETAIL
  6
CONTINUOUS
 62
     5
 10
57.44396585862637
 20
-185.42431050475349
 30
0.0
 11
35.743342751407909
 21
-179.3481359836268
 31
0.0
  0
LINE
  8
DETAIL
  6
CONTINUOUS
 62
     5
 10
-49.100000000176351
 20
-158.40000000000001
 30
0.0
 11
-49.100000000176351
 21
-136.47128129207749
 31
0.0
  0
LINE
  8
DETAIL
  6
CONTINUOUS
 62
     5
 10
-48.430577701056791
 20
-160.299999999824
 30
0.0
 11
-48.430577701056791
 21
-156.30000000000001
 31
0.0
  0
LINE
  8
DETAIL
  6
CONTINUOUS
 62
     5
 10
-48.099999999824377
 20
-134.73923048450709
 30
0.0
 11
-48.099999999824377
 21
-126.90000000000001
 31
0.0
  0
LINE
  8
DETAIL
  6
CONTINUOUS
 62
     5
 10
-46.430577700880796
 20
-156.30000000000001
 30
0.0
 11
-46.430577700880796
 21
-152.69999999999979
 31
0.0
  0
LINE
  8
DETAIL
  6
CONTINUOUS
 62
     5
 10
-44.430577701232778
 20
-160.299999999824
 30
0.0
 11
-44.430577701232778
 21
-156.65726558978869
 31
0.0
  0
LINE
  8
DETAIL
  6
CONTINUOUS
 62
     5
 10
-42.430577701056791
 20
-156.30000000000001
 30
0.0
 11
-42.430577701056791
 21
-152.69999999999979
 31
0.0
  0
LINE
  8
DETAIL
  6
CONTINUOUS
 62
     5
 10
-48.430577701056791
 20
-156.30000000000001
 30
0.0
 11
-40.430577700880796
 21
-156.30000000000001
 31
0.0
  0
LINE
  8
DETAIL
  6
CONTINUOUS
 62
     5
 10
40.430577700879887
 20
-156.30000000000001
 30
0.0
 11
48.430577701055881
 21
-156.30000000000001
 31
0.0
  0
LINE
  8
DETAIL
  6
CONTINUOUS
 62
     5
 10
-46.430577700880796
 20
-152.69999999999979
 30
0.0
 11
-42.430577701056791
 21
-152.69999999999979
 31
0.0
  0
LINE
  8
DETAIL
  6
CONTINUOUS
 62
     5
 10
42.430577701055881
 20
-152.69999999999979
 30
0.0
 11
46.430577700879887
 21
-152.69999999999979
 31
0.0
  0
LINE
  8
DETAIL
  6
CONTINUOUS
 62
     5
 10
-40.430577700880796
 20
-160.299999999824
 30
0.0
 11
-40.430577700880796
 21
-156.30000000000001
 31
0.0
  0
LINE
  8
DETAIL
  6
CONTINUOUS
 62
     5
 10
-39.999999999824468
 20
-210.59999999999991
 30
0.0
 11
-39.999999999824468
 21
-209.99999999999989
 31
0.0
  0
LINE
  8
DETAIL
  6
CONTINUOUS
 62
     5
 10
-48.099999999824377
 20
-134.73923048450709
 30
0.0
 11
-49.100000000176351
 21
-136.47128129207749
 31
0.0
  0
LINE
  8
DETAIL
  6
CONTINUOUS
 62
     5
 10
-49.100000000176351
 20
-136.47128129207749
 30
0.0
 11
49.100000000175442
 21
-136.47128129207749
 31
0.0
  0
LINE
  8
DETAIL
  6
CONTINUOUS
 62
     5
 10
-48.099999999824377
 20
-134.73923048450709
 30
0.0
 11
48.099999999823467
 21
-134.73923048450709
 31
0.0
  0
LINE
  8
DETAIL
  6
CONTINUOUS
 62
     5
 10
-19.10949565827514
 20
-116.17596526373219
 30
0.0
 11
-19.625000000176438
 21
-120.3
 31
0.0
  0
LINE
  8
DETAIL
  6
CONTINUOUS
 62
     5
 10
-41.499999999824468
 20
-120.3
 30
0.0
 11
41.499999999823558
 21
-120.3
 31
0.0
  0
LINE
  8
DETAIL
  6
CONTINUOUS
 62
     5
 10
-6.500000000176442
 20
-114.3
 30
0.0
 11
-6.500000000176442
 21
-112.299999999824
 31
0.0
  0
LINE
  8
DETAIL
  6
CONTINUOUS
 62
     5
 10
-5.000000000176442
 20
-112.299999999824
 30
0.0
 11
-5.000000000176442
 21
-109.5
 31
0.0
  0
LINE
  8
DETAIL
  6
CONTINUOUS
 62
     5
 10
18.117217768837691
 20
-115.299999999824
 30
0.0
 11
-18.1172177688386
 21
-115.299999999824
 31
0.0
  0
LINE
  8
DETAIL
  6
CONTINUOUS
 62
     5
 10
-6.4993490492961428
 20
-112.299999999824
 30
0.0
 11
6.4993490492952333
 21
-112.299999999824
 31
0.0
  0
LINE
  8
DETAIL
  6
CONTINUOUS
 62
     5
 10
-120.0987193948947
 20
-109.5
 30
0.0
 11
120.0987193943656
 21
-109.5
 31
0.0
  0
LINE
  8
DETAIL
  6
CONTINUOUS
 62
     5
 10
-120.0987193948947
 20
-105.4999999996477
 30
0.0
 11
120.0987193943656
 21
-105.4999999996477
 31
0.0
  0
LINE
  8
DETAIL
  6
CONTINUOUS
 62
     5
 10
5.0000000001755316
 20
-112.299999999824
 30
0.0
 11
5.0000000001755316
 21
-109.5
 31
0.0
  0
LINE
  8
DETAIL
  6
CONTINUOUS
 62
     5
 10
6.5000000001755316
 20
-114.3
 30
0.0
 11
6.5000000001755316
 21
-112.299999999824
 31
0.0
  0
LINE
  8
DETAIL
  6
CONTINUOUS
 62
     5
 10
143.02816812095011
 20
-98.749999999647684
 30
0.0
 11
139.8977092679572
 21
-98.749999999647684
 31
0.0
  0
LINE
  8
DETAIL
  6
CONTINUOUS
 62
     5
 10
143.02816812095011
 20
-95.25
 30
0.0
 11
139.8977092679572
 21
-95.25
 31
0.0
  0
LINE
  8
DETAIL
  6
CONTINUOUS
 62
     5
 10
48.099999999823467
 20
-134.73923048450709
 30
0.0
 11
49.100000000175442
 21
-136.47128129207749
 31
0.0
  0
LINE
  8
DETAIL
  6
CONTINUOUS
 62
     5
 10
19.109495657746042
 20
-116.17596526373219
 30
0.0
 11
19.625000000175529
 21
-120.3
 31
0.0
  0
LINE
  8
DETAIL
  6
CONTINUOUS
 62
     5
 10
39.999999999823558
 20
-210.59999999999991
 30
0.0
 11
39.999999999823558
 21
-209.99999999999989
 31
0.0
  0
LINE
  8
DETAIL
  6
CONTINUOUS
 62
     5
 10
40.430577700879887
 20
-160.299999999824
 30
0.0
 11
40.430577700879887
 21
-156.30000000000001
 31
0.0
  0
LINE
  8
DETAIL
  6
CONTINUOUS
 62
     5
 10
42.430577701055881
 20
-156.30000000000001
 30
0.0
 11
42.430577701055881
 21
-152.69999999999979
 31
0.0
  0
LINE
  8
DETAIL
  6
CONTINUOUS
 62
     5
 10
44.43057770070368
 20
-160.299999999824
 30
0.0
 11
44.43057770070368
 21
-156.65726558978869
 31
0.0
  0
LINE
  8
DETAIL
  6
CONTINUOUS
 62
     5
 10
46.430577700879887
 20
-156.30000000000001
 30
0.0
 11
46.430577700879887
 21
-152.69999999999979
 31
0.0
  0
LINE
  8
DETAIL
  6
CONTINUOUS
 62
     5
 10
48.099999999823467
 20
-134.73923048450709
 30
0.0
 11
48.099999999823467
 21
-126.90000000000001
 31
0.0
  0
LINE
  8
DETAIL
  6
CONTINUOUS
 62
     5
 10
48.430577701055881
 20
-160.299999999824
 30
0.0
 11
48.430577701055881
 21
-156.30000000000001
 31
0.0
  0
LINE
  8
DETAIL
  6
CONTINUOUS
 62
     5
 10
49.100000000175442
 20
-158.40000000000001
 30
0.0
 11
49.100000000175442
 21
-136.47128129207749
 31
0.0
  0
LINE
  8
DETAIL
  6
CONTINUOUS
 62
     5
 10
59.499999999823558
 20
-188.3306386922535
 30
0.0
 11
59.499999999823558
 21
-195.4999999996478
 31
0.0
  0
LINE
  8
DETAIL
  6
CONTINUOUS
 62
     5
 10
62.499999999823558
 20
-170.4999999998239
 30
0.0
 11
62.499999999823558
 21
-195.4999999996478
 31
0.0
  0
LINE
  8
DETAIL
  6
CONTINUOUS
 62
     5
 10
67.499999999999545
 20
-197.49999999982381
 30
0.0
 11
67.499999999999545
 21
-195.4999999996478
 31
0.0
  0
LINE
  8
DETAIL
  6
CONTINUOUS
 62
     5
 10
68.099999999999454
 20
-199.9999999996478
 30
0.0
 11
68.099999999999454
 21
-195.4999999996478
 31
0.0
  0
LINE
  8
DETAIL
  6
CONTINUOUS
 62
     5
 10
167.99999999999949
 20
-19.999999999648029
 30
0.0
 11
139.8977092679572
 21
-19.999999999648029
 31
0.0
  0
LINE
  8
DETAIL
  6
CONTINUOUS
 62
     5
 10
120.0987193943656
 20
-19.999999999648029
 30
0.0
 11
-120.0987193948947
 21
-19.999999999648029
 31
0.0
  0
LINE
  8
DETAIL
  6
CONTINUOUS
 62
     5
 10
-139.89770926795811
 20
-19.999999999648029
 30
0.0
 11
-168.00000000000051
 21
-19.999999999648029
 31
0.0
  0
LINE
  8
DETAIL
  6
CONTINUOUS
 62
     5
 10
149.49390334542201
 20
-16.999999999647681
 30
0.0
 11
139.493903345598
 21
-16.999999999647681
 31
0.0
  0
LINE
  8
DETAIL
  6
CONTINUOUS
 62
     5
 10
-139.49390334559919
 20
-16.999999999647681
 30
0.0
 11
-149.49390334542301
 21
-16.999999999647681
 31
0.0
  0
LINE
  8
DETAIL
  6
CONTINUOUS
 62
     5
 10
-160.7573593130287
 20
-12.999999999823901
 30
0.0
 11
-124.3413600818667
 21
-12.999999999823901
 31
0.0
  0
LINE
  8
DETAIL
  6
CONTINUOUS
 62
     5
 10
124.3413600818658
 20
-12.999999999823901
 30
0.0
 11
160.75735931302759
 21
-12.999999999823901
 31
0.0
  0
LINE
  8
DETAIL
  6
CONTINUOUS
 62
     5
 10
179.0000000001755
 20
-9.9999999998238991
 30
0.0
 11
164.4315939269361
 21
-9.9999999998238991
 31
0.0
  0
LINE
  8
DETAIL
  6
CONTINUOUS
 62
     5
 10
143.07968978292209
 20
-9.9999999998238991
 30
0.0
 11
140.7500000001755
 21
-9.9999999998238991
 31
0.0
  0
LINE
  8
DETAIL
  6
CONTINUOUS
 62
     5
 10
140.7500000001755
 20
-9.9999999998238991
 30
0.0
 11
-140.7500000001767
 21
-9.9999999998238991
 31
0.0
  0
LINE
  8
DETAIL
  6
CONTINUOUS
 62
     5
 10
-140.7500000001767
 20
-9.9999999998238991
 30
0.0
 11
-143.07968978345119
 21
-9.9999999998238991
 31
0.0
  0
LINE
  8
DETAIL
  6
CONTINUOUS
 62
     5
 10
-164.43159392693701
 20
-9.9999999998238991
 30
0.0
 11
-179.00000000017641
 21
-9.9999999998238991
 31
0.0
  0
LINE
  8
DETAIL
  6
CONTINUOUS
 62
     5
 10
141.79827560545709
 20
-98.749999999647684
 30
0.0
 11
142.5053823866192
 21
-97.749999999823871
 31
0.0
  0
LINE
  8
DETAIL
  6
CONTINUOUS
 62
     5
 10
176.6672618894363
 20
-3.499999999647684
 30
0.0
 11
149.44365081390791
 21
-3.499999999647684
 31
0.0
  0
LINE
  8
DETAIL
  6
CONTINUOUS
 62
     5
 10
-149.44365081390899
 20
-3.499999999647684
 30
0.0
 11
-176.66726188943721
 21
-3.499999999647684
 31
0.0
  0
LINE
  8
DETAIL
  6
CONTINUOUS
 62
     5
 10
183.5000000001755
 20
-3.0
 30
0.0
 11
-183.50000000017641
 21
-3.0
 31
0.0
  0
LINE
  8
DETAIL
  6
CONTINUOUS
 62
     5
 10
183.5000000001755
 20
0.0
 30
0.0
 11
-183.50000000017641
 21
0.0
 31
0.0
  0
LINE
  8
DETAIL
  6
CONTINUOUS
 62
     5
 10
120.0987193943656
 20
-15.999999999823901
 30
0.0
 11
120.0987193943656
 21
-30.0
 31
0.0
  0
LINE
  8
DETAIL
  6
CONTINUOUS
 62
     5
 10
122.2200397383799
 20
-15.999999999823901
 30
0.0
 11
122.2200397383799
 21
-30.0
 31
0.0
  0
LINE
  8
DETAIL
  6
CONTINUOUS
 62
     5
 10
142.5053823866192
 20
-96.249999999823871
 30
0.0
 11
141.79827560545709
 21
-95.25
 31
0.0
  0
LINE
  8
DETAIL
  6
CONTINUOUS
 62
     5
 10
139.493903345598
 20
-12.999999999823901
 30
0.0
 11
139.493903345598
 21
-16.999999999647681
 31
0.0
  0
LINE
  8
DETAIL
  6
CONTINUOUS
 62
     5
 10
139.8977092679572
 20
-30.0
 30
0.0
 11
139.8977092679572
 21
-16.999999999647681
 31
0.0
  0
LINE
  8
DETAIL
  6
CONTINUOUS
 62
     5
 10
142.5053823866192
 20
-96.249999999823871
 30
0.0
 11
142.5053823866192
 21
-97.749999999823871
 31
0.0
  0
LINE
  8
DETAIL
  6
CONTINUOUS
 62
     5
 10
143.02842712447139
 20
-95.25
 30
0.0
 11
143.02842712447139
 21
-98.749999999647684
 31
0.0
  0
LINE
  8
DETAIL
  6
CONTINUOUS
 62
     5
 10
144.49390334577399
 20
-12.999999999823901
 30
0.0
 11
144.49390334577399
 21
-16.55341801267582
 31
0.0
  0
LINE
  8
DETAIL
  6
CONTINUOUS
 62
     5
 10
149.49390334542201
 20
-16.999999999647681
 30
0.0
 11
149.49390334542201
 21
-12.999999999823901
 31
0.0
  0
LINE
  8
DETAIL
  6
CONTINUOUS
 62
     5
 10
158.98959235985851
 20
-3.499999999647684
 30
0.0
 11
158.98959235985851
 21
-3.0
 31
0.0
  0
LINE
  8
DETAIL
  6
CONTINUOUS
 62
     5
 10
170.30330085897819
 20
-3.499999999647684
 30
0.0
 11
170.30330085897819
 21
-3.0
 31
0.0
  0
LINE
  8
DETAIL
  6
CONTINUOUS
 62
     5
 10
171.5000000001755
 20
-12.999999999823901
 30
0.0
 11
171.5000000001755
 21
-16.5
 31
0.0
  0
LINE
  8
DETAIL
  6
CONTINUOUS
 62
     5
 10
176.6672618894363
 20
-3.499999999647684
 30
0.0
 11
176.6672618894363
 21
-3.0
 31
0.0
  0
LINE
  8
DETAIL
  6
CONTINUOUS
 62
     5
 10
182.0000000001755
 20
-3.0
 30
0.0
 11
182.0000000001755
 21
-6.9999999998238991
 31
0.0
  0
ARC
  8
DETAIL
  6
CONTINUOUS
 62
     5
 10
-33.208262530986303
 20
-188.4046304323945
 30
0.0
 40
9.4046054894366371
 50
89.984724056702362
 51
105.6379155355917
  0
ARC
  8
DETAIL
  6
CONTINUOUS
 62
     5
 10
-41.499999999824468
 20
-126.90000000000001
 30
0.0
 40
6.5999999999999091
 50
90.0
 51
180.0
  0
ARC
  8
DETAIL
  6
CONTINUOUS
 62
     5
 10
-139.2500000001767
 20
-107.4999999998239
 30
0.0
 40
2.000000000175969
 50
108.9007989140009
 51
251.09595400930399
  0
ARC
  8
DETAIL
  6
CONTINUOUS
 62
     5
 10
-51.000000000000448
 20
-158.40000000000001
 30
0.0
 40
1.8999999998240049
 50
275.6249763729993
 51
0.0
  0
ARC
  8
DETAIL
  6
CONTINUOUS
 62
     5
 10
-35.000000000176442
 20
-209.29999999964789
 30
0.0
 40
1.700000000176016
 50
208.07248693589821
 51
331.92751306410179
  0
ARC
  8
DETAIL
  6
CONTINUOUS
 62
     5
 10
-7.5000000000004547
 20
-114.3
 30
0.0
 40
0.999999999823916
 50
270.0
 51
0.0
  0
ARC
  8
DETAIL
  6
CONTINUOUS
 62
     5
 10
-18.117217781514679
 20
-116.2999999996478
 30
0.0
 40
0.9999999998238992
 50
90.0
 51
172.8749835514993
  0
ARC
  8
DETAIL
  6
CONTINUOUS
 62
     5
 10
-33.399999999824558
 20
-210.09999999982389
 30
0.0
 40
0.099999999823922
 50
90.0
 51
180.0
  0
ARC
  8
DETAIL
  6
CONTINUOUS
 62
     5
 10
-36.600000000000357
 20
-210.09999999982389
 30
0.0
 40
0.099999999823922
 50
0.0
 51
90.0
  0
ARC
  8
DETAIL
  6
CONTINUOUS
 62
     5
 10
-168.00000000000051
 20
-16.5
 30
0.0
 40
3.5000000001761009
 50
180.0
 51
270.0
  0
ARC
  8
DETAIL
  6
CONTINUOUS
 62
     5
 10
-179.00000000017641
 20
-6.9999999998238991
 30
0.0
 40
3.0000000000000568
 50
180.0
 51
270.0
  0
ARC
  8
DETAIL
  6
CONTINUOUS
 62
     5
 10
-174.50000000017641
 20
-12.999999999823901
 30
0.0
 40
3.0000000000000568
 50
0.0
 51
90.0
  0
ARC
  8
DETAIL
  6
CONTINUOUS
 62
     5
 10
-183.50000000017641
 20
-1.5
 30
0.0
 40
1.5
 50
90.0
 51
270.0
  0
ARC
  8
DETAIL
  6
CONTINUOUS
 62
     5
 10
33.207229066900943
 20
-188.41216638380271
 30
0.0
 40
9.4121727607394305
 50
74.368392016211757
 51
90.008972586400432
  0
ARC
  8
DETAIL
  6
CONTINUOUS
 62
     5
 10
41.499999999823558
 20
-126.90000000000001
 30
0.0
 40
6.6000000000000094
 50
0.0
 51
90.0
  0
CIRCLE
  8
DETAIL
  6
CONTINUOUS
 62
     5
 10
-0.0000000000004547
 20
-188.4999999998239
 30
0.0
 40
2.7500000001760569
  0
ARC
  8
DETAIL
  6
CONTINUOUS
 62
     5
 10
139.2500000001755
 20
-107.4999999998239
 30
0.0
 40
2.0000000001760272
 50
288.90404599069598
 51
71.09920108599907
  0
ARC
  8
DETAIL
  6
CONTINUOUS
 62
     5
 10
50.999999999999552
 20
-158.40000000000001
 30
0.0
 40
1.8999999998239401
 50
180.0
 51
270.0
  0
ARC
  8
DETAIL
  6
CONTINUOUS
 62
     5
 10
35.000000000175532
 20
-209.29999999964789
 30
0.0
 40
1.7000000001760409
 50
208.07248693589821
 51
331.92751306410179
  0
ARC
  8
DETAIL
  6
CONTINUOUS
 62
     5
 10
7.4999999999995453
 20
-114.3
 30
0.0
 40
0.9999999998239421
 50
180.0
 51
270.0
  0
ARC
  8
DETAIL
  6
CONTINUOUS
 62
     5
 10
18.117217781513549
 20
-116.2999999996478
 30
0.0
 40
0.9999999998239579
 50
7.1250164485007277
 51
90.0
  0
ARC
  8
DETAIL
  6
CONTINUOUS
 62
     5
 10
36.599999999999447
 20
-210.09999999982389
 30
0.0
 40
0.099999999823922
 50
90.0
 51
180.0
  0
ARC
  8
DETAIL
  6
CONTINUOUS
 62
     5
 10
33.399999999823422
 20
-210.09999999982389
 30
0.0
 40
0.099999999823936
 50
0.0
 51
90.0
  0
ARC
  8
DETAIL
  6
CONTINUOUS
 62
     5
 10
167.99999999999949
 20
-16.5
 30
0.0
 40
3.500000000175874
 50
270.0
 51
0.0
  0
ARC
  8
DETAIL
  6
CONTINUOUS
 62
     5
 10
174.5000000001755
 20
-12.999999999823901
 30
0.0
 40
2.999999999999885
 50
90.0
 51
180.0
  0
ARC
  8
DETAIL
  6
CONTINUOUS
 62
     5
 10
179.0000000001755
 20
-6.9999999998238991
 30
0.0
 40
2.999999999999885
 50
270.0
 51
0.0
  0
ARC
  8
DETAIL
  6
CONTINUOUS
 62
     5
 10
183.5000000001755
 20
-1.5
 30
0.0
 40
1.5
 50
270.0
 51
90.0
  0
LINE
  8
DETAIL
  6
CONTINUOUS
 62
     5
 10
59.499999999823558
 20
-188.3306386922535
 30
0.0
 11
59.499497996762102
 21
-188.28141077893039
 31
0.0
  0
LINE
  8
DETAIL
  6
CONTINUOUS
 62
     5
 10
59.499497996762102
 20
-188.28141077893039
 30
0.0
 11
59.498530191121738
 21
-188.232185570425
 31
0.0
  0
LINE
  8
DETAIL
  6
CONTINUOUS
 62
     5
 10
59.498530191121738
 20
-188.232185570425
 30
0.0
 11
59.498530191121738
 21
-188.232185570425
 31
0.0
  0
LINE
  8
DETAIL
  6
CONTINUOUS
 62
     5
 10
59.498530191121738
 20
-188.232185570425
 30
0.0
 11
59.4967293016648
 21
-188.18296812717631
 31
0.0
  0
LINE
  8
DETAIL
  6
CONTINUOUS
 62
     5
 10
59.4967293016648
 20
-188.18296812717631
 30
0.0
 11
59.494122132519351
 21
-188.13377293211099
 31
0.0
  0
LINE
  8
DETAIL
  6
CONTINUOUS
 62
     5
 10
59.494122132519351
 20
-188.13377293211099
 30
0.0
 11
59.494122132519351
 21
-188.13377293211099
 31
0.0
  0
LINE
  8
DETAIL
  6
CONTINUOUS
 62
     5
 10
59.494122132519351
 20
-188.13377293211099
 30
0.0
 11
59.490807461433633
 21
-188.08461531493811
 31
0.0
  0
LINE
  8
DETAIL
  6
CONTINUOUS
 62
     5
 10
59.490807461433633
 20
-188.08461531493811
 30
0.0
 11
59.486777875270491
 21
-188.0355045700054
 31
0.0
  0
LINE
  8
DETAIL
  6
CONTINUOUS
 62
     5
 10
59.486777875270491
 20
-188.0355045700054
 30
0.0
 11
59.486777875270491
 21
-188.0355045700054
 31
0.0
  0
LINE
  8
DETAIL
  6
CONTINUOUS
 62
     5
 10
59.486777875270491
 20
-188.0355045700054
 30
0.0
 11
59.482007082715427
 21
-187.9864521625594
 31
0.0
  0
LINE
  8
DETAIL
  6
CONTINUOUS
 62
     5
 10
59.482007082715427
 20
-187.9864521625594
 30
0.0
 11
59.476499470628823
 21
-187.93748427680211
 31
0.0
  0
LINE
  8
DETAIL
  6
CONTINUOUS
 62
     5
 10
59.476499470628823
 20
-187.93748427680211
 30
0.0
 11
59.476499470628823
 21
-187.93748427680211
 31
0.0
  0
LINE
  8
DETAIL
  6
CONTINUOUS
 62
     5
 10
59.476499470628823
 20
-187.93748427680211
 30
0.0
 11
59.470262964960973
 21
-187.88861756655891
 31
0.0
  0
LINE
  8
DETAIL
  6
CONTINUOUS
 62
     5
 10
59.470262964960973
 20
-187.88861756655891
 30
0.0
 11
59.463288969848243
 21
-187.83981584519469
 31
0.0
  0
LINE
  8
DETAIL
  6
CONTINUOUS
 62
     5
 10
59.463288969848243
 20
-187.83981584519469
 30
0.0
 11
59.463288969848243
 21
-187.83981584519469
 31
0.0
  0
LINE
  8
DETAIL
  6
CONTINUOUS
 62
     5
 10
59.463288969848243
 20
-187.83981584519469
 30
0.0
 11
59.455568626312918
 21
-187.7910504568483
 31
0.0
  0
LINE
  8
DETAIL
  6
CONTINUOUS
 62
     5
 10
59.455568626312918
 20
-187.7910504568483
 30
0.0
 11
59.447108544737603
 21
-187.74237570921289
 31
0.0
  0
LINE
  8
DETAIL
  6
CONTINUOUS
 62
     5
 10
59.447108544737603
 20
-187.74237570921289
 30
0.0
 11
59.447108544737603
 21
-187.74237570921289
 31
0.0
  0
LINE
  8
DETAIL
  6
CONTINUOUS
 62
     5
 10
59.447108544737603
 20
-187.74237570921289
 30
0.0
 11
59.437916813931679
 21
-187.6938519789924
 31
0.0
  0
LINE
  8
DETAIL
  6
CONTINUOUS
 62
     5
 10
59.437916813931679
 20
-187.6938519789924
 30
0.0
 11
59.427991967053003
 21
-187.64548095537759
 31
0.0
  0
LINE
  8
DETAIL
  6
CONTINUOUS
 62
     5
 10
59.427991967053003
 20
-187.64548095537759
 30
0.0
 11
59.427991967053003
 21
-187.64548095537759
 31
0.0
  0
LINE
  8
DETAIL
  6
CONTINUOUS
 62
     5
 10
59.427991967053003
 20
-187.64548095537759
 30
0.0
 11
59.417332550235187
 21
-187.59725891833591
 31
0.0
  0
LINE
  8
DETAIL
  6
CONTINUOUS
 62
     5
 10
59.417332550235187
 20
-187.59725891833591
 30
0.0
 11
59.405946717173258
 21
-187.54921919845111
 31
0.0
  0
LINE
  8
DETAIL
  6
CONTINUOUS
 62
     5
 10
59.405946717173258
 20
-187.54921919845111
 30
0.0
 11
59.405946717173258
 21
-187.54921919845111
 31
0.0
  0
LINE
  8
DETAIL
  6
CONTINUOUS
 62
     5
 10
59.405946717173258
 20
-187.54921919845111
 30
0.0
 11
59.393837804804662
 21
-187.50138201022219
 31
0.0
  0
LINE
  8
DETAIL
  6
CONTINUOUS
 62
     5
 10
59.393837804804662
 20
-187.50138201022219
 30
0.0
 11
59.380980275478812
 21
-187.45367805319589
 31
0.0
  0
LINE
  8
DETAIL
  6
CONTINUOUS
 62
     5
 10
59.380980275478812
 20
-187.45367805319589
 30
0.0
 11
59.380980275478812
 21
-187.45367805319589
 31
0.0
  0
LINE
  8
DETAIL
  6
CONTINUOUS
 62
     5
 10
59.380980275478812
 20
-187.45367805319589
 30
0.0
 11
59.367367845596391
 21
-187.40609590047939
 31
0.0
  0
LINE
  8
DETAIL
  6
CONTINUOUS
 62
     5
 10
59.367367845596391
 20
-187.40609590047939
 30
0.0
 11
59.353100122348678
 21
-187.35894513437441
 31
0.0
  0
LINE
  8
DETAIL
  6
CONTINUOUS
 62
     5
 10
59.353100122348678
 20
-187.35894513437441
 30
0.0
 11
59.353100122348678
 21
-187.35894513437441
 31
0.0
  0
LINE
  8
DETAIL
  6
CONTINUOUS
 62
     5
 10
59.353100122348678
 20
-187.35894513437441
 30
0.0
 11
59.338263912345163
 21
-187.31248885655279
 31
0.0
  0
LINE
  8
DETAIL
  6
CONTINUOUS
 62
     5
 10
59.338263912345163
 20
-187.31248885655279
 30
0.0
 11
59.322788929072892
 21
-187.26648323697759
 31
0.0
  0
LINE
  8
DETAIL
  6
CONTINUOUS
 62
     5
 10
59.322788929072892
 20
-187.26648323697759
 30
0.0
 11
59.322788929072892
 21
-187.26648323697759
 31
0.0
  0
LINE
  8
DETAIL
  6
CONTINUOUS
 62
     5
 10
59.322788929072892
 20
-187.26648323697759
 30
0.0
 11
59.306588969743188
 21
-187.22063813916
 31
0.0
  0
LINE
  8
DETAIL
  6
CONTINUOUS
 62
     5
 10
59.306588969743188
 20
-187.22063813916
 30
0.0
 11
59.2896712595807
 21
-187.1749851325184
 31
0.0
  0
LINE
  8
DETAIL
  6
CONTINUOUS
 62
     5
 10
59.2896712595807
 20
-187.1749851325184
 30
0.0
 11
59.2896712595807
 21
-187.1749851325184
 31
0.0
  0
LINE
  8
DETAIL
  6
CONTINUOUS
 62
     5
 10
59.2896712595807
 20
-187.1749851325184
 30
0.0
 11
59.272061015651623
 21
-187.1296164077952
 31
0.0
  0
LINE
  8
DETAIL
  6
CONTINUOUS
 62
     5
 10
59.272061015651623
 20
-187.1296164077952
 30
0.0
 11
59.253761994370507
 21
-187.08454493512161
 31
0.0
  0
LINE
  8
DETAIL
  6
CONTINUOUS
 62
     5
 10
59.253761994370507
 20
-187.08454493512161
 30
0.0
 11
59.253761994370507
 21
-187.08454493512161
 31
0.0
  0
LINE
  8
DETAIL
  6
CONTINUOUS
 62
     5
 10
59.253761994370507
 20
-187.08454493512161
 30
0.0
 11
59.234770690636878
 21
-187.03976267360991
 31
0.0
  0
LINE
  8
DETAIL
  6
CONTINUOUS
 62
     5
 10
59.234770690636878
 20
-187.03976267360991
 30
0.0
 11
59.215076013939097
 21
-186.9952567589128
 31
0.0
  0
LINE
  8
DETAIL
  6
CONTINUOUS
 62
     5
 10
59.215076013939097
 20
-186.9952567589128
 30
0.0
 11
59.215076013939097
 21
-186.9952567589128
 31
0.0
  0
LINE
  8
DETAIL
  6
CONTINUOUS
 62
     5
 10
59.215076013939097
 20
-186.9952567589128
 30
0.0
 11
59.194677927986959
 21
-186.9510377494305
 31
0.0
  0
LINE
  8
DETAIL
  6
CONTINUOUS
 62
     5
 10
59.194677927986959
 20
-186.9510377494305
 30
0.0
 11
59.173628198784627
 21
-186.907214718017
 31
0.0
  0
LINE
  8
DETAIL
  6
CONTINUOUS
 62
     5
 10
59.173628198784627
 20
-186.907214718017
 30
0.0
 11
59.173628198784627
 21
-186.907214718017
 31
0.0
  0
LINE
  8
DETAIL
  6
CONTINUOUS
 62
     5
 10
59.173628198784627
 20
-186.907214718017
 30
0.0
 11
59.151971675227287
 21
-186.86388037843389
 31
0.0
  0
LINE
  8
DETAIL
  6
CONTINUOUS
 62
     5
 10
59.151971675227287
 20
-186.86388037843389
 30
0.0
 11
59.129673735474853
 21
-186.82096349362229
 31
0.0
  0
LINE
  8
DETAIL
  6
CONTINUOUS
 62
     5
 10
59.129673735474853
 20
-186.82096349362229
 30
0.0
 11
59.129673735474853
 21
-186.82096349362229
 31
0.0
  0
LINE
  8
DETAIL
  6
CONTINUOUS
 62
     5
 10
59.129673735474853
 20
-186.82096349362229
 30
0.0
 11
59.106691456664073
 21
-186.7783772285602
 31
0.0
  0
LINE
  8
DETAIL
  6
CONTINUOUS
 62
     5
 10
59.106691456664073
 20
-186.7783772285602
 30
0.0
 11
59.083028182570622
 21
-186.7361363071976
 31
0.0
  0
LINE
  8
DETAIL
  6
CONTINUOUS
 62
     5
 10
59.083028182570622
 20
-186.7361363071976
 30
0.0
 11
59.083028182570622
 21
-186.7361363071976
 31
0.0
  0
LINE
  8
DETAIL
  6
CONTINUOUS
 62
     5
 10
59.083028182570622
 20
-186.7361363071976
 30
0.0
 11
59.058698881380217
 21
-186.69427834029671
 31
0.0
  0
LINE
  8
DETAIL
  6
CONTINUOUS
 62
     5
 10
59.058698881380217
 20
-186.69427834029671
 30
0.0
 11
59.033718752283221
 21
-186.65283092689759
 31
0.0
  0
LINE
  8
DETAIL
  6
CONTINUOUS
 62
     5
 10
59.033718752283221
 20
-186.65283092689759
 30
0.0
 11
59.033718752283221
 21
-186.65283092689759
 31
0.0
  0
LINE
  8
DETAIL
  6
CONTINUOUS
 62
     5
 10
59.033718752283221
 20
-186.65283092689759
 30
0.0
 11
59.00809125455703
 21
-186.61180378508951
 31
0.0
  0
LINE
  8
DETAIL
  6
CONTINUOUS
 62
     5
 10
59.00809125455703
 20
-186.61180378508951
 30
0.0
 11
58.981772656823978
 21
-186.57114512087901
 31
0.0
  0
LINE
  8
DETAIL
  6
CONTINUOUS
 62
     5
 10
58.981772656823978
 20
-186.57114512087901
 30
0.0
 11
58.981772656823978
 21
-186.57114512087901
 31
0.0
  0
LINE
  8
DETAIL
  6
CONTINUOUS
 62
     5
 10
58.981772656823978
 20
-186.57114512087901
 30
0.0
 11
58.954754562946619
 21
-186.5308517772651
 31
0.0
  0
LINE
  8
DETAIL
  6
CONTINUOUS
 62
     5
 10
58.954754562946619
 20
-186.5308517772651
 30
0.0
 11
58.927217108403973
 21
-186.49117665729739
 31
0.0
  0
LINE
  8
DETAIL
  6
CONTINUOUS
 62
     5
 10
58.927217108403973
 20
-186.49117665729739
 30
0.0
 11
58.927217108403973
 21
-186.49117665729739
 31
0.0
  0
LINE
  8
DETAIL
  6
CONTINUOUS
 62
     5
 10
58.927217108403973
 20
-186.49117665729739
 30
0.0
 11
58.899315421417207
 21
-186.45233392464371
 31
0.0
  0
LINE
  8
DETAIL
  6
CONTINUOUS
 62
     5
 10
58.899315421417207
 20
-186.45233392464371
 30
0.0
 11
58.870916069558923
 21
-186.4141267253938
 31
0.0
  0
LINE
  8
DETAIL
  6
CONTINUOUS
 62
     5
 10
58.870916069558923
 20
-186.4141267253938
 30
0.0
 11
58.870916069558923
 21
-186.4141267253938
 31
0.0
  0
LINE
  8
DETAIL
  6
CONTINUOUS
 62
     5
 10
58.870916069558923
 20
-186.4141267253938
 30
0.0
 11
58.841856859365407
 21
-186.37632018005871
 31
0.0
  0
LINE
  8
DETAIL
  6
CONTINUOUS
 62
     5
 10
58.841856859365407
 20
-186.37632018005871
 30
0.0
 11
58.812149113874057
 21
-186.33893832441501
 31
0.0
  0
LINE
  8
DETAIL
  6
CONTINUOUS
 62
     5
 10
58.812149113874057
 20
-186.33893832441501
 30
0.0
 11
58.812149113874057
 21
-186.33893832441501
 31
0.0
  0
LINE
  8
DETAIL
  6
CONTINUOUS
 62
     5
 10
58.812149113874057
 20
-186.33893832441501
 30
0.0
 11
58.781841600630287
 21
-186.3020581229988
 31
0.0
  0
LINE
  8
DETAIL
  6
CONTINUOUS
 62
     5
 10
58.781841600630287
 20
-186.3020581229988
 30
0.0
 11
58.750959348710921
 21
-186.2657093401223
 31
0.0
  0
LINE
  8
DETAIL
  6
CONTINUOUS
 62
     5
 10
58.750959348710921
 20
-186.2657093401223
 30
0.0
 11
58.750959348710921
 21
-186.2657093401223
 31
0.0
  0
LINE
  8
DETAIL
  6
CONTINUOUS
 62
     5
 10
58.750959348710921
 20
-186.2657093401223
 30
0.0
 11
58.719501811918462
 21
-186.2298924114491
 31
0.0
  0
LINE
  8
DETAIL
  6
CONTINUOUS
 62
     5
 10
58.719501811918462
 20
-186.2298924114491
 30
0.0
 11
58.6873898814315
 21
-186.1945376582778
 31
0.0
  0
LINE
  8
DETAIL
  6
CONTINUOUS
 62
     5
 10
58.6873898814315
 20
-186.1945376582778
 30
0.0
 11
58.6873898814315
 21
-186.1945376582778
 31
0.0
  0
LINE
  8
DETAIL
  6
CONTINUOUS
 62
     5
 10
58.6873898814315
 20
-186.1945376582778
 30
0.0
 11
58.654609305013992
 21
-186.15963978773621
 31
0.0
  0
LINE
  8
DETAIL
  6
CONTINUOUS
 62
     5
 10
58.654609305013992
 20
-186.15963978773621
 30
0.0
 11
58.621483819397334
 21
-186.12552116464349
 31
0.0
  0
LINE
  8
DETAIL
  6
CONTINUOUS
 62
     5
 10
58.621483819397334
 20
-186.12552116464349
 30
0.0
 11
58.621483819397334
 21
-186.12552116464349
 31
0.0
  0
LINE
  8
DETAIL
  6
CONTINUOUS
 62
     5
 10
58.621483819397334
 20
-186.12552116464349
 30
0.0
 11
58.588290336345608
 21
-186.0924525690323
 31
0.0
  0
LINE
  8
DETAIL
  6
CONTINUOUS
 62
     5
 10
58.588290336345608
 20
-186.0924525690323
 30
0.0
 11
58.554780478788871
 21
-186.06017078410221
 31
0.0
  0
LINE
  8
DETAIL
  6
CONTINUOUS
 62
     5
 10
58.554780478788871
 20
-186.06017078410221
 30
0.0
 11
58.554780478788871
 21
-186.06017078410221
 31
0.0
  0
LINE
  8
DETAIL
  6
CONTINUOUS
 62
     5
 10
58.554780478788871
 20
-186.06017078410221
 30
0.0
 11
58.520656002940093
 21
-186.02836501196501
 31
0.0
  0
LINE
  8
DETAIL
  6
CONTINUOUS
 62
     5
 10
58.520656002940093
 20
-186.02836501196501
 30
0.0
 11
58.485944486978042
 21
-185.99706812721911
 31
0.0
  0
LINE
  8
DETAIL
  6
CONTINUOUS
 62
     5
 10
58.485944486978042
 20
-185.99706812721911
 30
0.0
 11
58.485944486978042
 21
-185.99706812721911
 31
0.0
  0
LINE
  8
DETAIL
  6
CONTINUOUS
 62
     5
 10
58.485944486978042
 20
-185.99706812721911
 30
0.0
 11
58.45073527730483
 21
-185.96637737759431
 31
0.0
  0
LINE
  8
DETAIL
  6
CONTINUOUS
 62
     5
 10
58.45073527730483
 20
-185.96637737759431
 30
0.0
 11
58.415038971248578
 21
-185.9363038308644
 31
0.0
  0
LINE
  8
DETAIL
  6
CONTINUOUS
 62
     5
 10
58.415038971248578
 20
-185.9363038308644
 30
0.0
 11
58.415038971248578
 21
-185.9363038308644
 31
0.0
  0
LINE
  8
DETAIL
  6
CONTINUOUS
 62
     5
 10
58.415038971248578
 20
-185.9363038308644
 30
0.0
 11
58.378843772451091
 21
-185.9068372716481
 31
0.0
  0
LINE
  8
DETAIL
  6
CONTINUOUS
 62
     5
 10
58.378843772451091
 20
-185.9068372716481
 30
0.0
 11
58.342127058883761
 21
-185.87796853190719
 31
0.0
  0
LINE
  8
DETAIL
  6
CONTINUOUS
 62
     5
 10
58.342127058883761
 20
-185.87796853190719
 30
0.0
 11
58.342127058883761
 21
-185.87796853190719
 31
0.0
  0
LINE
  8
DETAIL
  6
CONTINUOUS
 62
     5
 10
58.342127058883761
 20
-185.87796853190719
 30
0.0
 11
58.304894015039281
 21
-185.84970920308521
 31
0.0
  0
LINE
  8
DETAIL
  6
CONTINUOUS
 62
     5
 10
58.304894015039281
 20
-185.84970920308521
 30
0.0
 11
58.267271877167332
 21
-185.82215286721751
 31
0.0
  0
LINE
  8
DETAIL
  6
CONTINUOUS
 62
     5
 10
58.267271877167332
 20
-185.82215286721751
 30
0.0
 11
58.267271877167332
 21
-185.82215286721751
 31
0.0
  0
LINE
  8
DETAIL
  6
CONTINUOUS
 62
     5
 10
58.267271877167332
 20
-185.82215286721751
 30
0.0
 11
58.229369493855302
 21
-185.7953779505572
 31
0.0
  0
LINE
  8
DETAIL
  6
CONTINUOUS
 62
     5
 10
58.229369493855302
 20
-185.7953779505572
 30
0.0
 11
58.191100111286687
 21
-185.76932026564251
 31
0.0
  0
LINE
  8
DETAIL
  6
CONTINUOUS
 62
     5
 10
58.191100111286687
 20
-185.76932026564251
 30
0.0
 11
58.191100111286687
 21
-185.76932026564251
 31
0.0
  0
LINE
  8
DETAIL
  6
CONTINUOUS
 62
     5
 10
58.191100111286687
 20
-185.76932026564251
 30
0.0
 11
58.152357622837371
 21
-185.7439025687288
 31
0.0
  0
LINE
  8
DETAIL
  6
CONTINUOUS
 62
     5
 10
58.152357622837371
 20
-185.7439025687288
 30
0.0
 11
58.113154113053497
 21
-185.71913800466231
 31
0.0
  0
LINE
  8
DETAIL
  6
CONTINUOUS
 62
     5
 10
58.113154113053497
 20
-185.71913800466231
 30
0.0
 11
58.113154113053497
 21
-185.71913800466231
 31
0.0
  0
LINE
  8
DETAIL
  6
CONTINUOUS
 62
     5
 10
58.113154113053497
 20
-185.71913800466231
 30
0.0
 11
58.073528986474678
 21
-185.69505887458311
 31
0.0
  0
LINE
  8
DETAIL
  6
CONTINUOUS
 62
     5
 10
58.073528986474678
 20
-185.69505887458311
 30
0.0
 11
58.033512736447392
 21
-185.67168371621719
 31
0.0
  0
LINE
  8
DETAIL
  6
CONTINUOUS
 62
     5
 10
58.033512736447392
 20
-185.67168371621719
 30
0.0
 11
58.033512736447392
 21
-185.67168371621719
 31
0.0
  0
LINE
  8
DETAIL
  6
CONTINUOUS
 62
     5
 10
58.033512736447392
 20
-185.67168371621719
 30
0.0
 11
57.993112991920952
 21
-185.6490187927038
 31
0.0
  0
LINE
  8
DETAIL
  6
CONTINUOUS
 62
     5
 10
57.993112991920952
 20
-185.6490187927038
 30
0.0
 11
57.952254835448457
 21
-185.6270350322485
 31
0.0
  0
LINE
  8
DETAIL
  6
CONTINUOUS
 62
     5
 10
57.952254835448457
 20
-185.6270350322485
 30
0.0
 11
57.952254835448457
 21
-185.6270350322485
 31
0.0
  0
LINE
  8
DETAIL
  6
CONTINUOUS
 62
     5
 10
57.952254835448457
 20
-185.6270350322485
 30
0.0
 11
57.910927487178242
 21
-185.60573330510971
 31
0.0
  0
LINE
  8
DETAIL
  6
CONTINUOUS
 62
     5
 10
57.910927487178242
 20
-185.60573330510971
 30
0.0
 11
57.869459264036323
 21
-185.58526958469631
 31
0.0
  0
LINE
  8
DETAIL
  6
CONTINUOUS
 62
     5
 10
57.869459264036323
 20
-185.58526958469631
 30
0.0
 11
57.869459264036323
 21
-185.58526958469631
 31
0.0
  0
LINE
  8
DETAIL
  6
CONTINUOUS
 62
     5
 10
57.869459264036323
 20
-185.58526958469631
 30
0.0
 11
57.828131036764937
 21
-185.5657735146325
 31
0.0
  0
LINE
  8
DETAIL
  6
CONTINUOUS
 62
     5
 10
57.828131036764937
 20
-185.5657735146325
 30
0.0
 11
57.786694794593807
 21
-185.54711431625799
 31
0.0
  0
LINE
  8
DETAIL
  6
CONTINUOUS
 62
     5
 10
57.786694794593807
 20
-185.54711431625799
 30
0.0
 11
57.786694794593807
 21
-185.54711431625799
 31
0.0
  0
LINE
  8
DETAIL
  6
CONTINUOUS
 62
     5
 10
57.786694794593807
 20
-185.54711431625799
 30
0.0
 11
57.744853463501393
 21
-185.52914062180321
 31
0.0
  0
LINE
  8
DETAIL
  6
CONTINUOUS
 62
     5
 10
57.744853463501393
 20
-185.52914062180321
 30
0.0
 11
57.702642597972947
 21
-185.5118791293462
 31
0.0
  0
LINE
  8
DETAIL
  6
CONTINUOUS
 62
     5
 10
57.702642597972947
 20
-185.5118791293462
 30
0.0
 11
57.702642597972947
 21
-185.5118791293462
 31
0.0
  0
LINE
  8
DETAIL
  6
CONTINUOUS
 62
     5
 10
57.702642597972947
 20
-185.5118791293462
 30
0.0
 11
57.660160432805696
 21
-185.4953820609359
 31
0.0
  0
LINE
  8
DETAIL
  6
CONTINUOUS
 62
     5
 10
57.660160432805696
 20
-185.4953820609359
 30
0.0
 11
57.617423295532717
 21
-185.47962566865931
 31
0.0
  0
LINE
  8
DETAIL
  6
CONTINUOUS
 62
     5
 10
57.617423295532717
 20
-185.47962566865931
 30
0.0
 11
57.617423295532717
 21
-185.47962566865931
 31
0.0
  0
LINE
  8
DETAIL
  6
CONTINUOUS
 62
     5
 10
57.617423295532717
 20
-185.47962566865931
 30
0.0
 11
57.57442578700784
 21
-185.46459866561341
 31
0.0
  0
LINE
  8
DETAIL
  6
CONTINUOUS
 62
     5
 10
57.57442578700784
 20
-185.46459866561341
 30
0.0
 11
57.53115750863094
 21
-185.4504155788957
 31
0.0
  0
LINE
  8
DETAIL
  6
CONTINUOUS
 62
     5
 10
57.53115750863094
 20
-185.4504155788957
 30
0.0
 11
57.53115750863094
 21
-185.4504155788957
 31
0.0
  0
LINE
  8
DETAIL
  6
CONTINUOUS
 62
     5
 10
57.53115750863094
 20
-185.4504155788957
 30
0.0
 11
57.487632288207813
 21
-185.43711556759311
 31
0.0
  0
LINE
  8
DETAIL
  6
CONTINUOUS
 62
     5
 10
57.487632288207813
 20
-185.43711556759311
 30
0.0
 11
57.44396585862637
 21
-185.42431050475349
 31
0.0
  0
LINE
  8
DETAIL
  6
CONTINUOUS
 62
     5
 10
-57.44396585862728
 20
-185.42431050475349
 30
0.0
 11
-57.487625282944919
 21
-185.43711342077441
 31
0.0
  0
LINE
  8
DETAIL
  6
CONTINUOUS
 62
     5
 10
-57.487625282944919
 20
-185.43711342077441
 30
0.0
 11
-57.531143533261677
 21
-185.45041112030549
 31
0.0
  0
LINE
  8
DETAIL
  6
CONTINUOUS
 62
     5
 10
-57.531143533261677
 20
-185.45041112030549
 30
0.0
 11
-57.531143533261677
 21
-185.45041112030549
 31
0.0
  0
LINE
  8
DETAIL
  6
CONTINUOUS
 62
     5
 10
-57.531143533261677
 20
-185.45041112030549
 30
0.0
 11
-57.574404915390012
 21
-185.4645916058704
 31
0.0
  0
LINE
  8
DETAIL
  6
CONTINUOUS
 62
     5
 10
-57.574404915390012
 20
-185.4645916058704
 30
0.0
 11
-57.617395654400752
 21
-185.47961575604711
 31
0.0
  0
LINE
  8
DETAIL
  6
CONTINUOUS
 62
     5
 10
-57.617395654400752
 20
-185.47961575604711
 30
0.0
 11
-57.617395654400752
 21
-185.47961575604711
 31
0.0
  0
LINE
  8
DETAIL
  6
CONTINUOUS
 62
     5
 10
-57.617395654400752
 20
-185.47961575604711
 30
0.0
 11
-57.660126159039692
 21
-185.49536908779831
 31
0.0
  0
LINE
  8
DETAIL
  6
CONTINUOUS
 62
     5
 10
-57.660126159039692
 20
-185.49536908779831
 30
0.0
 11
-57.702601653497823
 21
-185.51186279557029
 31
0.0
  0
LINE
  8
DETAIL
  6
CONTINUOUS
 62
     5
 10
-57.702601653497823
 20
-185.51186279557029
 30
0.0
 11
-57.702601653497823
 21
-185.51186279557029
 31
0.0
  0
LINE
  8
DETAIL
  6
CONTINUOUS
 62
     5
 10
-57.702601653497823
 20
-185.51186279557029
 30
0.0
 11
-57.744805770568291
 21
-185.52912059668469
 31
0.0
  0
LINE
  8
DETAIL
  6
CONTINUOUS
 62
     5
 10
-57.744805770568291
 20
-185.52912059668469
 30
0.0
 11
-57.786640962005777
 21
-185.54709062246809
 31
0.0
  0
LINE
  8
DETAIL
  6
CONTINUOUS
 62
     5
 10
-57.786640962005777
 20
-185.54709062246809
 30
0.0
 11
-57.786640962005777
 21
-185.54709062246809
 31
0.0
  0
LINE
  8
DETAIL
  6
CONTINUOUS
 62
     5
 10
-57.786640962005777
 20
-185.54709062246809
 30
0.0
 11
-57.828071861482393
 21
-185.5657462743724
 31
0.0
  0
LINE
  8
DETAIL
  6
CONTINUOUS
 62
     5
 10
-57.828071861482393
 20
-185.5657462743724
 30
0.0
 11
-57.869393011377497
 21
-185.5852376203328
 31
0.0
  0
LINE
  8
DETAIL
  6
CONTINUOUS
 62
     5
 10
-57.869393011377497
 20
-185.5852376203328
 30
0.0
 11
-57.869393011377497
 21
-185.5852376203328
 31
0.0
  0
LINE
  8
DETAIL
  6
CONTINUOUS
 62
     5
 10
-57.869393011377497
 20
-185.5852376203328
 30
0.0
 11
-57.910850299064798
 21
-185.60569432170951
 31
0.0
  0
LINE
  8
DETAIL
  6
CONTINUOUS
 62
     5
 10
-57.910850299064798
 20
-185.60569432170951
 30
0.0
 11
-57.952165083193222
 21
-185.6269877470647
 31
0.0
  0
LINE
  8
DETAIL
  6
CONTINUOUS
 62
     5
 10
-57.952165083193222
 20
-185.6269877470647
 30
0.0
 11
-57.952165083193222
 21
-185.6269877470647
 31
0.0
  0
LINE
  8
DETAIL
  6
CONTINUOUS
 62
     5
 10
-57.952165083193222
 20
-185.6269877470647
 30
0.0
 11
-57.993011646995001
 21
-185.64896312964501
 31
0.0
  0
LINE
  8
DETAIL
  6
CONTINUOUS
 62
     5
 10
-57.993011646995001
 20
-185.64896312964501
 30
0.0
 11
-58.03340050076622
 21
-185.67161945422691
 31
0.0
  0
LINE
  8
DETAIL
  6
CONTINUOUS
 62
     5
 10
-58.03340050076622
 20
-185.67161945422691
 30
0.0
 11
-58.03340050076622
 21
-185.67161945422691
 31
0.0
  0
LINE
  8
DETAIL
  6
CONTINUOUS
 62
     5
 10
-58.03340050076622
 20
-185.67161945422691
 30
0.0
 11
-58.073405853482647
 21
-185.69498546469239
 31
0.0
  0
LINE
  8
DETAIL
  6
CONTINUOUS
 62
     5
 10
-58.073405853482647
 20
-185.69498546469239
 30
0.0
 11
-58.113020481774363
 21
-185.71905518981819
 31
0.0
  0
LINE
  8
DETAIL
  6
CONTINUOUS
 62
     5
 10
-58.113020481774363
 20
-185.71905518981819
 30
0.0
 11
-58.113020481774363
 21
-185.71905518981819
 31
0.0
  0
LINE
  8
DETAIL
  6
CONTINUOUS
 62
     5
 10
-58.113020481774363
 20
-185.71905518981819
 30
0.0
 11
-58.152214179764542
 21
-185.74381025682689
 31
0.0
  0
LINE
  8
DETAIL
  6
CONTINUOUS
 62
     5
 10
-58.152214179764542
 20
-185.74381025682689
 30
0.0
 11
-58.190946243895503
 21
-185.7692174018382
 31
0.0
  0
LINE
  8
DETAIL
  6
CONTINUOUS
 62
     5
 10
-58.190946243895503
 20
-185.7692174018382
 30
0.0
 11
-58.190946243895503
 21
-185.7692174018382
 31
0.0
  0
LINE
  8
DETAIL
  6
CONTINUOUS
 62
     5
 10
-58.190946243895503
 20
-185.7692174018382
 30
0.0
 11
-58.229204201956243
 21
-185.79526320807571
 31
0.0
  0
LINE
  8
DETAIL
  6
CONTINUOUS
 62
     5
 10
-58.229204201956243
 20
-185.79526320807571
 30
0.0
 11
-58.267099004807733
 21
-185.82202853828571
 31
0.0
  0
LINE
  8
DETAIL
  6
CONTINUOUS
 62
     5
 10
-58.267099004807733
 20
-185.82202853828571
 30
0.0
 11
-58.267099004807733
 21
-185.82202853828571
 31
0.0
  0
LINE
  8
DETAIL
  6
CONTINUOUS
 62
     5
 10
-58.267099004807733
 20
-185.82202853828571
 30
0.0
 11
-58.304721481770002
 21
-185.84958068473131
 31
0.0
  0
LINE
  8
DETAIL
  6
CONTINUOUS
 62
     5
 10
-58.304721481770002
 20
-185.84958068473131
 30
0.0
 11
-58.341958552930919
 21
-185.87783837821681
 31
0.0
  0
LINE
  8
DETAIL
  6
CONTINUOUS
 62
     5
 10
-58.341958552930919
 20
-185.87783837821681
 30
0.0
 11
-58.341958552930919
 21
-185.87783837821681
 31
0.0
  0
LINE
  8
DETAIL
  6
CONTINUOUS
 62
     5
 10
-58.341958552930919
 20
-185.87783837821681
 30
0.0
 11
-58.378678005837173
 21
-185.9067046212067
 31
0.0
  0
LINE
  8
DETAIL
  6
CONTINUOUS
 62
     5
 10
-58.378678005837173
 20
-185.9067046212067
 30
0.0
 11
-58.414875007103547
 21
-185.93616806426189
 31
0.0
  0
LINE
  8
DETAIL
  6
CONTINUOUS
 62
     5
 10
-58.414875007103547
 20
-185.93616806426189
 30
0.0
 11
-58.414875007103547
 21
-185.93616806426189
 31
0.0
  0
LINE
  8
DETAIL
  6
CONTINUOUS
 62
     5
 10
-58.414875007103547
 20
-185.93616806426189
 30
0.0
 11
-58.450573508439902
 21
-185.96623878973901
 31
0.0
  0
LINE
  8
DETAIL
  6
CONTINUOUS
 62
     5
 10
-58.450573508439902
 20
-185.96623878973901
 30
0.0
 11
-58.485785222861523
 21
-185.99692695907871
 31
0.0
  0
LINE
  8
DETAIL
  6
CONTINUOUS
 62
     5
 10
-58.485785222861523
 20
-185.99692695907871
 30
0.0
 11
-58.485785222861523
 21
-185.99692695907871
 31
0.0
  0
LINE
  8
DETAIL
  6
CONTINUOUS
 62
     5
 10
-58.485785222861523
 20
-185.99692695907871
 30
0.0
 11
-58.520499197637719
 21
-186.0282212623847
 31
0.0
  0
LINE
  8
DETAIL
  6
CONTINUOUS
 62
     5
 10
-58.520499197637719
 20
-186.0282212623847
 30
0.0
 11
-58.554626055740528
 21
-186.0600244253242
 31
0.0
  0
LINE
  8
DETAIL
  6
CONTINUOUS
 62
     5
 10
-58.554626055740528
 20
-186.0600244253242
 30
0.0
 11
-58.554626055740528
 21
-186.0600244253242
 31
0.0
  0
LINE
  8
DETAIL
  6
CONTINUOUS
 62
     5
 10
-58.554626055740528
 20
-186.0600244253242
 30
0.0
 11
-58.588138298038302
 21
-186.09230362712029
 31
0.0
  0
LINE
  8
DETAIL
  6
CONTINUOUS
 62
     5
 10
-58.588138298038302
 20
-186.09230362712029
 30
0.0
 11
-58.621334361276467
 21
-186.1253698256553
 31
0.0
  0
LINE
  8
DETAIL
  6
CONTINUOUS
 62
     5
 10
-58.621334361276467
 20
-186.1253698256553
 30
0.0
 11
-58.621334361276467
 21
-186.1253698256553
 31
0.0
  0
LINE
  8
DETAIL
  6
CONTINUOUS
 62
     5
 10
-58.621334361276467
 20
-186.1253698256553
 30
0.0
 11
-58.654462763907993
 21
-186.15948636045829
 31
0.0
  0
LINE
  8
DETAIL
  6
CONTINUOUS
 62
     5
 10
-58.654462763907993
 20
-186.15948636045829
 30
0.0
 11
-58.68724641533322
 21
-186.19438231898451
 31
0.0
  0
LINE
  8
DETAIL
  6
CONTINUOUS
 62
     5
 10
-58.68724641533322
 20
-186.19438231898451
 30
0.0
 11
-58.68724641533322
 21
-186.19438231898451
 31
0.0
  0
LINE
  8
DETAIL
  6
CONTINUOUS
 62
     5
 10
-58.68724641533322
 20
-186.19438231898451
 30
0.0
 11
-58.719361376025063
 21
-186.2297351840011
 31
0.0
  0
LINE
  8
DETAIL
  6
CONTINUOUS
 62
     5
 10
-58.719361376025063
 20
-186.2297351840011
 30
0.0
 11
-58.750821919795733
 21
-186.26555027159941
 31
0.0
  0
LINE
  8
DETAIL
  6
CONTINUOUS
 62
     5
 10
-58.750821919795733
 20
-186.26555027159941
 30
0.0
 11
-58.750821919795733
 21
-186.26555027159941
 31
0.0
  0
LINE
  8
DETAIL
  6
CONTINUOUS
 62
     5
 10
-58.750821919795733
 20
-186.26555027159941
 30
0.0
 11
-58.781707210412613
 21
-186.30189730385061
 31
0.0
  0
LINE
  8
DETAIL
  6
CONTINUOUS
 62
     5
 10
-58.781707210412613
 20
-186.30189730385061
 30
0.0
 11
-58.812017758127467
 21
-186.33877579342391
 31
0.0
  0
LINE
  8
DETAIL
  6
CONTINUOUS
 62
     5
 10
-58.812017758127467
 20
-186.33877579342391
 30
0.0
 11
-58.812017758127467
 21
-186.33877579342391
 31
0.0
  0
LINE
  8
DETAIL
  6
CONTINUOUS
 62
     5
 10
-58.812017758127467
 20
-186.33877579342391
 30
0.0
 11
-58.841728509994027
 21
-186.37615595170811
 31
0.0
  0
LINE
  8
DETAIL
  6
CONTINUOUS
 62
     5
 10
-58.841728509994027
 20
-186.37615595170811
 30
0.0
 11
-58.870790813792382
 21
-186.41396099438199
 31
0.0
  0
LINE
  8
DETAIL
  6
CONTINUOUS
 62
     5
 10
-58.870790813792382
 20
-186.41396099438199
 30
0.0
 11
-58.870790813792382
 21
-186.41396099438199
 31
0.0
  0
LINE
  8
DETAIL
  6
CONTINUOUS
 62
     5
 10
-58.870790813792382
 20
-186.41396099438199
 30
0.0
 11
-58.899193380136467
 21
-186.45216693625699
 31
0.0
  0
LINE
  8
DETAIL
  6
CONTINUOUS
 62
     5
 10
-58.899193380136467
 20
-186.45216693625699
 30
0.0
 11
-58.927097970253733
 21
-186.4910079843971
 31
0.0
  0
LINE
  8
DETAIL
  6
CONTINUOUS
 62
     5
 10
-58.927097970253733
 20
-186.4910079843971
 30
0.0
 11
-58.927097970253733
 21
-186.4910079843971
 31
0.0
  0
LINE
  8
DETAIL
  6
CONTINUOUS
 62
     5
 10
-58.927097970253733
 20
-186.4910079843971
 30
0.0
 11
-58.954637655634308
 21
-186.53068042052391
 31
0.0
  0
LINE
  8
DETAIL
  6
CONTINUOUS
 62
     5
 10
-58.954637655634308
 20
-186.53068042052391
 30
0.0
 11
-58.981657698206618
 21
-186.57097063274011
 31
0.0
  0
LINE
  8
DETAIL
  6
CONTINUOUS
 62
     5
 10
-58.981657698206618
 20
-186.57097063274011
 30
0.0
 11
-58.981657698206618
 21
-186.57097063274011
 31
0.0
  0
LINE
  8
DETAIL
  6
CONTINUOUS
 62
     5
 10
-58.981657698206618
 20
-186.57097063274011
 30
0.0
 11
-59.007978417700087
 21
-186.6116263739799
 31
0.0
  0
LINE
  8
DETAIL
  6
CONTINUOUS
 62
     5
 10
-59.007978417700087
 20
-186.6116263739799
 30
0.0
 11
-59.033608174609071
 21
-186.65265075012539
 31
0.0
  0
LINE
  8
DETAIL
  6
CONTINUOUS
 62
     5
 10
-59.033608174609071
 20
-186.65265075012539
 30
0.0
 11
-59.033608174609071
 21
-186.65265075012539
 31
0.0
  0
LINE
  8
DETAIL
  6
CONTINUOUS
 62
     5
 10
-59.033608174609071
 20
-186.65265075012539
 30
0.0
 11
-59.058590577014002
 21
-186.6940953789111
 31
0.0
  0
LINE
  8
DETAIL
  6
CONTINUOUS
 62
     5
 10
-59.058590577014002
 20
-186.6940953789111
 30
0.0
 11
-59.082922182574521
 21
-186.73595057253789
 31
0.0
  0
LINE
  8
DETAIL
  6
CONTINUOUS
 62
     5
 10
-59.082922182574521
 20
-186.73595057253789
 30
0.0
 11
-59.082922182574521
 21
-186.73595057253789
 31
0.0
  0
LINE
  8
DETAIL
  6
CONTINUOUS
 62
     5
 10
-59.082922182574521
 20
-186.73595057253789
 30
0.0
 11
-59.106587826575151
 21
-186.77818878411981
 31
0.0
  0
LINE
  8
DETAIL
  6
CONTINUOUS
 62
     5
 10
-59.106587826575151
 20
-186.77818878411981
 30
0.0
 11
-59.129572505216629
 21
-186.8207723359632
 31
0.0
  0
LINE
  8
DETAIL
  6
CONTINUOUS
 62
     5
 10
-59.129572505216629
 20
-186.8207723359632
 30
0.0
 11
-59.129572505216629
 21
-186.8207723359632
 31
0.0
  0
LINE
  8
DETAIL
  6
CONTINUOUS
 62
     5
 10
-59.129572505216629
 20
-186.8207723359632
 30
0.0
 11
-59.151872856617047
 21
-186.86368647486211
 31
0.0
  0
LINE
  8
DETAIL
  6
CONTINUOUS
 62
     5
 10
-59.151872856617047
 20
-186.86368647486211
 30
0.0
 11
-59.173531925649058
 21
-186.9070182763846
 31
0.0
  0
LINE
  8
DETAIL
  6
CONTINUOUS
 62
     5
 10
-59.173531925649058
 20
-186.9070182763846
 30
0.0
 11
-59.173531925649058
 21
-186.9070182763846
 31
0.0
  0
LINE
  8
DETAIL
  6
CONTINUOUS
 62
     5
 10
-59.173531925649058
 20
-186.9070182763846
 30
0.0
 11
-59.194584438642103
 21
-186.95083918962339
 31
0.0
  0
LINE
  8
DETAIL
  6
CONTINUOUS
 62
     5
 10
-59.194584438642103
 20
-186.95083918962339
 30
0.0
 11
-59.214985441000408
 21
-186.995056329005
 31
0.0
  0
LINE
  8
DETAIL
  6
CONTINUOUS
 62
     5
 10
-59.214985441000408
 20
-186.995056329005
 30
0.0
 11
-59.214985441000408
 21
-186.995056329005
 31
0.0
  0
LINE
  8
DETAIL
  6
CONTINUOUS
 62
     5
 10
-59.214985441000408
 20
-186.995056329005
 30
0.0
 11
-59.234683034836053
 21
-187.0395603869581
 31
0.0
  0
LINE
  8
DETAIL
  6
CONTINUOUS
 62
     5
 10
-59.234683034836053
 20
-187.0395603869581
 30
0.0
 11
-59.253677230017267
 21
-187.0843407025873
 31
0.0
  0
LINE
  8
DETAIL
  6
CONTINUOUS
 62
     5
 10
-59.253677230017267
 20
-187.0843407025873
 30
0.0
 11
-59.253677230017267
 21
-187.0843407025873
 31
0.0
  0
LINE
  8
DETAIL
  6
CONTINUOUS
 62
     5
 10
-59.253677230017267
 20
-187.0843407025873
 30
0.0
 11
-59.271979143015187
 21
-187.12941017396361
 31
0.0
  0
LINE
  8
DETAIL
  6
CONTINUOUS
 62
     5
 10
-59.271979143015187
 20
-187.12941017396361
 30
0.0
 11
-59.289592408956203
 21
-187.17477728835399
 31
0.0
  0
LINE
  8
DETAIL
  6
CONTINUOUS
 62
     5
 10
-59.289592408956203
 20
-187.17477728835399
 30
0.0
 11
-59.289592408956203
 21
-187.17477728835399
 31
0.0
  0
LINE
  8
DETAIL
  6
CONTINUOUS
 62
     5
 10
-59.289592408956203
 20
-187.17477728835399
 30
0.0
 11
-59.306513297035963
 21
-187.2204291794595
 31
0.0
  0
LINE
  8
DETAIL
  6
CONTINUOUS
 62
     5
 10
-59.306513297035963
 20
-187.2204291794595
 30
0.0
 11
-59.322716094072803
 21
-187.26627197752711
 31
0.0
  0
LINE
  8
DETAIL
  6
CONTINUOUS
 62
     5
 10
-59.322716094072803
 20
-187.26627197752711
 30
0.0
 11
-59.322716094072803
 21
-187.26627197752711
 31
0.0
  0
LINE
  8
DETAIL
  6
CONTINUOUS
 62
     5
 10
-59.322716094072803
 20
-187.26627197752711
 30
0.0
 11
-59.338193444004453
 21
-187.3122736680958
 31
0.0
  0
LINE
  8
DETAIL
  6
CONTINUOUS
 62
     5
 10
-59.338193444004453
 20
-187.3122736680958
 30
0.0
 11
-59.353033401623627
 21
-187.3587306613299
 31
0.0
  0
LINE
  8
DETAIL
  6
CONTINUOUS
 62
     5
 10
-59.353033401623627
 20
-187.3587306613299
 30
0.0
 11
-59.353033401623627
 21
-187.3587306613299
 31
0.0
  0
LINE
  8
DETAIL
  6
CONTINUOUS
 62
     5
 10
-59.353033401623627
 20
-187.3587306613299
 30
0.0
 11
-59.367307770986599
 21
-187.405892099997
 31
0.0
  0
LINE
  8
DETAIL
  6
CONTINUOUS
 62
     5
 10
-59.367307770986599
 20
-187.405892099997
 30
0.0
 11
-59.380927942352628
 21
-187.45348963265039
 31
0.0
  0
LINE
  8
DETAIL
  6
CONTINUOUS
 62
     5
 10
-59.380927942352628
 20
-187.45348963265039
 30
0.0
 11
-59.380927942352628
 21
-187.45348963265039
 31
0.0
  0
LINE
  8
DETAIL
  6
CONTINUOUS
 62
     5
 10
-59.380927942352628
 20
-187.45348963265039
 30
0.0
 11
-59.393792232848227
 21
-187.5012074624326
 31
0.0
  0
LINE
  8
DETAIL
  6
CONTINUOUS
 62
     5
 10
-59.393792232848227
 20
-187.5012074624326
 30
0.0
 11
-59.405907080873021
 21
-187.54905750505699
 31
0.0
  0
LINE
  8
DETAIL
  6
CONTINUOUS
 62
     5
 10
-59.405907080873021
 20
-187.54905750505699
 30
0.0
 11
-59.405907080873021
 21
-187.54905750505699
 31
0.0
  0
LINE
  8
DETAIL
  6
CONTINUOUS
 62
     5
 10
-59.405907080873021
 20
-187.54905750505699
 30
0.0
 11
-59.417298580334318
 21
-187.5971107259613
 31
0.0
  0
LINE
  8
DETAIL
  6
CONTINUOUS
 62
     5
 10
-59.417298580334318
 20
-187.5971107259613
 30
0.0
 11
-59.427963325899782
 21
-187.64534657691371
 31
0.0
  0
LINE
  8
DETAIL
  6
CONTINUOUS
 62
     5
 10
-59.427963325899782
 20
-187.64534657691371
 30
0.0
 11
-59.427963325899782
 21
-187.64534657691371
 31
0.0
  0
LINE
  8
DETAIL
  6
CONTINUOUS
 62
     5
 10
-59.427963325899782
 20
-187.64534657691371
 30
0.0
 11
-59.437893006348759
 21
-187.69373121679141
 31
0.0
  0
LINE
  8
DETAIL
  6
CONTINUOUS
 62
     5
 10
-59.437893006348759
 20
-187.69373121679141
 30
0.0
 11
-59.44708918614856
 21
-187.74226914658411
 31
0.0
  0
LINE
  8
DETAIL
  6
CONTINUOUS
 62
     5
 10
-59.44708918614856
 20
-187.74226914658411
 30
0.0
 11
-59.44708918614856
 21
-187.74226914658411
 31
0.0
  0
LINE
  8
DETAIL
  6
CONTINUOUS
 62
     5
 10
-59.44708918614856
 20
-187.74226914658411
 30
0.0
 11
-59.45555339781049
 21
-187.79095898911461
 31
0.0
  0
LINE
  8
DETAIL
  6
CONTINUOUS
 62
     5
 10
-59.45555339781049
 20
-187.79095898911461
 30
0.0
 11
-59.463277170333868
 21
-187.83973751243241
 31
0.0
  0
LINE
  8
DETAIL
  6
CONTINUOUS
 62
     5
 10
-59.463277170333868
 20
-187.83973751243241
 30
0.0
 11
-59.463277170333868
 21
-187.83973751243241
 31
0.0
  0
LINE
  8
DETAIL
  6
CONTINUOUS
 62
     5
 10
-59.463277170333868
 20
-187.83973751243241
 30
0.0
 11
-59.470253582975367
 21
-187.88854796651901
 31
0.0
  0
LINE
  8
DETAIL
  6
CONTINUOUS
 62
     5
 10
-59.470253582975367
 20
-187.88854796651901
 30
0.0
 11
-59.476491919537239
 21
-187.9374213838588
 31
0.0
  0
LINE
  8
DETAIL
  6
CONTINUOUS
 62
     5
 10
-59.476491919537239
 20
-187.9374213838588
 30
0.0
 11
-59.476491919537239
 21
-187.9374213838588
 31
0.0
  0
LINE
  8
DETAIL
  6
CONTINUOUS
 62
     5
 10
-59.476491919537239
 20
-187.9374213838588
 30
0.0
 11
-59.482001255450307
 21
-187.98639677442259
 31
0.0
  0
LINE
  8
DETAIL
  6
CONTINUOUS
 62
     5
 10
-59.482001255450307
 20
-187.98639677442259
 30
0.0
 11
-59.486773628118037
 21
-188.0354572756269
 31
0.0
  0
LINE
  8
DETAIL
  6
CONTINUOUS
 62
     5
 10
-59.486773628118037
 20
-188.0354572756269
 30
0.0
 11
-59.486773628118037
 21
-188.0354572756269
 31
0.0
  0
LINE
  8
DETAIL
  6
CONTINUOUS
 62
     5
 10
-59.486773628118037
 20
-188.0354572756269
 30
0.0
 11
-59.490804521654809
 21
-188.08457593958019
 31
0.0
  0
LINE
  8
DETAIL
  6
CONTINUOUS
 62
     5
 10
-59.490804521654809
 20
-188.08457593958019
 30
0.0
 11
-59.494120245045913
 21
-188.13374134971659
 31
0.0
  0
LINE
  8
DETAIL
  6
CONTINUOUS
 62
     5
 10
-59.494120245045913
 20
-188.13374134971659
 30
0.0
 11
-59.494120245045913
 21
-188.13374134971659
 31
0.0
  0
LINE
  8
DETAIL
  6
CONTINUOUS
 62
     5
 10
-59.494120245045913
 20
-188.13374134971659
 30
0.0
 11
-59.496728248130921
 21
-188.18294440911441
 31
0.0
  0
LINE
  8
DETAIL
  6
CONTINUOUS
 62
     5
 10
-59.496728248130921
 20
-188.18294440911441
 30
0.0
 11
-59.498529719291582
 21
-188.23216976810821
 31
0.0
  0
LINE
  8
DETAIL
  6
CONTINUOUS
 62
     5
 10
-59.498529719291582
 20
-188.23216976810821
 30
0.0
 11
-59.498529719291582
 21
-188.23216976810821
 31
0.0
  0
LINE
  8
DETAIL
  6
CONTINUOUS
 62
     5
 10
-59.498529719291582
 20
-188.23216976810821
 30
0.0
 11
-59.499497836784492
 21
-188.28140288375889
 31
0.0
  0
LINE
  8
DETAIL
  6
CONTINUOUS
 62
     5
 10
-59.499497836784492
 20
-188.28140288375889
 30
0.0
 11
-59.499999999824468
 21
-188.3306386927816
 31
0.0
  0
LINE
  8
DETAIL
  6
CONTINUOUS
 62
     5
 10
-59.499999999824468
 20
-195.4999999996478
 30
0.0
 11
-59.500374809501182
 21
-195.53472440965041
 31
0.0
  0
LINE
  8
DETAIL
  6
CONTINUOUS
 62
     5
 10
-59.500374809501182
 20
-195.53472440965041
 30
0.0
 11
-59.501097326439783
 21
-195.56944659186431
 31
0.0
  0
LINE
  8
DETAIL
  6
CONTINUOUS
 62
     5
 10
-59.501097326439783
 20
-195.56944659186431
 30
0.0
 11
-59.501097326439783
 21
-195.56944659186431
 31
0.0
  0
LINE
  8
DETAIL
  6
CONTINUOUS
 62
     5
 10
-59.501097326439783
 20
-195.56944659186431
 30
0.0
 11
-59.502441711510983
 21
-195.60416255112929
 31
0.0
  0
LINE
  8
DETAIL
  6
CONTINUOUS
 62
     5
 10
-59.502441711510983
 20
-195.60416255112929
 30
0.0
 11
-59.504387940022752
 21
-195.63886122279479
 31
0.0
  0
LINE
  8
DETAIL
  6
CONTINUOUS
 62
     5
 10
-59.504387940022752
 20
-195.63886122279479
 30
0.0
 11
-59.504387940022752
 21
-195.63886122279479
 31
0.0
  0
LINE
  8
DETAIL
  6
CONTINUOUS
 62
     5
 10
-59.504387940022752
 20
-195.63886122279479
 30
0.0
 11
-59.506862209409967
 21
-195.67353058950829
 31
0.0
  0
LINE
  8
DETAIL
  6
CONTINUOUS
 62
     5
 10
-59.506862209409967
 20
-195.67353058950829
 30
0.0
 11
-59.509869791179653
 21
-195.70816189259321
 31
0.0
  0
LINE
  8
DETAIL
  6
CONTINUOUS
 62
     5
 10
-59.509869791179653
 20
-195.70816189259321
 30
0.0
 11
-59.509869791179653
 21
-195.70816189259321
 31
0.0
  0
LINE
  8
DETAIL
  6
CONTINUOUS
 62
     5
 10
-59.509869791179653
 20
-195.70816189259321
 30
0.0
 11
-59.513430197676371
 21
-195.74274569673841
 31
0.0
  0
LINE
  8
DETAIL
  6
CONTINUOUS
 62
     5
 10
-59.513430197676371
 20
-195.74274569673841
 30
0.0
 11
-59.517540830516047
 21
-195.7772666014134
 31
0.0
  0
LINE
  8
DETAIL
  6
CONTINUOUS
 62
     5
 10
-59.517540830516047
 20
-195.7772666014134
 30
0.0
 11
-59.517540830516047
 21
-195.7772666014134
 31
0.0
  0
LINE
  8
DETAIL
  6
CONTINUOUS
 62
     5
 10
-59.517540830516047
 20
-195.7772666014134
 30
0.0
 11
-59.522195905842857
 21
-195.81171286533231
 31
0.0
  0
LINE
  8
DETAIL
  6
CONTINUOUS
 62
     5
 10
-59.522195905842857
 20
-195.81171286533231
 30
0.0
 11
-59.527399008637531
 21
-195.8460933494093
 31
0.0
  0
LINE
  8
DETAIL
  6
CONTINUOUS
 62
     5
 10
-59.527399008637531
 20
-195.8460933494093
 30
0.0
 11
-59.527399008637531
 21
-195.8460933494093
 31
0.0
  0
LINE
  8
DETAIL
  6
CONTINUOUS
 62
     5
 10
-59.527399008637531
 20
-195.8460933494093
 30
0.0
 11
-59.533154202464857
 21
-195.88041405210291
 31
0.0
  0
LINE
  8
DETAIL
  6
CONTINUOUS
 62
     5
 10
-59.533154202464857
 20
-195.88041405210291
 30
0.0
 11
-59.539458096389133
 21
-195.91464891984879
 31
0.0
  0
LINE
  8
DETAIL
  6
CONTINUOUS
 62
     5
 10
-59.539458096389133
 20
-195.91464891984879
 30
0.0
 11
-59.539458096389133
 21
-195.91464891984879
 31
0.0
  0
LINE
  8
DETAIL
  6
CONTINUOUS
 62
     5
 10
-59.539458096389133
 20
-195.91464891984879
 30
0.0
 11
-59.546306658895901
 21
-195.94877011868539
 31
0.0
  0
LINE
  8
DETAIL
  6
CONTINUOUS
 62
     5
 10
-59.546306658895901
 20
-195.94877011868539
 30
0.0
 11
-59.553700750652979
 21
-195.98277474508251
 31
0.0
  0
LINE
  8
DETAIL
  6
CONTINUOUS
 62
     5
 10
-59.553700750652979
 20
-195.98277474508251
 30
0.0
 11
-59.553700750652979
 21
-195.98277474508251
 31
0.0
  0
LINE
  8
DETAIL
  6
CONTINUOUS
 62
     5
 10
-59.553700750652979
 20
-195.98277474508251
 30
0.0
 11
-59.561640711311163
 21
-196.01666042274789
 31
0.0
  0
LINE
  8
DETAIL
  6
CONTINUOUS
 62
     5
 10
-59.561640711311163
 20
-196.01666042274789
 30
0.0
 11
-59.570119904271913
 21
-196.05040195391089
 31
0.0
  0
LINE
  8
DETAIL
  6
CONTINUOUS
 62
     5
 10
-59.570119904271913
 20
-196.05040195391089
 30
0.0
 11
-59.570119904271913
 21
-196.05040195391089
 31
0.0
  0
LINE
  8
DETAIL
  6
CONTINUOUS
 62
     5
 10
-59.570119904271913
 20
-196.05040195391089
 30
0.0
 11
-59.57913570207802
 21
-196.08398502430111
 31
0.0
  0
LINE
  8
DETAIL
  6
CONTINUOUS
 62
     5
 10
-59.57913570207802
 20
-196.08398502430111
 30
0.0
 11
-59.588708490089402
 21
-196.11746167513499
 31
0.0
  0
LINE
  8
DETAIL
  6
CONTINUOUS
 62
     5
 10
-59.588708490089402
 20
-196.11746167513499
 30
0.0
 11
-59.588708490089402
 21
-196.11746167513499
 31
0.0
  0
LINE
  8
DETAIL
  6
CONTINUOUS
 62
     5
 10
-59.588708490089402
 20
-196.11746167513499
 30
0.0
 11
-59.598843138115399
 21
-196.15083988638389
 31
0.0
  0
LINE
  8
DETAIL
  6
CONTINUOUS
 62
     5
 10
-59.598843138115399
 20
-196.15083988638389
 30
0.0
 11
-59.60945944094783
 21
-196.1838850375556
 31
0.0
  0
LINE
  8
DETAIL
  6
CONTINUOUS
 62
     5
 10
-59.60945944094783
 20
-196.1838850375556
 30
0.0
 11
-59.60945944094783
 21
-196.1838850375556
 31
0.0
  0
LINE
  8
DETAIL
  6
CONTINUOUS
 62
     5
 10
-59.60945944094783
 20
-196.1838850375556
 30
0.0
 11
-59.620487453841413
 21
-196.21639775884049
 31
0.0
  0
LINE
  8
DETAIL
  6
CONTINUOUS
 62
     5
 10
-59.620487453841413
 20
-196.21639775884049
 30
0.0
 11
-59.631983348923093
 21
-196.24856228362111
 31
0.0
  0
LINE
  8
DETAIL
  6
CONTINUOUS
 62
     5
 10
-59.631983348923093
 20
-196.24856228362111
 30
0.0
 11
-59.631983348923093
 21
-196.24856228362111
 31
0.0
  0
LINE
  8
DETAIL
  6
CONTINUOUS
 62
     5
 10
-59.631983348923093
 20
-196.24856228362111
 30
0.0
 11
-59.644016254370399
 21
-196.2805981764381
 31
0.0
  0
LINE
  8
DETAIL
  6
CONTINUOUS
 62
     5
 10
-59.644016254370399
 20
-196.2805981764381
 30
0.0
 11
-59.656581005692487
 21
-196.3124827232713
 31
0.0
  0
LINE
  8
DETAIL
  6
CONTINUOUS
 62
     5
 10
-59.656581005692487
 20
-196.3124827232713
 30
0.0
 11
-59.656581005692487
 21
-196.3124827232713
 31
0.0
  0
LINE
  8
DETAIL
  6
CONTINUOUS
 62
     5
 10
-59.656581005692487
 20
-196.3124827232713
 30
0.0
 11
-59.669657339143669
 21
-196.34414612516329
 31
0.0
  0
LINE
  8
DETAIL
  6
CONTINUOUS
 62
     5
 10
-59.669657339143669
 20
-196.34414612516329
 30
0.0
 11
-59.683238886622348
 21
-196.37557252196871
 31
0.0
  0
LINE
  8
DETAIL
  6
CONTINUOUS
 62
     5
 10
-59.683238886622348
 20
-196.37557252196871
 30
0.0
 11
-59.683238886622348
 21
-196.37557252196871
 31
0.0
  0
LINE
  8
DETAIL
  6
CONTINUOUS
 62
     5
 10
-59.683238886622348
 20
-196.37557252196871
 30
0.0
 11
-59.697327431460742
 21
-196.40676616907379
 31
0.0
  0
LINE
  8
DETAIL
  6
CONTINUOUS
 62
     5
 10
-59.697327431460742
 20
-196.40676616907379
 30
0.0
 11
-59.711943467078527
 21
-196.43775784517709
 31
0.0
  0
LINE
  8
DETAIL
  6
CONTINUOUS
 62
     5
 10
-59.711943467078527
 20
-196.43775784517709
 30
0.0
 11
-59.711943467078527
 21
-196.43775784517709
 31
0.0
  0
LINE
  8
DETAIL
  6
CONTINUOUS
 62
     5
 10
-59.711943467078527
 20
-196.43775784517709
 30
0.0
 11
-59.727089980417993
 21
-196.4685449517892
 31
0.0
  0
LINE
  8
DETAIL
  6
CONTINUOUS
 62
     5
 10
-59.727089980417993
 20
-196.4685449517892
 30
0.0
 11
-59.742681222427109
 21
-196.49896485835879
 31
0.0
  0
LINE
  8
DETAIL
  6
CONTINUOUS
 62
     5
 10
-59.742681222427109
 20
-196.49896485835879
 30
0.0
 11
-59.742681222427109
 21
-196.49896485835879
 31
0.0
  0
LINE
  8
DETAIL
  6
CONTINUOUS
 62
     5
 10
-59.742681222427109
 20
-196.49896485835879
 30
0.0
 11
-59.758643226127788
 21
-196.5288801359267
 31
0.0
  0
LINE
  8
DETAIL
  6
CONTINUOUS
 62
     5
 10
-59.758643226127788
 20
-196.5288801359267
 30
0.0
 11
-59.775037888835868
 21
-196.5584141939687
 31
0.0
  0
LINE
  8
DETAIL
  6
CONTINUOUS
 62
     5
 10
-59.775037888835868
 20
-196.5584141939687
 30
0.0
 11
-59.775037888835868
 21
-196.5584141939687
 31
0.0
  0
LINE
  8
DETAIL
  6
CONTINUOUS
 62
     5
 10
-59.775037888835868
 20
-196.5584141939687
 30
0.0
 11
-59.7919404752422
 21
-196.58771414253019
 31
0.0
  0
LINE
  8
DETAIL
  6
CONTINUOUS
 62
     5
 10
-59.7919404752422
 20
-196.58771414253019
 30
0.0
 11
-59.809343855248933
 21
-196.61676105550001
 31
0.0
  0
LINE
  8
DETAIL
  6
CONTINUOUS
 62
     5
 10
-59.809343855248933
 20
-196.61676105550001
 30
0.0
 11
-59.809343855248933
 21
-196.61676105550001
 31
0.0
  0
LINE
  8
DETAIL
  6
CONTINUOUS
 62
     5
 10
-59.809343855248933
 20
-196.61676105550001
 30
0.0
 11
-59.827224571652323
 21
-196.64550404064519
 31
0.0
  0
LINE
  8
DETAIL
  6
CONTINUOUS
 62
     5
 10
-59.827224571652323
 20
-196.64550404064519
 30
0.0
 11
-59.845576253614347
 21
-196.67393037740231
 31
0.0
  0
LINE
  8
DETAIL
  6
CONTINUOUS
 62
     5
 10
-59.845576253614347
 20
-196.67393037740231
 30
0.0
 11
-59.845576253614347
 21
-196.67393037740231
 31
0.0
  0
LINE
  8
DETAIL
  6
CONTINUOUS
 62
     5
 10
-59.845576253614347
 20
-196.67393037740231
 30
0.0
 11
-59.86440031422012
 21
-196.70204022549481
 31
0.0
  0
LINE
  8
DETAIL
  6
CONTINUOUS
 62
     5
 10
-59.86440031422012
 20
-196.70204022549481
 30
0.0
 11
-59.88371221588045
 21
-196.72984709412529
 31
0.0
  0
LINE
  8
DETAIL
  6
CONTINUOUS
 62
     5
 10
-59.88371221588045
 20
-196.72984709412529
 30
0.0
 11
-59.88371221588045
 21
-196.72984709412529
 31
0.0
  0
LINE
  8
DETAIL
  6
CONTINUOUS
 62
     5
 10
-59.88371221588045
 20
-196.72984709412529
 30
0.0
 11
-59.903512612420172
 21
-196.75734493746859
 31
0.0
  0
LINE
  8
DETAIL
  6
CONTINUOUS
 62
     5
 10
-59.903512612420172
 20
-196.75734493746859
 30
0.0
 11
-59.923728873995287
 21
-196.78443614011761
 31
0.0
  0
LINE
  8
DETAIL
  6
CONTINUOUS
 62
     5
 10
-59.923728873995287
 20
-196.78443614011761
 30
0.0
 11
-59.923728873995287
 21
-196.78443614011761
 31
0.0
  0
LINE
  8
DETAIL
  6
CONTINUOUS
 62
     5
 10
-59.923728873995287
 20
-196.78443614011761
 30
0.0
 11
-59.944298195275223
 21
-196.81103767625439
 31
0.0
  0
LINE
  8
DETAIL
  6
CONTINUOUS
 62
     5
 10
-59.944298195275223
 20
-196.81103767625439
 30
0.0
 11
-59.965270352657171
 21
-196.83721644800301
 31
0.0
  0
LINE
  8
DETAIL
  6
CONTINUOUS
 62
     5
 10
-59.965270352657171
 20
-196.83721644800301
 30
0.0
 11
-59.965270352657171
 21
-196.83721644800301
 31
0.0
  0
LINE
  8
DETAIL
  6
CONTINUOUS
 62
     5
 10
-59.965270352657171
 20
-196.83721644800301
 30
0.0
 11
-59.98670690861627
 21
-196.86305369818911
 31
0.0
  0
LINE
  8
DETAIL
  6
CONTINUOUS
 62
     5
 10
-59.98670690861627
 20
-196.86305369818911
 30
0.0
 11
-60.008603988218063
 21
-196.88853810450701
 31
0.0
  0
LINE
  8
DETAIL
  6
CONTINUOUS
 62
     5
 10
-60.008603988218063
 20
-196.88853810450701
 30
0.0
 11
-60.008603988218063
 21
-196.88853810450701
 31
0.0
  0
LINE
  8
DETAIL
  6
CONTINUOUS
 62
     5
 10
-60.008603988218063
 20
-196.88853810450701
 30
0.0
 11
-60.030940597413519
 21
-196.91363683764391
 31
0.0
  0
LINE
  8
DETAIL
  6
CONTINUOUS
 62
     5
 10
-60.030940597413519
 20
-196.91363683764391
 30
0.0
 11
-60.053692703104844
 21
-196.9383236053956
 31
0.0
  0
LINE
  8
DETAIL
  6
CONTINUOUS
 62
     5
 10
-60.053692703104844
 20
-196.9383236053956
 30
0.0
 11
-60.053692703104844
 21
-196.9383236053956
 31
0.0
  0
LINE
  8
DETAIL
  6
CONTINUOUS
 62
     5
 10
-60.053692703104844
 20
-196.9383236053956
 30
0.0
 11
-60.076854910832708
 21
-196.96259035400891
 31
0.0
  0
LINE
  8
DETAIL
  6
CONTINUOUS
 62
     5
 10
-60.076854910832708
 20
-196.96259035400891
 30
0.0
 11
-60.100499419743528
 21
-196.98649544643379
 31
0.0
  0
LINE
  8
DETAIL
  6
CONTINUOUS
 62
     5
 10
-60.100499419743528
 20
-196.98649544643379
 30
0.0
 11
-60.100499419743528
 21
-196.98649544643379
 31
0.0
  0
LINE
  8
DETAIL
  6
CONTINUOUS
 62
     5
 10
-60.100499419743528
 20
-196.98649544643379
 30
0.0
 11
-60.124640993541561
 21
-197.01004579881609
 31
0.0
  0
LINE
  8
DETAIL
  6
CONTINUOUS
 62
     5
 10
-60.124640993541561
 20
-197.01004579881609
 30
0.0
 11
-60.148987060561012
 21
-197.0329761233877
 31
0.0
  0
LINE
  8
DETAIL
  6
CONTINUOUS
 62
     5
 10
-60.148987060561012
 20
-197.0329761233877
 30
0.0
 11
-60.148987060561012
 21
-197.0329761233877
 31
0.0
  0
LINE
  8
DETAIL
  6
CONTINUOUS
 62
     5
 10
-60.148987060561012
 20
-197.0329761233877
 30
0.0
 11
-60.173287118591361
 21
-197.0550635206607
 31
0.0
  0
LINE
  8
DETAIL
  6
CONTINUOUS
 62
     5
 10
-60.173287118591361
 20
-197.0550635206607
 30
0.0
 11
-60.197766278619838
 21
-197.0765268481897
 31
0.0
  0
LINE
  8
DETAIL
  6
CONTINUOUS
 62
     5
 10
-60.197766278619838
 20
-197.0765268481897
 30
0.0
 11
-60.197766278619838
 21
-197.0765268481897
 31
0.0
  0
LINE
  8
DETAIL
  6
CONTINUOUS
 62
     5
 10
-60.197766278619838
 20
-197.0765268481897
 30
0.0
 11
-60.222695324720007
 21
-197.09762445073611
 31
0.0
  0
LINE
  8
DETAIL
  6
CONTINUOUS
 62
     5
 10
-60.222695324720007
 20
-197.09762445073611
 30
0.0
 11
-60.248052120123482
 21
-197.1183308648524
 31
0.0
  0
LINE
  8
DETAIL
  6
CONTINUOUS
 62
     5
 10
-60.248052120123482
 20
-197.1183308648524
 30
0.0
 11
-60.248052120123482
 21
-197.1183308648524
 31
0.0
  0
LINE
  8
DETAIL
  6
CONTINUOUS
 62
     5
 10
-60.248052120123482
 20
-197.1183308648524
 30
0.0
 11
-60.27375702834388
 21
-197.1385663208687
 31
0.0
  0
LINE
  8
DETAIL
  6
CONTINUOUS
 62
     5
 10
-60.27375702834388
 20
-197.1385663208687
 30
0.0
 11
-60.299793334867218
 21
-197.1583176324398
 31
0.0
  0
LINE
  8
DETAIL
  6
CONTINUOUS
 62
     5
 10
-60.299793334867218
 20
-197.1583176324398
 30
0.0
 11
-60.299793334867218
 21
-197.1583176324398
 31
0.0
  0
LINE
  8
DETAIL
  6
CONTINUOUS
 62
     5
 10
-60.299793334867218
 20
-197.1583176324398
 30
0.0
 11
-60.326170363911388
 21
-197.17759262777921
 31
0.0
  0
LINE
  8
DETAIL
  6
CONTINUOUS
 62
     5
 10
-60.326170363911388
 20
-197.17759262777921
 30
0.0
 11
-60.352938672646587
 21
-197.1964166100172
 31
0.0
  0
LINE
  8
DETAIL
  6
CONTINUOUS
 62
     5
 10
-60.352938672646587
 20
-197.1964166100172
 30
0.0
 11
-60.352938672646587
 21
-197.1964166100172
 31
0.0
  0
LINE
  8
DETAIL
  6
CONTINUOUS
 62
     5
 10
-60.352938672646587
 20
-197.1964166100172
 30
0.0
 11
-60.380102163035637
 21
-197.2147851302648
 31
0.0
  0
LINE
  8
DETAIL
  6
CONTINUOUS
 62
     5
 10
-60.380102163035637
 20
-197.2147851302648
 30
0.0
 11
-60.407436883256651
 21
-197.23255725664851
 31
0.0
  0
LINE
  8
DETAIL
  6
CONTINUOUS
 62
     5
 10
-60.407436883256651
 20
-197.23255725664851
 30
0.0
 11
-60.407436883256651
 21
-197.23255725664851
 31
0.0
  0
LINE
  8
DETAIL
  6
CONTINUOUS
 62
     5
 10
-60.407436883256651
 20
-197.23255725664851
 30
0.0
 11
-60.434751969696443
 21
-197.24961568113201
 31
0.0
  0
LINE
  8
DETAIL
  6
CONTINUOUS
 62
     5
 10
-60.434751969696443
 20
-197.24961568113201
 30
0.0
 11
-60.462216765356523
 21
-197.26607407401161
 31
0.0
  0
LINE
  8
DETAIL
  6
CONTINUOUS
 62
     5
 10
-60.462216765356523
 20
-197.26607407401161
 30
0.0
 11
-60.462216765356523
 21
-197.26607407401161
 31
0.0
  0
LINE
  8
DETAIL
  6
CONTINUOUS
 62
     5
 10
-60.462216765356523
 20
-197.26607407401161
 30
0.0
 11
-60.490034343593827
 21
-197.28206618004111
 31
0.0
  0
LINE
  8
DETAIL
  6
CONTINUOUS
 62
     5
 10
-60.490034343593827
 20
-197.28206618004111
 30
0.0
 11
-60.518182492570297
 21
-197.29757506347369
 31
0.0
  0
LINE
  8
DETAIL
  6
CONTINUOUS
 62
     5
 10
-60.518182492570297
 20
-197.29757506347369
 30
0.0
 11
-60.518182492570297
 21
-197.29757506347369
 31
0.0
  0
LINE
  8
DETAIL
  6
CONTINUOUS
 62
     5
 10
-60.518182492570297
 20
-197.29757506347369
 30
0.0
 11
-60.546596228412909
 21
-197.3125556290876
 31
0.0
  0
LINE
  8
DETAIL
  6
CONTINUOUS
 62
     5
 10
-60.546596228412909
 20
-197.3125556290876
 30
0.0
 11
-60.575264764309402
 21
-197.32700082426621
 31
0.0
  0
LINE
  8
DETAIL
  6
CONTINUOUS
 62
     5
 10
-60.575264764309402
 20
-197.32700082426621
 30
0.0
 11
-60.575264764309402
 21
-197.32700082426621
 31
0.0
  0
LINE
  8
DETAIL
  6
CONTINUOUS
 62
     5
 10
-60.575264764309402
 20
-197.32700082426621
 30
0.0
 11
-60.604192986951382
 21
-197.3409127345644
 31
0.0
  0
LINE
  8
DETAIL
  6
CONTINUOUS
 62
     5
 10
-60.604192986951382
 20
-197.3409127345644
 30
0.0
 11
-60.633394279985623
 21
-197.35429195562051
 31
0.0
  0
LINE
  8
DETAIL
  6
CONTINUOUS
 62
     5
 10
-60.633394279985623
 20
-197.35429195562051
 30
0.0
 11
-60.633394279985623
 21
-197.35429195562051
 31
0.0
  0
LINE
  8
DETAIL
  6
CONTINUOUS
 62
     5
 10
-60.633394279985623
 20
-197.35429195562051
 30
0.0
 11
-60.662862105077238
 21
-197.36713068985861
 31
0.0
  0
LINE
  8
DETAIL
  6
CONTINUOUS
 62
     5
 10
-60.662862105077238
 20
-197.36713068985861
 30
0.0
 11
-60.69250173901014
 21
-197.37938905676879
 31
0.0
  0
LINE
  8
DETAIL
  6
CONTINUOUS
 62
     5
 10
-60.69250173901014
 20
-197.37938905676879
 30
0.0
 11
-60.69250173901014
 21
-197.37938905676879
 31
0.0
  0
LINE
  8
DETAIL
  6
CONTINUOUS
 62
     5
 10
-60.69250173901014
 20
-197.37938905676879
 30
0.0
 11
-60.722231906671823
 21
-197.39103389028969
 31
0.0
  0
LINE
  8
DETAIL
  6
CONTINUOUS
 62
     5
 10
-60.722231906671823
 20
-197.39103389028969
 30
0.0
 11
-60.752113310247751
 21
-197.4020909650956
 31
0.0
  0
LINE
  8
DETAIL
  6
CONTINUOUS
 62
     5
 10
-60.752113310247751
 20
-197.4020909650956
 30
0.0
 11
-60.752113310247751
 21
-197.4020909650956
 31
0.0
  0
LINE
  8
DETAIL
  6
CONTINUOUS
 62
     5
 10
-60.752113310247751
 20
-197.4020909650956
 30
0.0
 11
-60.782220441553363
 21
-197.4125912580171
 31
0.0
  0
LINE
  8
DETAIL
  6
CONTINUOUS
 62
     5
 10
-60.782220441553363
 20
-197.4125912580171
 30
0.0
 11
-60.812540973629893
 21
-197.4225276137831
 31
0.0
  0
LINE
  8
DETAIL
  6
CONTINUOUS
 62
     5
 10
-60.812540973629893
 20
-197.4225276137831
 30
0.0
 11
-60.812540973629893
 21
-197.4225276137831
 31
0.0
  0
LINE
  8
DETAIL
  6
CONTINUOUS
 62
     5
 10
-60.812540973629893
 20
-197.4225276137831
 30
0.0
 11
-60.843043140344427
 21
-197.4318852824679
 31
0.0
  0
LINE
  8
DETAIL
  6
CONTINUOUS
 62
     5
 10
-60.843043140344427
 20
-197.4318852824679
 30
0.0
 11
-60.873704237646507
 21
-197.44065726762801
 31
0.0
  0
LINE
  8
DETAIL
  6
CONTINUOUS
 62
     5
 10
-60.873704237646507
 20
-197.44065726762801
 30
0.0
 11
-60.873704237646507
 21
-197.44065726762801
 31
0.0
  0
LINE
  8
DETAIL
  6
CONTINUOUS
 62
     5
 10
-60.873704237646507
 20
-197.44065726762801
 30
0.0
 11
-60.904516469618102
 21
-197.44884029073401
 31
0.0
  0
LINE
  8
DETAIL
  6
CONTINUOUS
 62
     5
 10
-60.904516469618102
 20
-197.44884029073401
 30
0.0
 11
-60.935522610787757
 21
-197.45643819142671
 31
0.0
  0
LINE
  8
DETAIL
  6
CONTINUOUS
 62
     5
 10
-60.935522610787757
 20
-197.45643819142671
 30
0.0
 11
-60.935522610787757
 21
-197.45643819142671
 31
0.0
  0
LINE
  8
DETAIL
  6
CONTINUOUS
 62
     5
 10
-60.935522610787757
 20
-197.45643819142671
 30
0.0
 11
-60.966725242328273
 21
-197.46344753234851
 31
0.0
  0
LINE
  8
DETAIL
  6
CONTINUOUS
 62
     5
 10
-60.966725242328273
 20
-197.46344753234851
 30
0.0
 11
-60.997915601542672
 21
-197.46982864997531
 31
0.0
  0
LINE
  8
DETAIL
  6
CONTINUOUS
 62
     5
 10
-60.997915601542672
 20
-197.46982864997531
 30
0.0
 11
-60.997915601542672
 21
-197.46982864997531
 31
0.0
  0
LINE
  8
DETAIL
  6
CONTINUOUS
 62
     5
 10
-60.997915601542672
 20
-197.46982864997531
 30
0.0
 11
-61.028915036181388
 21
-197.47555000315751
 31
0.0
  0
LINE
  8
DETAIL
  6
CONTINUOUS
 62
     5
 10
-61.028915036181388
 20
-197.47555000315751
 30
0.0
 11
-61.05987667965519
 21
-197.4806487664041
 31
0.0
  0
LINE
  8
DETAIL
  6
CONTINUOUS
 62
     5
 10
-61.05987667965519
 20
-197.4806487664041
 30
0.0
 11
-61.05987667965519
 21
-197.4806487664041
 31
0.0
  0
LINE
  8
DETAIL
  6
CONTINUOUS
 62
     5
 10
-61.05987667965519
 20
-197.4806487664041
 30
0.0
 11
-61.090983811492833
 21
-197.48516624456229
 31
0.0
  0
LINE
  8
DETAIL
  6
CONTINUOUS
 62
     5
 10
-61.090983811492833
 20
-197.48516624456229
 30
0.0
 11
-61.122208510037353
 21
-197.48909154817221
 31
0.0
  0
LINE
  8
DETAIL
  6
CONTINUOUS
 62
     5
 10
-61.122208510037353
 20
-197.48909154817221
 30
0.0
 11
-61.122208510037353
 21
-197.48909154817221
 31
0.0
  0
LINE
  8
DETAIL
  6
CONTINUOUS
 62
     5
 10
-61.122208510037353
 20
-197.48909154817221
 30
0.0
 11
-61.15348434245243
 21
-197.49240968008601
 31
0.0
  0
LINE
  8
DETAIL
  6
CONTINUOUS
 62
     5
 10
-61.15348434245243
 20
-197.49240968008601
 30
0.0
 11
-61.184802032371181
 21
-197.4951414067107
 31
0.0
  0
LINE
  8
DETAIL
  6
CONTINUOUS
 62
     5
 10
-61.184802032371181
 20
-197.4951414067107
 30
0.0
 11
-61.184802032371181
 21
-197.4951414067107
 31
0.0
  0
LINE
  8
DETAIL
  6
CONTINUOUS
 62
     5
 10
-61.184802032371181
 20
-197.4951414067107
 30
0.0
 11
-61.216162236371019
 21
-197.49729372036359
 31
0.0
  0
LINE
  8
DETAIL
  6
CONTINUOUS
 62
     5
 10
-61.216162236371019
 20
-197.49729372036359
 30
0.0
 11
-61.247548186338243
 21
-197.4987827534508
 31
0.0
  0
LINE
  8
DETAIL
  6
CONTINUOUS
 62
     5
 10
-61.247548186338243
 20
-197.4987827534508
 30
0.0
 11
-61.247548186338243
 21
-197.4987827534508
 31
0.0
  0
LINE
  8
DETAIL
  6
CONTINUOUS
 62
     5
 10
-61.247548186338243
 20
-197.4987827534508
 30
0.0
 11
-61.278941893559249
 21
-197.499583842422
 31
0.0
  0
LINE
  8
DETAIL
  6
CONTINUOUS
 62
     5
 10
-61.278941893559249
 20
-197.499583842422
 30
0.0
 11
-61.310337911620081
 21
-197.49999999982381
 31
0.0
  0
LINE
  8
DETAIL
  6
CONTINUOUS
 62
     5
 10
61.310337911619172
 20
-197.49999999982381
 30
0.0
 11
61.278942099948843
 21
-197.49958384348841
 31
0.0
  0
LINE
  8
DETAIL
  6
CONTINUOUS
 62
     5
 10
61.278942099948843
 20
-197.49958384348841
 30
0.0
 11
61.247548629591172
 21
-197.49878276737181
 31
0.0
  0
LINE
  8
DETAIL
  6
CONTINUOUS
 62
     5
 10
61.247548629591172
 20
-197.49878276737181
 30
0.0
 11
61.247548629591172
 21
-197.49878276737181
 31
0.0
  0
LINE
  8
DETAIL
  6
CONTINUOUS
 62
     5
 10
61.247548629591172
 20
-197.49878276737181
 30
0.0
 11
61.2161629458883
 21
-197.4972937628298
 31
0.0
  0
LINE
  8
DETAIL
  6
CONTINUOUS
 62
     5
 10
61.2161629458883
 20
-197.4972937628298
 30
0.0
 11
61.184802910295282
 21
-197.49514146576919
 31
0.0
  0
LINE
  8
DETAIL
  6
CONTINUOUS
 62
     5
 10
61.184802910295282
 20
-197.49514146576919
 30
0.0
 11
61.184802910295282
 21
-197.49514146576919
 31
0.0
  0
LINE
  8
DETAIL
  6
CONTINUOUS
 62
     5
 10
61.184802910295282
 20
-197.49514146576919
 30
0.0
 11
61.153485260538453
 21
-197.4924097365309
 31
0.0
  0
LINE
  8
DETAIL
  6
CONTINUOUS
 62
     5
 10
61.153485260538453
 20
-197.4924097365309
 30
0.0
 11
61.122209823313817
 21
-197.48909168864341
 31
0.0
  0
LINE
  8
DETAIL
  6
CONTINUOUS
 62
     5
 10
61.122209823313817
 20
-197.48909168864341
 30
0.0
 11
61.122209823313817
 21
-197.48909168864341
 31
0.0
  0
LINE
  8
DETAIL
  6
CONTINUOUS
 62
     5
 10
61.122209823313817
 20
-197.48909168864341
 30
0.0
 11
61.090986004561728
 21
-197.4851665846077
 31
0.0
  0
LINE
  8
DETAIL
  6
CONTINUOUS
 62
     5
 10
61.090986004561728
 20
-197.4851665846077
 30
0.0
 11
61.059878438230498
 21
-197.4806490296244
 31
0.0
  0
LINE
  8
DETAIL
  6
CONTINUOUS
 62
     5
 10
61.059878438230498
 20
-197.4806490296244
 30
0.0
 11
61.059878438230498
 21
-197.4806490296244
 31
0.0
  0
LINE
  8
DETAIL
  6
CONTINUOUS
 62
     5
 10
61.059878438230498
 20
-197.4806490296244
 30
0.0
 11
61.028914565019932
 21
-197.47554980857191
 31
0.0
  0
LINE
  8
DETAIL
  6
CONTINUOUS
 62
     5
 10
61.028914565019932
 20
-197.47554980857191
 30
0.0
 11
60.997917824627621
 21
-197.46982908233991
 31
0.0
  0
LINE
  8
DETAIL
  6
CONTINUOUS
 62
     5
 10
60.997917824627621
 20
-197.46982908233991
 30
0.0
 11
60.997917824627621
 21
-197.46982908233991
 31
0.0
  0
LINE
  8
DETAIL
  6
CONTINUOUS
 62
     5
 10
60.997917824627621
 20
-197.46982908233991
 30
0.0
 11
60.966740743710943
 21
-197.4634509761415
 31
0.0
  0
LINE
  8
DETAIL
  6
CONTINUOUS
 62
     5
 10
60.966740743710943
 20
-197.4634509761415
 30
0.0
 11
60.93555619776771
 21
-197.45644609647741
 31
0.0
  0
LINE
  8
DETAIL
  6
CONTINUOUS
 62
     5
 10
60.93555619776771
 20
-197.45644609647741
 30
0.0
 11
60.93555619776771
 21
-197.45644609647741
 31
0.0
  0
LINE
  8
DETAIL
  6
CONTINUOUS
 62
     5
 10
60.93555619776771
 20
-197.45644609647741
 30
0.0
 11
60.904566153285259
 21
-197.44885293509819
 31
0.0
  0
LINE
  8
DETAIL
  6
CONTINUOUS
 62
     5
 10
60.904566153285259
 20
-197.44885293509819
 30
0.0
 11
60.873768591871787
 21
-197.4406750434689
 31
0.0
  0
LINE
  8
DETAIL
  6
CONTINUOUS
 62
     5
 10
60.873768591871787
 20
-197.4406750434689
 30
0.0
 11
60.873768591871787
 21
-197.4406750434689
 31
0.0
  0
LINE
  8
DETAIL
  6
CONTINUOUS
 62
     5
 10
60.873768591871787
 20
-197.4406750434689
 30
0.0
 11
60.843122561871503
 21
-197.43190889449269
 31
0.0
  0
LINE
  8
DETAIL
  6
CONTINUOUS
 62
     5
 10
60.843122561871503
 20
-197.43190889449269
 30
0.0
 11
60.812635363455684
 21
-197.4225575871103
 31
0.0
  0
LINE
  8
DETAIL
  6
CONTINUOUS
 62
     5
 10
60.812635363455684
 20
-197.4225575871103
 30
0.0
 11
60.812635363455684
 21
-197.4225575871103
 31
0.0
  0
LINE
  8
DETAIL
  6
CONTINUOUS
 62
     5
 10
60.812635363455684
 20
-197.4225575871103
 30
0.0
 11
60.782329104146129
 21
-197.4126279858049
 31
0.0
  0
LINE
  8
DETAIL
  6
CONTINUOUS
 62
     5
 10
60.782329104146129
 20
-197.4126279858049
 30
0.0
 11
60.752236869035642
 21
-197.40213539119719
 31
0.0
  0
LINE
  8
DETAIL
  6
CONTINUOUS
 62
     5
 10
60.752236869035642
 20
-197.40213539119719
 30
0.0
 11
60.752236869035642
 21
-197.40213539119719
 31
0.0
  0
LINE
  8
DETAIL
  6
CONTINUOUS
 62
     5
 10
60.752236869035642
 20
-197.40213539119719
 30
0.0
 11
60.722371447082203
 21
-197.39108712029571
 31
0.0
  0
LINE
  8
DETAIL
  6
CONTINUOUS
 62
     5
 10
60.722371447082203
 20
-197.39108712029571
 30
0.0
 11
60.692653465127023
 21
-197.3794501195259
 31
0.0
  0
LINE
  8
DETAIL
  6
CONTINUOUS
 62
     5
 10
60.692653465127023
 20
-197.3794501195259
 30
0.0
 11
60.692653465127023
 21
-197.3794501195259
 31
0.0
  0
LINE
  8
DETAIL
  6
CONTINUOUS
 62
     5
 10
60.692653465127023
 20
-197.3794501195259
 30
0.0
 11
60.663018082896308
 21
-197.3671968068013
 31
0.0
  0
LINE
  8
DETAIL
  6
CONTINUOUS
 62
     5
 10
60.663018082896308
 20
-197.3671968068013
 30
0.0
 11
60.633550753769207
 21
-197.35436185656431
 31
0.0
  0
LINE
  8
DETAIL
  6
CONTINUOUS
 62
     5
 10
60.633550753769207
 20
-197.35436185656431
 30
0.0
 11
60.633550753769207
 21
-197.35436185656431
 31
0.0
  0
LINE
  8
DETAIL
  6
CONTINUOUS
 62
     5
 10
60.633550753769207
 20
-197.35436185656431
 30
0.0
 11
60.604351149582733
 21
-197.34098700097371
 31
0.0
  0
LINE
  8
DETAIL
  6
CONTINUOUS
 62
     5
 10
60.604351149582733
 20
-197.34098700097371
 30
0.0
 11
60.575425522350542
 21
-197.3270799465179
 31
0.0
  0
LINE
  8
DETAIL
  6
CONTINUOUS
 62
     5
 10
60.575425522350542
 20
-197.3270799465179
 30
0.0
 11
60.575425522350542
 21
-197.3270799465179
 31
0.0
  0
LINE
  8
DETAIL
  6
CONTINUOUS
 62
     5
 10
60.575425522350542
 20
-197.3270799465179
 30
0.0
 11
60.546759178753753
 21
-197.3126396079839
 31
0.0
  0
LINE
  8
DETAIL
  6
CONTINUOUS
 62
     5
 10
60.546759178753753
 20
-197.3126396079839
 30
0.0
 11
60.51834706396744
 21
-197.29766375901309
 31
0.0
  0
LINE
  8
DETAIL
  6
CONTINUOUS
 62
     5
 10
60.51834706396744
 20
-197.29766375901309
 30
0.0
 11
60.51834706396744
 21
-197.29766375901309
 31
0.0
  0
LINE
  8
DETAIL
  6
CONTINUOUS
 62
     5
 10
60.51834706396744
 20
-197.29766375901309
 30
0.0
 11
60.490200249252212
 21
-197.2821595355239
 31
0.0
  0
LINE
  8
DETAIL
  6
CONTINUOUS
 62
     5
 10
60.490200249252212
 20
-197.2821595355239
 30
0.0
 11
60.462384671717018
 21
-197.26617266367541
 31
0.0
  0
LINE
  8
DETAIL
  6
CONTINUOUS
 62
     5
 10
60.462384671717018
 20
-197.26617266367541
 30
0.0
 11
60.462384671717018
 21
-197.26617266367541
 31
0.0
  0
LINE
  8
DETAIL
  6
CONTINUOUS
 62
     5
 10
60.462384671717018
 20
-197.26617266367541
 30
0.0
 11
60.434922709460807
 21
-197.24972021223221
 31
0.0
  0
LINE
  8
DETAIL
  6
CONTINUOUS
 62
     5
 10
60.434922709460807
 20
-197.24972021223221
 30
0.0
 11
60.407607638695481
 21
-197.23266603013141
 31
0.0
  0
LINE
  8
DETAIL
  6
CONTINUOUS
 62
     5
 10
60.407607638695481
 20
-197.23266603013141
 30
0.0
 11
60.407607638695481
 21
-197.23266603013141
 31
0.0
  0
LINE
  8
DETAIL
  6
CONTINUOUS
 62
     5
 10
60.407607638695481
 20
-197.23266603013141
 30
0.0
 11
60.380267073863713
 21
-197.21489438983221
 31
0.0
  0
LINE
  8
DETAIL
  6
CONTINUOUS
 62
     5
 10
60.380267073863713
 20
-197.21489438983221
 30
0.0
 11
60.353095084221422
 21
-197.19652447770841
 31
0.0
  0
LINE
  8
DETAIL
  6
CONTINUOUS
 62
     5
 10
60.353095084221422
 20
-197.19652447770841
 30
0.0
 11
60.353095084221422
 21
-197.19652447770841
 31
0.0
  0
LINE
  8
DETAIL
  6
CONTINUOUS
 62
     5
 10
60.353095084221422
 20
-197.19652447770841
 30
0.0
 11
60.326319375375078
 21
-197.17769947672079
 31
0.0
  0
LINE
  8
DETAIL
  6
CONTINUOUS
 62
     5
 10
60.326319375375078
 20
-197.17769947672079
 30
0.0
 11
60.299935743524657
 21
-197.1584236422627
 31
0.0
  0
LINE
  8
DETAIL
  6
CONTINUOUS
 62
     5
 10
60.299935743524657
 20
-197.1584236422627
 30
0.0
 11
60.299935743524657
 21
-197.1584236422627
 31
0.0
  0
LINE
  8
DETAIL
  6
CONTINUOUS
 62
     5
 10
60.299935743524657
 20
-197.1584236422627
 30
0.0
 11
60.27389262300153
 21
-197.1386710652647
 31
0.0
  0
LINE
  8
DETAIL
  6
CONTINUOUS
 62
     5
 10
60.27389262300153
 20
-197.1386710652647
 30
0.0
 11
60.248180910071603
 21
-197.11843410637701
 31
0.0
  0
LINE
  8
DETAIL
  6
CONTINUOUS
 62
     5
 10
60.248180910071603
 20
-197.11843410637701
 30
0.0
 11
60.248180910071603
 21
-197.11843410637701
 31
0.0
  0
LINE
  8
DETAIL
  6
CONTINUOUS
 62
     5
 10
60.248180910071603
 20
-197.11843410637701
 30
0.0
 11
60.222817631901762
 21
-197.09772615585189
 31
0.0
  0
LINE
  8
DETAIL
  6
CONTINUOUS
 62
     5
 10
60.222817631901762
 20
-197.09772615585189
 30
0.0
 11
60.197881877330467
 21
-197.07662645263511
 31
0.0
  0
LINE
  8
DETAIL
  6
CONTINUOUS
 62
     5
 10
60.197881877330467
 20
-197.07662645263511
 30
0.0
 11
60.197881877330467
 21
-197.07662645263511
 31
0.0
  0
LINE
  8
DETAIL
  6
CONTINUOUS
 62
     5
 10
60.197881877330467
 20
-197.07662645263511
 30
0.0
 11
60.17339557345872
 21
-197.05516028172221
 31
0.0
  0
LINE
  8
DETAIL
  6
CONTINUOUS
 62
     5
 10
60.17339557345872
 20
-197.05516028172221
 30
0.0
 11
60.149089938768611
 21
-197.0330712636196
 31
0.0
  0
LINE
  8
DETAIL
  6
CONTINUOUS
 62
     5
 10
60.149089938768611
 20
-197.0330712636196
 30
0.0
 11
60.149089938768611
 21
-197.0330712636196
 31
0.0
  0
LINE
  8
DETAIL
  6
CONTINUOUS
 62
     5
 10
60.149089938768611
 20
-197.0330712636196
 30
0.0
 11
60.12474155497739
 21
-197.01014223007701
 31
0.0
  0
LINE
  8
DETAIL
  6
CONTINUOUS
 62
     5
 10
60.12474155497739
 20
-197.01014223007701
 30
0.0
 11
60.10059916536693
 21
-196.98659452231439
 31
0.0
  0
LINE
  8
DETAIL
  6
CONTINUOUS
 62
     5
 10
60.10059916536693
 20
-196.98659452231439
 30
0.0
 11
60.10059916536693
 21
-196.98659452231439
 31
0.0
  0
LINE
  8
DETAIL
  6
CONTINUOUS
 62
     5
 10
60.10059916536693
 20
-196.98659452231439
 30
0.0
 11
60.076953267436238
 21
-196.96269154983091
 31
0.0
  0
LINE
  8
DETAIL
  6
CONTINUOUS
 62
     5
 10
60.076953267436238
 20
-196.96269154983091
 30
0.0
 11
60.053789213992559
 21
-196.93842648578021
 31
0.0
  0
LINE
  8
DETAIL
  6
CONTINUOUS
 62
     5
 10
60.053789213992559
 20
-196.93842648578021
 30
0.0
 11
60.053789213992559
 21
-196.93842648578021
 31
0.0
  0
LINE
  8
DETAIL
  6
CONTINUOUS
 62
     5
 10
60.053789213992559
 20
-196.93842648578021
 30
0.0
 11
60.031035354076486
 21
-196.91374145906639
 31
0.0
  0
LINE
  8
DETAIL
  6
CONTINUOUS
 62
     5
 10
60.031035354076486
 20
-196.91374145906639
 30
0.0
 11
60.008697166352249
 21
-196.88864465794089
 31
0.0
  0
LINE
  8
DETAIL
  6
CONTINUOUS
 62
     5
 10
60.008697166352249
 20
-196.88864465794089
 30
0.0
 11
60.008697166352249
 21
-196.88864465794089
 31
0.0
  0
LINE
  8
DETAIL
  6
CONTINUOUS
 62
     5
 10
60.008697166352249
 20
-196.88864465794089
 30
0.0
 11
59.986798568439781
 21
-196.86316228523171
 31
0.0
  0
LINE
  8
DETAIL
  6
CONTINUOUS
 62
     5
 10
59.986798568439781
 20
-196.86316228523171
 30
0.0
 11
59.965360104153888
 21
-196.83732654272151
 31
0.0
  0
LINE
  8
DETAIL
  6
CONTINUOUS
 62
     5
 10
59.965360104153888
 20
-196.83732654272151
 30
0.0
 11
59.965360104153888
 21
-196.83732654272151
 31
0.0
  0
LINE
  8
DETAIL
  6
CONTINUOUS
 62
     5
 10
59.965360104153888
 20
-196.83732654272151
 30
0.0
 11
59.94438556525688
 21
-196.81114861813941
 31
0.0
  0
LINE
  8
DETAIL
  6
CONTINUOUS
 62
     5
 10
59.94438556525688
 20
-196.81114861813941
 30
0.0
 11
59.923815109104453
 21
-196.78454964404651
 31
0.0
  0
LINE
  8
DETAIL
  6
CONTINUOUS
 62
     5
 10
59.923815109104453
 20
-196.78454964404651
 30
0.0
 11
59.923815109104453
 21
-196.78454964404651
 31
0.0
  0
LINE
  8
DETAIL
  6
CONTINUOUS
 62
     5
 10
59.923815109104453
 20
-196.78454964404651
 30
0.0
 11
59.903600383279347
 21
-196.75746472922151
 31
0.0
  0
LINE
  8
DETAIL
  6
CONTINUOUS
 62
     5
 10
59.903600383279347
 20
-196.75746472922151
 30
0.0
 11
59.883802630675291
 21
-196.7299749424815
 31
0.0
  0
LINE
  8
DETAIL
  6
CONTINUOUS
 62
     5
 10
59.883802630675291
 20
-196.7299749424815
 30
0.0
 11
59.883802630675291
 21
-196.7299749424815
 31
0.0
  0
LINE
  8
DETAIL
  6
CONTINUOUS
 62
     5
 10
59.883802630675291
 20
-196.7299749424815
 30
0.0
 11
59.864492667583818
 21
-196.7021755876392
 31
0.0
  0
LINE
  8
DETAIL
  6
CONTINUOUS
 62
     5
 10
59.864492667583818
 20
-196.7021755876392
 30
0.0
 11
59.845670008570778
 21
-196.67407294845651
 31
0.0
  0
LINE
  8
DETAIL
  6
CONTINUOUS
 62
     5
 10
59.845670008570778
 20
-196.67407294845651
 30
0.0
 11
59.845670008570778
 21
-196.67407294845651
 31
0.0
  0
LINE
  8
DETAIL
  6
CONTINUOUS
 62
     5
 10
59.845670008570778
 20
-196.67407294845651
 30
0.0
 11
59.827319685439079
 21
-196.64565414712681
 31
0.0
  0
LINE
  8
DETAIL
  6
CONTINUOUS
 62
     5
 10
59.827319685439079
 20
-196.64565414712681
 30
0.0
 11
59.809440100666052
 21
-196.61691867962961
 31
0.0
  0
LINE
  8
DETAIL
  6
CONTINUOUS
 62
     5
 10
59.809440100666052
 20
-196.61691867962961
 30
0.0
 11
59.809440100666052
 21
-196.61691867962961
 31
0.0
  0
LINE
  8
DETAIL
  6
CONTINUOUS
 62
     5
 10
59.809440100666052
 20
-196.61691867962961
 30
0.0
 11
59.79203745415407
 21
-196.58787901661771
 31
0.0
  0
LINE
  8
DETAIL
  6
CONTINUOUS
 62
     5
 10
59.79203745415407
 20
-196.58787901661771
 30
0.0
 11
59.775135764836023
 21
-196.55858715365869
 31
0.0
  0
LINE
  8
DETAIL
  6
CONTINUOUS
 62
     5
 10
59.775135764836023
 20
-196.55858715365869
 30
0.0
 11
59.775135764836023
 21
-196.55858715365869
 31
0.0
  0
LINE
  8
DETAIL
  6
CONTINUOUS
 62
     5
 10
59.775135764836023
 20
-196.55858715365869
 30
0.0
 11
59.758742344703712
 21
-196.5290623491878
 31
0.0
  0
LINE
  8
DETAIL
  6
CONTINUOUS
 62
     5
 10
59.758742344703712
 20
-196.5290623491878
 30
0.0
 11
59.742779858956062
 21
-196.49915338820151
 31
0.0
  0
LINE
  8
DETAIL
  6
CONTINUOUS
 62
     5
 10
59.742779858956062
 20
-196.49915338820151
 30
0.0
 11
59.742779858956062
 21
-196.49915338820151
 31
0.0
  0
LINE
  8
DETAIL
  6
CONTINUOUS
 62
     5
 10
59.742779858956062
 20
-196.49915338820151
 30
0.0
 11
59.727184684783197
 21
-196.468733360909
 31
0.0
  0
LINE
  8
DETAIL
  6
CONTINUOUS
 62
     5
 10
59.727184684783197
 20
-196.468733360909
 30
0.0
 11
59.712032694134002
 21
-196.4379430518176
 31
0.0
  0
LINE
  8
DETAIL
  6
CONTINUOUS
 62
     5
 10
59.712032694134002
 20
-196.4379430518176
 30
0.0
 11
59.712032694134002
 21
-196.4379430518176
 31
0.0
  0
LINE
  8
DETAIL
  6
CONTINUOUS
 62
     5
 10
59.712032694134002
 20
-196.4379430518176
 30
0.0
 11
59.697411861304772
 21
-196.4069491118203
 31
0.0
  0
LINE
  8
DETAIL
  6
CONTINUOUS
 62
     5
 10
59.697411861304772
 20
-196.4069491118203
 30
0.0
 11
59.683319075220652
 21
-196.37575396306119
 31
0.0
  0
LINE
  8
DETAIL
  6
CONTINUOUS
 62
     5
 10
59.683319075220652
 20
-196.37575396306119
 30
0.0
 11
59.683319075220652
 21
-196.37575396306119
 31
0.0
  0
LINE
  8
DETAIL
  6
CONTINUOUS
 62
     5
 10
59.683319075220652
 20
-196.37575396306119
 30
0.0
 11
59.669733256504969
 21
-196.34432578063669
 31
0.0
  0
LINE
  8
DETAIL
  6
CONTINUOUS
 62
     5
 10
59.669733256504969
 20
-196.34432578063669
 30
0.0
 11
59.656652537943962
 21
-196.3126599802066
 31
0.0
  0
LINE
  8
DETAIL
  6
CONTINUOUS
 62
     5
 10
59.656652537943962
 20
-196.3126599802066
 30
0.0
 11
59.656652537943962
 21
-196.3126599802066
 31
0.0
  0
LINE
  8
DETAIL
  6
CONTINUOUS
 62
     5
 10
59.656652537943962
 20
-196.3126599802066
 30
0.0
 11
59.644083414544411
 21
-196.28077260419559
 31
0.0
  0
LINE
  8
DETAIL
  6
CONTINUOUS
 62
     5
 10
59.644083414544411
 20
-196.28077260419559
 30
0.0
 11
59.632046618031843
 21
-196.24873496152799
 31
0.0
  0
LINE
  8
DETAIL
  6
CONTINUOUS
 62
     5
 10
59.632046618031843
 20
-196.24873496152799
 30
0.0
 11
59.632046618031843
 21
-196.24873496152799
 31
0.0
  0
LINE
  8
DETAIL
  6
CONTINUOUS
 62
     5
 10
59.632046618031843
 20
-196.24873496152799
 30
0.0
 11
59.620547399551697
 21
-196.21657010111309
 31
0.0
  0
LINE
  8
DETAIL
  6
CONTINUOUS
 62
     5
 10
59.620547399551697
 20
-196.21657010111309
 30
0.0
 11
59.60951485121177
 21
-196.18405276529941
 31
0.0
  0
LINE
  8
DETAIL
  6
CONTINUOUS
 62
     5
 10
59.60951485121177
 20
-196.18405276529941
 30
0.0
 11
59.60951485121177
 21
-196.18405276529941
 31
0.0
  0
LINE
  8
DETAIL
  6
CONTINUOUS
 62
     5
 10
59.60951485121177
 20
-196.18405276529941
 30
0.0
 11
59.598891351712609
 21
-196.15099391764909
 31
0.0
  0
LINE
  8
DETAIL
  6
CONTINUOUS
 62
     5
 10
59.598891351712609
 20
-196.15099391764909
 30
0.0
 11
59.588748585163103
 21
-196.11759771313851
 31
0.0
  0
LINE
  8
DETAIL
  6
CONTINUOUS
 62
     5
 10
59.588748585163103
 20
-196.11759771313851
 30
0.0
 11
59.588748585163103
 21
-196.11759771313851
 31
0.0
  0
LINE
  8
DETAIL
  6
CONTINUOUS
 62
     5
 10
59.588748585163103
 20
-196.11759771313851
 30
0.0
 11
59.579168753714377
 21
-196.0841044120767
 31
0.0
  0
LINE
  8
DETAIL
  6
CONTINUOUS
 62
     5
 10
59.579168753714377
 20
-196.0841044120767
 30
0.0
 11
59.57014682627414
 21
-196.05050550469221
 31
0.0
  0
LINE
  8
DETAIL
  6
CONTINUOUS
 62
     5
 10
59.57014682627414
 20
-196.05050550469221
 30
0.0
 11
59.57014682627414
 21
-196.05050550469221
 31
0.0
  0
LINE
  8
DETAIL
  6
CONTINUOUS
 62
     5
 10
59.57014682627414
 20
-196.05050550469221
 30
0.0
 11
59.561661879671192
 21
-196.01674742204071
 31
0.0
  0
LINE
  8
DETAIL
  6
CONTINUOUS
 62
     5
 10
59.561661879671192
 20
-196.01674742204071
 30
0.0
 11
59.553716655665987
 21
-195.98284512856961
 31
0.0
  0
LINE
  8
DETAIL
  6
CONTINUOUS
 62
     5
 10
59.553716655665987
 20
-195.98284512856961
 30
0.0
 11
59.553716655665987
 21
-195.98284512856961
 31
0.0
  0
LINE
  8
DETAIL
  6
CONTINUOUS
 62
     5
 10
59.553716655665987
 20
-195.98284512856961
 30
0.0
 11
59.546317955632048
 21
-195.94882438120251
 31
0.0
  0
LINE
  8
DETAIL
  6
CONTINUOUS
 62
     5
 10
59.546317955632048
 20
-195.94882438120251
 30
0.0
 11
59.539465154460693
 21
-195.91468557337839
 31
0.0
  0
LINE
  8
DETAIL
  6
CONTINUOUS
 62
     5
 10
59.539465154460693
 20
-195.91468557337839
 30
0.0
 11
59.539465154460693
 21
-195.91468557337839
 31
0.0
  0
LINE
  8
DETAIL
  6
CONTINUOUS
 62
     5
 10
59.539465154460693
 20
-195.91468557337839
 30
0.0
 11
59.533157280672192
 21
-195.88043098780111
 31
0.0
  0
LINE
  8
DETAIL
  6
CONTINUOUS
 62
     5
 10
59.533157280672192
 20
-195.88043098780111
 30
0.0
 11
59.527399403780237
 21
-195.84609582772731
 31
0.0
  0
LINE
  8
DETAIL
  6
CONTINUOUS
 62
     5
 10
59.527399403780237
 20
-195.84609582772731
 30
0.0
 11
59.527399403780237
 21
-195.84609582772731
 31
0.0
  0
LINE
  8
DETAIL
  6
CONTINUOUS
 62
     5
 10
59.527399403780237
 20
-195.84609582772731
 30
0.0
 11
59.522195743037628
 21
-195.81171240740281
 31
0.0
  0
LINE
  8
DETAIL
  6
CONTINUOUS
 62
     5
 10
59.522195743037628
 20
-195.81171240740281
 30
0.0
 11
59.517541075656943
 21
-195.77726856448311
 31
0.0
  0
LINE
  8
DETAIL
  6
CONTINUOUS
 62
     5
 10
59.517541075656943
 20
-195.77726856448311
 30
0.0
 11
59.517541075656943
 21
-195.77726856448311
 31
0.0
  0
LINE
  8
DETAIL
  6
CONTINUOUS
 62
     5
 10
59.517541075656943
 20
-195.77726856448311
 30
0.0
 11
59.513430510455919
 21
-195.74274812673551
 31
0.0
  0
LINE
  8
DETAIL
  6
CONTINUOUS
 62
     5
 10
59.513430510455919
 20
-195.74274812673551
 30
0.0
 11
59.509869924711893
 21
-195.70816335896811
 31
0.0
  0
LINE
  8
DETAIL
  6
CONTINUOUS
 62
     5
 10
59.509869924711893
 20
-195.70816335896811
 30
0.0
 11
59.509869924711893
 21
-195.70816335896811
 31
0.0
  0
LINE
  8
DETAIL
  6
CONTINUOUS
 62
     5
 10
59.509869924711893
 20
-195.70816335896811
 30
0.0
 11
59.506862266350709
 21
-195.67353161932689
 31
0.0
  0
LINE
  8
DETAIL
  6
CONTINUOUS
 62
     5
 10
59.506862266350709
 20
-195.67353161932689
 30
0.0
 11
59.504387997432559
 21
-195.63886220226769
 31
0.0
  0
LINE
  8
DETAIL
  6
CONTINUOUS
 62
     5
 10
59.504387997432559
 20
-195.63886220226769
 30
0.0
 11
59.504387997432559
 21
-195.63886220226769
 31
0.0
  0
LINE
  8
DETAIL
  6
CONTINUOUS
 62
     5
 10
59.504387997432559
 20
-195.63886220226769
 30
0.0
 11
59.50244175230273
 21
-195.6041633407531
 31
0.0
  0
LINE
  8
DETAIL
  6
CONTINUOUS
 62
     5
 10
59.50244175230273
 20
-195.6041633407531
 30
0.0
 11
59.501097340307069
 21
-195.56944708546601
 31
0.0
  0
LINE
  8
DETAIL
  6
CONTINUOUS
 62
     5
 10
59.501097340307069
 20
-195.56944708546601
 30
0.0
 11
59.501097340307069
 21
-195.56944708546601
 31
0.0
  0
LINE
  8
DETAIL
  6
CONTINUOUS
 62
     5
 10
59.501097340307069
 20
-195.56944708546601
 30
0.0
 11
59.500374811007532
 21
-195.53472463972199
 31
0.0
  0
LINE
  8
DETAIL
  6
CONTINUOUS
 62
     5
 10
59.500374811007532
 20
-195.53472463972199
 30
0.0
 11
59.499999999823558
 21
-195.4999999996478
 31
0.0
  0
LINE
  8
DETAIL
  6
CONTINUOUS
 62
     5
 10
51.537521330809341
 20
-209.99999999999989
 30
0.0
 11
-51.537521331338667
 21
-209.99999999999989
 31
0.0
  0
LINE
  8
DETAIL
  6
CONTINUOUS
 62
     5
 10
-59.273518287148363
 20
-202.91925684718311
 30
0.0
 11
-55.175526553521649
 21
-208.21512308820411
 31
0.0
  0
LINE
  8
DETAIL
  6
CONTINUOUS
 62
     5
 10
66.500000000175532
 20
-201.59999999999991
 30
0.0
 11
-66.500000000176442
 21
-201.59999999999991
 31
0.0
  0
LINE
  8
DETAIL
  6
CONTINUOUS
 62
     5
 10
-62.499999999824468
 20
-197.49999999982381
 30
0.0
 11
-62.499999999824468
 21
-195.4999999996478
 31
0.0
  0
LINE
  8
DETAIL
  6
CONTINUOUS
 62
     5
 10
-62.499999999824468
 20
-170.4999999998239
 30
0.0
 11
-62.499999999824468
 21
-168.4999999996476
 31
0.0
  0
LINE
  8
DETAIL
  6
CONTINUOUS
 62
     5
 10
-61.062088342077907
 20
-163.5
 30
0.0
 11
-61.062088342077907
 21
-160.299999999824
 31
0.0
  0
LINE
  8
DETAIL
  6
CONTINUOUS
 62
     5
 10
-57.977599001408862
 20
-163.5
 30
0.0
 11
-57.977599001408862
 21
-160.299999999824
 31
0.0
  0
LINE
  8
DETAIL
  6
CONTINUOUS
 62
     5
 10
-61.062088342077907
 20
-163.5
 30
0.0
 11
63.499955636091038
 21
-163.5
 31
0.0
  0
LINE
  8
DETAIL
  6
CONTINUOUS
 62
     5
 10
-63.49994163697238
 20
-160.299999999824
 30
0.0
 11
63.499955636091038
 21
-160.299999999824
 31
0.0
  0
LINE
  8
DETAIL
  6
CONTINUOUS
 62
     5
 10
-4.7000000001764866
 20
-159.79999999964789
 30
0.0
 11
4.700000000175578
 21
-159.79999999964789
 31
0.0
  0
LINE
  8
DETAIL
  6
CONTINUOUS
 62
     5
 10
-4.7000000001764866
 20
-159.79999999964789
 30
0.0
 11
-4.7000000001764866
 21
-160.299999999824
 31
0.0
  0
LINE
  8
DETAIL
  6
CONTINUOUS
 62
     5
 10
4.700000000175578
 20
-159.79999999964789
 30
0.0
 11
4.700000000175578
 21
-160.299999999824
 31
0.0
  0
LINE
  8
DETAIL
  6
CONTINUOUS
 62
     5
 10
56.161863627464299
 20
-163.5
 30
0.0
 11
56.161863627464299
 21
-160.299999999824
 31
0.0
  0
LINE
  8
DETAIL
  6
CONTINUOUS
 62
     5
 10
59.793346674295208
 20
-163.5
 30
0.0
 11
59.793346674295208
 21
-160.299999999824
 31
0.0
  0
LINE
  8
DETAIL
  6
CONTINUOUS
 62
     5
 10
62.499999999823558
 20
-168.4999999996476
 30
0.0
 11
62.499999999823558
 21
-170.4999999998239
 31
0.0
  0
LINE
  8
DETAIL
  6
CONTINUOUS
 62
     5
 10
62.499999999823558
 20
-195.4999999996478
 30
0.0
 11
62.499999999823558
 21
-197.49999999982381
 31
0.0
  0
LINE
  8
DETAIL
  6
CONTINUOUS
 62
     5
 10
59.273518287147454
 20
-202.91925684718311
 30
0.0
 11
55.175526552992316
 21
-208.21512308820411
 31
0.0
  0
LINE
  8
DETAIL
  6
CONTINUOUS
 62
     5
 10
120.0987193943656
 20
-130.5
 30
0.0
 11
120.0987193943656
 21
-60.0
 31
0.0
  0
LINE
  8
DETAIL
  6
CONTINUOUS
 62
     5
 10
137.77638892447129
 20
-130.5
 30
0.0
 11
137.77638892447129
 21
-60.0
 31
0.0
  0
LINE
  8
DETAIL
  6
CONTINUOUS
 62
     5
 10
139.8977092679572
 20
-60.0
 30
0.0
 11
139.8977092679572
 21
-130.5
 31
0.0
  0
ARC
  8
DETAIL
  6
CONTINUOUS
 62
     5
 10
-57.500000000176442
 20
-168.4999999996476
 30
0.0
 40
5.0000000001759872
 50
90.0
 51
180.0
  0
ARC
  8
DETAIL
  6
CONTINUOUS
 62
     5
 10
-51.537520186796201
 20
-205.3999999996478
 30
0.0
 40
4.5999999998240098
 50
217.73303687249529
 51
270.0
  0
ARC
  8
DETAIL
  6
CONTINUOUS
 62
     5
 10
-61.962476441197623
 20
-204.99999999982401
 30
0.0
 40
3.399999313204209
 50
37.733068570303622
 51
90.0
  0
ARC
  8
DETAIL
  6
CONTINUOUS
 62
     5
 10
-66.500000000176442
 20
-199.9999999996478
 30
0.0
 40
1.599999999823922
 50
180.0
 51
270.0
  0
ARC
  8
DETAIL
  6
CONTINUOUS
 62
     5
 10
-0.0000000000004547
 20
-164.3224999996479
 30
0.0
 40
6.5225000001761604
 50
43.897398167090152
 51
136.10260183290981
  0
ARC
  8
DETAIL
  6
CONTINUOUS
 62
     5
 10
57.500000000175532
 20
-168.4999999996476
 30
0.0
 40
5.000000000176037
 50
0.0
 51
90.0
  0
ARC
  8
DETAIL
  6
CONTINUOUS
 62
     5
 10
51.537519453168443
 20
-205.3999999996478
 30
0.0
 40
4.5999999998239094
 50
270.0
 51
322.26696872109801
  0
ARC
  8
DETAIL
  6
CONTINUOUS
 62
     5
 10
61.962477233450272
 20
-204.99999999982401
 30
0.0
 40
3.3999995492956909
 50
90.0
 51
142.2669396034027
  0
ARC
  8
DETAIL
  6
CONTINUOUS
 62
     5
 10
66.500000000175532
 20
-199.9999999996478
 30
0.0
 40
1.599999999823865
 50
270.0
 51
0.0
  0
LINE
  8
DETAIL
  6
CONTINUOUS
 62
     5
 10
-63.500000000176442
 20
-161.89999999964789
 30
0.0
 11
-63.500000000176442
 21
-160.299999999824
 31
0.0
  0
LINE
  8
DETAIL
  6
CONTINUOUS
 62
     5
 10
63.500000000175532
 20
-163.5
 30
0.0
 11
63.500000000175532
 21
-160.299999999824
 31
0.0
  0
LINE
  8
BASIS
  6
DASHDOT
 62
     6
 10
0.0
 20
-218.31828800849601
 30
0.0
 11
0.0
 21
63.117968313052643
 31
0.0
  0
LINE
  8
BASIS
  6
DASHDOT
 62
     6
 10
-0.0000000000004547
 20
-218.31828800849601
 30
0.0
 11
-0.0000000000004547
 21
63.117968313052643
 31
0.0
  0
ARC
  8
DETAIL
  6
CONTINUOUS
 62
     5
 10
-72.592608315026382
 20
-131.65810670723619
 30
0.0
 40
67.315063881940389
 50
179.0142191582265
 51
251.51456020743339
  0
ARC
  8
DETAIL
  6
CONTINUOUS
 62
     5
 10
-68.412916710968602
 20
-131.00095911825071
 30
0.0
 40
69.36528121170636
 50
179.5862037574347
 51
248.4108479803713
  0
ARC
  8
DETAIL
  6
CONTINUOUS
 62
     5
 10
-78.391728081460769
 20
-131.00870361916361
 30
0.0
 40
41.710093548149217
 50
179.30119329466319
 51
251.22758606995379
  0
ARC
  8
DETAIL
  6
CONTINUOUS
 62
     5
 10
-114.7877535190723
 20
-63.358348982868222
 30
0.0
 40
25.33354269755516
 50
129.98805295324311
 51
172.38214287453451
  0
ARC
  8
DETAIL
  6
CONTINUOUS
 62
     5
 10
-143.00289865298831
 20
-26.59728294777619
 30
0.0
 40
21.05957520917697
 50
304.52255051611758
 51
350.70162869043787
  0
ARC
  8
DETAIL
  6
CONTINUOUS
 62
     5
 10
-114.5415081755193
 20
-64.511562513902561
 30
0.0
 40
23.668837735556821
 50
124.15715897491749
 51
169.01150292864949
  0
ARC
  8
DETAIL
  6
CONTINUOUS
 62
     5
 10
-141.0824242993649
 20
-28.595186476075181
 30
0.0
 40
21.03067694000541
 50
309.05843881456508
 51
356.169887232571
  0
ARC
  8
DETAIL
  6
CONTINUOUS
 62
     5
 10
-119.5078598717355
 20
-28.92226717236468
 30
0.0
 40
20.41831203733998
 50
183.02562968111559
 51
231.65029082180521
  0
ARC
  8
DETAIL
  6
CONTINUOUS
 62
     5
 10
-142.61865272280011
 20
-62.030813756555027
 30
0.0
 40
22.61131578672757
 50
5.1529093884221862
 51
49.155713853651513
  0
ARC
  8
DETAIL
  6
CONTINUOUS
 62
     5
 10
-142.05907759630031
 20
-6.9885584583287823
 30
0.0
 40
3.1796901411376548
 50
171.16150792172311
 51
251.27788898344139
  0
ARC
  8
DETAIL
  6
CONTINUOUS
 62
     5
 10
-152.93994489606391
 20
-6.4208045040617208
 30
0.0
 40
7.7393399775779779
 50
359.41369071657368
 51
26.24062163036119
  0
ARC
  8
DETAIL
  6
CONTINUOUS
 62
     5
 10
-141.57171517267969
 20
-7.4489384495199724
 30
0.0
 40
5.7522405861437012
 50
177.08895796912091
 51
254.8020707710848
  0
ARC
  8
DETAIL
  6
CONTINUOUS
 62
     5
 10
-151.15200851720741
 20
-6.9407919938473128
 30
0.0
 40
3.8415537984206169
 50
356.77646885721032
 51
63.595541672249119
  0
ARC
  8
DETAIL
  6
CONTINUOUS
 62
     5
 10
-159.78533880425829
 20
-7.9384109516221883
 30
0.0
 40
5.1540767904975686
 50
180.85242087939349
 51
259.1293413152739
  0
ARC
  8
DETAIL
  6
CONTINUOUS
 62
     5
 10
-169.73597818429579
 20
-7.5488766827947424
 30
0.0
 40
4.8197342267403496
 50
354.44911670264338
 51
57.146691540604017
  0
ARC
  8
DETAIL
  6
CONTINUOUS
 62
     5
 10
-167.27004117319191
 20
-46.649879248756122
 30
0.0
 40
27.030479761994481
 50
19.012867077886899
 51
80.373767515372734
  0
ARC
  8
DETAIL
  6
CONTINUOUS
 62
     5
 10
-209.55536903333251
 20
-70.294613084726734
 30
0.0
 40
75.202891408330842
 50
14.897654404334951
 51
25.563373509813559
  0
ARC
  8
DETAIL
  6
CONTINUOUS
 62
     5
 10
-102.590132793373
 20
-45.788782553435112
 30
0.0
 40
39.922599661483439
 50
168.5210599892585
 51
200.85285853146729
  0
ARC
  8
DETAIL
  6
CONTINUOUS
 62
     5
 10
72.592608315025473
 20
-131.65810670723619
 30
0.0
 40
67.315063881940389
 50
288.48543979256658
 51
0.9857808417735062
  0
ARC
  8
DETAIL
  6
CONTINUOUS
 62
     5
 10
68.412916710967693
 20
-131.00095911825071
 30
0.0
 40
69.36528121170636
 50
291.58915201962873
 51
0.4137962425653208
  0
ARC
  8
DETAIL
  6
CONTINUOUS
 62
     5
 10
78.39172808145986
 20
-131.00870361916361
 30
0.0
 40
41.710093548149217
 50
288.77241393004618
 51
0.6988067053368513
  0
ARC
  8
DETAIL
  6
CONTINUOUS
 62
     5
 10
114.7877535190714
 20
-63.358348982868222
 30
0.0
 40
25.33354269755516
 50
7.6178571254654841
 51
50.011947046756859
  0
ARC
  8
DETAIL
  6
CONTINUOUS
 62
     5
 10
143.00289865298711
 20
-26.59728294777619
 30
0.0
 40
21.05957520917697
 50
189.29837130956221
 51
235.47744948388251
  0
ARC
  8
DETAIL
  6
CONTINUOUS
 62
     5
 10
114.5415081755184
 20
-64.511562513902561
 30
0.0
 40
23.668837735556821
 50
10.98849707135046
 51
55.842841025082528
  0
ARC
  8
DETAIL
  6
CONTINUOUS
 62
     5
 10
141.08242429936399
 20
-28.595186476075181
 30
0.0
 40
21.03067694000541
 50
183.830112767429
 51
230.94156118543489
  0
ARC
  8
DETAIL
  6
CONTINUOUS
 62
     5
 10
119.5078598717346
 20
-28.92226717236468
 30
0.0
 40
20.41831203733998
 50
308.3497091781947
 51
356.97437031888438
  0
ARC
  8
DETAIL
  6
CONTINUOUS
 62
     5
 10
142.6186527227992
 20
-62.030813756555027
 30
0.0
 40
22.61131578672757
 50
130.84428614634851
 51
174.84709061157781
  0
ARC
  8
DETAIL
  6
CONTINUOUS
 62
     5
 10
142.0590775962994
 20
-6.9885584583287823
 30
0.0
 40
3.1796901411376548
 50
288.72211101655859
 51
8.8384920782769161
  0
ARC
  8
DETAIL
  6
CONTINUOUS
 62
     5
 10
152.939944896063
 20
-6.4208045040617208
 30
0.0
 40
7.7393399775779779
 50
153.7593783696388
 51
180.58630928342629
  0
ARC
  8
DETAIL
  6
CONTINUOUS
 62
     5
 10
141.57171517267881
 20
-7.4489384495199724
 30
0.0
 40
5.7522405861437012
 50
285.1979292289152
 51
2.9110420308790999
  0
ARC
  8
DETAIL
  6
CONTINUOUS
 62
     5
 10
151.1520085172065
 20
-6.9407919938473128
 30
0.0
 40
3.8415537984206169
 50
116.4044583277509
 51
183.22353114278971
  0
ARC
  8
DETAIL
  6
CONTINUOUS
 62
     5
 10
159.78533880425721
 20
-7.9384109516221883
 30
0.0
 40
5.1540767904975686
 50
280.8706586847261
 51
359.14757912060651
  0
ARC
  8
DETAIL
  6
CONTINUOUS
 62
     5
 10
169.73597818429491
 20
-7.5488766827947424
 30
0.0
 40
4.8197342267403496
 50
122.853308459396
 51
185.55088329735659
  0
ARC
  8
DETAIL
  6
CONTINUOUS
 62
     5
 10
167.270041173191
 20
-46.649879248756122
 30
0.0
 40
27.030479761994481
 50
99.62623248462728
 51
160.98713292211309
  0
ARC
  8
DETAIL
  6
CONTINUOUS
 62
     5
 10
209.55536903333129
 20
-70.294613084726734
 30
0.0
 40
75.202891408330842
 50
154.43662649018651
 51
165.1023455956651
  0
ARC
  8
DETAIL
  6
CONTINUOUS
 62
     5
 10
102.59013279337201
 20
-45.788782553435112
 30
0.0
 40
39.922599661483439
 50
339.14714146853271
 51
11.478940010741489
  0
ARC
  8
OUTLINE
  6
CONTINUOUS
 62
     3
 10
-72.592608315026382
 20
-131.65810670723619
 30
0.0
 40
67.315063881940389
 50
179.0142191582265
 51
251.51456020743339
  0
ARC
  8
OUTLINE
  6
CONTINUOUS
 62
     3
 10
-167.27004117319191
 20
-46.649879248756122
 30
0.0
 40
27.030479761994481
 50
19.012867077883818
 51
80.373767515372734
  0
ARC
  8
OUTLINE
  6
CONTINUOUS
 62
     3
 10
-102.590132793373
 20
-45.788782553435112
 30
0.0
 40
39.922599661483439
 50
168.5210599892585
 51
200.85285853146729
  0
ARC
  8
OUTLINE
  6
CONTINUOUS
 62
     3
 10
72.592608315025473
 20
-131.65810670723619
 30
0.0
 40
67.315063881940389
 50
288.48543979256658
 51
0.9857808417735062
  0
ARC
  8
OUTLINE
  6
CONTINUOUS
 62
     3
 10
167.270041173191
 20
-46.649879248756122
 30
0.0
 40
27.030479761994481
 50
99.62623248462728
 51
160.98713292211619
  0
ARC
  8
OUTLINE
  6
CONTINUOUS
 62
     3
 10
102.59013279337201
 20
-45.788782553435112
 30
0.0
 40
39.922599661483439
 50
339.14714146853271
 51
11.478940010741489
  0
ARC
  8
DETAIL
  6
CONTINUOUS
 62
     5
 10
-125.2802789351535
 20
-15.913915887891619
 30
0.0
 40
3.0614497245245071
 50
358.38870243468261
 51
72.140076928935727
  0
ARC
  8
DETAIL
  6
CONTINUOUS
 62
     5
 10
-126.283821010159
 20
-15.87352729425743
 30
0.0
 40
6.1863945344924334
 50
358.82858148327949
 51
71.700197880352647
  0
ARC
  8
DETAIL
  6
CONTINUOUS
 62
     5
 10
125.2802789351535
 20
-15.913915887890539
 30
0.0
 40
3.0614497245245071
 50
107.8599230710643
 51
181.61129756531739
  0
ARC
  8
DETAIL
  6
CONTINUOUS
 62
     5
 10
126.283821010159
 20
-15.87352729425629
 30
0.0
 40
6.1863945344924334
 50
108.2998021196474
 51
181.17141851672051
  0
ENDSEC
  0
EOF
