  0
SECTION
  2
HEADER
  9
$ACADVER
  1
AC1009
  9
$DWGCODEPAGE
  3
dos932
  9
$INSBASE
 10
0.0
 20
0.0
 30
0.0
  9
$EXTMIN
 10
-531.58720256945526
 20
-263.39720487990053
 30
-0.0015257624927045
  9
$EXTMAX
 10
1006.073009590702
 20
711.04431968536664
 30
0.0022888765696933
  9
$LIMMIN
 10
-2970.0
 20
-2100.0
  9
$LIMMAX
 10
2970.0
 20
2100.0
  9
$ORTHOMODE
 70
     1
  9
$REGENMODE
 70
     1
  9
$FILLMODE
 70
     1
  9
$QTEXTMODE
 70
     0
  9
$MIRRTEXT
 70
     0
  9
$LTSCALE
 40
20.0
  9
$ATTMODE
 70
     1
  9
$TEXTSIZE
 40
64.0
  9
$TRACEWID
 40
0.05
  9
$TEXTSTYLE
  7
STANDARD
  9
$CLAYER
  8
SIZE
  9
$CELTYPE
  6
CONTINUOUS
  9
$CECOLOR
 62
     7
  9
$DIMSCALE
 40
1.0
  9
$DIMASZ
 40
12.0
  9
$DIMEXO
 40
20.0
  9
$DIMDLI
 40
200.0
  9
$DIMRND
 40
0.0
  9
$DIMDLE
 40
0.0
  9
$DIMEXE
 40
20.0
  9
$DIMTP
 40
0.0
  9
$DIMTM
 40
0.0
  9
$DIMTXT
 40
64.0
  9
$DIMCEN
 40
0.09
  9
$DIMTSZ
 40
0.0
  9
$DIMTOL
 70
     0
  9
$DIMLIM
 70
     0
  9
$DIMTIH
 70
     0
  9
$DIMTOH
 70
     0
  9
$DIMSE1
 70
     0
  9
$DIMSE2
 70
     0
  9
$DIMTAD
 70
     1
  9
$DIMZIN
 70
     8
  9
$DIMBLK
  1

  9
$DIMASO
 70
     1
  9
$DIMSHO
 70
     0
  9
$DIMPOST
  1

  9
$DIMAPOST
  1

  9
$DIMALT
 70
     0
  9
$DIMALTD
 70
     2
  9
$DIMALTF
 40
25.399999999999999
  9
$DIMLFAC
 40
1.0
  9
$DIMTOFL
 70
     1
  9
$DIMTVP
 40
0.0
  9
$DIMTIX
 70
     1
  9
$DIMSOXD
 70
     0
  9
$DIMSAH
 70
     0
  9
$DIMBLK1
  1

  9
$DIMBLK2
  1

  9
$DIMSTYLE
  2
STANDARD
  9
$DIMCLRD
 70
     7
  9
$DIMCLRE
 70
     7
  9
$DIMCLRT
 70
     7
  9
$DIMTFAC
 40
1.0
  9
$DIMGAP
 40
25.0
  9
$LUNITS
 70
     2
  9
$LUPREC
 70
     4
  9
$SKETCHINC
 40
0.1
  9
$FILLETRAD
 40
3.0
  9
$AUNITS
 70
     1
  9
$AUPREC
 70
     3
  9
$MENU
  1
ACAD
  9
$ELEVATION
 40
0.0
  9
$PELEVATION
 40
0.0
  9
$THICKNESS
 40
50.0
  9
$LIMCHECK
 70
     0
  9
$CHAMFERA
 40
0.0
  9
$CHAMFERB
 40
0.0
  9
$SKPOLY
 70
     0
  9
$TDCREATE
 40
2453019.62301037
  9
$TDUPDATE
 40
2458949.440277384
  9
$TDINDWG
 40
1.7129095023
  9
$TDUSRTIMER
 40
1.7129095023
  9
$USRTIMER
 70
     1
  9
$ANGBASE
 50
0.0
  9
$ANGDIR
 70
     0
  9
$PDMODE
 70
     3
  9
$PDSIZE
 40
-2.0
  9
$PLINEWID
 40
0.0
  9
$SPLFRAME
 70
     0
  9
$SPLINETYPE
 70
     6
  9
$SPLINESEGS
 70
     8
  9
$SURFTAB1
 70
     6
  9
$SURFTAB2
 70
     6
  9
$SURFTYPE
 70
     6
  9
$SURFU
 70
     6
  9
$SURFV
 70
     6
  9
$UCSNAME
  2

  9
$UCSORG
 10
0.0
 20
0.0
 30
0.0
  9
$UCSXDIR
 10
1.0
 20
0.0
 30
0.0
  9
$UCSYDIR
 10
0.0
 20
1.0
 30
0.0
  9
$PUCSNAME
  2

  9
$PUCSORG
 10
0.0
 20
0.0
 30
0.0
  9
$PUCSXDIR
 10
1.0
 20
0.0
 30
0.0
  9
$PUCSYDIR
 10
0.0
 20
1.0
 30
0.0
  9
$USERI1
 70
     0
  9
$USERI2
 70
     0
  9
$USERI3
 70
     0
  9
$USERI4
 70
     0
  9
$USERI5
 70
     0
  9
$USERR1
 40
20.0
  9
$USERR2
 40
0.0
  9
$USERR3
 40
0.0
  9
$USERR4
 40
0.0
  9
$USERR5
 40
0.0
  9
$WORLDVIEW
 70
     1
  9
$SHADEDGE
 70
     3
  9
$SHADEDIF
 70
    70
  9
$TILEMODE
 70
     1
  9
$MAXACTVP
 70
    48
  9
$PINSBASE
 10
0.0
 20
0.0
 30
0.0
  9
$PLIMCHECK
 70
     0
  9
$PEXTMIN
 10
-100000000000000000000.0
 20
-100000000000000000000.0
 30
-100000000000000000000.0
  9
$PEXTMAX
 10
100000000000000000000.0
 20
100000000000000000000.0
 30
100000000000000000000.0
  9
$PLIMMIN
 10
0.0
 20
0.0
  9
$PLIMMAX
 10
12.0
 20
9.0
  9
$UNITMODE
 70
     0
  9
$VISRETAIN
 70
     0
  9
$PLINEGEN
 70
     0
  9
$PSLTSCALE
 70
     0
  9
$TREEDEPTH
 70
  3020
  9
$ATTDIA
 70
     0
  9
$ATTREQ
 70
     1
  9
$BLIPMODE
 70
     1
  9
$COORDS
 70
     1
  9
$DRAGMODE
 70
     2
  9
$OSMODE
 70
     0
  9
$HANDLING
 70
     0
  9
$HANDSEED
  5
F789
  0
ENDSEC
  0
SECTION
  2
TABLES
  0
TABLE
  2
LTYPE
 70
     2
  0
LTYPE
  2
CONTINUOUS
 70
     0
  3
実線
 72
    65
 73
     0
 40
0.0
  0
LTYPE
  2
DASHDOT
 70
     0
  3
____ _ ____ _ ____ _ ____ _ ____ _ ____ _ ____
 72
    65
 73
     4
 40
5.5
 49
4.0
 49
-0.6
 49
0.3
 49
-0.6
  0
ENDTAB
  0
TABLE
  2
LAYER
 70
    12
  0
LAYER
  2
0
 70
     0
 62
     7
  6
CONTINUOUS
  0
LAYER
  2
BASIS
 70
     0
 62
     6
  6
DASHDOT
  0
LAYER
  2
OUTLINE
 70
     0
 62
     3
  6
CONTINUOUS
  0
LAYER
  2
DETAIL
 70
     0
 62
     5
  6
CONTINUOUS
  0
LAYER
  2
SIZE
 70
     0
 62
    30
  6
CONTINUOUS
  0
LAYER
  2
ARRANGE
 70
     0
 62
     1
  6
CONTINUOUS
  0
LAYER
  2
DEFPOINTS
 70
     0
 62
     7
  6
CONTINUOUS
  0
LAYER
  2
ETC
 70
     0
 62
    61
  6
CONTINUOUS
  0
LAYER
  2
FIX
 70
     0
 62
    11
  6
CONTINUOUS
  0
LAYER
  2
NOTE
 70
     0
 62
     4
  6
CONTINUOUS
  0
LAYER
  2
SERVICESPACE
 70
    64
 62
     2
  6
DASHDOT
  0
LAYER
  2
SYMBOLLINE
 70
    64
 62
    15
  6
CONTINUOUS
  0
ENDTAB
  0
TABLE
  2
STYLE
 70
     1
  0
STYLE
  2
STANDARD
 70
     0
 40
64.0
 41
0.9
 50
0.0
 71
     0
 42
64.0
  3
SIMPLEX.shx
  4
BIGFONT.shx
  0
ENDTAB
  0
TABLE
  2
APPID
 70
    19
  0
APPID
  2
ACAD
 70
     0
  0
APPID
  2
AUTOCAD_POSTSCRIPT_FIGURE
 70
     0
  0
APPID
  2
ACAD_EXEMPT_FROM_CAD_STANDARDS
 70
     0
  0
APPID
  2
ACAD_PSEXT
 70
     0
  0
APPID
  2
ACAUTHENVIRON
 70
     0
  0
APPID
  2
GENIUS_GENOENT_13
 70
     0
  0
APPID
  2
GENIUS_GENCFG_13
 70
     0
  0
APPID
  2
GENIUS_GENCFG0_13
 70
     0
  0
APPID
  2
GENIUS_GENCFG1_13
 70
     0
  0
APPID
  2
GENIUS_GENCFG2_13
 70
     0
  0
APPID
  2
GENIUS_GENCFG3_13
 70
     0
  0
APPID
  2
GENIUS_GENCFG4_13
 70
     0
  0
APPID
  2
GENIUS_GEVCFG0_13
 70
     0
  0
APPID
  2
CONTENTBLOCKICON
 70
     0
  0
APPID
  2
CONTENTBLOCKDESCRIPTION
 70
     0
  0
APPID
  2
ACAD_NAV_VCDISPLAY
 70
     0
  0
APPID
  2
ACAD_MLEADERVER
 70
     0
  0
APPID
  2
ACDBDYNAMICBLOCKTRUENAME
 70
     0
  0
APPID
  2
ACDBDYNAMICBLOCKGUID
 70
     0
  0
ENDTAB
  0
TABLE
  2
DIMSTYLE
 70
     1
  0
DIMSTYLE
  2
STANDARD
 70
     0
  3

  4

  5
_ORIGIN
  6

  7

 40
1.0
 41
12.0
 42
20.0
 43
200.0
 44
20.0
 45
0.0
 46
0.0
 47
0.0
 48
0.0
140
64.0
141
0.09
142
0.0
143
25.399999999999999
144
1.0
145
0.0
146
1.0
147
25.0
 71
     0
 72
     0
 73
     0
 74
     0
 75
     0
 76
     0
 77
     1
 78
     8
170
     0
171
     2
172
     1
173
     0
174
     1
175
     0
176
     7
177
     7
178
     7
  0
ENDTAB
  0
TABLE
  2
VIEW
 70
     1
  0
VIEW
  2
ALL
 70
     0
 40
4282.6198079999986
 10
0.0
 20
41.309904000000003
 41
5940.0
 11
0.0
 21
0.0
 31
1.0
 12
0.0
 22
0.0
 32
0.0
 42
50.0
 43
0.0
 44
0.0
 50
0.0
 71
     0
  0
ENDTAB
  0
TABLE
  2
UCS
 70
     0
  0
ENDTAB
  0
TABLE
  2
VPORT
 70
     1
  0
VPORT
  2
*ACTIVE
 70
     0
 10
0.0
 20
0.0
 11
1.0
 21
1.0
 12
237.24290351062331
 22
223.823557402733
 13
0.0
 23
0.0
 14
1.0
 24
1.0
 15
0.0
 25
0.0
 16
0.0
 26
0.0
 36
1.0
 17
0.0
 27
0.0
 37
0.0
 40
980.90191036348983
 41
1.747787610619469
 42
50.0
 43
0.0
 44
0.0
 50
0.0
 51
0.0
 71
     0
 72
  1000
 73
     1
 74
     3
 75
     0
 76
     0
 77
     0
 78
     0
  0
ENDTAB
  0
ENDSEC
  0
SECTION
  2
BLOCKS
  0
BLOCK
  8
0
  2
_ORIGIN
 70
     0
 10
0.0
 20
0.0
 30
0.0
  3
_ORIGIN
  1
_ORIGIN
  0
CIRCLE
  8
0
  6
CONTINUOUS
 62
     7
 10
0.0
 20
0.0
 30
0.0
 40
0.5
  0
LINE
  8
0
  6
CONTINUOUS
 62
     7
 10
0.0
 20
0.0
 30
0.0
 11
-1.0
 21
0.0
 31
0.0
  0
ENDBLK
  8
0
  0
ENDSEC
  0
SECTION
  2
ENTITIES
  0
POINT
  8
ARRANGE
  6
CONTINUOUS
 62
     1
 10
0.0
 20
0.0
 30
0.0
  0
TEXT
  8
ETC
  6
CONTINUOUS
 62
    61
 10
251.39115709096771
 20
646.74347996498386
 30
0.0
 40
64.0
  1
EWF-25ATA2-Q_2
 41
0.9
  0
TEXT
  8
ETC
  6
CONTINUOUS
 62
    61
 10
247.20516309096729
 20
528.78816995015268
 30
0.0
 40
64.0
  1
産業扇
 41
0.9
  0
TEXT
  8
ETC
  6
CONTINUOUS
 62
    61
 10
297.90656133952331
 20
420.63939706392739
 30
0.0
 40
40.0
  1
EWF-25ATA2-Q
 41
0.9
  0
CIRCLE
  8
FIX
  6
CONTINUOUS
 62
    11
 10
-165.0
 20
164.9999999999998
 30
0.0
 40
7.0
  0
CIRCLE
  8
FIX
  6
CONTINUOUS
 62
    11
 10
-165.0
 20
-165.0
 30
0.0
 40
7.0
  0
CIRCLE
  8
FIX
  6
CONTINUOUS
 62
    11
 10
165.0
 20
-165.0
 30
0.0
 40
7.0
  0
CIRCLE
  8
FIX
  6
CONTINUOUS
 62
    11
 10
165.0
 20
164.9999999999998
 30
0.0
 40
7.0
  0
LINE
  8
SIZE
  6
CONTINUOUS
 62
    30
 10
-184.999999999648
 20
179.99999999982401
 30
0.0
 11
-184.999999999648
 21
367.7106915485665
 31
0.0
  0
LINE
  8
SIZE
  6
CONTINUOUS
 62
    30
 10
185.00000000017599
 20
179.99999999982401
 30
0.0
 11
185.00000000017599
 21
367.7106915485665
 31
0.0
  0
LINE
  8
SIZE
  6
CONTINUOUS
 62
    30
 10
-172.999999999648
 20
347.7106915485665
 30
0.0
 11
173.00000000017599
 21
347.7106915485665
 31
0.0
  0
CIRCLE
  8
SIZE
  6
CONTINUOUS
 62
    30
 10
-184.999999999648
 20
347.7106915485665
 30
0.0
 40
6.0
  0
LINE
  8
SIZE
  6
CONTINUOUS
 62
    30
 10
-184.999999999648
 20
347.7106915485665
 30
0.0
 11
-172.999999999648
 21
347.7106915485665
 31
0.0
  0
CIRCLE
  8
SIZE
  6
CONTINUOUS
 62
    30
 10
185.00000000017599
 20
347.7106915485665
 30
0.0
 40
6.0
  0
LINE
  8
SIZE
  6
CONTINUOUS
 62
    30
 10
185.00000000017599
 20
347.7106915485665
 30
0.0
 11
173.00000000017599
 21
347.7106915485665
 31
0.0
  0
TEXT
  8
SIZE
  6
CONTINUOUS
 62
    30
 10
-74.057142856878869
 20
372.7106915485665
 30
0.0
 40
64.0
  1
370
 41
0.9
 72
     1
 11
0.0000000002639808
 21
372.7106915485665
 31
0.0
  0
POINT
  8
DEFPOINTS
  6
CONTINUOUS
 62
    30
 10
-184.999999999648
 20
159.99999999982401
 30
0.0
  0
POINT
  8
DEFPOINTS
  6
CONTINUOUS
 62
    30
 10
185.00000000017599
 20
159.99999999982401
 30
0.0
  0
POINT
  8
DEFPOINTS
  6
CONTINUOUS
 62
    30
 10
185.00000000017599
 20
347.7106915485665
 30
0.0
  0
LINE
  8
SIZE
  6
CONTINUOUS
 62
    30
 10
-165.0
 20
206.1267605633802
 30
0.0
 11
-165.0
 21
255.66042315804319
 31
0.0
  0
LINE
  8
SIZE
  6
CONTINUOUS
 62
    30
 10
165.0
 20
206.1267605633802
 30
0.0
 11
165.0
 21
255.66042315804319
 31
0.0
  0
LINE
  8
SIZE
  6
CONTINUOUS
 62
    30
 10
-153.0
 20
235.66042315804319
 30
0.0
 11
153.0
 21
235.66042315804319
 31
0.0
  0
CIRCLE
  8
SIZE
  6
CONTINUOUS
 62
    30
 10
-165.0
 20
235.66042315804319
 30
0.0
 40
6.0
  0
LINE
  8
SIZE
  6
CONTINUOUS
 62
    30
 10
-165.0
 20
235.66042315804319
 30
0.0
 11
-153.0
 21
235.66042315804319
 31
0.0
  0
CIRCLE
  8
SIZE
  6
CONTINUOUS
 62
    30
 10
165.0
 20
235.66042315804319
 30
0.0
 40
6.0
  0
LINE
  8
SIZE
  6
CONTINUOUS
 62
    30
 10
165.0
 20
235.66042315804319
 30
0.0
 11
153.0
 21
235.66042315804319
 31
0.0
  0
TEXT
  8
SIZE
  6
CONTINUOUS
 62
    30
 10
-74.057142857142864
 20
260.66042315804322
 30
0.0
 40
64.0
  1
330
 41
0.9
 72
     1
 11
0.0
 21
260.66042315804322
 31
0.0
  0
POINT
  8
DEFPOINTS
  6
CONTINUOUS
 62
    30
 10
-165.0
 20
186.1267605633802
 30
0.0
  0
POINT
  8
DEFPOINTS
  6
CONTINUOUS
 62
    30
 10
165.0
 20
186.1267605633802
 30
0.0
  0
POINT
  8
DEFPOINTS
  6
CONTINUOUS
 62
    30
 10
165.0
 20
235.66042315804319
 30
0.0
  0
LINE
  8
SIZE
  6
CONTINUOUS
 62
    30
 10
-179.99999999982401
 20
185.00000000017599
 30
0.0
 11
-462.1765630780535
 21
185.00000000017599
 31
0.0
  0
LINE
  8
SIZE
  6
CONTINUOUS
 62
    30
 10
-179.99999999982401
 20
-185.00000000017599
 30
0.0
 11
-462.17656307805368
 21
-185.00000000017599
 31
0.0
  0
LINE
  8
SIZE
  6
CONTINUOUS
 62
    30
 10
-442.1765630780535
 20
173.00000000017599
 30
0.0
 11
-442.17656307805368
 21
-173.00000000017599
 31
0.0
  0
CIRCLE
  8
SIZE
  6
CONTINUOUS
 62
    30
 10
-442.1765630780535
 20
185.00000000017599
 30
0.0
 40
6.0
  0
LINE
  8
SIZE
  6
CONTINUOUS
 62
    30
 10
-442.1765630780535
 20
185.00000000017599
 30
0.0
 11
-442.1765630780535
 21
173.00000000017599
 31
0.0
  0
CIRCLE
  8
SIZE
  6
CONTINUOUS
 62
    30
 10
-442.17656307805368
 20
-185.00000000017599
 30
0.0
 40
6.0
  0
LINE
  8
SIZE
  6
CONTINUOUS
 62
    30
 10
-442.17656307805368
 20
-185.00000000017599
 30
0.0
 11
-442.17656307805368
 21
-173.00000000017599
 31
0.0
  0
TEXT
  8
SIZE
  6
CONTINUOUS
 62
    30
 10
-467.17656307805368
 20
-80.859766315696021
 30
0.0
 40
64.0
  1
370
 50
90.0
 41
0.9
 72
     1
 11
-467.17656307805368
 21
-6.8026234585531711
 31
0.0
  0
POINT
  8
DEFPOINTS
  6
CONTINUOUS
 62
    30
 10
-159.99999999982401
 20
185.00000000017599
 30
0.0
  0
POINT
  8
DEFPOINTS
  6
CONTINUOUS
 62
    30
 10
-159.99999999982401
 20
-185.00000000017599
 30
0.0
  0
POINT
  8
DEFPOINTS
  6
CONTINUOUS
 62
    30
 10
-442.17656307805368
 20
-185.00000000017599
 30
0.0
  0
LINE
  8
SIZE
  6
CONTINUOUS
 62
    30
 10
-206.1267605633802
 20
165.0
 30
0.0
 11
-345.4215995432512
 21
165.0
 31
0.0
  0
LINE
  8
SIZE
  6
CONTINUOUS
 62
    30
 10
-206.1267605633802
 20
-165.0
 30
0.0
 11
-345.4215995432512
 21
-165.0
 31
0.0
  0
LINE
  8
SIZE
  6
CONTINUOUS
 62
    30
 10
-325.4215995432512
 20
153.0
 30
0.0
 11
-325.42159954325138
 21
-153.0
 31
0.0
  0
CIRCLE
  8
SIZE
  6
CONTINUOUS
 62
    30
 10
-325.4215995432512
 20
165.0
 30
0.0
 40
6.0
  0
LINE
  8
SIZE
  6
CONTINUOUS
 62
    30
 10
-325.4215995432512
 20
165.0
 30
0.0
 11
-325.4215995432512
 21
153.0
 31
0.0
  0
CIRCLE
  8
SIZE
  6
CONTINUOUS
 62
    30
 10
-325.42159954325138
 20
-165.0
 30
0.0
 40
6.0
  0
LINE
  8
SIZE
  6
CONTINUOUS
 62
    30
 10
-325.42159954325138
 20
-165.0
 30
0.0
 11
-325.42159954325138
 21
-153.0
 31
0.0
  0
TEXT
  8
SIZE
  6
CONTINUOUS
 62
    30
 10
-350.4215995432512
 20
-74.057142857142864
 30
0.0
 40
64.0
  1
330
 50
90.0
 41
0.9
 72
     1
 11
-350.4215995432512
 21
0.0
 31
0.0
  0
POINT
  8
DEFPOINTS
  6
CONTINUOUS
 62
    30
 10
-186.1267605633802
 20
164.9999999999998
 30
0.0
  0
POINT
  8
DEFPOINTS
  6
CONTINUOUS
 62
    30
 10
-186.1267605633802
 20
-165.0
 30
0.0
  0
POINT
  8
DEFPOINTS
  6
CONTINUOUS
 62
    30
 10
-325.42159954325138
 20
-165.0
 30
0.0
  0
LINE
  8
SIZE
  6
CONTINUOUS
 62
    30
 10
-20.0
 20
60.294362262147843
 30
0.0
 11
-229.98502529324921
 21
60.294362262147843
 31
0.0
  0
LINE
  8
SIZE
  6
CONTINUOUS
 62
    30
 10
-20.0
 20
-93.294367969014047
 30
0.0
 11
-229.98502529324921
 21
-93.294367969014047
 31
0.0
  0
LINE
  8
SIZE
  6
CONTINUOUS
 62
    30
 10
-209.98502529324921
 20
72.294362262147843
 30
0.0
 11
-209.98502529324921
 21
84.294362262147843
 31
0.0
  0
LINE
  8
SIZE
  6
CONTINUOUS
 62
    30
 10
-209.98502529324921
 20
-105.294367969014
 30
0.0
 11
-209.98502529324921
 21
-117.294367969014
 31
0.0
  0
LINE
  8
SIZE
  6
CONTINUOUS
 62
    30
 10
-209.98502529324921
 20
60.294362262147843
 30
0.0
 11
-209.98502529324921
 21
-93.294367969014047
 31
0.0
  0
CIRCLE
  8
SIZE
  6
CONTINUOUS
 62
    30
 10
-209.98502529324921
 20
60.294362262147843
 30
0.0
 40
6.0
  0
LINE
  8
SIZE
  6
CONTINUOUS
 62
    30
 10
-209.98502529324921
 20
60.294362262147843
 30
0.0
 11
-209.98502529324921
 21
72.294362262147843
 31
0.0
  0
CIRCLE
  8
SIZE
  6
CONTINUOUS
 62
    30
 10
-209.98502529324921
 20
-93.294367969014047
 30
0.0
 40
6.0
  0
LINE
  8
SIZE
  6
CONTINUOUS
 62
    30
 10
-209.98502529324921
 20
-93.294367969014047
 30
0.0
 11
-209.98502529324921
 21
-105.294367969014
 31
0.0
  0
TEXT
  8
SIZE
  6
CONTINUOUS
 62
    30
 10
-234.98502529324921
 20
-85.071431424861771
 30
0.0
 40
64.0
  1
153
 50
90.0
 41
0.9
 72
     1
 11
-234.98502529324921
 21
-16.500002853433219
 31
0.0
  0
POINT
  8
DEFPOINTS
  6
CONTINUOUS
 62
    30
 10
0.0
 20
60.294362262147843
 30
0.0
  0
POINT
  8
DEFPOINTS
  6
CONTINUOUS
 62
    30
 10
0.0
 20
-93.294367969014047
 30
0.0
  0
POINT
  8
DEFPOINTS
  6
CONTINUOUS
 62
    30
 10
-209.98502529324921
 20
-93.294367969014047
 30
0.0
  0
LINE
  8
NOTE
  6
CONTINUOUS
 62
     4
 10
143.8732394366198
 20
-165.0
 30
0.0
 11
186.1267605633802
 21
-165.0
 31
0.0
  0
LINE
  8
NOTE
  6
CONTINUOUS
 62
     4
 10
165.0
 20
-143.87323943662
 30
0.0
 11
165.0
 21
-186.1267605633802
 31
0.0
  0
LINE
  8
NOTE
  6
CONTINUOUS
 62
     4
 10
143.8732394366198
 20
164.9999999999998
 30
0.0
 11
186.1267605633802
 21
164.9999999999998
 31
0.0
  0
LINE
  8
NOTE
  6
CONTINUOUS
 62
     4
 10
165.0
 20
143.8732394366198
 30
0.0
 11
165.0
 21
186.1267605633802
 31
0.0
  0
LINE
  8
NOTE
  6
CONTINUOUS
 62
     4
 10
-165.0
 20
-143.87323943662
 30
0.0
 11
-165.0
 21
-186.1267605633802
 31
0.0
  0
LINE
  8
NOTE
  6
CONTINUOUS
 62
     4
 10
-143.8732394366198
 20
-165.0
 30
0.0
 11
-186.1267605633802
 21
-165.0
 31
0.0
  0
LINE
  8
NOTE
  6
CONTINUOUS
 62
     4
 10
-165.0
 20
143.8732394366198
 30
0.0
 11
-165.0
 21
186.1267605633802
 31
0.0
  0
LINE
  8
NOTE
  6
CONTINUOUS
 62
     4
 10
-143.8732394366198
 20
164.9999999999998
 30
0.0
 11
-186.1267605633802
 21
164.9999999999998
 31
0.0
  0
TEXT
  8
NOTE
  6
CONTINUOUS
 62
     4
 10
-512.27752200323448
 20
255.33491226412369
 30
0.0
 40
64.0
  1
4-φ10
 41
0.9
  0
TEXT
  8
NOTE
  6
CONTINUOUS
 62
     4
 10
229.09006088277371
 20
-238.07595204797099
 30
0.0
 40
64.0
  1
EL
 41
0.9
  0
LINE
  8
SIZE
  6
CONTINUOUS
 62
    30
 10
479.50292364286997
 20
69.347531568509567
 30
0.0
 11
143.2595420248872
 21
20.718738350092739
 31
0.0
  0
LINE
  8
SIZE
  6
CONTINUOUS
 62
    30
 10
-143.2595420248872
 20
-20.718738350092739
 30
0.0
 11
-155.13598074197631
 21
-22.436353964608092
 31
0.0
  0
TEXT
  8
SIZE
  6
CONTINUOUS
 62
    30
 10
241.61373278514469
 20
60.203191979116752
 30
0.0
 40
64.0
  1
φ266
 50
8.2292748913802143
 41
0.9
 72
     1
 11
353.45585281807507
 21
76.378223594668043
 31
0.0
  0
LINE
  8
SIZE
  6
CONTINUOUS
 62
    30
 10
-131.38310330779811
 20
-19.001122735577379
 30
0.0
 11
131.38310330779811
 21
19.001122735577159
 31
0.0
  0
CIRCLE
  8
SIZE
  6
CONTINUOUS
 62
    30
 10
-131.38310330779811
 20
-19.001122735577379
 30
0.0
 40
6.0
  0
LINE
  8
SIZE
  6
CONTINUOUS
 62
    30
 10
-131.38310330779811
 20
-19.001122735577379
 30
0.0
 11
-143.2595420248872
 21
-20.718738350092739
 31
0.0
  0
CIRCLE
  8
SIZE
  6
CONTINUOUS
 62
    30
 10
131.38310330779811
 20
19.001122735577159
 30
0.0
 40
6.0
  0
LINE
  8
SIZE
  6
CONTINUOUS
 62
    30
 10
131.38310330779811
 20
19.001122735577159
 30
0.0
 11
143.2595420248872
 21
20.718738350092739
 31
0.0
  0
POINT
  8
DEFPOINTS
  6
CONTINUOUS
 62
    30
 10
131.38310330779811
 20
19.001122735577159
 30
0.0
  0
POINT
  8
DEFPOINTS
  6
CONTINUOUS
 62
    30
 10
-131.38310330779811
 20
-19.001122735577379
 30
0.0
  0
LINE
  8
DETAIL
  6
CONTINUOUS
 62
     4
 10
-168.19221612221671
 20
171.2653689130334
 30
0.0
 11
-165.42881748258449
 21
165.7022468355951
 31
0.0
  0
LINE
  8
DETAIL
  6
CONTINUOUS
 62
     4
 10
-165.42881748258449
 20
165.7022468355951
 30
0.0
 11
-170.60355712202039
 21
169.13834476115679
 31
0.0
  0
LINE
  8
DETAIL
  6
CONTINUOUS
 62
     4
 10
-165.42881748258449
 20
165.7022468355951
 30
0.0
 11
-173.36695576165269
 21
174.7014668385948
 31
0.0
  0
LINE
  8
NOTE
  6
CONTINUOUS
 62
     4
 10
-173.36695576165269
 20
174.701466838595
 30
0.0
 11
-221.53241036208601
 21
229.30514181321061
 31
0.0
  0
LINE
  8
NOTE
  6
CONTINUOUS
 62
     4
 10
-221.53241036208601
 20
229.30514181321061
 30
0.0
 11
-519.40097260711991
 21
229.46659666239111
 31
0.0
  0
LINE
  8
DETAIL
  6
CONTINUOUS
 62
     4
 10
126.55790222388239
 20
-139.40267888349561
 30
0.0
 11
124.1776618801057
 21
-133.6651571889083
 31
0.0
  0
LINE
  8
DETAIL
  6
CONTINUOUS
 62
     4
 10
124.1776618801057
 20
-133.6651571889083
 30
0.0
 11
129.10777702653419
 21
-137.44386912989509
 31
0.0
  0
LINE
  8
DETAIL
  6
CONTINUOUS
 62
     4
 10
124.1776618801057
 20
-133.6651571889083
 30
0.0
 11
131.4880173703109
 21
-143.18139082448221
 31
0.0
  0
LINE
  8
NOTE
  6
CONTINUOUS
 62
     4
 10
131.4880173703109
 20
-143.18139082448221
 30
0.0
 11
216.13469577413889
 21
-253.3699540544612
 31
0.0
  0
LINE
  8
NOTE
  6
CONTINUOUS
 62
     4
 10
216.13469577413889
 20
-253.3699540544612
 30
0.0
 11
315.98140376583842
 21
-253.28257764282901
 31
0.0
  0
ARC
  8
OUTLINE
  6
CONTINUOUS
 62
     3
 10
159.99999999982401
 20
-159.99999999982381
 30
0.0
 40
24.999999999823959
 50
270.0
 51
0.0
  0
LINE
  8
OUTLINE
  6
CONTINUOUS
 62
     3
 10
159.99999999982401
 20
-185.00000000017599
 30
0.0
 11
-159.99999999982401
 21
-185.00000000017599
 31
0.0
  0
ARC
  8
OUTLINE
  6
CONTINUOUS
 62
     3
 10
-159.99999999982401
 20
-159.99999999982381
 30
0.0
 40
24.999999999824009
 50
180.0
 51
270.0
  0
LINE
  8
OUTLINE
  6
CONTINUOUS
 62
     3
 10
-185.00000000017641
 20
-159.99999999982381
 30
0.0
 11
-185.00000000017641
 21
159.99999999982401
 31
0.0
  0
ARC
  8
OUTLINE
  6
CONTINUOUS
 62
     3
 10
-159.99999999982401
 20
159.99999999982401
 30
0.0
 40
24.999999999823931
 50
90.0
 51
180.0
  0
LINE
  8
OUTLINE
  6
CONTINUOUS
 62
     3
 10
-159.99999999982401
 20
185.00000000017599
 30
0.0
 11
159.99999999982401
 21
185.00000000017599
 31
0.0
  0
ARC
  8
OUTLINE
  6
CONTINUOUS
 62
     3
 10
159.99999999982401
 20
159.99999999982401
 30
0.0
 40
24.999999999823562
 50
0.0
 51
90.0
  0
LINE
  8
OUTLINE
  6
CONTINUOUS
 62
     3
 10
185.0000000001755
 20
159.99999999982401
 30
0.0
 11
185.0000000001755
 21
-159.99999999982381
 31
0.0
  0
LINE
  8
DETAIL
  6
CONTINUOUS
 62
     5
 10
-48.886929253520982
 20
-72.205931933978718
 30
0.0
 11
-46.493269586091401
 21
-81.13919142834493
 31
0.0
  0
LINE
  8
DETAIL
  6
CONTINUOUS
 62
     5
 10
-43.059188684154833
 20
-68.84128434771128
 30
0.0
 11
-41.037895633626697
 21
-76.384852709154984
 31
0.0
  0
LINE
  8
DETAIL
  6
CONTINUOUS
 62
     5
 10
-60.29437180035211
 20
43.235194866021168
 30
0.0
 11
-60.29437180035211
 21
-57.180830601232401
 31
0.0
  0
LINE
  8
DETAIL
  6
CONTINUOUS
 62
     5
 10
-53.794371800176123
 20
39.057910610387353
 30
0.0
 11
-53.794371800176123
 21
-54.488442445774581
 31
0.0
  0
LINE
  8
DETAIL
  6
CONTINUOUS
 62
     5
 10
-58.997184075528367
 20
-60.312518798767542
 30
0.0
 11
-51.322768807394368
 21
-67.986934067429502
 31
0.0
  0
LINE
  8
DETAIL
  6
CONTINUOUS
 62
     5
 10
-52.497184075880106
 20
-57.620130643837911
 30
0.0
 11
-45.495028238028453
 21
-64.622286481162064
 31
0.0
  0
LINE
  8
DETAIL
  6
CONTINUOUS
 62
     5
 10
53.794371800176123
 20
-54.488442445774581
 30
0.0
 11
53.794371800176123
 21
39.057910610915542
 31
0.0
  0
LINE
  8
DETAIL
  6
CONTINUOUS
 62
     5
 10
60.29437180035211
 20
-57.180830601232401
 30
0.0
 11
60.29437180035211
 21
43.235194865492993
 31
0.0
  0
LINE
  8
DETAIL
  6
CONTINUOUS
 62
     5
 10
148.86517376461279
 20
-263.27236070387329
 30
0.0
 11
151.26517376461291
 21
-263.27236070387329
 31
0.0
  0
LINE
  8
DETAIL
  6
CONTINUOUS
 62
     5
 10
41.037895633626697
 20
-76.384852708626795
 30
0.0
 11
43.059188684154833
 21
-68.84128434771128
 31
0.0
  0
LINE
  8
DETAIL
  6
CONTINUOUS
 62
     5
 10
46.493269585563212
 20
-81.139191428873119
 30
0.0
 11
48.886929252993014
 21
-72.205931933978718
 31
0.0
  0
LINE
  8
DETAIL
  6
CONTINUOUS
 62
     5
 10
148.86517376461279
 20
-244.7430878830985
 30
0.0
 11
148.86517376461279
 21
-263.27236070387329
 31
0.0
  0
LINE
  8
DETAIL
  6
CONTINUOUS
 62
     5
 10
151.26517376461291
 20
-244.7430878830985
 30
0.0
 11
151.26517376461291
 21
-263.27236070387329
 31
0.0
  0
LINE
  8
DETAIL
  6
CONTINUOUS
 62
     5
 10
45.495028238027999
 20
-64.622286481162064
 30
0.0
 11
52.497184075351917
 21
-57.620130643837911
 31
0.0
  0
LINE
  8
DETAIL
  6
CONTINUOUS
 62
     5
 10
51.322768807394141
 20
-67.986934067429502
 30
0.0
 11
58.997184075528139
 21
-60.312518798767542
 31
0.0
  0
LINE
  8
DETAIL
  6
CONTINUOUS
 62
     5
 10
-170.3033008589789
 20
176.6672618894365
 30
0.0
 11
-176.6672618894365
 21
170.3033008589789
 31
0.0
  0
LINE
  8
DETAIL
  6
CONTINUOUS
 62
     5
 10
-176.6672618894365
 20
-170.3033008589789
 30
0.0
 11
-170.3033008589789
 21
-176.6672618894365
 31
0.0
  0
LINE
  8
DETAIL
  6
CONTINUOUS
 62
     5
 10
-165.0000000000002
 20
147.32233047042249
 30
0.0
 11
-147.32233047042271
 21
165.0
 31
0.0
  0
LINE
  8
DETAIL
  6
CONTINUOUS
 62
     5
 10
-142.26095603133811
 20
161.1518289961268
 30
0.0
 11
-142.86755774894371
 21
160.545227278521
 31
0.0
  0
LINE
  8
DETAIL
  6
CONTINUOUS
 62
     5
 10
-160.545227278521
 20
142.86755774894371
 30
0.0
 11
-161.15182899665481
 21
142.26095603080989
 31
0.0
  0
LINE
  8
DETAIL
  6
CONTINUOUS
 62
     5
 10
-144.4939033457745
 20
150.26740603732401
 30
0.0
 11
-149.4939033454225
 21
147.38065469154941
 31
0.0
  0
LINE
  8
DETAIL
  6
CONTINUOUS
 62
     5
 10
-144.4939033457745
 20
138.7204006536972
 30
0.0
 11
-139.49390334559851
 21
141.60715199947191
 31
0.0
  0
LINE
  8
DETAIL
  6
CONTINUOUS
 62
     5
 10
-147.32233047042271
 20
-165.0
 30
0.0
 11
-165.0000000000002
 21
-147.32233047042249
 31
0.0
  0
LINE
  8
DETAIL
  6
CONTINUOUS
 62
     5
 10
-161.15182899665481
 20
-142.26095603133811
 30
0.0
 11
-160.545227278521
 21
-142.86755774894371
 31
0.0
  0
LINE
  8
DETAIL
  6
CONTINUOUS
 62
     5
 10
-142.86755774894371
 20
-160.545227278521
 30
0.0
 11
-142.26095603133811
 21
-161.1518289961268
 31
0.0
  0
LINE
  8
DETAIL
  6
CONTINUOUS
 62
     5
 10
-185.00000000017599
 20
159.99999999982401
 30
0.0
 11
-185.00000000017599
 21
-159.99999999982381
 31
0.0
  0
LINE
  8
DETAIL
  6
CONTINUOUS
 62
     5
 10
-182.00000000017599
 20
159.99999999982401
 30
0.0
 11
-182.00000000017599
 21
124.36195128802819
 31
0.0
  0
LINE
  8
DETAIL
  6
CONTINUOUS
 62
     5
 10
-182.00000000017599
 20
124.36195128802819
 30
0.0
 11
-182.00000000017599
 21
-124.36195128802819
 31
0.0
  0
LINE
  8
DETAIL
  6
CONTINUOUS
 62
     5
 10
-182.00000000017599
 20
-124.36195128802819
 30
0.0
 11
-182.00000000017599
 21
-159.99999999982381
 31
0.0
  0
LINE
  8
DETAIL
  6
CONTINUOUS
 62
     5
 10
-132.11953467464809
 20
129.99821433116199
 30
0.0
 11
-139.89770926795791
 21
122.22003973838039
 31
0.0
  0
LINE
  8
DETAIL
  6
CONTINUOUS
 62
     5
 10
-120.0987193948945
 20
137.7763889244718
 30
0.0
 11
-127.8768939876759
 21
129.99821433116199
 31
0.0
  0
LINE
  8
DETAIL
  6
CONTINUOUS
 62
     5
 10
-117.4707077477112
 20
137.57597344647891
 30
0.0
 11
-126.4626804253521
 21
128.584000768838
 31
0.0
  0
LINE
  8
DETAIL
  6
CONTINUOUS
 62
     5
 10
-136.054147831162
 20
118.9925333630281
 30
0.0
 11
-137.57597344647911
 21
117.4707077477112
 31
0.0
  0
LINE
  8
DETAIL
  6
CONTINUOUS
 62
     5
 10
-149.4939033454225
 20
-147.38065469154941
 30
0.0
 11
-144.4939033457745
 21
-150.26740603732381
 31
0.0
  0
LINE
  8
DETAIL
  6
CONTINUOUS
 62
     5
 10
-139.49390334559851
 20
-141.60715199947191
 30
0.0
 11
-144.4939033457745
 21
-138.7204006536972
 31
0.0
  0
LINE
  8
DETAIL
  6
CONTINUOUS
 62
     5
 10
-176.6672618894365
 20
170.3033008589789
 30
0.0
 11
-176.6672618894365
 21
158.98959235985919
 31
0.0
  0
LINE
  8
DETAIL
  6
CONTINUOUS
 62
     5
 10
-176.6672618894365
 20
-158.98959235985919
 30
0.0
 11
-176.6672618894365
 21
-170.3033008589789
 31
0.0
  0
LINE
  8
DETAIL
  6
CONTINUOUS
 62
     5
 10
-171.50000000017599
 20
91.613438020246576
 30
0.0
 11
-171.50000000017599
 21
-91.613438020246349
 31
0.0
  0
LINE
  8
DETAIL
  6
CONTINUOUS
 62
     5
 10
-159.99999999982401
 20
-185.00000000017599
 30
0.0
 11
139.94468296426069
 21
-185.00000000017599
 31
0.0
  0
LINE
  8
DETAIL
  6
CONTINUOUS
 62
     5
 10
146.8374349072183
 20
-185.00000000017599
 30
0.0
 11
159.99999999982401
 21
-185.00000000017599
 31
0.0
  0
LINE
  8
DETAIL
  6
CONTINUOUS
 62
     5
 10
-159.99999999982401
 20
-182.00000000017599
 30
0.0
 11
-124.36195128802819
 21
-182.00000000017599
 31
0.0
  0
LINE
  8
DETAIL
  6
CONTINUOUS
 62
     5
 10
-124.36195128802819
 20
-182.00000000017599
 30
0.0
 11
124.36195128802819
 21
-182.00000000017599
 31
0.0
  0
LINE
  8
DETAIL
  6
CONTINUOUS
 62
     5
 10
124.36195128802819
 20
-182.00000000017599
 30
0.0
 11
139.13803734031671
 21
-182.00000000017599
 31
0.0
  0
LINE
  8
DETAIL
  6
CONTINUOUS
 62
     5
 10
146.0402753846829
 20
-182.00000000017599
 30
0.0
 11
159.99999999982401
 21
-182.00000000017599
 31
0.0
  0
LINE
  8
DETAIL
  6
CONTINUOUS
 62
     5
 10
-170.3033008589789
 20
-176.6672618894365
 30
0.0
 11
-158.98959235985899
 21
-176.6672618894365
 31
0.0
  0
LINE
  8
DETAIL
  6
CONTINUOUS
 62
     5
 10
158.98959235985919
 20
-176.6672618894365
 30
0.0
 11
170.3033008589787
 21
-176.6672618894365
 31
0.0
  0
LINE
  8
DETAIL
  6
CONTINUOUS
 62
     5
 10
-132.11953467464809
 20
-129.99821433116199
 30
0.0
 11
-139.89770926795791
 21
-122.22003973838009
 31
0.0
  0
LINE
  8
DETAIL
  6
CONTINUOUS
 62
     5
 10
-120.0987193948945
 20
-137.7763889244718
 30
0.0
 11
-127.8768939876759
 21
-129.99821433116199
 31
0.0
  0
LINE
  8
DETAIL
  6
CONTINUOUS
 62
     5
 10
-137.57597344647911
 20
-117.4707077477112
 30
0.0
 11
-136.054147831162
 21
-118.9925333630281
 31
0.0
  0
LINE
  8
DETAIL
  6
CONTINUOUS
 62
     5
 10
-126.4626804253521
 20
-128.584000768838
 30
0.0
 11
-117.4707077477112
 21
-137.57597344647891
 31
0.0
  0
LINE
  8
DETAIL
  6
CONTINUOUS
 62
     5
 10
-149.4939033454225
 20
147.38065469154941
 30
0.0
 11
-149.4939033454225
 21
141.60715199947191
 31
0.0
  0
LINE
  8
DETAIL
  6
CONTINUOUS
 62
     5
 10
-149.4939033454225
 20
-141.60715199947191
 30
0.0
 11
-149.4939033454225
 21
-147.38065469154941
 31
0.0
  0
LINE
  8
DETAIL
  6
CONTINUOUS
 62
     5
 10
-91.613438020246349
 20
-171.50000000017599
 30
0.0
 11
91.613438020246349
 21
-171.50000000017599
 31
0.0
  0
LINE
  8
DETAIL
  6
CONTINUOUS
 62
     5
 10
-139.49390334559851
 20
-147.38065469154941
 30
0.0
 11
-139.49390334559851
 21
-141.60715199947191
 31
0.0
  0
LINE
  8
DETAIL
  6
CONTINUOUS
 62
     5
 10
-139.49390334559851
 20
141.60715199947191
 30
0.0
 11
-139.49390334559851
 21
147.38065469154941
 31
0.0
  0
LINE
  8
DETAIL
  6
CONTINUOUS
 62
     5
 10
127.47657913468311
 20
-144.35619240000031
 30
0.0
 11
139.28159851478861
 21
-143.07497523116189
 31
0.0
  0
LINE
  8
DETAIL
  6
CONTINUOUS
 62
     5
 10
139.1521209744717
 20
-141.88198086126749
 30
0.0
 11
127.34710159436599
 21
-143.1631980301056
 31
0.0
  0
LINE
  8
DETAIL
  6
CONTINUOUS
 62
     5
 10
110.9564222762324
 20
-108.8351019327465
 30
0.0
 11
111.25693228521141
 21
-108.8347540257041
 31
0.0
  0
LINE
  8
DETAIL
  6
CONTINUOUS
 62
     5
 10
111.25693228521141
 20
-108.8347540257041
 30
0.0
 11
112.1052034103873
 21
-108.9382163609155
 31
0.0
  0
LINE
  8
DETAIL
  6
CONTINUOUS
 62
     5
 10
112.1052034103873
 20
-108.9382163609155
 30
0.0
 11
112.9017452999999
 21
-109.14682943609159
 31
0.0
  0
LINE
  8
DETAIL
  6
CONTINUOUS
 62
     5
 10
112.9017452999999
 20
-109.14682943609159
 30
0.0
 11
113.63759335035211
 21
-109.456045630986
 31
0.0
  0
LINE
  8
DETAIL
  6
CONTINUOUS
 62
     5
 10
113.63759335035211
 20
-109.456045630986
 30
0.0
 11
114.29833998169011
 21
-109.8609962984156
 31
0.0
  0
LINE
  8
DETAIL
  6
CONTINUOUS
 62
     5
 10
114.29833998169011
 20
-109.8609962984156
 30
0.0
 11
114.8887877202465
 21
-110.3633043205987
 31
0.0
  0
LINE
  8
DETAIL
  6
CONTINUOUS
 62
     5
 10
144.4939033457745
 20
150.26740603732401
 30
0.0
 11
139.49390334559851
 21
147.38065469154941
 31
0.0
  0
LINE
  8
DETAIL
  6
CONTINUOUS
 62
     5
 10
3.9999999998240132
 20
-101.7
 30
0.0
 11
-3.9999999998240132
 21
-101.7
 31
0.0
  0
LINE
  8
DETAIL
  6
CONTINUOUS
 62
     5
 10
-65.499999999824013
 20
52.076773668485878
 30
0.0
 11
-65.499999999824013
 21
60.893398282394401
 31
0.0
  0
LINE
  8
DETAIL
  6
CONTINUOUS
 62
     5
 10
-62.499999999823793
 20
60.893398282394401
 30
0.0
 11
-62.499999999823793
 21
53.59880764489435
 31
0.0
  0
LINE
  8
DETAIL
  6
CONTINUOUS
 62
     5
 10
144.4939033457745
 20
138.7204006536972
 30
0.0
 11
149.4939033454225
 21
141.60715199947191
 31
0.0
  0
LINE
  8
DETAIL
  6
CONTINUOUS
 62
     5
 10
133.30164531602119
 20
-117.894735366021
 30
0.0
 11
133.5485816994719
 21
-117.9599635764084
 31
0.0
  0
LINE
  8
DETAIL
  6
CONTINUOUS
 62
     5
 10
133.5485816994719
 20
-117.9599635764084
 30
0.0
 11
134.1363242899647
 21
-118.1471899061619
 31
0.0
  0
LINE
  8
DETAIL
  6
CONTINUOUS
 62
     5
 10
134.1363242899647
 20
-118.1471899061619
 30
0.0
 11
134.6745790225352
 21
-118.34693830035209
 31
0.0
  0
LINE
  8
DETAIL
  6
CONTINUOUS
 62
     5
 10
134.6745790225352
 20
-118.34693830035209
 30
0.0
 11
135.1644698455984
 21
-118.55321755352109
 31
0.0
  0
LINE
  8
DETAIL
  6
CONTINUOUS
 62
     5
 10
135.1644698455984
 20
-118.55321755352109
 30
0.0
 11
135.60573527165499
 21
-118.760014669014
 31
0.0
  0
LINE
  8
DETAIL
  6
CONTINUOUS
 62
     5
 10
135.60573527165499
 20
-118.760014669014
 30
0.0
 11
135.99942574859139
 21
-118.9621721746478
 31
0.0
  0
LINE
  8
DETAIL
  6
CONTINUOUS
 62
     5
 10
135.99942574859139
 20
-118.9621721746478
 30
0.0
 11
136.3471002158449
 21
-119.1550707179576
 31
0.0
  0
LINE
  8
DETAIL
  6
CONTINUOUS
 62
     5
 10
136.3471002158449
 20
-119.1550707179576
 30
0.0
 11
136.6503492031691
 21
-119.3346702739436
 31
0.0
  0
LINE
  8
DETAIL
  6
CONTINUOUS
 62
     5
 10
136.6503492031691
 20
-119.3346702739436
 30
0.0
 11
136.91179396003511
 21
-119.4983283417253
 31
0.0
  0
LINE
  8
DETAIL
  6
CONTINUOUS
 62
     5
 10
136.91179396003511
 20
-119.4983283417253
 30
0.0
 11
137.1339790658449
 21
-119.6440026639084
 31
0.0
  0
LINE
  8
DETAIL
  6
CONTINUOUS
 62
     5
 10
137.1339790658449
 20
-119.6440026639084
 30
0.0
 11
137.31891261073949
 21
-119.7697985498239
 31
0.0
  0
LINE
  8
DETAIL
  6
CONTINUOUS
 62
     5
 10
137.31891261073949
 20
-119.7697985498239
 30
0.0
 11
137.46913008380261
 21
-119.8751049110915
 31
0.0
  0
LINE
  8
DETAIL
  6
CONTINUOUS
 62
     5
 10
137.46913008380261
 20
-119.8751049110915
 30
0.0
 11
137.58662150228861
 21
-119.9594730274648
 31
0.0
  0
LINE
  8
DETAIL
  6
CONTINUOUS
 62
     5
 10
-39.999999999824013
 20
27.0
 30
0.0
 11
-39.999999999824013
 21
-36.999999999824013
 31
0.0
  0
LINE
  8
DETAIL
  6
CONTINUOUS
 62
     5
 10
56.259940430281631
 20
-74.860074640668927
 30
0.0
 11
56.268212125880147
 21
-74.863502200880248
 31
0.0
  0
LINE
  8
DETAIL
  6
CONTINUOUS
 62
     5
 10
139.49390334559851
 20
-147.38065469154941
 30
0.0
 11
144.4939033457745
 21
-150.26740603732381
 31
0.0
  0
LINE
  8
DETAIL
  6
CONTINUOUS
 62
     5
 10
149.4939033454225
 20
-141.60715199947191
 30
0.0
 11
144.4939033457745
 21
-138.7204006536972
 31
0.0
  0
LINE
  8
DETAIL
  6
CONTINUOUS
 62
     5
 10
158.98959235985919
 20
176.6672618894365
 30
0.0
 11
122.22003973838039
 21
139.89770926795791
 31
0.0
  0
LINE
  8
DETAIL
  6
CONTINUOUS
 62
     5
 10
-176.6672618894365
 20
-158.98959235985919
 30
0.0
 11
-139.89770926795791
 21
-122.22003973838009
 31
0.0
  0
LINE
  8
DETAIL
  6
CONTINUOUS
 62
     5
 10
-36.999999999824013
 20
-39.999999999824013
 30
0.0
 11
36.999999999824013
 21
-39.999999999824013
 31
0.0
  0
LINE
  8
DETAIL
  6
CONTINUOUS
 62
     5
 10
111.76944430246451
 20
-132.98264773838011
 30
0.0
 11
112.34771786091549
 21
-133.47459889436621
 31
0.0
  0
LINE
  8
DETAIL
  6
CONTINUOUS
 62
     5
 10
112.34771786091549
 20
-133.47459889436621
 30
0.0
 11
112.99484085052811
 21
-133.87120006320421
 31
0.0
  0
LINE
  8
DETAIL
  6
CONTINUOUS
 62
     5
 10
112.99484085052811
 20
-133.87120006320421
 30
0.0
 11
113.71551677640829
 21
-134.17404066654919
 31
0.0
  0
LINE
  8
DETAIL
  6
CONTINUOUS
 62
     5
 10
113.71551677640829
 20
-134.17404066654919
 30
0.0
 11
114.4956351216549
 21
-134.37835244102101
 31
0.0
  0
LINE
  8
DETAIL
  6
CONTINUOUS
 62
     5
 10
114.4956351216549
 20
-134.37835244102101
 30
0.0
 11
115.3264161205984
 21
-134.47968153274661
 31
0.0
  0
LINE
  8
DETAIL
  6
CONTINUOUS
 62
     5
 10
115.3264161205984
 20
-134.47968153274661
 30
0.0
 11
116.19657102411951
 21
-134.47867413433099
 31
0.0
  0
LINE
  8
DETAIL
  6
CONTINUOUS
 62
     5
 10
116.19657102411951
 20
-134.47867413433099
 30
0.0
 11
117.09579826848589
 21
-134.3734106503521
 31
0.0
  0
LINE
  8
DETAIL
  6
CONTINUOUS
 62
     5
 10
117.09579826848589
 20
-134.3734106503521
 30
0.0
 11
118.01235653028149
 21
-134.1671345941902
 31
0.0
  0
LINE
  8
DETAIL
  6
CONTINUOUS
 62
     5
 10
118.01235653028149
 20
-134.1671345941902
 30
0.0
 11
118.9349390107393
 21
-133.86055688503529
 31
0.0
  0
LINE
  8
DETAIL
  6
CONTINUOUS
 62
     5
 10
118.9349390107393
 20
-133.86055688503529
 30
0.0
 11
119.85194057165469
 21
-133.45935571426051
 31
0.0
  0
LINE
  8
DETAIL
  6
CONTINUOUS
 62
     5
 10
119.85194057165469
 20
-133.45935571426051
 30
0.0
 11
120.75161615070419
 21
-132.96683686637331
 31
0.0
  0
LINE
  8
DETAIL
  6
CONTINUOUS
 62
     5
 10
120.75161615070419
 20
-132.96683686637331
 30
0.0
 11
121.62307872411949
 21
-132.3908284827464
 31
0.0
  0
LINE
  8
DETAIL
  6
CONTINUOUS
 62
     5
 10
121.62307872411949
 20
-132.3908284827464
 30
0.0
 11
122.4547339103874
 21
-131.73706544788729
 31
0.0
  0
LINE
  8
DETAIL
  6
CONTINUOUS
 62
     5
 10
122.4547339103874
 20
-131.73706544788729
 30
0.0
 11
123.2369587241196
 21
-131.01513331690151
 31
0.0
  0
LINE
  8
DETAIL
  6
CONTINUOUS
 62
     5
 10
123.2369587241196
 20
-131.01513331690151
 30
0.0
 11
123.95889085510569
 21
-130.23290850369719
 31
0.0
  0
LINE
  8
DETAIL
  6
CONTINUOUS
 62
     5
 10
123.95889085510569
 20
-130.23290850369719
 30
0.0
 11
124.6126538894364
 21
-129.4012533169014
 31
0.0
  0
LINE
  8
DETAIL
  6
CONTINUOUS
 62
     5
 10
124.6126538894364
 20
-129.4012533169014
 30
0.0
 11
125.1886622730633
 21
-128.52979074348579
 31
0.0
  0
LINE
  8
DETAIL
  6
CONTINUOUS
 62
     5
 10
125.1886622730633
 20
-128.52979074348579
 30
0.0
 11
125.6811811209507
 21
-127.63011516496481
 31
0.0
  0
LINE
  8
DETAIL
  6
CONTINUOUS
 62
     5
 10
125.6811811209507
 20
-127.63011516496481
 30
0.0
 11
126.08238229172549
 21
-126.71311360352119
 31
0.0
  0
LINE
  8
DETAIL
  6
CONTINUOUS
 62
     5
 10
126.08238229172549
 20
-126.71311360352119
 30
0.0
 11
126.38896000140861
 21
-125.7905311230636
 31
0.0
  0
LINE
  8
DETAIL
  6
CONTINUOUS
 62
     5
 10
126.38896000140861
 20
-125.7905311230636
 30
0.0
 11
126.5952360570423
 21
-124.87397286179571
 31
0.0
  0
LINE
  8
DETAIL
  6
CONTINUOUS
 62
     5
 10
126.5952360570423
 20
-124.87397286179571
 30
0.0
 11
126.7004995410209
 21
-123.9747456174296
 31
0.0
  0
LINE
  8
DETAIL
  6
CONTINUOUS
 62
     5
 10
126.7004995410209
 20
-123.9747456174296
 30
0.0
 11
126.7015069394365
 21
-123.10459071390849
 31
0.0
  0
LINE
  8
DETAIL
  6
CONTINUOUS
 62
     5
 10
126.7015069394365
 20
-123.10459071390849
 30
0.0
 11
126.6001778482396
 21
-122.2738097144365
 31
0.0
  0
LINE
  8
DETAIL
  6
CONTINUOUS
 62
     5
 10
126.6001778482396
 20
-122.2738097144365
 30
0.0
 11
126.3958660732394
 21
-121.4936913691899
 31
0.0
  0
LINE
  8
DETAIL
  6
CONTINUOUS
 62
     5
 10
126.3958660732394
 20
-121.4936913691899
 30
0.0
 11
126.0930254698942
 21
-120.77301544383791
 31
0.0
  0
LINE
  8
DETAIL
  6
CONTINUOUS
 62
     5
 10
126.0930254698942
 20
-120.77301544383791
 30
0.0
 11
125.6964243010564
 21
-120.12589245422529
 31
0.0
  0
LINE
  8
DETAIL
  6
CONTINUOUS
 62
     5
 10
125.6964243010564
 20
-120.12589245422529
 30
0.0
 11
125.2044731450703
 21
-119.5476188957746
 31
0.0
  0
LINE
  8
DETAIL
  6
CONTINUOUS
 62
     5
 10
-4.5
 20
-101.00791151566909
 30
0.0
 11
-4.5
 21
-101.1999999998238
 31
0.0
  0
LINE
  8
DETAIL
  6
CONTINUOUS
 62
     5
 10
-139.89770926795791
 20
-137.7763889244718
 30
0.0
 11
-67.257359312852259
 21
-65.136038969366155
 31
0.0
  0
LINE
  8
DETAIL
  6
CONTINUOUS
 62
     5
 10
65.136038969366155
 20
67.257359312852259
 30
0.0
 11
137.7763889244718
 21
139.89770926795791
 31
0.0
  0
LINE
  8
DETAIL
  6
CONTINUOUS
 62
     5
 10
139.89770926795791
 20
137.7763889244718
 30
0.0
 11
67.257359312852259
 21
65.136038969366155
 31
0.0
  0
LINE
  8
DETAIL
  6
CONTINUOUS
 62
     5
 10
-65.136038969366155
 20
-67.257359312852032
 30
0.0
 11
-137.7763889244718
 21
-139.89770926795791
 31
0.0
  0
LINE
  8
DETAIL
  6
CONTINUOUS
 62
     5
 10
-158.98959235985899
 20
-176.6672618894365
 30
0.0
 11
-122.22003973838039
 21
-139.89770926795791
 31
0.0
  0
LINE
  8
DETAIL
  6
CONTINUOUS
 62
     5
 10
139.89770926795791
 20
122.22003973838039
 30
0.0
 11
176.66726188943679
 21
158.98959235985919
 31
0.0
  0
LINE
  8
DETAIL
  6
CONTINUOUS
 62
     5
 10
137.58662150228861
 20
-119.9594730274648
 30
0.0
 11
137.73283492975341
 21
-120.0664040408451
 31
0.0
  0
LINE
  8
DETAIL
  6
CONTINUOUS
 62
     5
 10
137.73283492975341
 20
-120.0664040408451
 30
0.0
 11
137.7763889244718
 21
-120.0987193948945
 31
0.0
  0
LINE
  8
DETAIL
  6
CONTINUOUS
 62
     5
 10
115.7902595825706
 20
-112.9618324579226
 30
0.0
 11
115.272856925176
 21
-112.5216656345071
 31
0.0
  0
LINE
  8
DETAIL
  6
CONTINUOUS
 62
     5
 10
115.272856925176
 20
-112.5216656345071
 30
0.0
 11
114.6938521452464
 21
-112.1668119570422
 31
0.0
  0
LINE
  8
DETAIL
  6
CONTINUOUS
 62
     5
 10
114.6938521452464
 20
-112.1668119570422
 30
0.0
 11
114.04903684331001
 21
-111.8958493119717
 31
0.0
  0
LINE
  8
DETAIL
  6
CONTINUOUS
 62
     5
 10
114.04903684331001
 20
-111.8958493119717
 30
0.0
 11
114.00586231320401
 21
-111.8845419702463
 31
0.0
  0
LINE
  8
DETAIL
  6
CONTINUOUS
 62
     5
 10
114.0402595827463
 20
-111.2118324580986
 30
0.0
 11
113.522856925352
 21
-110.7716656346831
 31
0.0
  0
LINE
  8
DETAIL
  6
CONTINUOUS
 62
     5
 10
113.522856925352
 20
-110.7716656346831
 30
0.0
 11
112.9438521454224
 21
-110.4168119572182
 31
0.0
  0
LINE
  8
DETAIL
  6
CONTINUOUS
 62
     5
 10
112.9438521454224
 20
-110.4168119572182
 30
0.0
 11
112.29903684348599
 21
-110.1458493116197
 31
0.0
  0
LINE
  8
DETAIL
  6
CONTINUOUS
 62
     5
 10
112.29903684348599
 20
-110.1458493116197
 30
0.0
 11
112.25586231338001
 21
-110.1345419698946
 31
0.0
  0
LINE
  8
DETAIL
  6
CONTINUOUS
 62
     5
 10
101.1709161654928
 20
-124.08117587588031
 30
0.0
 11
112.6709161653168
 21
-135.58117587570399
 31
0.0
  0
LINE
  8
DETAIL
  6
CONTINUOUS
 62
     5
 10
102.01944430246481
 20
-123.23264773838009
 30
0.0
 11
111.76944430246451
 21
-132.98264773838011
 31
0.0
  0
LINE
  8
DETAIL
  6
CONTINUOUS
 62
     5
 10
81.540916292957718
 20
-100.349956672183
 30
0.0
 11
88.611984104577459
 21
-107.4210244843309
 31
0.0
  0
LINE
  8
DETAIL
  6
CONTINUOUS
 62
     5
 10
-176.6672618894365
 20
158.98959235985919
 30
0.0
 11
-139.89770926795791
 21
122.22003973838039
 31
0.0
  0
LINE
  8
DETAIL
  6
CONTINUOUS
 62
     5
 10
122.22003973838039
 20
-139.89770926795791
 30
0.0
 11
125.2577041637323
 21
-142.93537369383779
 31
0.0
  0
LINE
  8
DETAIL
  6
CONTINUOUS
 62
     5
 10
126.7105069658451
 20
-144.38817649542261
 30
0.0
 11
128.38923997658461
 21
-146.06690950669011
 31
0.0
  0
LINE
  8
DETAIL
  6
CONTINUOUS
 62
     5
 10
138.5803940963028
 20
-156.25806362588011
 30
0.0
 11
158.98959235985919
 21
-176.6672618894365
 31
0.0
  0
LINE
  8
DETAIL
  6
CONTINUOUS
 62
     5
 10
4.5
 20
-101.00791151566909
 30
0.0
 11
4.5
 21
-101.1999999998238
 31
0.0
  0
LINE
  8
DETAIL
  6
CONTINUOUS
 62
     5
 10
137.74660658028171
 20
-120.11327344542249
 30
0.0
 11
138.16196305880271
 21
-120.4497805542253
 31
0.0
  0
LINE
  8
DETAIL
  6
CONTINUOUS
 62
     5
 10
138.16196305880271
 20
-120.4497805542253
 30
0.0
 11
138.5213498508804
 21
-120.7648363838027
 31
0.0
  0
LINE
  8
DETAIL
  6
CONTINUOUS
 62
     5
 10
138.5213498508804
 20
-120.7648363838027
 30
0.0
 11
138.8270580839787
 21
-121.0517837614436
 31
0.0
  0
LINE
  8
DETAIL
  6
CONTINUOUS
 62
     5
 10
137.7763889244718
 20
-139.89770926795791
 30
0.0
 11
128.02025928749981
 21
-130.14157963098589
 31
0.0
  0
LINE
  8
DETAIL
  6
CONTINUOUS
 62
     5
 10
125.6201957440139
 20
-127.74151608802821
 30
0.0
 11
65.136038969366155
 21
-67.257359312852032
 31
0.0
  0
LINE
  8
DETAIL
  6
CONTINUOUS
 62
     5
 10
-67.257359312852259
 20
65.136038969366155
 30
0.0
 11
-139.89770926795791
 21
137.7763889244718
 31
0.0
  0
LINE
  8
DETAIL
  6
CONTINUOUS
 62
     5
 10
-137.7763889244718
 20
139.89770926795791
 30
0.0
 11
-65.136038969366155
 21
67.257359312852259
 31
0.0
  0
LINE
  8
DETAIL
  6
CONTINUOUS
 62
     5
 10
67.257359312852259
 20
-65.136038969366155
 30
0.0
 11
126.63715920105641
 21
-124.5158388575703
 31
0.0
  0
LINE
  8
DETAIL
  6
CONTINUOUS
 62
     5
 10
129.22713458926069
 20
-127.1058142457746
 30
0.0
 11
139.89770926795791
 21
-137.7763889244718
 31
0.0
  0
LINE
  8
DETAIL
  6
CONTINUOUS
 62
     5
 10
129.43252890633809
 20
-126.6041017816901
 30
0.0
 11
129.345787196831
 21
-126.517360072183
 31
0.0
  0
LINE
  8
DETAIL
  6
CONTINUOUS
 62
     5
 10
126.7006182707746
 20
-123.8721911461266
 30
0.0
 11
124.72603724788721
 21
-121.8976101232395
 31
0.0
  0
LINE
  8
DETAIL
  6
CONTINUOUS
 62
     5
 10
123.8782014707747
 20
-121.0497743461267
 30
0.0
 11
114.0402595827463
 21
-111.2118324580986
 31
0.0
  0
LINE
  8
DETAIL
  6
CONTINUOUS
 62
     5
 10
132.6412427894368
 20
-128.46966991426049
 30
0.0
 11
140.94974746848581
 21
-136.77817459330981
 31
0.0
  0
LINE
  8
DETAIL
  6
CONTINUOUS
 62
     5
 10
114.8887877202465
 20
-110.3633043205987
 30
0.0
 11
118.8387877204225
 21
-114.31330432077451
 31
0.0
  0
LINE
  8
DETAIL
  6
CONTINUOUS
 62
     5
 10
125.2044731450703
 20
-119.5476188957746
 30
0.0
 11
122.8294731454223
 21
-117.1726188955986
 31
0.0
  0
LINE
  8
DETAIL
  6
CONTINUOUS
 62
     5
 10
119.4044731452466
 20
-113.74761889595059
 30
0.0
 11
117.9544731454223
 21
-112.2976188955986
 31
0.0
  0
LINE
  8
DETAIL
  6
CONTINUOUS
 62
     5
 10
141.7982756054578
 20
-135.92964645580969
 30
0.0
 11
137.37885822306339
 21
-131.5102290734155
 31
0.0
  0
LINE
  8
DETAIL
  6
CONTINUOUS
 62
     5
 10
128.9289321882043
 20
-121.9289321883803
 30
0.0
 11
134.05545635176031
 21
-127.0554563519365
 31
0.0
  0
LINE
  8
DETAIL
  6
CONTINUOUS
 62
     5
 10
137.94454364841539
 20
-130.94454364806319
 30
0.0
 11
141.65685424964769
 21
-134.65685424929569
 31
0.0
  0
LINE
  8
DETAIL
  6
CONTINUOUS
 62
     5
 10
118.80300128239421
 20
-111.4490907586267
 30
0.0
 11
120.2530012827465
 21
-112.8990907584507
 31
0.0
  0
LINE
  8
DETAIL
  6
CONTINUOUS
 62
     5
 10
123.67800128239421
 20
-116.3240907586267
 30
0.0
 11
127.80300128239421
 21
-120.4490907586267
 31
0.0
  0
LINE
  8
DETAIL
  6
CONTINUOUS
 62
     5
 10
120.81868670757039
 20
-112.3334053336266
 30
0.0
 11
126.6686867075705
 21
-118.18340533362679
 31
0.0
  0
LINE
  8
DETAIL
  6
CONTINUOUS
 62
     5
 10
134.90398448926069
 20
-126.2069282144366
 30
0.0
 11
129.7774603257042
 21
-121.08040405088011
 31
0.0
  0
LINE
  8
DETAIL
  6
CONTINUOUS
 62
     5
 10
138.79307178538741
 20
-130.09601551109151
 30
0.0
 11
142.50538238661969
 21
-133.80832611232381
 31
0.0
  0
LINE
  8
DETAIL
  6
CONTINUOUS
 62
     5
 10
97.875082938380274
 20
-88.965537495422495
 30
0.0
 11
99.996403281866151
 21
-91.086857838908372
 31
0.0
  0
LINE
  8
DETAIL
  6
CONTINUOUS
 62
     5
 10
135.46966991408451
 20
-125.64124278961251
 30
0.0
 11
139.35875721073921
 21
-129.53033008573951
 31
0.0
  0
LINE
  8
DETAIL
  6
CONTINUOUS
 62
     5
 10
120.6221505036972
 20
-138.38108125246481
 30
0.0
 11
120.5248896295775
 21
-138.27463729647889
 31
0.0
  0
LINE
  8
DETAIL
  6
CONTINUOUS
 62
     5
 10
120.5248896295775
 20
-138.27463729647889
 30
0.0
 11
120.3855329260564
 21
-138.1168185903168
 31
0.0
  0
LINE
  8
DETAIL
  6
CONTINUOUS
 62
     5
 10
120.3855329260564
 20
-138.1168185903168
 30
0.0
 11
120.27716325316899
 21
-137.99072368309859
 31
0.0
  0
LINE
  8
DETAIL
  6
CONTINUOUS
 62
     5
 10
120.27716325316899
 20
-137.99072368309859
 30
0.0
 11
120.19640881848591
 21
-137.89493888028159
 31
0.0
  0
LINE
  8
DETAIL
  6
CONTINUOUS
 62
     5
 10
120.19640881848591
 20
-137.89493888028159
 30
0.0
 11
120.14102681989451
 21
-137.8282229044014
 31
0.0
  0
LINE
  8
DETAIL
  6
CONTINUOUS
 62
     5
 10
120.14102681989451
 20
-137.8282229044014
 30
0.0
 11
120.1089990771127
 21
-137.78909611690139
 31
0.0
  0
LINE
  8
DETAIL
  6
CONTINUOUS
 62
     5
 10
120.1089990771127
 20
-137.78909611690139
 30
0.0
 11
120.0987193943663
 21
-137.7763889244718
 31
0.0
  0
LINE
  8
DETAIL
  6
CONTINUOUS
 62
     5
 10
101.1709161654928
 20
-124.08117587588031
 30
0.0
 11
100.6686081433097
 21
-123.4907281373239
 31
0.0
  0
LINE
  8
DETAIL
  6
CONTINUOUS
 62
     5
 10
100.6686081433097
 20
-123.4907281373239
 30
0.0
 11
100.26365747588009
 21
-122.8299815059861
 31
0.0
  0
LINE
  8
DETAIL
  6
CONTINUOUS
 62
     5
 10
100.26365747588009
 20
-122.8299815059861
 30
0.0
 11
99.954441280457786
 21
-122.09413345510551
 31
0.0
  0
LINE
  8
DETAIL
  6
CONTINUOUS
 62
     5
 10
99.954441280457786
 20
-122.09413345510551
 30
0.0
 11
99.74582820580963
 21
-121.2975915660211
 31
0.0
  0
LINE
  8
DETAIL
  6
CONTINUOUS
 62
     5
 10
99.74582820580963
 20
-121.2975915660211
 30
0.0
 11
99.642365870070535
 21
-120.4493204403168
 31
0.0
  0
LINE
  8
DETAIL
  6
CONTINUOUS
 62
     5
 10
99.642365870070535
 20
-120.4493204403168
 30
0.0
 11
99.64339447658449
 21
-119.56084648626759
 31
0.0
  0
LINE
  8
DETAIL
  6
CONTINUOUS
 62
     5
 10
99.64339447658449
 20
-119.56084648626759
 30
0.0
 11
99.750874034154776
 21
-118.6426881422535
 31
0.0
  0
LINE
  8
DETAIL
  6
CONTINUOUS
 62
     5
 10
99.750874034154776
 20
-118.6426881422535
 30
0.0
 11
99.961492744013867
 21
-117.70683391742951
 31
0.0
  0
LINE
  8
DETAIL
  6
CONTINUOUS
 62
     5
 10
99.961492744013867
 20
-117.70683391742951
 30
0.0
 11
100.27452472077449
 21
-116.7648286478875
 31
0.0
  0
LINE
  8
DETAIL
  6
CONTINUOUS
 62
     5
 10
100.27452472077449
 20
-116.7648286478875
 30
0.0
 11
100.6841722320421
 21
-115.8285217906689
 31
0.0
  0
LINE
  8
DETAIL
  6
CONTINUOUS
 62
     5
 10
100.6841722320421
 20
-115.8285217906689
 30
0.0
 11
101.18705989753521
 21
-114.90990567306331
 31
0.0
  0
LINE
  8
DETAIL
  6
CONTINUOUS
 62
     5
 10
101.18705989753521
 20
-114.90990567306331
 30
0.0
 11
101.62626928732379
 21
-114.2454109262324
 31
0.0
  0
LINE
  8
DETAIL
  6
CONTINUOUS
 62
     5
 10
-144.4939033457745
 20
-138.7204006536972
 30
0.0
 11
-149.4939033454225
 21
-141.60715199947191
 31
0.0
  0
LINE
  8
DETAIL
  6
CONTINUOUS
 62
     5
 10
138.8270580839787
 20
-121.0517837614436
 30
0.0
 11
139.08446545140851
 21
-121.3080876739436
 31
0.0
  0
LINE
  8
DETAIL
  6
CONTINUOUS
 62
     5
 10
139.08446545140851
 20
-121.3080876739436
 30
0.0
 11
139.2977736380283
 21
-121.53153183697169
 31
0.0
  0
LINE
  8
DETAIL
  6
CONTINUOUS
 62
     5
 10
139.2977736380283
 20
-121.53153183697169
 30
0.0
 11
139.4720232184859
 21
-121.7220809735916
 31
0.0
  0
LINE
  8
DETAIL
  6
CONTINUOUS
 62
     5
 10
139.4720232184859
 20
-121.7220809735916
 30
0.0
 11
139.6111919529931
 21
-121.8797869082746
 31
0.0
  0
LINE
  8
DETAIL
  6
CONTINUOUS
 62
     5
 10
139.6111919529931
 20
-121.8797869082746
 30
0.0
 11
139.7194135214788
 21
-122.0058638957746
 31
0.0
  0
LINE
  8
DETAIL
  6
CONTINUOUS
 62
     5
 10
139.7194135214788
 20
-122.0058638957746
 30
0.0
 11
139.8000689783448
 21
-122.1016027415494
 31
0.0
  0
LINE
  8
DETAIL
  6
CONTINUOUS
 62
     5
 10
139.8000689783448
 20
-122.1016027415494
 30
0.0
 11
139.8554103485917
 21
-122.1682658281688
 31
0.0
  0
LINE
  8
DETAIL
  6
CONTINUOUS
 62
     5
 10
139.8554103485917
 20
-122.1682658281688
 30
0.0
 11
139.8874291103873
 21
-122.20735024172539
 31
0.0
  0
LINE
  8
DETAIL
  6
CONTINUOUS
 62
     5
 10
139.8874291103873
 20
-122.20735024172539
 30
0.0
 11
139.89770926795791
 21
-122.22003973838009
 31
0.0
  0
LINE
  8
DETAIL
  6
CONTINUOUS
 62
     5
 10
176.66726188943679
 20
-158.98959235985919
 30
0.0
 11
139.89770926795791
 21
-122.22003973838009
 31
0.0
  0
LINE
  8
DETAIL
  6
CONTINUOUS
 62
     5
 10
137.7763889244718
 20
-120.0987193948945
 30
0.0
 11
137.9801583369717
 21
-120.3024888073944
 31
0.0
  0
LINE
  8
DETAIL
  6
CONTINUOUS
 62
     5
 10
-122.22003973838039
 20
139.89770926795791
 30
0.0
 11
-158.98959235985899
 21
176.6672618894365
 31
0.0
  0
LINE
  8
DETAIL
  6
CONTINUOUS
 62
     5
 10
126.05300128257019
 20
-118.69909075827491
 30
0.0
 11
126.5730045179578
 21
-119.3035685815141
 31
0.0
  0
LINE
  8
DETAIL
  6
CONTINUOUS
 62
     5
 10
126.5730045179578
 20
-119.3035685815141
 30
0.0
 11
126.9999926455987
 21
-119.9767544873239
 31
0.0
  0
LINE
  8
DETAIL
  6
CONTINUOUS
 62
     5
 10
126.9999926455987
 20
-119.9767544873239
 30
0.0
 11
127.3355361174297
 21
-120.7228891954226
 31
0.0
  0
LINE
  8
DETAIL
  6
CONTINUOUS
 62
     5
 10
127.3355361174297
 20
-120.7228891954226
 30
0.0
 11
127.57492357605631
 21
-121.5292505455986
 31
0.0
  0
LINE
  8
DETAIL
  6
CONTINUOUS
 62
     5
 10
127.57492357605631
 20
-121.5292505455986
 30
0.0
 11
127.7139291786973
 21
-122.3879224748239
 31
0.0
  0
LINE
  8
DETAIL
  6
CONTINUOUS
 62
     5
 10
127.7139291786973
 20
-122.3879224748239
 30
0.0
 11
127.75266683397901
 21
-123.288727406514
 31
0.0
  0
LINE
  8
DETAIL
  6
CONTINUOUS
 62
     5
 10
127.75266683397901
 20
-123.288727406514
 30
0.0
 11
127.6890593551054
 21
-124.22240847253509
 31
0.0
  0
LINE
  8
DETAIL
  6
CONTINUOUS
 62
     5
 10
127.6890593551054
 20
-124.22240847253509
 30
0.0
 11
127.5254541850352
 21
-125.17828748820421
 31
0.0
  0
LINE
  8
DETAIL
  6
CONTINUOUS
 62
     5
 10
127.5254541850352
 20
-125.17828748820421
 30
0.0
 11
127.2620135772886
 21
-126.14617134823951
 31
0.0
  0
LINE
  8
DETAIL
  6
CONTINUOUS
 62
     5
 10
127.2620135772886
 20
-126.14617134823951
 30
0.0
 11
126.90321591338009
 21
-127.1153479478874
 31
0.0
  0
LINE
  8
DETAIL
  6
CONTINUOUS
 62
     5
 10
126.90321591338009
 20
-127.1153479478874
 30
0.0
 11
126.4514557954226
 21
-128.07513343257031
 31
0.0
  0
LINE
  8
DETAIL
  6
CONTINUOUS
 62
     5
 10
126.4514557954226
 20
-128.07513343257031
 30
0.0
 11
125.9131468167252
 21
-129.01524994859139
 31
0.0
  0
LINE
  8
DETAIL
  6
CONTINUOUS
 62
     5
 10
125.9131468167252
 20
-129.01524994859139
 30
0.0
 11
125.29281127288731
 21
-129.92498982676059
 31
0.0
  0
LINE
  8
DETAIL
  6
CONTINUOUS
 62
     5
 10
125.29281127288731
 20
-129.92498982676059
 30
0.0
 11
124.59851766602129
 21
-130.79495865580981
 31
0.0
  0
LINE
  8
DETAIL
  6
CONTINUOUS
 62
     5
 10
124.59851766602129
 20
-130.79495865580981
 30
0.0
 11
123.8367183364435
 21
-131.61489292975349
 31
0.0
  0
LINE
  8
DETAIL
  6
CONTINUOUS
 62
     5
 10
123.8367183364435
 20
-131.61489292975349
 30
0.0
 11
123.0167840624997
 21
-132.37669225880271
 31
0.0
  0
LINE
  8
DETAIL
  6
CONTINUOUS
 62
     5
 10
123.0167840624997
 20
-132.37669225880271
 30
0.0
 11
122.1468152334505
 21
-133.07098586619711
 31
0.0
  0
LINE
  8
DETAIL
  6
CONTINUOUS
 62
     5
 10
122.1468152334505
 20
-133.07098586619711
 30
0.0
 11
121.2370753552816
 21
-133.69132141003519
 31
0.0
  0
LINE
  8
DETAIL
  6
CONTINUOUS
 62
     5
 10
121.2370753552816
 20
-133.69132141003519
 30
0.0
 11
120.2969588397889
 21
-134.22963038820421
 31
0.0
  0
LINE
  8
DETAIL
  6
CONTINUOUS
 62
     5
 10
120.2969588397889
 20
-134.22963038820421
 30
0.0
 11
119.3371733545773
 21
-134.68139050669009
 31
0.0
  0
LINE
  8
DETAIL
  6
CONTINUOUS
 62
     5
 10
119.3371733545773
 20
-134.68139050669009
 30
0.0
 11
118.36799675492939
 21
-135.04018817059861
 31
0.0
  0
LINE
  8
DETAIL
  6
CONTINUOUS
 62
     5
 10
118.36799675492939
 20
-135.04018817059861
 30
0.0
 11
117.40011289542259
 21
-135.303628778345
 31
0.0
  0
LINE
  8
DETAIL
  6
CONTINUOUS
 62
     5
 10
117.40011289542259
 20
-135.303628778345
 30
0.0
 11
116.44423387922529
 21
-135.4672339484155
 31
0.0
  0
LINE
  8
DETAIL
  6
CONTINUOUS
 62
     5
 10
116.44423387922529
 20
-135.4672339484155
 30
0.0
 11
115.5105528137324
 21
-135.53084142676059
 31
0.0
  0
LINE
  8
DETAIL
  6
CONTINUOUS
 62
     5
 10
115.5105528137324
 20
-135.53084142676059
 30
0.0
 11
114.6097478815141
 21
-135.49210377200711
 31
0.0
  0
LINE
  8
DETAIL
  6
CONTINUOUS
 62
     5
 10
114.6097478815141
 20
-135.49210377200711
 30
0.0
 11
113.75107595281681
 21
-135.35309816936609
 31
0.0
  0
LINE
  8
DETAIL
  6
CONTINUOUS
 62
     5
 10
113.75107595281681
 20
-135.35309816936609
 30
0.0
 11
112.9447146026407
 21
-135.1137107107393
 31
0.0
  0
LINE
  8
DETAIL
  6
CONTINUOUS
 62
     5
 10
112.9447146026407
 20
-135.1137107107393
 30
0.0
 11
112.1985798940141
 21
-134.77816723890851
 31
0.0
  0
LINE
  8
DETAIL
  6
CONTINUOUS
 62
     5
 10
112.1985798940141
 20
-134.77816723890851
 30
0.0
 11
111.5253939882043
 21
-134.35117911126761
 31
0.0
  0
LINE
  8
DETAIL
  6
CONTINUOUS
 62
     5
 10
111.5253939882043
 20
-134.35117911126761
 30
0.0
 11
110.9209161654928
 21
-133.83117587588029
 31
0.0
  0
LINE
  8
DETAIL
  6
CONTINUOUS
 62
     5
 10
127.80300128239421
 20
-120.4490907586267
 30
0.0
 11
128.32300451831
 21
-121.0535685813379
 31
0.0
  0
LINE
  8
DETAIL
  6
CONTINUOUS
 62
     5
 10
128.32300451831
 20
-121.0535685813379
 30
0.0
 11
128.74999264542251
 21
-121.7267544871479
 31
0.0
  0
LINE
  8
DETAIL
  6
CONTINUOUS
 62
     5
 10
128.74999264542251
 20
-121.7267544871479
 30
0.0
 11
129.0855361172535
 21
-122.4728891957745
 31
0.0
  0
LINE
  8
DETAIL
  6
CONTINUOUS
 62
     5
 10
129.0855361172535
 20
-122.4728891957745
 30
0.0
 11
129.32492357640831
 21
-123.2792505459506
 31
0.0
  0
LINE
  8
DETAIL
  6
CONTINUOUS
 62
     5
 10
129.32492357640831
 20
-123.2792505459506
 30
0.0
 11
129.46392917852111
 21
-124.13792247464789
 31
0.0
  0
LINE
  8
DETAIL
  6
CONTINUOUS
 62
     5
 10
129.46392917852111
 20
-124.13792247464789
 30
0.0
 11
129.50266683380281
 21
-125.0387274068662
 31
0.0
  0
LINE
  8
DETAIL
  6
CONTINUOUS
 62
     5
 10
129.50266683380281
 20
-125.0387274068662
 30
0.0
 11
129.4390593549297
 21
-125.97240847235911
 31
0.0
  0
LINE
  8
DETAIL
  6
CONTINUOUS
 62
     5
 10
129.4390593549297
 20
-125.97240847235911
 30
0.0
 11
129.27545418538739
 21
-126.92828748855619
 31
0.0
  0
LINE
  8
DETAIL
  6
CONTINUOUS
 62
     5
 10
129.27545418538739
 20
-126.92828748855619
 30
0.0
 11
129.0120135776408
 21
-127.89617134806331
 31
0.0
  0
LINE
  8
DETAIL
  6
CONTINUOUS
 62
     5
 10
129.0120135776408
 20
-127.89617134806331
 30
0.0
 11
128.65321591373231
 21
-128.8653479482393
 31
0.0
  0
LINE
  8
DETAIL
  6
CONTINUOUS
 62
     5
 10
128.65321591373231
 20
-128.8653479482393
 30
0.0
 11
128.2014557952466
 21
-129.82513343292251
 31
0.0
  0
LINE
  8
DETAIL
  6
CONTINUOUS
 62
     5
 10
128.2014557952466
 20
-129.82513343292251
 30
0.0
 11
127.6631468170774
 21
-130.7652499484154
 31
0.0
  0
LINE
  8
DETAIL
  6
CONTINUOUS
 62
     5
 10
127.6631468170774
 20
-130.7652499484154
 30
0.0
 11
127.04281127323929
 21
-131.6749898271128
 31
0.0
  0
LINE
  8
DETAIL
  6
CONTINUOUS
 62
     5
 10
127.04281127323929
 20
-131.6749898271128
 30
0.0
 11
126.34851766584509
 21
-132.54495865563379
 31
0.0
  0
LINE
  8
DETAIL
  6
CONTINUOUS
 62
     5
 10
126.34851766584509
 20
-132.54495865563379
 30
0.0
 11
125.5867183362675
 21
-133.36489292957731
 31
0.0
  0
LINE
  8
DETAIL
  6
CONTINUOUS
 62
     5
 10
125.5867183362675
 20
-133.36489292957731
 30
0.0
 11
124.76678406232369
 21
-134.12669225915491
 31
0.0
  0
LINE
  8
DETAIL
  6
CONTINUOUS
 62
     5
 10
124.76678406232369
 20
-134.12669225915491
 30
0.0
 11
123.8968152338027
 21
-134.82098586602109
 31
0.0
  0
LINE
  8
DETAIL
  6
CONTINUOUS
 62
     5
 10
123.8968152338027
 20
-134.82098586602109
 30
0.0
 11
122.9870753551056
 21
-135.441321409859
 31
0.0
  0
LINE
  8
DETAIL
  6
CONTINUOUS
 62
     5
 10
122.9870753551056
 20
-135.441321409859
 30
0.0
 11
122.0469588396127
 21
-135.97963038855639
 31
0.0
  0
LINE
  8
DETAIL
  6
CONTINUOUS
 62
     5
 10
122.0469588396127
 20
-135.97963038855639
 30
0.0
 11
121.0871733549295
 21
-136.43139050651419
 31
0.0
  0
LINE
  8
DETAIL
  6
CONTINUOUS
 62
     5
 10
121.0871733549295
 20
-136.43139050651419
 30
0.0
 11
120.11799675528189
 21
-136.7901881704224
 31
0.0
  0
LINE
  8
DETAIL
  6
CONTINUOUS
 62
     5
 10
120.11799675528189
 20
-136.7901881704224
 30
0.0
 11
119.15011289524639
 21
-137.05362877816901
 31
0.0
  0
LINE
  8
DETAIL
  6
CONTINUOUS
 62
     5
 10
119.15011289524639
 20
-137.05362877816901
 30
0.0
 11
118.1942338795775
 21
-137.21723394823951
 31
0.0
  0
LINE
  8
DETAIL
  6
CONTINUOUS
 62
     5
 10
118.1942338795775
 20
-137.21723394823951
 30
0.0
 11
117.2605528135564
 21
-137.28084142711259
 31
0.0
  0
LINE
  8
DETAIL
  6
CONTINUOUS
 62
     5
 10
117.2605528135564
 20
-137.28084142711259
 30
0.0
 11
116.3597478818663
 21
-137.2421037718309
 31
0.0
  0
LINE
  8
DETAIL
  6
CONTINUOUS
 62
     5
 10
116.3597478818663
 20
-137.2421037718309
 30
0.0
 11
115.5010759526408
 21
-137.10309816919019
 31
0.0
  0
LINE
  8
DETAIL
  6
CONTINUOUS
 62
     5
 10
115.5010759526408
 20
-137.10309816919019
 30
0.0
 11
114.6947146024647
 21
-136.86371071056331
 31
0.0
  0
LINE
  8
DETAIL
  6
CONTINUOUS
 62
     5
 10
114.6947146024647
 20
-136.86371071056331
 30
0.0
 11
113.9485798938381
 21
-136.52816723873229
 31
0.0
  0
LINE
  8
DETAIL
  6
CONTINUOUS
 62
     5
 10
113.9485798938381
 20
-136.52816723873229
 30
0.0
 11
113.2753939885563
 21
-136.1011791110916
 31
0.0
  0
LINE
  8
DETAIL
  6
CONTINUOUS
 62
     5
 10
113.2753939885563
 20
-136.1011791110916
 30
0.0
 11
112.6709161653168
 21
-135.58117587570399
 31
0.0
  0
LINE
  8
DETAIL
  6
CONTINUOUS
 62
     5
 10
39.999999999824013
 20
-36.999999999824013
 30
0.0
 11
39.999999999824013
 21
27.0
 31
0.0
  0
LINE
  8
DETAIL
  6
CONTINUOUS
 62
     5
 10
-144.4939033457745
 20
-150.26740603732381
 30
0.0
 11
-139.49390334559851
 21
-147.38065469154941
 31
0.0
  0
LINE
  8
DETAIL
  6
CONTINUOUS
 62
     5
 10
36.999999999824013
 20
30.0
 30
0.0
 11
-36.999999999824013
 21
30.0
 31
0.0
  0
LINE
  8
DETAIL
  6
CONTINUOUS
 62
     5
 10
62.499999999823793
 20
53.59880764489435
 30
0.0
 11
62.499999999823793
 21
60.893398282394401
 31
0.0
  0
LINE
  8
DETAIL
  6
CONTINUOUS
 62
     5
 10
65.499999999824013
 20
60.893398282394401
 30
0.0
 11
65.499999999824013
 21
52.076773761971708
 31
0.0
  0
LINE
  8
DETAIL
  6
CONTINUOUS
 62
     5
 10
63.513439784154798
 20
-66.926842387500074
 30
0.0
 11
63.50281921320402
 21
-66.845708923943675
 31
0.0
  0
LINE
  8
DETAIL
  6
CONTINUOUS
 62
     5
 10
-149.4939033454225
 20
141.60715199947191
 30
0.0
 11
-144.4939033457745
 21
138.7204006536972
 31
0.0
  0
LINE
  8
DETAIL
  6
CONTINUOUS
 62
     5
 10
-139.49390334559851
 20
147.38065469154941
 30
0.0
 11
-144.4939033457745
 21
150.26740603732401
 31
0.0
  0
LINE
  8
DETAIL
  6
CONTINUOUS
 62
     5
 10
89.884776310563439
 20
-92.006096654577505
 30
0.0
 11
81.540945157394162
 21
-100.3499278082745
 31
0.0
  0
LINE
  8
DETAIL
  6
CONTINUOUS
 62
     5
 10
94.480970388380229
 20
-92.359650044894352
 30
0.0
 11
97.875082938380274
 21
-88.965537495422495
 31
0.0
  0
LINE
  8
DETAIL
  6
CONTINUOUS
 62
     5
 10
96.602290731866105
 20
-94.480970388380229
 30
0.0
 11
99.996403281866151
 21
-91.086857838908372
 31
0.0
  0
LINE
  8
DETAIL
  6
CONTINUOUS
 62
     5
 10
96.955844122711142
 20
-99.077164466197246
 30
0.0
 11
88.612012969013904
 21
-107.4209956198943
 31
0.0
  0
LINE
  8
DETAIL
  6
CONTINUOUS
 62
     5
 10
108.13640946813371
 20
-110.2577298116196
 30
0.0
 11
107.62902747570411
 21
-110.4263348007041
 31
0.0
  0
LINE
  8
DETAIL
  6
CONTINUOUS
 62
     5
 10
107.62902747570411
 20
-110.4263348007041
 30
0.0
 11
107.34615936971819
 21
-110.550093603169
 31
0.0
  0
LINE
  8
DETAIL
  6
CONTINUOUS
 62
     5
 10
109.88640946795771
 20
-112.0077298114436
 30
0.0
 11
109.3790274755281
 21
-112.1763348005281
 31
0.0
  0
LINE
  8
DETAIL
  6
CONTINUOUS
 62
     5
 10
109.3790274755281
 20
-112.1763348005281
 30
0.0
 11
109.076296236972
 21
-112.30878400510569
 31
0.0
  0
LINE
  8
DETAIL
  6
CONTINUOUS
 62
     5
 10
139.49390334559851
 20
147.38065469154941
 30
0.0
 11
139.49390334559851
 21
141.60715199947191
 31
0.0
  0
LINE
  8
DETAIL
  6
CONTINUOUS
 62
     5
 10
139.49390334559851
 20
-141.60715199947191
 30
0.0
 11
139.49390334559851
 21
-141.81592200580991
 31
0.0
  0
LINE
  8
DETAIL
  6
CONTINUOUS
 62
     5
 10
139.49390334559851
 20
-143.0363284209507
 30
0.0
 11
139.49390334559851
 21
-147.38065469154941
 31
0.0
  0
LINE
  8
DETAIL
  6
CONTINUOUS
 62
     5
 10
120.7799912308096
 20
-136.5451120188379
 30
0.0
 11
120.6699249839787
 21
-137.31557574665479
 31
0.0
  0
LINE
  8
DETAIL
  6
CONTINUOUS
 62
     5
 10
121.8578643760561
 20
-137.4852813744719
 30
0.0
 11
122.0752735066901
 21
-135.96341746267601
 31
0.0
  0
LINE
  8
DETAIL
  6
CONTINUOUS
 62
     5
 10
102.2477801788732
 20
-114.87191341478869
 30
0.0
 11
102.0335908721829
 21
-115.19596766408451
 31
0.0
  0
LINE
  8
DETAIL
  6
CONTINUOUS
 62
     5
 10
102.0335908721829
 20
-115.19596766408451
 30
0.0
 11
101.5929161139086
 21
-116.000940550352
 31
0.0
  0
LINE
  8
DETAIL
  6
CONTINUOUS
 62
     5
 10
101.5929161139086
 20
-116.000940550352
 30
0.0
 11
101.2339466450703
 21
-116.8214156313379
 31
0.0
  0
LINE
  8
DETAIL
  6
CONTINUOUS
 62
     5
 10
101.2339466450703
 20
-116.8214156313379
 30
0.0
 11
100.9596402734155
 21
-117.6468841663732
 31
0.0
  0
LINE
  8
DETAIL
  6
CONTINUOUS
 62
     5
 10
100.9596402734155
 20
-117.6468841663732
 30
0.0
 11
100.77507748679589
 21
-118.4669626109155
 31
0.0
  0
LINE
  8
DETAIL
  6
CONTINUOUS
 62
     5
 10
100.77507748679589
 20
-118.4669626109155
 30
0.0
 11
100.6808943691901
 21
-119.27153435598601
 31
0.0
  0
LINE
  8
DETAIL
  6
CONTINUOUS
 62
     5
 10
100.6808943691901
 20
-119.27153435598601
 30
0.0
 11
100.67999301285199
 21
-120.050094006338
 31
0.0
  0
LINE
  8
DETAIL
  6
CONTINUOUS
 62
     5
 10
100.67999301285199
 20
-120.050094006338
 30
0.0
 11
100.77065588450679
 21
-120.7934243741197
 31
0.0
  0
LINE
  8
DETAIL
  6
CONTINUOUS
 62
     5
 10
100.77065588450679
 20
-120.7934243741197
 30
0.0
 11
100.95346115651409
 21
-121.4914249985916
 31
0.0
  0
LINE
  8
DETAIL
  6
CONTINUOUS
 62
     5
 10
100.95346115651409
 20
-121.4914249985916
 30
0.0
 11
101.22442380158439
 21
-122.1362403010562
 31
0.0
  0
LINE
  8
DETAIL
  6
CONTINUOUS
 62
     5
 10
101.22442380158439
 20
-122.1362403010562
 30
0.0
 11
101.5792774790493
 21
-122.7152450809858
 31
0.0
  0
LINE
  8
DETAIL
  6
CONTINUOUS
 62
     5
 10
101.5792774790493
 20
-122.7152450809858
 30
0.0
 11
102.01944430246481
 21
-123.23264773838009
 31
0.0
  0
LINE
  8
DETAIL
  6
CONTINUOUS
 62
     5
 10
103.9868878014083
 20
-116.6383928609155
 30
0.0
 11
103.7835908725351
 21
-116.9459676639085
 31
0.0
  0
LINE
  8
DETAIL
  6
CONTINUOUS
 62
     5
 10
103.7835908725351
 20
-116.9459676639085
 30
0.0
 11
103.3429161137324
 21
-117.750940550176
 31
0.0
  0
LINE
  8
DETAIL
  6
CONTINUOUS
 62
     5
 10
103.3429161137324
 20
-117.750940550176
 30
0.0
 11
102.9839466448943
 21
-118.5714156311619
 31
0.0
  0
LINE
  8
DETAIL
  6
CONTINUOUS
 62
     5
 10
102.9839466448943
 20
-118.5714156311619
 30
0.0
 11
102.7096402737675
 21
-119.3968841661972
 31
0.0
  0
LINE
  8
DETAIL
  6
CONTINUOUS
 62
     5
 10
102.7096402737675
 20
-119.3968841661972
 30
0.0
 11
102.52507748661969
 21
-120.2169626107393
 31
0.0
  0
LINE
  8
DETAIL
  6
CONTINUOUS
 62
     5
 10
102.52507748661969
 20
-120.2169626107393
 30
0.0
 11
102.4308943695421
 21
-121.02153435580981
 31
0.0
  0
LINE
  8
DETAIL
  6
CONTINUOUS
 62
     5
 10
102.4308943695421
 20
-121.02153435580981
 30
0.0
 11
102.429993013204
 21
-121.800094006162
 31
0.0
  0
LINE
  8
DETAIL
  6
CONTINUOUS
 62
     5
 10
102.429993013204
 20
-121.800094006162
 30
0.0
 11
102.52065588433079
 21
-122.54342437394369
 31
0.0
  0
LINE
  8
DETAIL
  6
CONTINUOUS
 62
     5
 10
102.52065588433079
 20
-122.54342437394369
 30
0.0
 11
102.70346115633809
 21
-123.2414249989436
 31
0.0
  0
LINE
  8
DETAIL
  6
CONTINUOUS
 62
     5
 10
102.70346115633809
 20
-123.2414249989436
 30
0.0
 11
102.97442380140841
 21
-123.8862403008802
 31
0.0
  0
LINE
  8
DETAIL
  6
CONTINUOUS
 62
     5
 10
102.97442380140841
 20
-123.8862403008802
 30
0.0
 11
103.3292774788731
 21
-124.46524508080979
 31
0.0
  0
LINE
  8
DETAIL
  6
CONTINUOUS
 62
     5
 10
103.3292774788731
 20
-124.46524508080979
 30
0.0
 11
103.76944430281701
 21
-124.98264773820419
 31
0.0
  0
LINE
  8
DETAIL
  6
CONTINUOUS
 62
     5
 10
106.6663374834507
 20
-109.86334577588011
 30
0.0
 11
107.4146347705987
 21
-109.53595511461251
 31
0.0
  0
LINE
  8
DETAIL
  6
CONTINUOUS
 62
     5
 10
126.445929038028
 20
-117.9606476635563
 30
0.0
 11
126.4520743294015
 21
-117.9586919630281
 31
0.0
  0
LINE
  8
DETAIL
  6
CONTINUOUS
 62
     5
 10
126.4520743294015
 20
-117.9586919630281
 30
0.0
 11
127.0897100334505
 21
-117.7905020450703
 31
0.0
  0
LINE
  8
DETAIL
  6
CONTINUOUS
 62
     5
 10
127.0897100334505
 20
-117.7905020450703
 30
0.0
 11
127.7732179843308
 21
-117.6489220198946
 31
0.0
  0
LINE
  8
DETAIL
  6
CONTINUOUS
 62
     5
 10
127.7732179843308
 20
-117.6489220198946
 30
0.0
 11
128.49830694665499
 21
-117.54111034964789
 31
0.0
  0
LINE
  8
DETAIL
  6
CONTINUOUS
 62
     5
 10
128.49830694665499
 20
-117.54111034964789
 30
0.0
 11
129.25796544137319
 21
-117.4736323753521
 31
0.0
  0
LINE
  8
DETAIL
  6
CONTINUOUS
 62
     5
 10
129.25796544137319
 20
-117.4736323753521
 30
0.0
 11
130.04382114718331
 21
-117.45243229066909
 31
0.0
  0
LINE
  8
DETAIL
  6
CONTINUOUS
 62
     5
 10
130.04382114718331
 20
-117.45243229066909
 30
0.0
 11
130.84849829102109
 21
-117.48132164049299
 31
0.0
  0
LINE
  8
DETAIL
  6
CONTINUOUS
 62
     5
 10
130.84849829102109
 20
-117.48132164049299
 30
0.0
 11
131.66415234982381
 21
-117.5635786352113
 31
0.0
  0
LINE
  8
DETAIL
  6
CONTINUOUS
 62
     5
 10
131.66415234982381
 20
-117.5635786352113
 30
0.0
 11
132.47919493257041
 21
-117.6998569193661
 31
0.0
  0
LINE
  8
DETAIL
  6
CONTINUOUS
 62
     5
 10
132.47919493257041
 20
-117.6998569193661
 30
0.0
 11
133.28378706443641
 21
-117.88928255228871
 31
0.0
  0
LINE
  8
DETAIL
  6
CONTINUOUS
 62
     5
 10
133.28378706443641
 20
-117.88928255228871
 30
0.0
 11
134.0638261188378
 21
-118.1274585792253
 31
0.0
  0
LINE
  8
DETAIL
  6
CONTINUOUS
 62
     5
 10
134.0638261188378
 20
-118.1274585792253
 30
0.0
 11
134.8072656507043
 21
-118.4072682110916
 31
0.0
  0
LINE
  8
DETAIL
  6
CONTINUOUS
 62
     5
 10
134.8072656507043
 20
-118.4072682110916
 30
0.0
 11
135.5054024704225
 21
-118.7205743292252
 31
0.0
  0
LINE
  8
DETAIL
  6
CONTINUOUS
 62
     5
 10
135.5054024704225
 20
-118.7205743292252
 30
0.0
 11
136.15071526478869
 21
-119.0569676397886
 31
0.0
  0
LINE
  8
DETAIL
  6
CONTINUOUS
 62
     5
 10
136.15071526478869
 20
-119.0569676397886
 30
0.0
 11
136.74027842059849
 21
-119.4074587294012
 31
0.0
  0
LINE
  8
DETAIL
  6
CONTINUOUS
 62
     5
 10
136.74027842059849
 20
-119.4074587294012
 30
0.0
 11
137.27288033926061
 21
-119.7628474769365
 31
0.0
  0
LINE
  8
DETAIL
  6
CONTINUOUS
 62
     5
 10
137.27288033926061
 20
-119.7628474769365
 30
0.0
 11
137.74660658028171
 21
-120.11327344542249
 31
0.0
  0
LINE
  8
DETAIL
  6
CONTINUOUS
 62
     5
 10
149.4939033454225
 20
-147.38065469154941
 30
0.0
 11
149.4939033454225
 21
-141.60715199947191
 31
0.0
  0
LINE
  8
DETAIL
  6
CONTINUOUS
 62
     5
 10
149.4939033454225
 20
141.60715199947191
 30
0.0
 11
149.4939033454225
 21
147.38065469154941
 31
0.0
  0
LINE
  8
DETAIL
  6
CONTINUOUS
 62
     5
 10
118.80300128239421
 20
-111.4490907586267
 30
0.0
 11
117.9544731454223
 21
-112.2976188955986
 31
0.0
  0
LINE
  8
DETAIL
  6
CONTINUOUS
 62
     5
 10
120.81868670757039
 20
-112.3334053336266
 30
0.0
 11
117.9902595829226
 21
-115.1618324582746
 31
0.0
  0
LINE
  8
DETAIL
  6
CONTINUOUS
 62
     5
 10
123.56868670774659
 20
-115.0834053332746
 30
0.0
 11
120.7402595825704
 21
-117.9118324579226
 31
0.0
  0
LINE
  8
DETAIL
  6
CONTINUOUS
 62
     5
 10
123.67800128239421
 20
-116.3240907586267
 30
0.0
 11
122.8294731454223
 21
-117.1726188955986
 31
0.0
  0
LINE
  8
DETAIL
  6
CONTINUOUS
 62
     5
 10
122.78572516320421
 20
-119.9572980385562
 30
0.0
 11
122.4321717723592
 21
-120.31085142887309
 31
0.0
  0
LINE
  8
DETAIL
  6
CONTINUOUS
 62
     5
 10
126.6686867075705
 20
-118.18340533362679
 30
0.0
 11
126.1030012827464
 21
-118.74909075845061
 31
0.0
  0
LINE
  8
DETAIL
  6
CONTINUOUS
 62
     5
 10
125.25447314524649
 20
-119.5976188959507
 30
0.0
 11
123.8402595829225
 21
-121.0118324582745
 31
0.0
  0
LINE
  8
DETAIL
  6
CONTINUOUS
 62
     5
 10
122.22003973838039
 20
-120.0987193948945
 30
0.0
 11
122.2636518338029
 21
-120.06634677411969
 31
0.0
  0
LINE
  8
DETAIL
  6
CONTINUOUS
 62
     5
 10
122.2636518338029
 20
-120.06634677411969
 30
0.0
 11
122.41029779260541
 21
-119.9591392045775
 31
0.0
  0
LINE
  8
DETAIL
  6
CONTINUOUS
 62
     5
 10
122.41029779260541
 20
-119.9591392045775
 30
0.0
 11
122.5281043330986
 21
-119.87460380492939
 31
0.0
  0
LINE
  8
DETAIL
  6
CONTINUOUS
 62
     5
 10
122.5281043330986
 20
-119.87460380492939
 30
0.0
 11
122.6309495503522
 21
-119.8025224257042
 31
0.0
  0
LINE
  8
DETAIL
  6
CONTINUOUS
 62
     5
 10
171.50000000017599
 20
-91.613438020246349
 30
0.0
 11
171.50000000017599
 21
91.613438020246576
 31
0.0
  0
LINE
  8
DETAIL
  6
CONTINUOUS
 62
     5
 10
176.66726188943679
 20
-170.3033008589789
 30
0.0
 11
176.66726188943679
 21
-158.98959235985919
 31
0.0
  0
LINE
  8
DETAIL
  6
CONTINUOUS
 62
     5
 10
176.66726188943679
 20
158.98959235985919
 30
0.0
 11
176.66726188943679
 21
170.3033008589789
 31
0.0
  0
LINE
  8
DETAIL
  6
CONTINUOUS
 62
     5
 10
182.00000000017599
 20
-159.99999999982381
 30
0.0
 11
182.00000000017599
 21
-124.36195128802819
 31
0.0
  0
LINE
  8
DETAIL
  6
CONTINUOUS
 62
     5
 10
182.00000000017599
 20
-124.36195128802819
 30
0.0
 11
182.00000000017599
 21
124.36195128802819
 31
0.0
  0
LINE
  8
DETAIL
  6
CONTINUOUS
 62
     5
 10
182.00000000017599
 20
124.36195128802819
 30
0.0
 11
182.00000000017599
 21
159.99999999982401
 31
0.0
  0
LINE
  8
DETAIL
  6
CONTINUOUS
 62
     5
 10
117.4707077477112
 20
-137.57597344647891
 30
0.0
 11
117.80277920492949
 21
-137.24390198926039
 31
0.0
  0
LINE
  8
DETAIL
  6
CONTINUOUS
 62
     5
 10
136.054147831162
 20
-118.9925333630281
 30
0.0
 11
137.57597344647891
 21
-117.4707077477112
 31
0.0
  0
LINE
  8
DETAIL
  6
CONTINUOUS
 62
     5
 10
129.43252890633809
 20
-126.6041017816901
 30
0.0
 11
129.309962734859
 21
-126.726667953169
 31
0.0
  0
LINE
  8
DETAIL
  6
CONTINUOUS
 62
     5
 10
120.0987193943663
 20
-137.7763889244718
 30
0.0
 11
120.68832371883811
 21
-137.18678460000001
 31
0.0
  0
LINE
  8
DETAIL
  6
CONTINUOUS
 62
     5
 10
135.46966991408451
 20
-125.64124278961251
 30
0.0
 11
132.6412427894368
 21
-128.46966991426049
 31
0.0
  0
LINE
  8
DETAIL
  6
CONTINUOUS
 62
     5
 10
132.11953467464789
 20
-129.99821433116199
 30
0.0
 11
133.14466094049291
 21
-128.97308806531689
 31
0.0
  0
LINE
  8
DETAIL
  6
CONTINUOUS
 62
     5
 10
135.9730880651409
 20
-126.1446609406689
 30
0.0
 11
139.89770926795791
 21
-122.22003973838009
 31
0.0
  0
LINE
  8
DETAIL
  6
CONTINUOUS
 62
     5
 10
139.35875721073921
 20
-129.53033008573951
 30
0.0
 11
136.53033008556349
 21
-132.3587572109154
 31
0.0
  0
LINE
  8
DETAIL
  6
CONTINUOUS
 62
     5
 10
144.4939033457745
 20
-138.7204006536972
 30
0.0
 11
142.96132629665499
 21
-139.60523442570411
 31
0.0
  0
LINE
  8
DETAIL
  6
CONTINUOUS
 62
     5
 10
141.31953281461281
 20
-140.55312433415469
 30
0.0
 11
139.49390334559851
 21
-141.60715199947191
 31
0.0
  0
LINE
  8
DETAIL
  6
CONTINUOUS
 62
     5
 10
185.00000000017599
 20
-159.99999999982381
 30
0.0
 11
185.00000000017599
 21
159.99999999982401
 31
0.0
  0
LINE
  8
DETAIL
  6
CONTINUOUS
 62
     5
 10
139.89770926795791
 20
-137.7763889244718
 30
0.0
 11
139.8874291103873
 21
-137.7890784205986
 31
0.0
  0
LINE
  8
DETAIL
  6
CONTINUOUS
 62
     5
 10
139.8874291103873
 20
-137.7890784205986
 30
0.0
 11
139.8554103485917
 21
-137.82816283415491
 31
0.0
  0
LINE
  8
DETAIL
  6
CONTINUOUS
 62
     5
 10
139.8554103485917
 20
-137.82816283415491
 30
0.0
 11
139.8000689783448
 21
-137.89482592130281
 31
0.0
  0
LINE
  8
DETAIL
  6
CONTINUOUS
 62
     5
 10
139.8000689783448
 20
-137.89482592130281
 30
0.0
 11
139.7194135214788
 21
-137.9905647670773
 31
0.0
  0
LINE
  8
DETAIL
  6
CONTINUOUS
 62
     5
 10
139.7194135214788
 20
-137.9905647670773
 30
0.0
 11
139.6111919529931
 21
-138.11664175457739
 31
0.0
  0
LINE
  8
DETAIL
  6
CONTINUOUS
 62
     5
 10
139.6111919529931
 20
-138.11664175457739
 30
0.0
 11
139.4720232184859
 21
-138.27434768873241
 31
0.0
  0
LINE
  8
DETAIL
  6
CONTINUOUS
 62
     5
 10
139.4720232184859
 20
-138.27434768873241
 30
0.0
 11
139.2977736380283
 21
-138.4648968253521
 31
0.0
  0
LINE
  8
DETAIL
  6
CONTINUOUS
 62
     5
 10
139.2977736380283
 20
-138.4648968253521
 30
0.0
 11
139.08446545140851
 21
-138.68834098890829
 31
0.0
  0
LINE
  8
DETAIL
  6
CONTINUOUS
 62
     5
 10
140.94974746848581
 20
-133.94974746813389
 30
0.0
 11
141.7982756054578
 21
-133.1012193311619
 31
0.0
  0
LINE
  8
DETAIL
  6
CONTINUOUS
 62
     5
 10
141.65685424964769
 20
-134.65685424929569
 30
0.0
 11
142.50538238661969
 21
-133.80832611232381
 31
0.0
  0
LINE
  8
DETAIL
  6
CONTINUOUS
 62
     5
 10
137.7763889244718
 20
-139.89770926795791
 30
0.0
 11
139.89770926795791
 21
-137.7763889244718
 31
0.0
  0
LINE
  8
DETAIL
  6
CONTINUOUS
 62
     5
 10
139.08446545140851
 20
-138.68834098890829
 30
0.0
 11
138.8270580839787
 21
-138.94464490088009
 31
0.0
  0
LINE
  8
DETAIL
  6
CONTINUOUS
 62
     5
 10
138.8270580839787
 20
-138.94464490088009
 30
0.0
 11
138.5213498508804
 21
-139.23159227852099
 31
0.0
  0
LINE
  8
DETAIL
  6
CONTINUOUS
 62
     5
 10
138.5213498508804
 20
-139.23159227852099
 30
0.0
 11
138.16196305880271
 21
-139.54664810862661
 31
0.0
  0
LINE
  8
DETAIL
  6
CONTINUOUS
 62
     5
 10
138.16196305880271
 20
-139.54664810862661
 30
0.0
 11
137.9801583369717
 21
-139.6939398549296
 31
0.0
  0
LINE
  8
DETAIL
  6
CONTINUOUS
 62
     5
 10
144.4939033457745
 20
-150.26740603732381
 30
0.0
 11
149.4939033454225
 21
-147.38065469154941
 31
0.0
  0
LINE
  8
DETAIL
  6
CONTINUOUS
 62
     5
 10
91.613438020246349
 20
171.50000000017599
 30
0.0
 11
-91.613438020246349
 21
171.50000000017599
 31
0.0
  0
LINE
  8
DETAIL
  6
CONTINUOUS
 62
     5
 10
170.3033008589787
 20
176.6672618894365
 30
0.0
 11
158.98959235985919
 21
176.6672618894365
 31
0.0
  0
LINE
  8
DETAIL
  6
CONTINUOUS
 62
     5
 10
-158.98959235985899
 20
176.6672618894365
 30
0.0
 11
-170.3033008589789
 21
176.6672618894365
 31
0.0
  0
LINE
  8
DETAIL
  6
CONTINUOUS
 62
     5
 10
159.99999999982401
 20
182.00000000017599
 30
0.0
 11
124.36195128802819
 21
182.00000000017599
 31
0.0
  0
LINE
  8
DETAIL
  6
CONTINUOUS
 62
     5
 10
124.36195128802819
 20
182.00000000017599
 30
0.0
 11
-124.36195128802819
 21
182.00000000017599
 31
0.0
  0
LINE
  8
DETAIL
  6
CONTINUOUS
 62
     5
 10
-124.36195128802819
 20
182.00000000017599
 30
0.0
 11
-159.99999999982401
 21
182.00000000017599
 31
0.0
  0
LINE
  8
DETAIL
  6
CONTINUOUS
 62
     5
 10
159.99999999982401
 20
185.00000000017599
 30
0.0
 11
-159.99999999982401
 21
185.00000000017599
 31
0.0
  0
LINE
  8
DETAIL
  6
CONTINUOUS
 62
     5
 10
137.57597344647891
 20
117.4707077477112
 30
0.0
 11
136.054147831162
 21
118.9925333630281
 31
0.0
  0
LINE
  8
DETAIL
  6
CONTINUOUS
 62
     5
 10
126.4626804253521
 20
128.584000768838
 30
0.0
 11
117.4707077477112
 21
137.57597344647891
 31
0.0
  0
LINE
  8
DETAIL
  6
CONTINUOUS
 62
     5
 10
120.0987193943663
 20
137.7763889244718
 30
0.0
 11
127.8768939876759
 21
129.99821433116199
 31
0.0
  0
LINE
  8
DETAIL
  6
CONTINUOUS
 62
     5
 10
132.11953467464789
 20
129.99821433116199
 30
0.0
 11
139.89770926795791
 21
122.22003973838039
 31
0.0
  0
LINE
  8
DETAIL
  6
CONTINUOUS
 62
     5
 10
142.26095603080989
 20
-161.1518289961268
 30
0.0
 11
142.86755774894371
 21
-160.545227278521
 31
0.0
  0
LINE
  8
DETAIL
  6
CONTINUOUS
 62
     5
 10
160.545227278521
 20
-142.86755774894371
 30
0.0
 11
161.1518289961268
 21
-142.26095603133811
 31
0.0
  0
LINE
  8
DETAIL
  6
CONTINUOUS
 62
     5
 10
165.0
 20
-147.32233047042249
 30
0.0
 11
147.32233047042249
 21
-165.0
 31
0.0
  0
LINE
  8
DETAIL
  6
CONTINUOUS
 62
     5
 10
139.49390334559851
 20
141.60715199947191
 30
0.0
 11
144.4939033457745
 21
138.7204006536972
 31
0.0
  0
LINE
  8
DETAIL
  6
CONTINUOUS
 62
     5
 10
149.4939033454225
 20
147.38065469154941
 30
0.0
 11
144.4939033457745
 21
150.26740603732401
 31
0.0
  0
LINE
  8
DETAIL
  6
CONTINUOUS
 62
     5
 10
170.3033008589787
 20
-176.6672618894365
 30
0.0
 11
176.66726188943679
 21
-170.3033008589789
 31
0.0
  0
LINE
  8
DETAIL
  6
CONTINUOUS
 62
     5
 10
161.1518289961268
 20
142.26095603080989
 30
0.0
 11
160.545227278521
 21
142.86755774894371
 31
0.0
  0
LINE
  8
DETAIL
  6
CONTINUOUS
 62
     5
 10
142.86755774894371
 20
160.545227278521
 30
0.0
 11
142.26095603080989
 21
161.1518289961268
 31
0.0
  0
LINE
  8
DETAIL
  6
CONTINUOUS
 62
     5
 10
147.32233047042249
 20
165.0
 30
0.0
 11
165.0
 21
147.32233047042249
 31
0.0
  0
LINE
  8
DETAIL
  6
CONTINUOUS
 62
     5
 10
176.66726188943679
 20
170.3033008589789
 30
0.0
 11
170.3033008589787
 21
176.6672618894365
 31
0.0
  0
ARC
  8
DETAIL
  6
CONTINUOUS
 62
     5
 10
0.0
 20
-74.000000000175987
 30
0.0
 40
134.29436226232389
 50
64.521035212395716
 51
115.4789647880994
  0
ARC
  8
DETAIL
  6
CONTINUOUS
 62
     5
 10
0.0
 20
-74.000000000175987
 30
0.0
 40
127.7943627253521
 50
66.412040465905008
 51
113.5879595366969
  0
ARC
  8
DETAIL
  6
CONTINUOUS
 62
     5
 10
0.0
 20
15.999999999824009
 30
0.0
 40
109.294367968838
 50
246.26129690880219
 51
293.73870309160662
  0
ARC
  8
DETAIL
  6
CONTINUOUS
 62
     5
 10
0.0
 20
15.999999999824009
 30
0.0
 40
102.79436819735911
 50
248.0555442010006
 51
291.94445580169429
  0
ARC
  8
DETAIL
  6
CONTINUOUS
 62
     5
 10
-159.99999999982401
 20
-159.99999999982381
 30
0.0
 40
24.999999999823899
 50
180.0
 51
270.0
  0
ARC
  8
DETAIL
  6
CONTINUOUS
 62
     5
 10
-159.99999999982401
 20
-159.99999999982381
 30
0.0
 40
21.999999999823899
 50
180.0
 51
270.0
  0
ARC
  8
DETAIL
  6
CONTINUOUS
 62
     5
 10
-131.6128433714789
 20
-151.71810907024661
 30
0.0
 40
20.00000000017609
 50
0.3124197780969181
 51
45.0
  0
ARC
  8
DETAIL
  6
CONTINUOUS
 62
     5
 10
-168.2228968082745
 20
-149.3320238429578
 30
0.0
 40
9.9999999998239275
 50
44.999999999806548
 51
87.196208070792068
  0
ARC
  8
DETAIL
  6
CONTINUOUS
 62
     5
 10
-149.3320238429578
 20
-168.2228968082745
 30
0.0
 40
9.9999999998238867
 50
2.8037919291031992
 51
45.00000000010133
  0
ARC
  8
DETAIL
  6
CONTINUOUS
 62
     5
 10
-151.7181090702463
 20
-131.6128433714789
 30
0.0
 40
20.00000000017608
 50
45.0
 51
89.687580221798868
  0
ARC
  8
DETAIL
  6
CONTINUOUS
 62
     5
 10
-167.00000000017599
 20
-124.36195128802819
 30
0.0
 40
15.0
 50
180.0
 51
267.19620807079212
  0
CIRCLE
  8
DETAIL
  6
CONTINUOUS
 62
     5
 10
-144.4939033457745
 20
-144.4939033457747
 30
0.0
 40
5.0000000001760441
  0
ARC
  8
DETAIL
  6
CONTINUOUS
 62
     5
 10
-91.613438020246349
 20
-151.5
 30
0.0
 40
20.000000000176051
 50
180.3124197782011
 51
270.0
  0
ARC
  8
DETAIL
  6
CONTINUOUS
 62
     5
 10
-124.36195128802819
 20
-167.00000000017599
 30
0.0
 40
14.999999999999989
 50
182.803791929299
 51
270.0
  0
ARC
  8
DETAIL
  6
CONTINUOUS
 62
     5
 10
-151.5000000000002
 20
-91.613438020246349
 30
0.0
 40
20.000000000176051
 50
180.0
 51
269.68758022190298
  0
ARC
  8
DETAIL
  6
CONTINUOUS
 62
     5
 10
-71.499999999824013
 20
-60.893398282394401
 30
0.0
 40
9.0000000000000355
 50
315.0
 51
324.24870082170111
  0
ARC
  8
DETAIL
  6
CONTINUOUS
 62
     5
 10
-71.499999999824013
 20
-60.893398282394401
 30
0.0
 40
5.9999999999999769
 50
315.0
 51
328.94947598610202
  0
ARC
  8
DETAIL
  6
CONTINUOUS
 62
     5
 10
-36.999999999824013
 20
-36.999999999824013
 30
0.0
 40
2.999999999999972
 50
180.0
 51
270.0
  0
CIRCLE
  8
DETAIL
  6
CONTINUOUS
 62
     5
 10
-35.000000000175987
 20
-47.000000000175987
 30
0.0
 40
1.5
  0
ARC
  8
DETAIL
  6
CONTINUOUS
 62
     5
 10
-3.9999999998240132
 20
-101.1999999998238
 30
0.0
 40
0.500000000176058
 50
180.0
 51
270.0
  0
ARC
  8
DETAIL
  6
CONTINUOUS
 62
     5
 10
-151.5000000000002
 20
91.613438020246576
 30
0.0
 40
20.000000000176051
 50
90.312419778201146
 51
180.0
  0
ARC
  8
DETAIL
  6
CONTINUOUS
 62
     5
 10
-151.7181090702463
 20
131.6128433714789
 30
0.0
 40
20.000000000176009
 50
270.31241977809691
 51
315.0
  0
ARC
  8
DETAIL
  6
CONTINUOUS
 62
     5
 10
-167.00000000017599
 20
124.36195128802819
 30
0.0
 40
14.999999999999989
 50
92.80379192929901
 51
180.0
  0
ARC
  8
DETAIL
  6
CONTINUOUS
 62
     5
 10
-159.99999999982401
 20
159.99999999982401
 30
0.0
 40
24.999999999823931
 50
90.0
 51
180.0
  0
ARC
  8
DETAIL
  6
CONTINUOUS
 62
     5
 10
-159.99999999982401
 20
159.99999999982401
 30
0.0
 40
21.999999999823931
 50
90.0
 51
180.0
  0
ARC
  8
DETAIL
  6
CONTINUOUS
 62
     5
 10
-149.3320238429578
 20
168.2228968082745
 30
0.0
 40
9.9999999998238707
 50
314.99999999980662
 51
357.19620807079212
  0
ARC
  8
DETAIL
  6
CONTINUOUS
 62
     5
 10
-168.2228968082745
 20
149.3320238429578
 30
0.0
 40
9.9999999998239666
 50
272.80379192910323
 51
315.00000000010129
  0
CIRCLE
  8
DETAIL
  6
CONTINUOUS
 62
     5
 10
-144.4939033457745
 20
144.4939033457747
 30
0.0
 40
5.0000000001760441
  0
ARC
  8
DETAIL
  6
CONTINUOUS
 62
     5
 10
-131.6128433714789
 20
151.71810907024661
 30
0.0
 40
20.00000000017609
 50
315.0
 51
359.6875802217989
  0
ARC
  8
DETAIL
  6
CONTINUOUS
 62
     5
 10
-124.36195128802819
 20
167.00000000017599
 30
0.0
 40
15.00000000000003
 50
90.0
 51
177.1962080707921
  0
ARC
  8
DETAIL
  6
CONTINUOUS
 62
     5
 10
-71.499999999824013
 20
60.893398282394401
 30
0.0
 40
9.0
 50
0.0
 51
45.0
  0
ARC
  8
DETAIL
  6
CONTINUOUS
 62
     5
 10
-71.499999999824013
 20
60.893398282394401
 30
0.0
 40
6.0000000000000284
 50
0.0
 51
45.0
  0
ARC
  8
DETAIL
  6
CONTINUOUS
 62
     5
 10
-36.999999999824013
 20
27.0
 30
0.0
 40
2.999999999999988
 50
90.0
 51
180.0
  0
CIRCLE
  8
DETAIL
  6
CONTINUOUS
 62
     5
 10
-35.000000000175987
 20
33.999999999824013
 30
0.0
 40
1.5
  0
ARC
  8
DETAIL
  6
CONTINUOUS
 62
     5
 10
-91.613438020246349
 20
151.5
 30
0.0
 40
20.00000000017608
 50
90.0
 51
179.68758022190309
  0
ARC
  8
DETAIL
  6
CONTINUOUS
 62
     5
 10
3.9999999998240132
 20
-101.1999999998238
 30
0.0
 40
0.500000000176058
 50
270.0
 51
0.0
  0
CIRCLE
  8
DETAIL
  6
CONTINUOUS
 62
     5
 10
35.000000000175987
 20
-47.000000000175987
 30
0.0
 40
1.5
  0
ARC
  8
DETAIL
  6
CONTINUOUS
 62
     5
 10
71.499999999824013
 20
-60.893398282394401
 30
0.0
 40
8.9999999999999876
 50
215.75129917829889
 51
225.0
  0
ARC
  8
DETAIL
  6
CONTINUOUS
 62
     5
 10
71.499999999824013
 20
-60.893398282394401
 30
0.0
 40
5.9999999999999956
 50
211.05052401389801
 51
225.0
  0
ARC
  8
DETAIL
  6
CONTINUOUS
 62
     5
 10
36.999999999824013
 20
-36.999999999824013
 30
0.0
 40
2.9999999999999858
 50
270.0
 51
0.0
  0
ARC
  8
DETAIL
  6
CONTINUOUS
 62
     5
 10
91.613438020246349
 20
-151.5
 30
0.0
 40
20.00000000017608
 50
270.0
 51
359.68758022190309
  0
ARC
  8
DETAIL
  6
CONTINUOUS
 62
     5
 10
124.36195128802819
 20
-167.00000000017599
 30
0.0
 40
15.00000000000003
 50
270.0
 51
328.47677391210328
  0
ARC
  8
DETAIL
  6
CONTINUOUS
 62
     5
 10
122.91123661690131
 20
-126.4785903279931
 30
0.0
 40
6.5225000001760796
 50
358.89739816709249
 51
2.979878252798684
  0
ARC
  8
DETAIL
  6
CONTINUOUS
 62
     5
 10
122.91123661690131
 20
-126.4785903279931
 30
0.0
 40
6.522500000176092
 50
71.842507114498687
 51
74.505070683198667
  0
ARC
  8
DETAIL
  6
CONTINUOUS
 62
     5
 10
126.80761184471839
 20
-138.19238815563381
 30
0.0
 40
6.2000000001760904
 50
171.86989764580531
 51
276.19415572929921
  0
ARC
  8
DETAIL
  6
CONTINUOUS
 62
     5
 10
126.80761184471839
 20
-138.19238815563381
 30
0.0
 40
5.0000000001760734
 50
171.86989764580531
 51
276.19415572929921
  0
ARC
  8
DETAIL
  6
CONTINUOUS
 62
     5
 10
126.80761184471839
 20
-124.05025253186609
 30
0.0
 40
4.200000000000002
 50
45.0
 51
84.078290190700628
  0
ARC
  8
DETAIL
  6
CONTINUOUS
 62
     5
 10
126.80761184471839
 20
-124.05025253186609
 30
0.0
 40
4.1999999999999913
 50
106.4879106452057
 51
141.13981446830249
  0
ARC
  8
DETAIL
  6
CONTINUOUS
 62
     5
 10
126.80761184471839
 20
-124.05025253186609
 30
0.0
 40
2.999999999999996
 50
101.0055863832071
 51
143.623487991297
  0
ARC
  8
DETAIL
  6
CONTINUOUS
 62
     5
 10
126.80761184471839
 20
-124.05025253186609
 30
0.0
 40
2.9999999999999849
 50
45.0
 51
48.611111325899643
  0
ARC
  8
DETAIL
  6
CONTINUOUS
 62
     5
 10
159.99999999982401
 20
-159.99999999982381
 30
0.0
 40
24.999999999823959
 50
270.0
 51
0.0
  0
ARC
  8
DETAIL
  6
CONTINUOUS
 62
     5
 10
159.99999999982401
 20
-159.99999999982381
 30
0.0
 40
21.999999999823931
 50
270.0
 51
0.0
  0
ARC
  8
DETAIL
  6
CONTINUOUS
 62
     5
 10
131.6128433714789
 20
-151.71810907024661
 30
0.0
 40
20.000000000176051
 50
135.0
 51
179.6875802217989
  0
ARC
  8
DETAIL
  6
CONTINUOUS
 62
     5
 10
149.3320238429578
 20
-168.2228968082745
 30
0.0
 40
9.9999999998239755
 50
134.99999999980659
 51
149.80882008970119
  0
ARC
  8
DETAIL
  6
CONTINUOUS
 62
     5
 10
168.2228968082745
 20
-149.3320238429578
 30
0.0
 40
9.9999999998239115
 50
92.803791929103213
 51
135.00000000010141
  0
ARC
  8
DETAIL
  6
CONTINUOUS
 62
     5
 10
151.71810907024661
 20
-131.6128433714789
 30
0.0
 40
20.000000000176069
 50
90.312419778096924
 51
135.0
  0
ARC
  8
DETAIL
  6
CONTINUOUS
 62
     5
 10
167.00000000017599
 20
-124.36195128802819
 30
0.0
 40
15.0
 50
272.80379192929911
 51
0.0
  0
ARC
  8
DETAIL
  6
CONTINUOUS
 62
     5
 10
144.4939033457745
 20
-144.4939033457747
 30
0.0
 40
5.0000000001760334
 50
132.0523468880985
 51
138.3883980278996
  0
ARC
  8
DETAIL
  6
CONTINUOUS
 62
     5
 10
144.4939033457745
 20
-144.4939033457747
 30
0.0
 40
5.0000000001760414
 50
162.50381343059621
 51
108.1602943521987
  0
ARC
  8
DETAIL
  6
CONTINUOUS
 62
     5
 10
138.828427124472
 20
-138.89949493679569
 30
0.0
 40
4.1999999999999931
 50
276.19415572929921
 51
45.0
  0
ARC
  8
DETAIL
  6
CONTINUOUS
 62
     5
 10
138.828427124472
 20
-138.89949493679569
 30
0.0
 40
2.9999999999999929
 50
276.19415572929921
 51
45.0
  0
ARC
  8
DETAIL
  6
CONTINUOUS
 62
     5
 10
151.5
 20
-91.613438020246349
 30
0.0
 40
20.000000000176051
 50
270.3124197782011
 51
0.0
  0
ARC
  8
DETAIL
  6
CONTINUOUS
 62
     5
 10
0.0
 20
0.0
 30
0.0
 40
141.24999999982401
 50
45.608471435301333
 51
134.39152856469869
  0
ARC
  8
DETAIL
  6
CONTINUOUS
 62
     5
 10
0.0
 20
0.0
 30
0.0
 40
141.2499999998239
 50
315.60847143530128
 51
44.391528564698667
  0
ARC
  8
DETAIL
  6
CONTINUOUS
 62
     5
 10
0.0
 20
0.0
 30
0.0
 40
141.2499999998239
 50
313.99909293400418
 51
314.39152856469872
  0
ARC
  8
DETAIL
  6
CONTINUOUS
 62
     5
 10
0.0
 20
0.0
 30
0.0
 40
141.24999999982401
 50
225.60847143530131
 51
311.2839664298919
  0
ARC
  8
DETAIL
  6
CONTINUOUS
 62
     5
 10
0.0
 20
0.0
 30
0.0
 40
141.24999999982401
 50
135.60847143530131
 51
224.39152856469869
  0
ARC
  8
DETAIL
  6
CONTINUOUS
 62
     5
 10
0.0
 20
0.0
 30
0.0
 40
132.75
 50
45.6475012563984
 51
134.35249874360159
  0
ARC
  8
DETAIL
  6
CONTINUOUS
 62
     5
 10
0.0
 20
0.0
 30
0.0
 40
132.75
 50
317.72039680140131
 51
44.352498752795711
  0
ARC
  8
DETAIL
  6
CONTINUOUS
 62
     5
 10
0.0
 20
0.0
 30
0.0
 40
132.75
 50
225.64750125639841
 51
309.24937485669773
  0
ARC
  8
DETAIL
  6
CONTINUOUS
 62
     5
 10
0.0
 20
0.0
 30
0.0
 40
132.75
 50
135.6475012472043
 51
224.3524987527957
  0
ARC
  8
DETAIL
  6
CONTINUOUS
 62
     5
 10
71.499999999824013
 20
60.893398282394401
 30
0.0
 40
8.9999999999999876
 50
135.0
 51
180.0
  0
ARC
  8
DETAIL
  6
CONTINUOUS
 62
     5
 10
71.499999999824013
 20
60.893398282394401
 30
0.0
 40
5.9999999999999716
 50
135.0
 51
180.0
  0
ARC
  8
DETAIL
  6
CONTINUOUS
 62
     5
 10
36.999999999824013
 20
27.0
 30
0.0
 40
2.9999999999999858
 50
0.0
 51
90.0
  0
CIRCLE
  8
DETAIL
  6
CONTINUOUS
 62
     5
 10
35.000000000175987
 20
33.999999999824013
 30
0.0
 40
1.5
  0
ARC
  8
DETAIL
  6
CONTINUOUS
 62
     5
 10
91.613438020246349
 20
151.5
 30
0.0
 40
20.000000000176051
 50
0.3124197782011369
 51
90.0
  0
ARC
  8
DETAIL
  6
CONTINUOUS
 62
     5
 10
124.36195128802819
 20
167.00000000017599
 30
0.0
 40
15.0
 50
2.8037919292990159
 51
90.0
  0
ARC
  8
DETAIL
  6
CONTINUOUS
 62
     5
 10
151.5
 20
91.613438020246576
 30
0.0
 40
20.000000000176051
 50
0.0
 51
89.687580221903076
  0
ARC
  8
DETAIL
  6
CONTINUOUS
 62
     5
 10
167.00000000017599
 20
124.36195128802819
 30
0.0
 40
15.00000000000002
 50
0.0
 51
87.196208070792068
  0
ARC
  8
DETAIL
  6
CONTINUOUS
 62
     5
 10
159.99999999982401
 20
159.99999999982401
 30
0.0
 40
24.99999999982392
 50
0.0
 51
90.0
  0
ARC
  8
DETAIL
  6
CONTINUOUS
 62
     5
 10
159.99999999982401
 20
159.99999999982401
 30
0.0
 40
21.999999999823931
 50
0.0
 51
90.0
  0
ARC
  8
DETAIL
  6
CONTINUOUS
 62
     5
 10
131.6128433714789
 20
151.71810907024661
 30
0.0
 40
20.00000000017609
 50
180.31241977809691
 51
225.0
  0
ARC
  8
DETAIL
  6
CONTINUOUS
 62
     5
 10
151.71810907024661
 20
131.6128433714789
 30
0.0
 40
20.00000000017608
 50
225.0
 51
269.6875802217989
  0
ARC
  8
DETAIL
  6
CONTINUOUS
 62
     5
 10
168.2228968082745
 20
149.3320238429578
 30
0.0
 40
9.9999999998239488
 50
224.99999999980659
 51
267.19620807079212
  0
ARC
  8
DETAIL
  6
CONTINUOUS
 62
     5
 10
149.3320238429578
 20
168.2228968082745
 30
0.0
 40
9.9999999998239719
 50
182.8037919291032
 51
225.00000000010129
  0
CIRCLE
  8
DETAIL
  6
CONTINUOUS
 62
     5
 10
144.4939033457745
 20
144.4939033457747
 30
0.0
 40
5.0000000001760574
  0
LINE
  8
DETAIL
  6
CONTINUOUS
 62
     5
 10
-66.459797974647699
 20
-63.888730163028193
 30
0.0
 11
-57.371607523943567
 21
-72.976920613732318
 31
0.0
  0
LINE
  8
DETAIL
  6
CONTINUOUS
 62
     5
 10
-68.099999999999909
 20
47.350731353345047
 30
0.0
 11
-68.099999999999909
 21
-59.928932188204271
 31
0.0
  0
LINE
  8
DETAIL
  6
CONTINUOUS
 62
     5
 10
-56.232803725351907
 20
-74.949386652464682
 30
0.0
 11
-53.708274399295533
 21
-84.371058361267615
 31
0.0
  0
LINE
  8
DETAIL
  6
CONTINUOUS
 62
     5
 10
68.099999999999909
 20
-59.928932188204271
 30
0.0
 11
68.099999999999909
 21
47.350731353345047
 31
0.0
  0
LINE
  8
DETAIL
  6
CONTINUOUS
 62
     5
 10
53.70827439929576
 20
-84.371058361267615
 30
0.0
 11
56.232803725351907
 21
-74.949386652464682
 31
0.0
  0
LINE
  8
DETAIL
  6
CONTINUOUS
 62
     5
 10
57.371607523415612
 20
-72.976920613732318
 30
0.0
 11
66.459797974647699
 21
-63.888730163028193
 31
0.0
  0
CIRCLE
  8
DETAIL
  6
CONTINUOUS
 62
     5
 10
-165.0000000000002
 20
-165.0
 30
0.0
 40
5.0000000001760441
  0
CIRCLE
  8
DETAIL
  6
CONTINUOUS
 62
     5
 10
-155.00000000017599
 20
-95.000000000175987
 30
0.0
 40
6.5000000001760432
  0
ARC
  8
DETAIL
  6
CONTINUOUS
 62
     5
 10
-44.435386467253473
 20
-81.886395528169032
 30
0.0
 40
9.6000000000000316
 50
194.9999999999944
 51
245.5843959313946
  0
ARC
  8
DETAIL
  6
CONTINUOUS
 62
     5
 10
-62.499999999823793
 20
-59.928932188204271
 30
0.0
 40
5.6000000001760659
 50
180.0
 51
225.0
  0
ARC
  8
DETAIL
  6
CONTINUOUS
 62
     5
 10
-60.482877360739622
 20
-76.088190451056334
 30
0.0
 40
4.400000000176072
 50
14.999999999994451
 51
45.0
  0
CIRCLE
  8
DETAIL
  6
CONTINUOUS
 62
     5
 10
-165.0000000000002
 20
165.0
 30
0.0
 40
5.0000000001760441
  0
ARC
  8
DETAIL
  6
CONTINUOUS
 62
     5
 10
-62.499999999823793
 20
47.350731353345047
 30
0.0
 40
5.6000000001760784
 50
117.25009942839451
 51
180.0
  0
CIRCLE
  8
DETAIL
  6
CONTINUOUS
 62
     5
 10
-95.000000000175987
 20
155.00000000017599
 30
0.0
 40
6.5000000001760432
  0
ARC
  8
DETAIL
  6
CONTINUOUS
 62
     5
 10
0.0
 20
-74.000000000175987
 30
0.0
 40
142.1000000001761
 50
62.749900571605501
 51
117.25009942839451
  0
CIRCLE
  8
DETAIL
  6
CONTINUOUS
 62
     5
 10
0.0
 20
-69.0
 30
0.0
 40
3.150000000000007
  0
ARC
  8
DETAIL
  6
CONTINUOUS
 62
     5
 10
44.435386467253473
 20
-81.886395528169032
 30
0.0
 40
9.6000000000000032
 50
294.41560406860538
 51
345.00000000000563
  0
ARC
  8
DETAIL
  6
CONTINUOUS
 62
     5
 10
60.482877360739387
 20
-76.088190451056334
 30
0.0
 40
4.4000000001760471
 50
135.0
 51
165.0000000000056
  0
ARC
  8
DETAIL
  6
CONTINUOUS
 62
     5
 10
62.499999999823793
 20
-59.928932188204271
 30
0.0
 40
5.6000000001760801
 50
315.0
 51
0.0
  0
CIRCLE
  8
DETAIL
  6
CONTINUOUS
 62
     5
 10
95.000000000175987
 20
-155.00000000017599
 30
0.0
 40
6.5000000001760538
  0
CIRCLE
  8
DETAIL
  6
CONTINUOUS
 62
     5
 10
165.0
 20
-165.0
 30
0.0
 40
5.0000000001760574
  0
ARC
  8
DETAIL
  6
CONTINUOUS
 62
     5
 10
0.0
 20
15.999999999824009
 30
0.0
 40
117.09999999982389
 50
245.5843959313946
 51
294.41560406860538
  0
ARC
  8
DETAIL
  6
CONTINUOUS
 62
     5
 10
62.499999999823793
 20
47.350731353345047
 30
0.0
 40
5.6000000001760659
 50
0.0
 51
62.749900571605501
  0
CIRCLE
  8
DETAIL
  6
CONTINUOUS
 62
     5
 10
155.00000000017599
 20
95.000000000175987
 30
0.0
 40
6.5000000001760574
  0
CIRCLE
  8
DETAIL
  6
CONTINUOUS
 62
     5
 10
165.0
 20
165.0
 30
0.0
 40
5.0000000001760574
  0
LINE
  8
DETAIL
  6
CONTINUOUS
 62
     5
 10
-142.2665169850352
 20
146.7212897065142
 30
0.0
 11
-146.7212897065142
 21
142.2665169850352
 31
0.0
  0
LINE
  8
DETAIL
  6
CONTINUOUS
 62
     5
 10
-146.7212897065142
 20
-142.2665169850352
 30
0.0
 11
-142.2665169850352
 21
-146.721289706514
 31
0.0
  0
LINE
  8
DETAIL
  6
CONTINUOUS
 62
     5
 10
146.7212897065142
 20
146.7212897065142
 30
0.0
 11
142.2665169850352
 21
142.2665169850352
 31
0.0
  0
LINE
  8
DETAIL
  6
CONTINUOUS
 62
     5
 10
-142.2665169850352
 20
-142.2665169850352
 30
0.0
 11
-146.7212897065142
 21
-146.721289706514
 31
0.0
  0
LINE
  8
DETAIL
  6
CONTINUOUS
 62
     5
 10
-146.7212897065142
 20
146.7212897065142
 30
0.0
 11
-142.2665169850352
 21
142.2665169850352
 31
0.0
  0
LINE
  8
DETAIL
  6
CONTINUOUS
 62
     5
 10
142.2665169850352
 20
-142.2665169850352
 30
0.0
 11
146.7212897065142
 21
-146.721289706514
 31
0.0
  0
LINE
  8
DETAIL
  6
CONTINUOUS
 62
     5
 10
146.7212897065142
 20
-142.2665169850352
 30
0.0
 11
142.2665169850352
 21
-146.721289706514
 31
0.0
  0
LINE
  8
DETAIL
  6
CONTINUOUS
 62
     5
 10
142.2665169850352
 20
146.7212897065142
 30
0.0
 11
146.7212897065142
 21
142.2665169850352
 31
0.0
  0
LINE
  8
BASIS
  6
DASHDOT
 62
     6
 10
-200.70422535211259
 20
0.0
 30
0.0
 11
200.70422535211219
 21
0.0
 31
0.0
  0
LINE
  8
BASIS
  6
DASHDOT
 62
     6
 10
0.0
 20
-211.26760563380279
 30
0.0
 11
0.0
 21
211.26760563380279
 31
0.0
  0
LINE
  8
SIZE
  6
CONTINUOUS
 62
    30
 10
472.94578758667831
 20
260.32792480086027
 30
0.0
 11
134.25517871881809
 21
73.899319936818529
 31
0.0
  0
LINE
  8
SIZE
  6
CONTINUOUS
 62
    30
 10
-134.25517871881809
 20
-73.899319936818529
 30
0.0
 11
-144.76781914053211
 21
-79.685889850311696
 31
0.0
  0
TEXT
  8
SIZE
  6
CONTINUOUS
 62
    30
 10
251.08316087906491
 20
166.74310108685219
 30
0.0
 40
64.0
  1
φ283
 50
28.830112381122269
 41
0.9
 72
     1
 11
351.28364215574447
 21
221.89737889089059
 31
0.0
  0
LINE
  8
SIZE
  6
CONTINUOUS
 62
    30
 10
-123.7425382971041
 20
-68.112750023325134
 30
0.0
 11
123.7425382971041
 21
68.112750023325134
 31
0.0
  0
CIRCLE
  8
SIZE
  6
CONTINUOUS
 62
    30
 10
-123.7425382971041
 20
-68.112750023325134
 30
0.0
 40
6.0
  0
LINE
  8
SIZE
  6
CONTINUOUS
 62
    30
 10
-123.7425382971041
 20
-68.112750023325134
 30
0.0
 11
-134.25517871881809
 21
-73.899319936818529
 31
0.0
  0
CIRCLE
  8
SIZE
  6
CONTINUOUS
 62
    30
 10
123.7425382971041
 20
68.112750023325134
 30
0.0
 40
6.0
  0
LINE
  8
SIZE
  6
CONTINUOUS
 62
    30
 10
123.7425382971041
 20
68.112750023325134
 30
0.0
 11
134.25517871881809
 21
73.899319936818529
 31
0.0
  0
POINT
  8
DEFPOINTS
  6
CONTINUOUS
 62
    30
 10
123.7425382971041
 20
68.112750023325134
 30
0.0
  0
POINT
  8
DEFPOINTS
  6
CONTINUOUS
 62
    30
 10
-123.7425382971041
 20
-68.112750023325134
 30
0.0
  0
LINE
  8
SIZE
  6
CONTINUOUS
 62
    30
 10
462.69851166632452
 20
-112.13869620030979
 30
0.0
 11
138.0048072062655
 21
-33.446572139929458
 31
0.0
  0
LINE
  8
SIZE
  6
CONTINUOUS
 62
    30
 10
-138.0048072062655
 20
33.446572139929458
 30
0.0
 11
-149.6671852800489
 21
36.273043024997378
 31
0.0
  0
TEXT
  8
SIZE
  6
CONTINUOUS
 62
    30
 10
235.83369389100901
 20
-31.432446039888031
 30
0.0
 40
64.0
  1
φ260
 50
346.37658872665958
 41
0.9
 72
     1
 11
346.99281747426988
 21
-58.372751390135818
 31
0.0
  0
LINE
  8
SIZE
  6
CONTINUOUS
 62
    30
 10
-126.342429132482
 20
30.620101254861542
 30
0.0
 11
126.342429132482
 21
-30.620101254861542
 31
0.0
  0
CIRCLE
  8
SIZE
  6
CONTINUOUS
 62
    30
 10
-126.342429132482
 20
30.620101254861542
 30
0.0
 40
6.0
  0
LINE
  8
SIZE
  6
CONTINUOUS
 62
    30
 10
-126.342429132482
 20
30.620101254861542
 30
0.0
 11
-138.0048072062655
 21
33.446572139929458
 31
0.0
  0
CIRCLE
  8
SIZE
  6
CONTINUOUS
 62
    30
 10
126.342429132482
 20
-30.620101254861542
 30
0.0
 40
6.0
  0
LINE
  8
SIZE
  6
CONTINUOUS
 62
    30
 10
126.342429132482
 20
-30.620101254861542
 30
0.0
 11
138.0048072062655
 21
-33.446572139929458
 31
0.0
  0
POINT
  8
DEFPOINTS
  6
CONTINUOUS
 62
    30
 10
126.342429132482
 20
-30.620101254861542
 30
0.0
  0
POINT
  8
DEFPOINTS
  6
CONTINUOUS
 62
    30
 10
-126.342429132482
 20
30.620101254861542
 30
0.0
  0
LINE
  8
DETAIL
  6
CONTINUOUS
 62
     5
 10
145.6439531667252
 20
-263.01153769806342
 30
0.0
 11
143.28041455933089
 21
-262.59478207183088
 31
0.0
  0
LINE
  8
DETAIL
  6
CONTINUOUS
 62
     5
 10
152.64652194421751
 20
-239.27236070388639
 30
0.0
 11
156.7616392451464
 21
-262.61035063772368
 31
0.0
  0
LINE
  8
DETAIL
  6
CONTINUOUS
 62
     5
 10
153.53081456461271
 20
-239.27236070388611
 30
0.0
 11
146.59953296461251
 21
-239.27236070386789
 31
0.0
  0
LINE
  8
DETAIL
  6
CONTINUOUS
 62
     5
 10
154.48639436250011
 20
-263.01153769806342
 30
0.0
 11
156.7616392451464
 21
-262.61035063772368
 31
0.0
  0
ARC
  8
DETAIL
  6
CONTINUOUS
 62
     5
 10
60.482877361267363
 20
-76.088190451056334
 30
0.0
 40
4.4000000001760826
 50
135.00000000000921
 51
165.0000000000056
  0
LINE
  8
DETAIL
  6
CONTINUOUS
 62
     5
 10
145.6439531667252
 20
-263.01153769806342
 30
0.0
 11
143.28041455933089
 21
-262.59478207183088
 31
0.0
  0
LINE
  8
DETAIL
  6
CONTINUOUS
 62
     5
 10
150.3005369588036
 20
-239.27236070387769
 30
0.0
 11
154.48639436250011
 21
-263.01153769806342
 31
0.0
  0
LINE
  8
DETAIL
  6
CONTINUOUS
 62
     5
 10
153.53081456461271
 20
-239.27236070388639
 30
0.0
 11
146.59953296461299
 21
-239.27236070378709
 31
0.0
  0
LINE
  8
DETAIL
  6
CONTINUOUS
 62
     5
 10
147.39278670211249
 20
-239.27236070387309
 30
0.0
 11
143.28041455933089
 21
-262.59478207183088
 31
0.0
  0
LINE
  8
DETAIL
  6
CONTINUOUS
 62
     5
 10
154.48639436250011
 20
-263.01153769806342
 30
0.0
 11
156.7616392451464
 21
-262.61035063772368
 31
0.0
  0
LINE
  8
DETAIL
  6
CONTINUOUS
 62
     5
 10
149.82981057042929
 20
-239.2723607038333
 30
0.0
 11
145.6439531667252
 21
-263.01153769806342
 31
0.0
  0
ARC
  8
DETAIL
  6
CONTINUOUS
 62
     5
 10
-49.510028274862407
 20
39.152511651921941
 30
0.0
 40
4.2853878237514369
 50
112.323035767726
 51
181.2649218615021
  0
ARC
  8
DETAIL
  6
CONTINUOUS
 62
     5
 10
-56.012533777556648
 20
59.882683696067033
 30
0.0
 40
87.810198449961703
 50
213.57649871193721
 51
262.08785689035369
  0
ARC
  8
DETAIL
  6
CONTINUOUS
 62
     5
 10
-0.5493104968695661
 20
-2.1503642786692581
 30
0.0
 40
129.325491841314
 50
134.8188166489696
 51
174.02163403856949
  0
ARC
  8
DETAIL
  6
CONTINUOUS
 62
     5
 10
-0.1628423706549711
 20
-0.2045820587127309
 30
0.0
 40
128.21399536910201
 50
101.6582012793649
 51
134.2135589055423
  0
ARC
  8
DETAIL
  6
CONTINUOUS
 62
     5
 10
-25.518723701797398
 20
122.49086677478429
 30
0.0
 40
2.9262228964023458
 50
328.21976519775973
 51
100.8871139412979
  0
ARC
  8
DETAIL
  6
CONTINUOUS
 62
     5
 10
-64.219949412769438
 20
137.5558321713979
 30
0.0
 40
44.410293813344261
 50
320.85863675272049
 51
338.04214322570772
  0
ARC
  8
DETAIL
  6
CONTINUOUS
 62
     5
 10
-17.52013683844098
 20
98.98204559671467
 30
0.0
 40
16.164773549404909
 50
139.30284159567739
 51
178.55854812562981
  0
ARC
  8
DETAIL
  6
CONTINUOUS
 62
     5
 10
-52.002220777182629
 20
99.258609921105062
 30
0.0
 40
18.322887353360489
 50
308.97081448230642
 51
0.4067251601886817
  0
ARC
  8
DETAIL
  6
CONTINUOUS
 62
     5
 10
-422.87677977519519
 20
-329.95980275886552
 30
0.0
 40
581.1641803603037
 50
11.9317997657062
 51
18.629127984704731
  0
ARC
  8
DETAIL
  6
CONTINUOUS
 62
     5
 10
129.94088872152159
 20
-130.01908591622851
 30
0.0
 40
12.506731305474419
 50
230.8761009962557
 51
257.29751760136361
  0
ARC
  8
DETAIL
  6
CONTINUOUS
 62
     5
 10
-396.19686914643307
 20
-322.63971827395397
 30
0.0
 40
560.17912426775263
 50
11.357989808109901
 51
18.641883221078409
  0
ARC
  8
DETAIL
  6
CONTINUOUS
 62
     5
 10
187.420279940467
 20
-122.7017772586839
 30
0.0
 40
63.332538297091503
 50
192.59834799203679
 51
198.83552999979281
  0
ARC
  8
DETAIL
  6
CONTINUOUS
 62
     5
 10
-879.13482922182629
 20
-237.38094214301921
 30
0.0
 40
1025.736106040044
 50
359.89434869105628
 51
1.330640580849191
  0
ARC
  8
DETAIL
  6
CONTINUOUS
 62
     5
 10
-522.26724675489731
 20
-229.08663799535071
 30
0.0
 40
675.87481727780255
 50
359.13649539710951
 51
0.9483806203307563
  0
ARC
  8
DETAIL
  6
CONTINUOUS
 62
     5
 10
146.97971995110041
 20
-217.99074273427209
 30
0.0
 40
8.2797345950142915
 50
34.159426697605717
 51
165.74312279255059
  0
ARC
  8
DETAIL
  6
CONTINUOUS
 62
     5
 10
156.15005571337539
 20
-211.45633410937009
 30
0.0
 40
2.9887278759282312
 50
219.110859471814
 51
341.70157333625627
  0
ARC
  8
DETAIL
  6
CONTINUOUS
 62
     5
 10
145.96332291799351
 20
-219.48375638887521
 30
0.0
 40
5.9977917254815329
 50
36.92441541298755
 51
169.1320927543733
  0
ARC
  8
DETAIL
  6
CONTINUOUS
 62
     5
 10
155.13675965361239
 20
-212.79414652827771
 30
0.0
 40
5.3570592058840072
 50
215.17891446039931
 51
338.05809422286052
  0
ARC
  8
DETAIL
  6
CONTINUOUS
 62
     5
 10
-55.996443155726183
 20
43.317850048112859
 30
0.0
 40
4.2987233585595028
 50
114.3772204012307
 51
181.10174220436161
  0
ARC
  8
DETAIL
  6
CONTINUOUS
 62
     5
 10
49.430042838470847
 20
-54.515178672200591
 30
0.0
 40
4.3644108555899868
 50
314.64900588536187
 51
0.350994112691858
  0
ARC
  8
DETAIL
  6
CONTINUOUS
 62
     5
 10
52.096714336511702
 20
-71.246436972227912
 30
0.0
 40
9.352092229240899
 50
134.90268187058791
 51
165.09731812047829
  0
ARC
  8
DETAIL
  6
CONTINUOUS
 62
     5
 10
36.828910030330462
 20
-75.295809020374918
 30
0.0
 40
4.3502191161249844
 50
291.38345609123411
 51
342.94934040715287
  0
ARC
  8
DETAIL
  6
CONTINUOUS
 62
     5
 10
55.930696593654602
 20
-57.207837622061326
 30
0.0
 40
4.3637587798502873
 50
314.64539787061142
 51
0.35460213710545
  0
ARC
  8
DETAIL
  6
CONTINUOUS
 62
     5
 10
57.92314348299783
 20
-74.610327407316163
 30
0.0
 40
9.350630202997257
 50
134.90026511506929
 51
165.09973488674979
  0
ARC
  8
DETAIL
  6
CONTINUOUS
 62
     5
 10
42.286039588187798
 20
-80.053607415389934
 30
0.0
 40
4.345028987888476
 50
293.20704532850061
 51
345.53165637249668
  0
ARC
  8
DETAIL
  6
CONTINUOUS
 62
     5
 10
-26.840390375063411
 20
71.788479383825916
 30
0.0
 40
18.997131140996199
 50
135.88171046228859
 51
199.288484675539
  0
ARC
  8
DETAIL
  6
CONTINUOUS
 62
     5
 10
-57.542585327099687
 20
61.409272618956493
 30
0.0
 40
13.414616573834451
 50
358.55186420678098
 51
17.814354537304151
  0
ARC
  8
DETAIL
  6
CONTINUOUS
 62
     5
 10
1.767301178906109
 20
2.057965220494907
 30
0.0
 40
130.80839164700731
 50
225.74706575052059
 51
293.90945150110701
  0
ARC
  8
DETAIL
  6
CONTINUOUS
 62
     5
 10
0.258594445331255
 20
-0.0387346004431492
 30
0.0
 40
128.21399536910201
 50
221.6582012793678
 51
224.23571031640839
  0
ARC
  8
DETAIL
  6
CONTINUOUS
 62
     5
 10
-93.320840507639787
 20
-83.345296385304664
 30
0.0
 40
2.9262228964023449
 50
88.219765197751286
 51
220.88711394129589
  0
ARC
  8
DETAIL
  6
CONTINUOUS
 62
     5
 10
-87.016870392754527
 20
-124.394023706908
 30
0.0
 40
44.410293813343323
 50
83.969021027903963
 51
98.042143225716814
  0
ARC
  8
DETAIL
  6
CONTINUOUS
 62
     5
 10
-76.960897586084229
 20
-64.663906378226784
 30
0.0
 40
16.16477354940498
 50
264.10253155709421
 51
298.55854812563791
  0
ARC
  8
DETAIL
  6
CONTINUOUS
 62
     5
 10
-60.383955600791978
 20
-93.321830017072671
 30
0.0
 40
16.952851746471509
 50
73.867904784276405
 51
121.46601885085239
  0
ARC
  8
DETAIL
  6
CONTINUOUS
 62
     5
 10
79.472561261770579
 20
19.884493913781849
 30
0.0
 40
86.471208891576779
 50
93.370646163616655
 51
146.27488546980911
  0
ARC
  8
DETAIL
  6
CONTINUOUS
 62
     5
 10
4.6856212959480672
 20
9.0204066073131344
 30
0.0
 40
119.5974577743801
 50
44.250156317738167
 51
54.351410827869877
  0
ARC
  8
DETAIL
  6
CONTINUOUS
 62
     5
 10
-2.3726872062684379
 20
0.6531233642731422
 30
0.0
 40
130.5046244813685
 50
341.80199793465761
 51
43.401902543535563
  0
ARC
  8
DETAIL
  6
CONTINUOUS
 62
     5
 10
118.8395642094372
 20
-39.145570389479637
 30
0.0
 40
2.9262228964023458
 50
208.21976519776001
 51
340.88711394130462
  0
ARC
  8
DETAIL
  6
CONTINUOUS
 62
     5
 10
151.23681980552419
 20
-13.161808464488789
 30
0.0
 40
44.410293813344261
 50
200.8586367527198
 51
218.04214322570999
  0
ARC
  8
DETAIL
  6
CONTINUOUS
 62
     5
 10
94.481034424525205
 20
-34.318139218487893
 30
0.0
 40
16.164773549404909
 50
19.30284159567465
 51
58.558548125638929
  0
ARC
  8
DETAIL
  6
CONTINUOUS
 62
     5
 10
111.96158812459861
 20
-4.5940607143054422
 30
0.0
 40
18.322887353360489
 50
188.97081448232021
 51
240.40672516020479
  0
ARC
  8
DETAIL
  6
CONTINUOUS
 62
     5
 10
75.59084203298039
 20
-12.64977977961667
 30
0.0
 40
18.997131140996199
 50
15.881710462289229
 51
79.288484675538683
  0
ARC
  8
DETAIL
  6
CONTINUOUS
 62
     5
 10
86.03853903838808
 20
26.101984797121531
 30
0.0
 40
21.243248727547599
 50
212.3885673910134
 51
250.99804004189491
  0
ARC
  8
DETAIL
  6
CONTINUOUS
 62
     5
 10
320.32881797767692
 20
-83.316708835307963
 30
0.0
 40
195.2594456352503
 50
194.99602675876801
 51
197.61600087348481
  0
ARC
  8
DETAIL
  6
CONTINUOUS
 62
     5
 10
-129.99821433089801
 20
129.88270909735641
 30
0.0
 40
12.661365692982161
 50
38.568230421991423
 51
141.43176957800861
  0
ARC
  8
DETAIL
  6
CONTINUOUS
 62
     5
 10
-129.98006793866421
 20
130.1488634697578
 30
0.0
 40
12.69737900567149
 50
218.71496421946429
 51
307.67284462896703
  0
ARC
  8
DETAIL
  6
CONTINUOUS
 62
     5
 10
129.99821433089801
 20
129.88270909735641
 30
0.0
 40
12.661365692982161
 50
38.568230421991423
 51
141.43176957800861
  0
ARC
  8
DETAIL
  6
CONTINUOUS
 62
     5
 10
129.98006793866421
 20
130.1488634697578
 30
0.0
 40
12.69737900567149
 50
232.327155371033
 51
321.28503578053568
  0
ARC
  8
DETAIL
  6
CONTINUOUS
 62
     5
 10
-129.99821433089801
 20
-129.88270909735641
 30
0.0
 40
12.661365692982161
 50
218.56823042199139
 51
321.43176957800858
  0
ARC
  8
DETAIL
  6
CONTINUOUS
 62
     5
 10
-129.98006793866421
 20
-130.148863469758
 30
0.0
 40
12.69737900567149
 50
52.327155371033022
 51
141.28503578053571
  0
ARC
  8
DETAIL
  6
CONTINUOUS
 62
     5
 10
3.4836553331051618
 20
-202.84160663188189
 30
0.0
 40
138.4362837176802
 50
52.169570742911823
 51
67.586305511098885
  0
ARC
  8
DETAIL
  6
CONTINUOUS
 62
     5
 10
-5.965881223249653
 20
-219.06569513427891
 30
0.0
 40
150.4065045265402
 50
53.436974277349009
 51
66.288956586797525
  0
ARC
  8
DETAIL
  6
CONTINUOUS
 62
     5
 10
943.95170118193755
 20
766.09432778677046
 30
0.0
 40
1211.8617778392349
 50
225.6076527153368
 51
227.52503290367591
  0
ARC
  8
DETAIL
  6
CONTINUOUS
 62
     5
 10
782.67587238652686
 20
600.69460936377709
 30
0.0
 40
987.52771283382401
 50
225.57647944704991
 51
227.95161948618929
  0
ARC
  8
DETAIL
  6
CONTINUOUS
 62
     5
 10
-24.600311905964869
 20
-78.336020443595544
 30
0.0
 40
88.564810281146947
 50
333.76417454209019
 51
355.25306313149508
  0
ARC
  8
DETAIL
  6
CONTINUOUS
 62
     5
 10
-15.98815237744566
 20
-76.710309626314938
 30
0.0
 40
80.100717297204582
 50
358.8060405330616
 51
7.0740753969286123
  0
ARC
  8
DETAIL
  6
CONTINUOUS
 62
     5
 10
-49.430086728449169
 20
-54.514220715398103
 30
0.0
 40
4.3644108555899859
 50
179.64789549261289
 51
225.34988371995391
  0
ARC
  8
DETAIL
  6
CONTINUOUS
 62
     5
 10
-52.097082478501989
 20
-71.245427332073859
 30
0.0
 40
9.3520922292409008
 50
14.90157148483247
 51
45.096207734716273
  0
ARC
  8
DETAIL
  6
CONTINUOUS
 62
     5
 10
-36.829356652193837
 20
-75.295095270171032
 30
0.0
 40
4.3502191161249826
 50
197.0495491981674
 51
248.6154335140788
  0
ARC
  8
DETAIL
  6
CONTINUOUS
 62
     5
 10
-55.930792666259549
 20
-57.206753681801047
 30
0.0
 40
4.3637587798502864
 50
179.64428746819789
 51
225.35349173469831
  0
ARC
  8
DETAIL
  6
CONTINUOUS
 62
     5
 10
-57.923576816236618
 20
-74.609204850080687
 30
0.0
 40
9.3506302029972552
 50
14.899154718553699
 51
45.098624490228538
  0
ARC
  8
DETAIL
  6
CONTINUOUS
 62
     5
 10
-42.286578415365973
 20
-80.052787904884781
 30
0.0
 40
4.3450289878884751
 50
194.46723323280241
 51
246.79184427680971
  0
CIRCLE
  8
ARRANGE
  6
CONTINUOUS
 62
     1
 10
0.0
 20
0.0
 30
0.0
 40
40.0
  0
ARC
  8
DETAIL
  6
CONTINUOUS
 62
     5
 10
49.510028274862407
 20
39.152511651921941
 30
0.0
 40
4.2853878237514369
 50
358.7350781384979
 51
67.676964232274017
  0
ARC
  8
DETAIL
  6
CONTINUOUS
 62
     5
 10
55.996443155726183
 20
43.317850048112859
 30
0.0
 40
4.2987233585595028
 50
358.89825779565149
 51
65.622779598769284
  0
ARC
  8
DETAIL
  6
CONTINUOUS
 62
     5
 10
782.67587234829762
 20
600.69460932084553
 30
0.0
 40
987.52771277633815
 50
228.14843330278131
 51
228.28990765457581
  0
CIRCLE
  8
DETAIL
  6
CONTINUOUS
 62
     5
 10
0.0
 20
0.0
 30
0.0
 40
129.99999999982401
  0
ENDSEC
  0
EOF
