  0
SECTION
  2
HEADER
  9
$ACADVER
  1
AC1009
  9
$DWGCODEPAGE
  3
dos932
  9
$INSBASE
 10
0.0
 20
0.0
 30
0.0
  9
$EXTMIN
 10
-411.94608914892518
 20
-323.63890416878172
 30
-0.0015257624927045
  9
$EXTMAX
 10
1061.361705944129
 20
580.30701484566816
 30
0.0022888765696933
  9
$LIMMIN
 10
-2970.0
 20
-2100.0
  9
$LIMMAX
 10
2970.0
 20
2100.0
  9
$ORTHOMODE
 70
     1
  9
$REGENMODE
 70
     1
  9
$FILLMODE
 70
     1
  9
$QTEXTMODE
 70
     0
  9
$MIRRTEXT
 70
     0
  9
$LTSCALE
 40
20.0
  9
$ATTMODE
 70
     1
  9
$TEXTSIZE
 40
64.0
  9
$TRACEWID
 40
0.05
  9
$TEXTSTYLE
  7
STANDARD
  9
$CLAYER
  8
SIZE
  9
$CELTYPE
  6
CONTINUOUS
  9
$CECOLOR
 62
     7
  9
$DIMSCALE
 40
1.0
  9
$DIMASZ
 40
12.0
  9
$DIMEXO
 40
20.0
  9
$DIMDLI
 40
200.0
  9
$DIMRND
 40
0.0
  9
$DIMDLE
 40
0.0
  9
$DIMEXE
 40
20.0
  9
$DIMTP
 40
0.0
  9
$DIMTM
 40
0.0
  9
$DIMTXT
 40
64.0
  9
$DIMCEN
 40
0.09
  9
$DIMTSZ
 40
0.0
  9
$DIMTOL
 70
     0
  9
$DIMLIM
 70
     0
  9
$DIMTIH
 70
     0
  9
$DIMTOH
 70
     0
  9
$DIMSE1
 70
     0
  9
$DIMSE2
 70
     0
  9
$DIMTAD
 70
     1
  9
$DIMZIN
 70
     8
  9
$DIMBLK
  1

  9
$DIMASO
 70
     1
  9
$DIMSHO
 70
     0
  9
$DIMPOST
  1

  9
$DIMAPOST
  1

  9
$DIMALT
 70
     0
  9
$DIMALTD
 70
     2
  9
$DIMALTF
 40
25.399999999999999
  9
$DIMLFAC
 40
1.0
  9
$DIMTOFL
 70
     1
  9
$DIMTVP
 40
0.0
  9
$DIMTIX
 70
     1
  9
$DIMSOXD
 70
     0
  9
$DIMSAH
 70
     0
  9
$DIMBLK1
  1

  9
$DIMBLK2
  1

  9
$DIMSTYLE
  2
STANDARD
  9
$DIMCLRD
 70
     7
  9
$DIMCLRE
 70
     7
  9
$DIMCLRT
 70
     7
  9
$DIMTFAC
 40
1.0
  9
$DIMGAP
 40
25.0
  9
$LUNITS
 70
     2
  9
$LUPREC
 70
     4
  9
$SKETCHINC
 40
0.1
  9
$FILLETRAD
 40
3.0
  9
$AUNITS
 70
     1
  9
$AUPREC
 70
     3
  9
$MENU
  1
ACAD
  9
$ELEVATION
 40
0.0
  9
$PELEVATION
 40
0.0
  9
$THICKNESS
 40
50.0
  9
$LIMCHECK
 70
     0
  9
$CHAMFERA
 40
0.0
  9
$CHAMFERB
 40
0.0
  9
$SKPOLY
 70
     0
  9
$TDCREATE
 40
2453019.62301037
  9
$TDUPDATE
 40
2458949.440405937
  9
$TDINDWG
 40
1.7133956134
  9
$TDUSRTIMER
 40
1.7133956134
  9
$USRTIMER
 70
     1
  9
$ANGBASE
 50
0.0
  9
$ANGDIR
 70
     0
  9
$PDMODE
 70
     3
  9
$PDSIZE
 40
-2.0
  9
$PLINEWID
 40
0.0
  9
$SPLFRAME
 70
     0
  9
$SPLINETYPE
 70
     6
  9
$SPLINESEGS
 70
     8
  9
$SURFTAB1
 70
     6
  9
$SURFTAB2
 70
     6
  9
$SURFTYPE
 70
     6
  9
$SURFU
 70
     6
  9
$SURFV
 70
     6
  9
$UCSNAME
  2

  9
$UCSORG
 10
0.0
 20
0.0
 30
0.0
  9
$UCSXDIR
 10
1.0
 20
0.0
 30
0.0
  9
$UCSYDIR
 10
0.0
 20
1.0
 30
0.0
  9
$PUCSNAME
  2

  9
$PUCSORG
 10
0.0
 20
0.0
 30
0.0
  9
$PUCSXDIR
 10
1.0
 20
0.0
 30
0.0
  9
$PUCSYDIR
 10
0.0
 20
1.0
 30
0.0
  9
$USERI1
 70
     0
  9
$USERI2
 70
     0
  9
$USERI3
 70
     0
  9
$USERI4
 70
     0
  9
$USERI5
 70
     0
  9
$USERR1
 40
20.0
  9
$USERR2
 40
0.0
  9
$USERR3
 40
0.0
  9
$USERR4
 40
0.0
  9
$USERR5
 40
0.0
  9
$WORLDVIEW
 70
     1
  9
$SHADEDGE
 70
     3
  9
$SHADEDIF
 70
    70
  9
$TILEMODE
 70
     1
  9
$MAXACTVP
 70
    48
  9
$PINSBASE
 10
0.0
 20
0.0
 30
0.0
  9
$PLIMCHECK
 70
     0
  9
$PEXTMIN
 10
-100000000000000000000.0
 20
-100000000000000000000.0
 30
-100000000000000000000.0
  9
$PEXTMAX
 10
100000000000000000000.0
 20
100000000000000000000.0
 30
100000000000000000000.0
  9
$PLIMMIN
 10
0.0
 20
0.0
  9
$PLIMMAX
 10
12.0
 20
9.0
  9
$UNITMODE
 70
     0
  9
$VISRETAIN
 70
     0
  9
$PLINEGEN
 70
     0
  9
$PSLTSCALE
 70
     0
  9
$TREEDEPTH
 70
  3020
  9
$ATTDIA
 70
     0
  9
$ATTREQ
 70
     1
  9
$BLIPMODE
 70
     1
  9
$COORDS
 70
     1
  9
$DRAGMODE
 70
     2
  9
$OSMODE
 70
     0
  9
$HANDLING
 70
     0
  9
$HANDSEED
  5
10239
  0
ENDSEC
  0
SECTION
  2
TABLES
  0
TABLE
  2
LTYPE
 70
     2
  0
LTYPE
  2
CONTINUOUS
 70
     0
  3
実線
 72
    65
 73
     0
 40
0.0
  0
LTYPE
  2
DASHDOT
 70
     0
  3
____ _ ____ _ ____ _ ____ _ ____ _ ____ _ ____
 72
    65
 73
     4
 40
5.5
 49
4.0
 49
-0.6
 49
0.3
 49
-0.6
  0
ENDTAB
  0
TABLE
  2
LAYER
 70
    12
  0
LAYER
  2
0
 70
     0
 62
     7
  6
CONTINUOUS
  0
LAYER
  2
BASIS
 70
     0
 62
     6
  6
DASHDOT
  0
LAYER
  2
OUTLINE
 70
     0
 62
     3
  6
CONTINUOUS
  0
LAYER
  2
DETAIL
 70
     0
 62
     5
  6
CONTINUOUS
  0
LAYER
  2
SIZE
 70
     0
 62
    30
  6
CONTINUOUS
  0
LAYER
  2
ARRANGE
 70
     0
 62
     1
  6
CONTINUOUS
  0
LAYER
  2
DEFPOINTS
 70
     0
 62
     7
  6
CONTINUOUS
  0
LAYER
  2
ETC
 70
     0
 62
    61
  6
CONTINUOUS
  0
LAYER
  2
FIX
 70
     0
 62
    11
  6
CONTINUOUS
  0
LAYER
  2
NOTE
 70
     0
 62
     4
  6
CONTINUOUS
  0
LAYER
  2
SERVICESPACE
 70
    64
 62
     2
  6
DASHDOT
  0
LAYER
  2
SYMBOLLINE
 70
    64
 62
    15
  6
CONTINUOUS
  0
ENDTAB
  0
TABLE
  2
STYLE
 70
     1
  0
STYLE
  2
STANDARD
 70
     0
 40
64.0
 41
0.9
 50
0.0
 71
     0
 42
64.0
  3
SIMPLEX.shx
  4
BIGFONT.shx
  0
ENDTAB
  0
TABLE
  2
APPID
 70
    19
  0
APPID
  2
ACAD
 70
     0
  0
APPID
  2
AUTOCAD_POSTSCRIPT_FIGURE
 70
     0
  0
APPID
  2
ACAD_EXEMPT_FROM_CAD_STANDARDS
 70
     0
  0
APPID
  2
ACAD_PSEXT
 70
     0
  0
APPID
  2
ACAUTHENVIRON
 70
     0
  0
APPID
  2
GENIUS_GENOENT_13
 70
     0
  0
APPID
  2
GENIUS_GENCFG_13
 70
     0
  0
APPID
  2
GENIUS_GENCFG0_13
 70
     0
  0
APPID
  2
GENIUS_GENCFG1_13
 70
     0
  0
APPID
  2
GENIUS_GENCFG2_13
 70
     0
  0
APPID
  2
GENIUS_GENCFG3_13
 70
     0
  0
APPID
  2
GENIUS_GENCFG4_13
 70
     0
  0
APPID
  2
GENIUS_GEVCFG0_13
 70
     0
  0
APPID
  2
CONTENTBLOCKICON
 70
     0
  0
APPID
  2
CONTENTBLOCKDESCRIPTION
 70
     0
  0
APPID
  2
ACAD_NAV_VCDISPLAY
 70
     0
  0
APPID
  2
ACAD_MLEADERVER
 70
     0
  0
APPID
  2
ACDBDYNAMICBLOCKTRUENAME
 70
     0
  0
APPID
  2
ACDBDYNAMICBLOCKGUID
 70
     0
  0
ENDTAB
  0
TABLE
  2
DIMSTYLE
 70
     1
  0
DIMSTYLE
  2
STANDARD
 70
     0
  3

  4

  5
_ORIGIN
  6

  7

 40
1.0
 41
12.0
 42
20.0
 43
200.0
 44
20.0
 45
0.0
 46
0.0
 47
0.0
 48
0.0
140
64.0
141
0.09
142
0.0
143
25.399999999999999
144
1.0
145
0.0
146
1.0
147
25.0
 71
     0
 72
     0
 73
     0
 74
     0
 75
     0
 76
     0
 77
     1
 78
     8
170
     0
171
     2
172
     1
173
     0
174
     1
175
     0
176
     7
177
     7
178
     7
  0
ENDTAB
  0
TABLE
  2
VIEW
 70
     1
  0
VIEW
  2
ALL
 70
     0
 40
4282.6198079999986
 10
0.0
 20
41.309904000000003
 41
5940.0
 11
0.0
 21
0.0
 31
1.0
 12
0.0
 22
0.0
 32
0.0
 42
50.0
 43
0.0
 44
0.0
 50
0.0
 71
     0
  0
ENDTAB
  0
TABLE
  2
UCS
 70
     0
  0
ENDTAB
  0
TABLE
  2
VPORT
 70
     1
  0
VPORT
  2
*ACTIVE
 70
     0
 10
0.0
 20
0.0
 11
1.0
 21
1.0
 12
324.70780839760198
 22
128.33405533844331
 13
0.0
 23
0.0
 14
1.0
 24
1.0
 15
0.0
 25
0.0
 16
0.0
 26
0.0
 36
1.0
 17
0.0
 27
0.0
 37
0.0
 40
909.93893063222527
 41
1.747787610619469
 42
50.0
 43
0.0
 44
0.0
 50
0.0
 51
0.0
 71
     0
 72
  1000
 73
     1
 74
     3
 75
     0
 76
     0
 77
     0
 78
     0
  0
ENDTAB
  0
ENDSEC
  0
SECTION
  2
BLOCKS
  0
BLOCK
  8
0
  2
_ORIGIN
 70
     0
 10
0.0
 20
0.0
 30
0.0
  3
_ORIGIN
  1
_ORIGIN
  0
CIRCLE
  8
0
  6
CONTINUOUS
 62
     7
 10
0.0
 20
0.0
 30
0.0
 40
0.5
  0
LINE
  8
0
  6
CONTINUOUS
 62
     7
 10
0.0
 20
0.0
 30
0.0
 11
-1.0
 21
0.0
 31
0.0
  0
ENDBLK
  8
0
  0
ENDSEC
  0
SECTION
  2
ENTITIES
  0
POINT
  8
ARRANGE
  6
CONTINUOUS
 62
     1
 10
0.0
 20
0.0
 30
0.0
  0
CIRCLE
  8
ARRANGE
  6
CONTINUOUS
 62
     1
 10
0.0
 20
0.0
 30
0.0
 40
40.0
  0
TEXT
  8
ETC
  6
CONTINUOUS
 62
    61
 10
303.88583212670801
 20
516.0702529914945
 30
0.0
 40
64.0
  1
EWF-25ATA2-Q_4
 41
0.9
  0
TEXT
  8
ETC
  6
CONTINUOUS
 62
    61
 10
299.69983812670762
 20
398.11494297666331
 30
0.0
 40
64.0
  1
産業扇
 41
0.9
  0
TEXT
  8
ETC
  6
CONTINUOUS
 62
    61
 10
350.40123637526358
 20
289.96617009043803
 30
0.0
 40
40.0
  1
EWF-25ATA2-Q
 41
0.9
  0
TEXT
  8
NOTE
  6
CONTINUOUS
 62
     4
 10
111.20894172444901
 20
-308.92421016530449
 30
0.0
 40
64.0
  1
4-φ10
 41
0.9
  0
LINE
  8
SIZE
  6
CONTINUOUS
 62
    30
 10
-9.9999999998242401
 20
199.00000000017599
 30
0.0
 11
-9.9999999998242401
 21
250.2451127736081
 31
0.0
  0
LINE
  8
SIZE
  6
CONTINUOUS
 62
    30
 10
0.0
 20
203.50000000017599
 30
0.0
 11
0.0
 21
250.2451127736081
 31
0.0
  0
LINE
  8
SIZE
  6
CONTINUOUS
 62
    30
 10
-21.99999999982424
 20
230.2451127736081
 30
0.0
 11
-33.99999999982424
 21
230.2451127736081
 31
0.0
  0
LINE
  8
SIZE
  6
CONTINUOUS
 62
    30
 10
12.0
 20
230.2451127736081
 30
0.0
 11
156.28571428571431
 21
230.2451127736081
 31
0.0
  0
LINE
  8
SIZE
  6
CONTINUOUS
 62
    30
 10
-9.9999999998242401
 20
230.2451127736081
 30
0.0
 11
0.0
 21
230.2451127736081
 31
0.0
  0
CIRCLE
  8
SIZE
  6
CONTINUOUS
 62
    30
 10
-9.9999999998242401
 20
230.2451127736081
 30
0.0
 40
6.0
  0
LINE
  8
SIZE
  6
CONTINUOUS
 62
    30
 10
-9.9999999998242401
 20
230.2451127736081
 30
0.0
 11
-21.99999999982424
 21
230.2451127736081
 31
0.0
  0
CIRCLE
  8
SIZE
  6
CONTINUOUS
 62
    30
 10
0.0
 20
230.2451127736081
 30
0.0
 40
6.0
  0
LINE
  8
SIZE
  6
CONTINUOUS
 62
    30
 10
0.0
 20
230.2451127736081
 30
0.0
 11
12.0
 21
230.2451127736081
 31
0.0
  0
TEXT
  8
SIZE
  6
CONTINUOUS
 62
    30
 10
49.000000000000092
 20
255.2451127736081
 30
0.0
 40
64.0
  1
10
 41
0.9
 72
     1
 11
90.142857142857224
 21
255.2451127736081
 31
0.0
  0
POINT
  8
DEFPOINTS
  6
CONTINUOUS
 62
    30
 10
-9.9999999998242401
 20
179.00000000017599
 30
0.0
  0
POINT
  8
DEFPOINTS
  6
CONTINUOUS
 62
    30
 10
0.0
 20
183.50000000017599
 30
0.0
  0
POINT
  8
DEFPOINTS
  6
CONTINUOUS
 62
    30
 10
0.0
 20
230.2451127736081
 30
0.0
  0
LINE
  8
SIZE
  6
CONTINUOUS
 62
    30
 10
-19.999999999648029
 20
187.99999999999989
 30
0.0
 11
-19.999999999648029
 21
250.2451127736081
 31
0.0
  0
LINE
  8
SIZE
  6
CONTINUOUS
 62
    30
 10
-9.9999999998242401
 20
199.00000000017599
 30
0.0
 11
-9.9999999998242401
 21
250.2451127736081
 31
0.0
  0
LINE
  8
SIZE
  6
CONTINUOUS
 62
    30
 10
2.0000000001757599
 20
230.2451127736081
 30
0.0
 11
14.00000000017576
 21
230.2451127736081
 31
0.0
  0
LINE
  8
SIZE
  6
CONTINUOUS
 62
    30
 10
-31.999999999648029
 20
230.2451127736081
 30
0.0
 11
-225.2685419565862
 21
230.2451127736081
 31
0.0
  0
LINE
  8
SIZE
  6
CONTINUOUS
 62
    30
 10
-9.9999999998242401
 20
230.2451127736081
 30
0.0
 11
-19.999999999648029
 21
230.2451127736081
 31
0.0
  0
CIRCLE
  8
SIZE
  6
CONTINUOUS
 62
    30
 10
-9.9999999998242401
 20
230.2451127736081
 30
0.0
 40
6.0
  0
LINE
  8
SIZE
  6
CONTINUOUS
 62
    30
 10
-9.9999999998242401
 20
230.2451127736081
 30
0.0
 11
2.0000000001757599
 21
230.2451127736081
 31
0.0
  0
CIRCLE
  8
SIZE
  6
CONTINUOUS
 62
    30
 10
-19.999999999648029
 20
230.2451127736081
 30
0.0
 40
6.0
  0
LINE
  8
SIZE
  6
CONTINUOUS
 62
    30
 10
-19.999999999648029
 20
230.2451127736081
 30
0.0
 11
-31.999999999648029
 21
230.2451127736081
 31
0.0
  0
TEXT
  8
SIZE
  6
CONTINUOUS
 62
    30
 10
-200.2685419565862
 20
255.2451127736081
 30
0.0
 40
64.0
  1
10
 41
0.9
 72
     1
 11
-159.12568481372909
 21
255.2451127736081
 31
0.0
  0
POINT
  8
DEFPOINTS
  6
CONTINUOUS
 62
    30
 10
-19.999999999648029
 20
167.99999999999989
 30
0.0
  0
POINT
  8
DEFPOINTS
  6
CONTINUOUS
 62
    30
 10
-9.9999999998242401
 20
179.00000000017599
 30
0.0
  0
POINT
  8
DEFPOINTS
  6
CONTINUOUS
 62
    30
 10
-9.9999999998242401
 20
230.2451127736081
 30
0.0
  0
LINE
  8
SIZE
  6
CONTINUOUS
 62
    30
 10
18.499999999999769
 20
185.0000000001759
 30
0.0
 11
352.13545641544181
 21
185.00000000017579
 31
0.0
  0
LINE
  8
SIZE
  6
CONTINUOUS
 62
    30
 10
18.5
 20
-185.00000000017599
 30
0.0
 11
352.13545641544169
 21
-185.00000000017619
 31
0.0
  0
LINE
  8
SIZE
  6
CONTINUOUS
 62
    30
 10
332.13545641544181
 20
173.00000000017579
 30
0.0
 11
332.13545641544169
 21
-173.00000000017619
 31
0.0
  0
CIRCLE
  8
SIZE
  6
CONTINUOUS
 62
    30
 10
332.13545641544181
 20
185.00000000017579
 30
0.0
 40
6.0
  0
LINE
  8
SIZE
  6
CONTINUOUS
 62
    30
 10
332.13545641544181
 20
185.00000000017579
 30
0.0
 11
332.13545641544181
 21
173.00000000017579
 31
0.0
  0
CIRCLE
  8
SIZE
  6
CONTINUOUS
 62
    30
 10
332.13545641544169
 20
-185.00000000017619
 30
0.0
 40
6.0
  0
LINE
  8
SIZE
  6
CONTINUOUS
 62
    30
 10
332.13545641544169
 20
-185.00000000017619
 30
0.0
 11
332.13545641544169
 21
-173.00000000017619
 31
0.0
  0
TEXT
  8
SIZE
  6
CONTINUOUS
 62
    30
 10
307.13545641544181
 20
-80.859766315696021
 30
0.0
 40
64.0
  1
370
 50
90.0
 41
0.9
 72
     1
 11
307.13545641544181
 21
-6.8026234585531711
 31
0.0
  0
POINT
  8
DEFPOINTS
  6
CONTINUOUS
 62
    30
 10
-1.5000000000002269
 20
185.0000000001759
 30
0.0
  0
POINT
  8
DEFPOINTS
  6
CONTINUOUS
 62
    30
 10
-1.5
 20
-185.00000000017599
 30
0.0
  0
POINT
  8
DEFPOINTS
  6
CONTINUOUS
 62
    30
 10
332.13545641544169
 20
-185.00000000017619
 30
0.0
  0
LINE
  8
SIZE
  6
CONTINUOUS
 62
    30
 10
40.16637402388551
 20
164.99999999999989
 30
0.0
 11
224.80384637328521
 21
164.99999999999989
 31
0.0
  0
LINE
  8
SIZE
  6
CONTINUOUS
 62
    30
 10
53.753359669819019
 20
-165.0
 30
0.0
 11
224.8038463732851
 21
-165.00000000000011
 31
0.0
  0
LINE
  8
SIZE
  6
CONTINUOUS
 62
    30
 10
204.80384637328521
 20
152.99999999999989
 30
0.0
 11
204.8038463732851
 21
-153.00000000000011
 31
0.0
  0
CIRCLE
  8
SIZE
  6
CONTINUOUS
 62
    30
 10
204.80384637328521
 20
164.99999999999989
 30
0.0
 40
6.0
  0
LINE
  8
SIZE
  6
CONTINUOUS
 62
    30
 10
204.80384637328521
 20
164.99999999999989
 30
0.0
 11
204.80384637328521
 21
152.99999999999989
 31
0.0
  0
CIRCLE
  8
SIZE
  6
CONTINUOUS
 62
    30
 10
204.8038463732851
 20
-165.00000000000011
 30
0.0
 40
6.0
  0
LINE
  8
SIZE
  6
CONTINUOUS
 62
    30
 10
204.8038463732851
 20
-165.00000000000011
 30
0.0
 11
204.8038463732851
 21
-153.00000000000011
 31
0.0
  0
TEXT
  8
SIZE
  6
CONTINUOUS
 62
    30
 10
179.8038463732851
 20
-74.057142857142864
 30
0.0
 40
64.0
  1
330
 50
90.0
 41
0.9
 72
     1
 11
179.8038463732851
 21
0.0
 31
0.0
  0
POINT
  8
DEFPOINTS
  6
CONTINUOUS
 62
    30
 10
20.16637402388551
 20
164.99999999999989
 30
0.0
  0
POINT
  8
DEFPOINTS
  6
CONTINUOUS
 62
    30
 10
33.753359669819019
 20
-165.0
 30
0.0
  0
POINT
  8
DEFPOINTS
  6
CONTINUOUS
 62
    30
 10
204.8038463732851
 20
-165.00000000000011
 30
0.0
  0
CIRCLE
  8
FIX
  6
CONTINUOUS
 62
    11
 10
0.0
 20
-165.0
 30
0.0
 40
7.0
  0
CIRCLE
  8
FIX
  6
CONTINUOUS
 62
    11
 10
-0.0000000000002274
 20
164.99999999999989
 30
0.0
 40
7.0
  0
LINE
  8
SIZE
  6
CONTINUOUS
 62
    30
 10
-0.0000000000002274
 20
203.50000000017599
 30
0.0
 11
-0.0000000000002274
 21
380.48054916735151
 31
0.0
  0
LINE
  8
SIZE
  6
CONTINUOUS
 62
    30
 10
-109.4999999999999
 20
140.0987193943663
 30
0.0
 11
-109.4999999999999
 21
380.48054916735151
 31
0.0
  0
LINE
  8
SIZE
  6
CONTINUOUS
 62
    30
 10
-97.499999999999886
 20
360.48054916735151
 30
0.0
 11
-12.000000000000229
 21
360.48054916735151
 31
0.0
  0
LINE
  8
SIZE
  6
CONTINUOUS
 62
    30
 10
-0.0000000000002274
 20
360.48054916735151
 30
0.0
 11
188.17142857142841
 21
360.48054916735151
 31
0.0
  0
CIRCLE
  8
SIZE
  6
CONTINUOUS
 62
    30
 10
-109.4999999999999
 20
360.48054916735151
 30
0.0
 40
6.0
  0
LINE
  8
SIZE
  6
CONTINUOUS
 62
    30
 10
-109.4999999999999
 20
360.48054916735151
 30
0.0
 11
-97.499999999999886
 21
360.48054916735151
 31
0.0
  0
CIRCLE
  8
SIZE
  6
CONTINUOUS
 62
    30
 10
-0.0000000000002274
 20
360.48054916735151
 30
0.0
 40
6.0
  0
LINE
  8
SIZE
  6
CONTINUOUS
 62
    30
 10
-0.0000000000002274
 20
360.48054916735151
 30
0.0
 11
-12.000000000000229
 21
360.48054916735151
 31
0.0
  0
TEXT
  8
SIZE
  6
CONTINUOUS
 62
    30
 10
36.999999999999787
 20
385.48054916735151
 30
0.0
 40
64.0
  1
110
 41
0.9
 72
     1
 11
100.0857142857141
 21
385.48054916735151
 31
0.0
  0
POINT
  8
DEFPOINTS
  6
CONTINUOUS
 62
    30
 10
-0.0000000000002274
 20
183.50000000017599
 30
0.0
  0
POINT
  8
DEFPOINTS
  6
CONTINUOUS
 62
    30
 10
-109.4999999999999
 20
120.0987193943663
 30
0.0
  0
POINT
  8
DEFPOINTS
  6
CONTINUOUS
 62
    30
 10
-109.4999999999999
 20
360.48054916735151
 30
0.0
  0
LINE
  8
SIZE
  6
CONTINUOUS
 62
    30
 10
0.0
 20
203.50000000017599
 30
0.0
 11
0.0
 21
480.66165501848849
 31
0.0
  0
LINE
  8
SIZE
  6
CONTINUOUS
 62
    30
 10
-210.99999378507209
 20
53.995403249027731
 30
0.0
 11
-210.99999378507201
 21
480.66165501848849
 31
0.0
  0
LINE
  8
SIZE
  6
CONTINUOUS
 62
    30
 10
-12.0
 20
460.66165501848849
 30
0.0
 11
-198.99999378507201
 21
460.66165501848849
 31
0.0
  0
CIRCLE
  8
SIZE
  6
CONTINUOUS
 62
    30
 10
0.0
 20
460.66165501848849
 30
0.0
 40
6.0
  0
LINE
  8
SIZE
  6
CONTINUOUS
 62
    30
 10
0.0
 20
460.66165501848849
 30
0.0
 11
-12.0
 21
460.66165501848849
 31
0.0
  0
CIRCLE
  8
SIZE
  6
CONTINUOUS
 62
    30
 10
-210.99999378507201
 20
460.66165501848849
 30
0.0
 40
6.0
  0
LINE
  8
SIZE
  6
CONTINUOUS
 62
    30
 10
-210.99999378507201
 20
460.66165501848849
 30
0.0
 11
-198.99999378507201
 21
460.66165501848849
 31
0.0
  0
TEXT
  8
SIZE
  6
CONTINUOUS
 62
    30
 10
-161.72856832110739
 20
485.66165501848849
 30
0.0
 40
64.0
  1
211
 41
0.9
 72
     1
 11
-105.499996892536
 21
485.66165501848849
 31
0.0
  0
POINT
  8
DEFPOINTS
  6
CONTINUOUS
 62
    30
 10
0.0
 20
183.50000000017599
 30
0.0
  0
POINT
  8
DEFPOINTS
  6
CONTINUOUS
 62
    30
 10
-210.99999378507209
 20
33.995403249027731
 30
0.0
  0
POINT
  8
DEFPOINTS
  6
CONTINUOUS
 62
    30
 10
-210.99999378507201
 20
460.66165501848849
 30
0.0
  0
TEXT
  8
NOTE
  6
CONTINUOUS
 62
     4
 10
-309.26426952093902
 20
-271.84369257840939
 30
0.0
 40
64.0
  1
EL
 41
0.9
 72
     2
 11
-224.23569809236761
 21
-271.84369257840939
 31
0.0
  0
LINE
  8
NOTE
  6
CONTINUOUS
 62
     4
 10
33.753359669819019
 20
-165.0
 30
0.0
 11
-35.22672130184128
 21
-165.0
 31
0.0
  0
LINE
  8
NOTE
  6
CONTINUOUS
 62
     4
 10
20.16637402388551
 20
164.99999999999989
 30
0.0
 11
-42.542790495805093
 21
164.99999999999989
 31
0.0
  0
LINE
  8
SIZE
  6
CONTINUOUS
 62
    30
 10
-222.9192569402835
 20
59.273508750477902
 30
0.0
 11
-342.55842390354701
 21
59.273508750477959
 31
0.0
  0
LINE
  8
SIZE
  6
CONTINUOUS
 62
    30
 10
-222.91925689334849
 20
-92.273514456162729
 30
0.0
 11
-342.55842390354701
 21
-92.273514456162673
 31
0.0
  0
LINE
  8
SIZE
  6
CONTINUOUS
 62
    30
 10
-322.55842390354701
 20
47.273508750477959
 30
0.0
 11
-322.55842390354701
 21
-80.273514456162673
 31
0.0
  0
CIRCLE
  8
SIZE
  6
CONTINUOUS
 62
    30
 10
-322.55842390354701
 20
59.273508750477959
 30
0.0
 40
6.0
  0
LINE
  8
SIZE
  6
CONTINUOUS
 62
    30
 10
-322.55842390354701
 20
59.273508750477959
 30
0.0
 11
-322.55842390354701
 21
47.273508750477959
 31
0.0
  0
CIRCLE
  8
SIZE
  6
CONTINUOUS
 62
    30
 10
-322.55842390354701
 20
-92.273514456162673
 30
0.0
 40
6.0
  0
LINE
  8
SIZE
  6
CONTINUOUS
 62
    30
 10
-322.55842390354701
 20
-92.273514456162673
 30
0.0
 11
-322.55842390354701
 21
-80.273514456162673
 31
0.0
  0
TEXT
  8
SIZE
  6
CONTINUOUS
 62
    30
 10
-347.55842390354701
 20
-85.071431424270941
 30
0.0
 40
64.0
  1
153
 50
90.0
 41
0.9
 72
     1
 11
-347.55842390354701
 21
-16.500002852842389
 31
0.0
  0
POINT
  8
DEFPOINTS
  6
CONTINUOUS
 62
    30
 10
-202.9192569402835
 20
59.273508750477902
 30
0.0
  0
POINT
  8
DEFPOINTS
  6
CONTINUOUS
 62
    30
 10
-202.91925689334849
 20
-92.273514456162729
 30
0.0
  0
POINT
  8
DEFPOINTS
  6
CONTINUOUS
 62
    30
 10
-322.55842390354701
 20
-92.273514456162673
 30
0.0
  0
LINE
  8
DETAIL
  6
CONTINUOUS
 62
     4
 10
-65.687037408969104
 20
-143.51722680961171
 30
0.0
 11
-60.525233030463141
 21
-140.06172759125889
 31
0.0
  0
LINE
  8
DETAIL
  6
CONTINUOUS
 62
     4
 10
-60.525233030463141
 20
-140.06172759125889
 30
0.0
 11
-63.267728743556461
 21
-145.6351840191557
 31
0.0
  0
LINE
  8
DETAIL
  6
CONTINUOUS
 62
     4
 10
-60.525233030463141
 20
-140.06172759125889
 30
0.0
 11
-68.429533122062367
 21
-149.09068323750861
 31
0.0
  0
LINE
  8
NOTE
  6
CONTINUOUS
 62
     4
 10
-68.429533122062367
 20
-149.09068323750861
 30
0.0
 11
-189.88648362160191
 21
-287.82901633224901
 31
0.0
  0
LINE
  8
NOTE
  6
CONTINUOUS
 62
     4
 10
-189.88648362160191
 20
-287.82901633224901
 30
0.0
 11
-315.70476056250101
 21
-287.29864479453857
 31
0.0
  0
LINE
  8
DETAIL
  6
CONTINUOUS
 62
     4
 10
1.9466328506207451
 20
-170.8987557870185
 30
0.0
 11
0.0
 21
-165.0
 31
0.0
  0
LINE
  8
DETAIL
  6
CONTINUOUS
 62
     4
 10
0.0
 20
-165.0
 30
0.0
 11
4.6352176254302444
 21
-169.13514895196059
 31
0.0
  0
LINE
  8
DETAIL
  6
CONTINUOUS
 62
     4
 10
0.0
 20
-165.0
 30
0.0
 11
6.5818504760509882
 21
-175.03390473897909
 31
0.0
  0
LINE
  8
NOTE
  6
CONTINUOUS
 62
     4
 10
6.5818504760509882
 20
-175.03390473897909
 30
0.0
 11
103.8777347687133
 21
-323.3596131456901
 31
0.0
  0
LINE
  8
NOTE
  6
CONTINUOUS
 62
     4
 10
103.8777347687133
 20
-323.3596131456901
 30
0.0
 11
394.01203122688639
 21
-322.9277792408293
 31
0.0
  0
LINE
  8
OUTLINE
  6
CONTINUOUS
 62
     3
 10
-3.0
 20
-182.00000000017599
 30
0.0
 11
-6.9999999998244684
 21
-182.00000000017599
 31
0.0
  0
ARC
  8
OUTLINE
  6
CONTINUOUS
 62
     3
 10
-6.9999999998244684
 20
-179.00000000017599
 30
0.0
 40
3.0
 50
180.0
 51
270.0
  0
LINE
  8
OUTLINE
  6
CONTINUOUS
 62
     3
 10
-9.9999999998244675
 20
-179.00000000017599
 30
0.0
 11
-9.9999999998244675
 21
-174.50000000017599
 31
0.0
  0
ARC
  8
OUTLINE
  6
CONTINUOUS
 62
     3
 10
-12.999999999824469
 20
-174.50000000017599
 30
0.0
 40
3.0
 50
0.0
 51
90.0
  0
LINE
  8
OUTLINE
  6
CONTINUOUS
 62
     3
 10
-12.999999999824469
 20
-171.50000000017599
 30
0.0
 11
-16.5
 21
-171.50000000017599
 31
0.0
  0
ARC
  8
OUTLINE
  6
CONTINUOUS
 62
     3
 10
-16.5
 20
-168.0
 30
0.0
 40
3.5000000001759868
 50
180.0
 51
270.0
  0
LINE
  8
OUTLINE
  6
CONTINUOUS
 62
     3
 10
-19.999999999648029
 20
-168.0
 30
0.0
 11
-19.999999999648029
 21
-162.75078653450689
 31
0.0
  0
LINE
  8
OUTLINE
  6
CONTINUOUS
 62
     3
 10
-109.3922137047571
 20
-139.89770926795771
 30
0.0
 11
-130.5
 21
-139.89770926795771
 31
0.0
  0
ARC
  8
OUTLINE
  6
CONTINUOUS
 62
     3
 10
-107.4999999998245
 20
-139.25000000017599
 30
0.0
 40
2.000000000176049
 50
198.89835866819621
 51
341.08889457410407
  0
LINE
  8
OUTLINE
  6
CONTINUOUS
 62
     3
 10
-60.0
 20
-139.89770926795771
 30
0.0
 11
-105.6077862948914
 21
-139.89770926795771
 31
0.0
  0
LINE
  8
OUTLINE
  6
CONTINUOUS
 62
     3
 10
-201.60000000000039
 20
61.96246920369731
 30
0.0
 11
-201.60000000000039
 21
66.499963842253464
 31
0.0
  0
ARC
  8
OUTLINE
  6
CONTINUOUS
 62
     3
 10
-204.99999999982401
 20
61.96246920369731
 30
0.0
 40
3.3999999998240868
 50
307.73304361761097
 51
0.0
  0
LINE
  8
OUTLINE
  6
CONTINUOUS
 62
     3
 10
-208.2151229630276
 20
55.175517476936648
 30
0.0
 11
-202.9192569401412
 21
59.273508750000019
 31
0.0
  0
ARC
  8
OUTLINE
  6
CONTINUOUS
 62
     3
 10
-205.39999999964769
 20
51.537512157570518
 30
0.0
 40
4.5999999998241963
 50
127.733043617611
 51
180.0
  0
LINE
  8
OUTLINE
  6
CONTINUOUS
 62
     3
 10
-210.0
 20
-84.537517679577377
 30
0.0
 11
-210.0
 21
51.537512157570518
 31
0.0
  0
ARC
  8
OUTLINE
  6
CONTINUOUS
 62
     3
 10
-205.39999999964769
 20
-84.537517679577377
 30
0.0
 40
4.5999999998239218
 50
180.0
 51
232.26695538229151
  0
LINE
  8
OUTLINE
  6
CONTINUOUS
 62
     3
 10
-208.21512302640801
 20
-88.175522949823971
 30
0.0
 11
-202.91925689313391
 21
-92.273514456338035
 31
0.0
  0
ARC
  8
OUTLINE
  6
CONTINUOUS
 62
     3
 10
-204.99999999982401
 20
-94.962474873063229
 30
0.0
 40
3.3999999998241042
 50
0.0
 51
52.266955382291513
  0
LINE
  8
OUTLINE
  6
CONTINUOUS
 62
     3
 10
-201.60000000000039
 20
-99.500000000175987
 30
0.0
 11
-201.60000000000039
 21
-94.962474873063229
 31
0.0
  0
ARC
  8
OUTLINE
  6
CONTINUOUS
 62
     3
 10
-199.99999999964851
 20
-99.500000000175987
 30
0.0
 40
1.599999999823922
 50
180.0
 51
270.0
  0
LINE
  8
OUTLINE
  6
CONTINUOUS
 62
     3
 10
-192.76769576118721
 20
-101.09999999999989
 30
0.0
 11
-199.99999999964851
 21
-101.09999999999989
 31
0.0
  0
ARC
  8
OUTLINE
  6
CONTINUOUS
 62
     3
 10
-199.99999999964851
 20
66.500000000175987
 30
0.0
 40
1.5999999998239649
 50
90.0
 51
180.0
  0
LINE
  8
OUTLINE
  6
CONTINUOUS
 62
     3
 10
-195.49999999964851
 20
68.100000000000136
 30
0.0
 11
-199.99999999964851
 21
68.100000000000136
 31
0.0
  0
LINE
  8
OUTLINE
  6
CONTINUOUS
 62
     3
 10
-130.5
 20
139.89770926795771
 30
0.0
 11
-109.3922137047562
 21
139.89770926795771
 31
0.0
  0
LINE
  8
OUTLINE
  6
CONTINUOUS
 62
     3
 10
-195.50000000017769
 20
93.935768491245312
 30
0.0
 11
-195.49999999964851
 21
68.100000000000136
 31
0.0
  0
LINE
  8
OUTLINE
  6
CONTINUOUS
 62
     3
 10
-105.60778629489231
 20
139.89770926795771
 30
0.0
 11
-60.0
 21
139.89770926795771
 31
0.0
  0
ARC
  8
OUTLINE
  6
CONTINUOUS
 62
     3
 10
-107.4999999998245
 20
139.25000000017599
 30
0.0
 40
2.000000000176307
 50
18.91110542589584
 51
161.10164133180379
  0
LINE
  8
OUTLINE
  6
CONTINUOUS
 62
     3
 10
-3.0
 20
182.00000000017619
 30
0.0
 11
-3.0
 21
183.50000000017599
 31
0.0
  0
ARC
  8
OUTLINE
  6
CONTINUOUS
 62
     3
 10
-16.5
 20
168.0
 30
0.0
 40
3.5000000001760729
 50
90.0
 51
180.0
  0
LINE
  8
OUTLINE
  6
CONTINUOUS
 62
     3
 10
-16.5
 20
171.50000000017619
 30
0.0
 11
-12.999999999824469
 21
171.50000000017619
 31
0.0
  0
ARC
  8
OUTLINE
  6
CONTINUOUS
 62
     3
 10
-12.999999999824469
 20
174.50000000017619
 30
0.0
 40
3.0
 50
270.0
 51
0.0
  0
LINE
  8
OUTLINE
  6
CONTINUOUS
 62
     3
 10
-9.9999999998244675
 20
174.50000000017619
 30
0.0
 11
-9.9999999998244675
 21
179.00000000017619
 31
0.0
  0
ARC
  8
OUTLINE
  6
CONTINUOUS
 62
     3
 10
-6.9999999998244684
 20
179.00000000017619
 30
0.0
 40
3.0
 50
90.0
 51
180.0
  0
LINE
  8
OUTLINE
  6
CONTINUOUS
 62
     3
 10
-6.9999999998244684
 20
182.00000000017619
 30
0.0
 11
-3.0
 21
182.00000000017619
 31
0.0
  0
ARC
  8
OUTLINE
  6
CONTINUOUS
 62
     3
 10
-1.5
 20
-183.50000000017599
 30
0.0
 40
1.5
 50
180.0
 51
0.0
  0
LINE
  8
OUTLINE
  6
CONTINUOUS
 62
     3
 10
-3.0
 20
-183.50000000017599
 30
0.0
 11
-3.0
 21
-182.00000000017599
 31
0.0
  0
ARC
  8
OUTLINE
  6
CONTINUOUS
 62
     3
 10
-1.5
 20
183.50000000017599
 30
0.0
 40
1.5
 50
0.0
 51
180.0
  0
LINE
  8
OUTLINE
  6
CONTINUOUS
 62
     3
 10
0.0
 20
-183.50000000017599
 30
0.0
 11
0.0
 21
183.50000000017599
 31
0.0
  0
LINE
  8
DETAIL
  6
CONTINUOUS
 62
     5
 10
-3.0000000000001141
 20
-182.00000000017599
 30
0.0
 11
-6.9999999998241256
 21
-182.00000000017599
 31
0.0
  0
LINE
  8
DETAIL
  6
CONTINUOUS
 62
     5
 10
-3.4999999996479119
 20
-176.6672618894365
 30
0.0
 11
-3.0000000000001141
 21
-176.6672618894365
 31
0.0
  0
LINE
  8
DETAIL
  6
CONTINUOUS
 62
     5
 10
-12.99999999982413
 20
-171.50000000017599
 30
0.0
 11
-16.500000000000231
 21
-171.50000000017599
 31
0.0
  0
LINE
  8
DETAIL
  6
CONTINUOUS
 62
     5
 10
-3.4999999996479119
 20
-170.3033008589789
 30
0.0
 11
-3.0000000000001141
 21
-170.3033008589789
 31
0.0
  0
LINE
  8
DETAIL
  6
CONTINUOUS
 62
     5
 10
-210.09999999982401
 20
-48.500000000175987
 30
0.0
 11
-210.09999999982401
 21
-45.500000000175987
 31
0.0
  0
LINE
  8
DETAIL
  6
CONTINUOUS
 62
     5
 10
-210.09999999982401
 20
32.499999999824013
 30
0.0
 11
-210.09999999982401
 21
35.499999999824013
 31
0.0
  0
LINE
  8
DETAIL
  6
CONTINUOUS
 62
     5
 10
-3.4999999996479119
 20
-158.98959235985899
 30
0.0
 11
-3.0000000000001141
 21
-158.98959235985899
 31
0.0
  0
LINE
  8
DETAIL
  6
CONTINUOUS
 62
     5
 10
-12.99999999982413
 20
-150.26740603732401
 30
0.0
 11
-16.553418012676051
 21
-150.26740603732401
 31
0.0
  0
LINE
  8
DETAIL
  6
CONTINUOUS
 62
     5
 10
-12.99999999982413
 20
-147.3806546915491
 30
0.0
 11
-16.553418012676051
 21
-147.3806546915491
 31
0.0
  0
LINE
  8
DETAIL
  6
CONTINUOUS
 62
     5
 10
-197.49999999982401
 20
-85.396356596830856
 30
0.0
 11
-197.49999999982401
 21
-51.999999999823793
 31
0.0
  0
LINE
  8
DETAIL
  6
CONTINUOUS
 62
     5
 10
-197.49999999982401
 20
46.5
 30
0.0
 11
-197.49999999982401
 21
54.19302814595062
 31
0.0
  0
LINE
  8
DETAIL
  6
CONTINUOUS
 62
     5
 10
-195.50000000017721
 20
93.935768491245312
 30
0.0
 11
-195.49999999964791
 21
44.499999999824013
 31
0.0
  0
LINE
  8
DETAIL
  6
CONTINUOUS
 62
     5
 10
-195.49999999964791
 20
-50.000000000175987
 30
0.0
 11
-195.50000000017721
 21
-93.935768491245312
 31
0.0
  0
LINE
  8
DETAIL
  6
CONTINUOUS
 62
     5
 10
-190.999999999648
 20
-47.000000000175987
 30
0.0
 11
-190.999999999648
 21
41.499999999824013
 31
0.0
  0
LINE
  8
DETAIL
  6
CONTINUOUS
 62
     5
 10
-156.65726558978881
 20
32.662879208450697
 30
0.0
 11
-156.3000000000001
 21
33.281681361971778
 31
0.0
  0
LINE
  8
DETAIL
  6
CONTINUOUS
 62
     5
 10
-12.99999999982413
 20
-141.60715199947191
 30
0.0
 11
-16.553418012676051
 21
-141.60715199947191
 31
0.0
  0
LINE
  8
DETAIL
  6
CONTINUOUS
 62
     5
 10
-16.999999999647908
 20
-139.89770926795771
 30
0.0
 11
-30.00000000000011
 21
-139.89770926795771
 31
0.0
  0
LINE
  8
DETAIL
  6
CONTINUOUS
 62
     5
 10
-60.000000000000107
 20
-139.89770926795771
 30
0.0
 11
-130.5
 21
-139.89770926795771
 31
0.0
  0
LINE
  8
DETAIL
  6
CONTINUOUS
 62
     5
 10
-12.99999999982413
 20
-138.7204006536972
 30
0.0
 11
-16.553418012676051
 21
-138.7204006536972
 31
0.0
  0
LINE
  8
DETAIL
  6
CONTINUOUS
 62
     5
 10
-130.5
 20
-137.7763889244718
 30
0.0
 11
-60.000000000000107
 21
-137.7763889244718
 31
0.0
  0
LINE
  8
DETAIL
  6
CONTINUOUS
 62
     5
 10
-30.00000000000011
 20
-122.22003973838009
 30
0.0
 11
-15.999999999823901
 21
-122.22003973838009
 31
0.0
  0
LINE
  8
DETAIL
  6
CONTINUOUS
 62
     5
 10
-60.000000000064567
 20
-120.09871939438921
 30
0.0
 11
-130.5
 21
-120.0987193948943
 31
0.0
  0
LINE
  8
DETAIL
  6
CONTINUOUS
 62
     5
 10
-30.00000000000011
 20
-120.0987193948943
 30
0.0
 11
-15.999999999823901
 21
-120.0987193948943
 31
0.0
  0
LINE
  8
DETAIL
  6
CONTINUOUS
 62
     5
 10
-170.49999999982401
 20
-91.814448147359144
 30
0.0
 11
-170.49999999982401
 21
91.814448147359144
 31
0.0
  0
LINE
  8
DETAIL
  6
CONTINUOUS
 62
     5
 10
-161.79999999982411
 20
-46.000000554929557
 30
0.0
 11
-161.79999999982411
 21
-53.999999454929593
 31
0.0
  0
LINE
  8
DETAIL
  6
CONTINUOUS
 62
     5
 10
-156.3000000000001
 20
41.280303548239537
 30
0.0
 11
-156.3000000000001
 21
33.283059175352037
 31
0.0
  0
LINE
  8
DETAIL
  6
CONTINUOUS
 62
     5
 10
-156.3000000000001
 20
-33.283059175352037
 30
0.0
 11
-156.3000000000001
 21
-41.280303548767513
 31
0.0
  0
LINE
  8
DETAIL
  6
CONTINUOUS
 62
     5
 10
-152.69999999999999
 20
39.281681361971778
 30
0.0
 11
-152.69999999999999
 21
35.281681361619803
 31
0.0
  0
LINE
  8
DETAIL
  6
CONTINUOUS
 62
     5
 10
-152.69999999999999
 20
-35.281681361619583
 30
0.0
 11
-152.69999999999999
 21
-39.281681361971778
 31
0.0
  0
LINE
  8
DETAIL
  6
CONTINUOUS
 62
     5
 10
-152.69999999999999
 20
-54.528999788556348
 30
0.0
 11
-152.69999999999999
 21
-57.518396061443582
 31
0.0
  0
LINE
  8
DETAIL
  6
CONTINUOUS
 62
     5
 10
-156.65726558978881
 20
-41.900483515140877
 30
0.0
 11
-156.3000000000001
 21
-41.281681361619803
 31
0.0
  0
LINE
  8
DETAIL
  6
CONTINUOUS
 62
     5
 10
-156.65726558978881
 20
-32.662879208450697
 30
0.0
 11
-156.3000000000001
 21
-33.281681361971778
 31
0.0
  0
LINE
  8
DETAIL
  6
CONTINUOUS
 62
     5
 10
-136.47128129207749
 20
49.100000000176117
 30
0.0
 11
-136.47128129207749
 21
-49.100000000176117
 31
0.0
  0
LINE
  8
DETAIL
  6
CONTINUOUS
 62
     5
 10
-134.7392304845072
 20
48.099999999823922
 30
0.0
 11
-134.7392304845072
 21
-48.099999999823922
 31
0.0
  0
LINE
  8
DETAIL
  6
CONTINUOUS
 62
     5
 10
-120.3000000000001
 20
41.499999999824013
 30
0.0
 11
-120.3000000000001
 21
-41.499999999823793
 31
0.0
  0
LINE
  8
DETAIL
  6
CONTINUOUS
 62
     5
 10
-16.553418012676051
 20
150.26740603732401
 30
0.0
 11
-16.999999999647908
 21
149.4939033454225
 31
0.0
  0
LINE
  8
DETAIL
  6
CONTINUOUS
 62
     5
 10
-115.2999999998241
 20
18.117217781514
 30
0.0
 11
-115.2999999998241
 21
-18.117217781514
 31
0.0
  0
LINE
  8
DETAIL
  6
CONTINUOUS
 62
     5
 10
-112.299999999824
 20
6.5000000001759872
 30
0.0
 11
-112.299999999824
 21
-6.5000000001759872
 31
0.0
  0
LINE
  8
DETAIL
  6
CONTINUOUS
 62
     5
 10
-109.4999999999999
 20
120.0987193943663
 30
0.0
 11
-109.4999999999999
 21
-120.0987193948943
 31
0.0
  0
LINE
  8
DETAIL
  6
CONTINUOUS
 62
     5
 10
-105.4999999996479
 20
120.0987193943663
 30
0.0
 11
-105.4999999996479
 21
-120.0987193948943
 31
0.0
  0
LINE
  8
DETAIL
  6
CONTINUOUS
 62
     5
 10
-134.7392304845072
 20
-48.099999999823922
 30
0.0
 11
-136.47128129207749
 21
-49.100000000176117
 31
0.0
  0
LINE
  8
DETAIL
  6
CONTINUOUS
 62
     5
 10
-157.81862113573951
 20
-57.523697924999851
 30
0.0
 11
-152.69999999999999
 21
-57.523697924999851
 31
0.0
  0
LINE
  8
DETAIL
  6
CONTINUOUS
 62
     5
 10
-158.80770851355629
 20
-54.523697924999851
 30
0.0
 11
-152.69999999999999
 21
-54.523697924999851
 31
0.0
  0
LINE
  8
DETAIL
  6
CONTINUOUS
 62
     5
 10
-163.50000000000011
 20
-54.500000000175987
 30
0.0
 11
-162.3000000000001
 21
-54.500000000175987
 31
0.0
  0
LINE
  8
DETAIL
  6
CONTINUOUS
 62
     5
 10
-195.49999999964791
 20
-50.000000000175987
 30
0.0
 11
-193.99999999964791
 21
-50.000000000175987
 31
0.0
  0
LINE
  8
DETAIL
  6
CONTINUOUS
 62
     5
 10
-158.40000000000009
 20
-49.100000000176117
 30
0.0
 11
-136.47128129207749
 21
-49.100000000176117
 31
0.0
  0
LINE
  8
DETAIL
  6
CONTINUOUS
 62
     5
 10
-134.7392304845072
 20
-48.099999999823922
 30
0.0
 11
-126.90000000000001
 21
-48.099999999823922
 31
0.0
  0
LINE
  8
DETAIL
  6
CONTINUOUS
 62
     5
 10
-163.50000000000011
 20
-45.500000000175987
 30
0.0
 11
-162.3000000000001
 21
-45.500000000175987
 31
0.0
  0
LINE
  8
DETAIL
  6
CONTINUOUS
 62
     5
 10
-156.65726558978881
 20
41.900483515140877
 30
0.0
 11
-156.3000000000001
 21
41.281681361619803
 31
0.0
  0
LINE
  8
DETAIL
  6
CONTINUOUS
 62
     5
 10
-160.299999999824
 20
-41.900483515140877
 30
0.0
 11
-156.65726558978881
 21
-41.900483515140877
 31
0.0
  0
LINE
  8
DETAIL
  6
CONTINUOUS
 62
     5
 10
-160.299999999824
 20
-39.591082438732428
 30
0.0
 11
-156.65726558978881
 21
-39.591082438732428
 31
0.0
  0
LINE
  8
DETAIL
  6
CONTINUOUS
 62
     5
 10
-156.3000000000001
 20
-39.281681361971778
 30
0.0
 11
-152.69999999999999
 21
-39.281681361971778
 31
0.0
  0
LINE
  8
DETAIL
  6
CONTINUOUS
 62
     5
 10
-156.3000000000001
 20
-35.281681361619583
 30
0.0
 11
-152.69999999999999
 21
-35.281681361619583
 31
0.0
  0
LINE
  8
DETAIL
  6
CONTINUOUS
 62
     5
 10
-160.299999999824
 20
-34.972280284859153
 30
0.0
 11
-156.65726558978881
 21
-34.972280284859153
 31
0.0
  0
LINE
  8
DETAIL
  6
CONTINUOUS
 62
     5
 10
-160.299999999824
 20
-32.662879208450697
 30
0.0
 11
-156.65726558978881
 21
-32.662879208450697
 31
0.0
  0
LINE
  8
DETAIL
  6
CONTINUOUS
 62
     5
 10
-116.175965265317
 20
-19.109495658274682
 30
0.0
 11
-120.3000000000001
 21
-19.625000000175991
 31
0.0
  0
LINE
  8
DETAIL
  6
CONTINUOUS
 62
     5
 10
-16.553418012676051
 20
-150.26740603732401
 30
0.0
 11
-16.999999999647908
 21
-149.4939033454225
 31
0.0
  0
LINE
  8
DETAIL
  6
CONTINUOUS
 62
     5
 10
-114.3000000000001
 20
-6.5000000001759872
 30
0.0
 11
-112.299999999824
 21
-6.5000000001759872
 31
0.0
  0
LINE
  8
DETAIL
  6
CONTINUOUS
 62
     5
 10
-112.299999999824
 20
-5.0000000001759872
 30
0.0
 11
-109.4999999999999
 21
-5.0000000001759872
 31
0.0
  0
LINE
  8
DETAIL
  6
CONTINUOUS
 62
     5
 10
-112.299999999824
 20
5.0000000001762146
 30
0.0
 11
-109.4999999999999
 21
5.0000000001762146
 31
0.0
  0
LINE
  8
DETAIL
  6
CONTINUOUS
 62
     5
 10
-114.3000000000001
 20
6.5000000001759872
 30
0.0
 11
-112.299999999824
 21
6.5000000001759872
 31
0.0
  0
LINE
  8
DETAIL
  6
CONTINUOUS
 62
     5
 10
-116.175965265317
 20
19.109495658274682
 30
0.0
 11
-120.3000000000001
 21
19.625000000175991
 31
0.0
  0
LINE
  8
DETAIL
  6
CONTINUOUS
 62
     5
 10
-134.7392304845072
 20
48.099999999823922
 30
0.0
 11
-136.47128129207749
 21
49.100000000176117
 31
0.0
  0
LINE
  8
DETAIL
  6
CONTINUOUS
 62
     5
 10
-19.999999999647908
 20
-168.0
 30
0.0
 11
-19.999999999647908
 21
-139.89770926795771
 31
0.0
  0
LINE
  8
DETAIL
  6
CONTINUOUS
 62
     5
 10
-19.999999999647908
 20
-120.0987193948943
 30
0.0
 11
-19.999999999647908
 21
120.0987193943663
 31
0.0
  0
LINE
  8
DETAIL
  6
CONTINUOUS
 62
     5
 10
-19.999999999647908
 20
139.89770926795771
 30
0.0
 11
-19.999999999647908
 21
168.0
 31
0.0
  0
LINE
  8
DETAIL
  6
CONTINUOUS
 62
     5
 10
-160.299999999824
 20
32.662879208450697
 30
0.0
 11
-156.65726558978881
 21
32.662879208450697
 31
0.0
  0
LINE
  8
DETAIL
  6
CONTINUOUS
 62
     5
 10
-160.299999999824
 20
34.972280284859153
 30
0.0
 11
-156.65726558978881
 21
34.972280284859153
 31
0.0
  0
LINE
  8
DETAIL
  6
CONTINUOUS
 62
     5
 10
-156.3000000000001
 20
35.281681361619803
 30
0.0
 11
-152.69999999999999
 21
35.281681361619803
 31
0.0
  0
LINE
  8
DETAIL
  6
CONTINUOUS
 62
     5
 10
-156.3000000000001
 20
39.281681361971778
 30
0.0
 11
-152.69999999999999
 21
39.281681361971778
 31
0.0
  0
LINE
  8
DETAIL
  6
CONTINUOUS
 62
     5
 10
-160.299999999824
 20
39.591082438732428
 30
0.0
 11
-156.65726558978881
 21
39.591082438732428
 31
0.0
  0
LINE
  8
DETAIL
  6
CONTINUOUS
 62
     5
 10
-16.999999999647908
 20
-149.4939033454225
 30
0.0
 11
-16.999999999647908
 21
-139.49390334559851
 31
0.0
  0
LINE
  8
DETAIL
  6
CONTINUOUS
 62
     5
 10
-16.999999999647908
 20
139.49390334559871
 30
0.0
 11
-16.999999999647908
 21
149.4939033454225
 31
0.0
  0
LINE
  8
DETAIL
  6
CONTINUOUS
 62
     5
 10
-12.99999999982413
 20
-160.75735931302799
 30
0.0
 11
-12.99999999982413
 21
-124.3413600818662
 31
0.0
  0
LINE
  8
DETAIL
  6
CONTINUOUS
 62
     5
 10
-12.99999999982413
 20
124.3413600818662
 30
0.0
 11
-12.99999999982413
 21
160.75735931302799
 31
0.0
  0
LINE
  8
DETAIL
  6
CONTINUOUS
 62
     5
 10
-9.9999999998238991
 20
-179.00000000017599
 30
0.0
 11
-9.9999999998238991
 21
-164.27751418816291
 31
0.0
  0
LINE
  8
DETAIL
  6
CONTINUOUS
 62
     5
 10
-9.9999999998238991
 20
-143.0796897834507
 30
0.0
 11
-9.9999999998238991
 21
-140.74394728521131
 31
0.0
  0
LINE
  8
DETAIL
  6
CONTINUOUS
 62
     5
 10
-9.9999999998238991
 20
-140.74394728521131
 30
0.0
 11
-10.000000000351241
 21
143.0796897833697
 31
0.0
  0
LINE
  8
DETAIL
  6
CONTINUOUS
 62
     5
 10
-9.9999999998238991
 20
164.43159392693661
 30
0.0
 11
-9.9999999998238991
 21
179.00000000017619
 31
0.0
  0
LINE
  8
DETAIL
  6
CONTINUOUS
 62
     5
 10
-3.4999999996479119
 20
-176.6672618894365
 30
0.0
 11
-3.4999999996479119
 21
-149.44365081390831
 31
0.0
  0
LINE
  8
DETAIL
  6
CONTINUOUS
 62
     5
 10
-3.4999999996479119
 20
149.44365081390859
 30
0.0
 11
-3.4999999996479119
 21
176.6672618894365
 31
0.0
  0
LINE
  8
DETAIL
  6
CONTINUOUS
 62
     5
 10
-3.0000000000001141
 20
-183.50000000017599
 30
0.0
 11
-3.0000000000001141
 21
183.50000000017599
 31
0.0
  0
LINE
  8
DETAIL
  6
CONTINUOUS
 62
     5
 10
-160.299999999824
 20
41.900483515140877
 30
0.0
 11
-156.65726558978881
 21
41.900483515140877
 31
0.0
  0
LINE
  8
DETAIL
  6
CONTINUOUS
 62
     5
 10
-193.99999999964791
 20
44.499999999824013
 30
0.0
 11
-195.49999999964791
 21
44.499999999824013
 31
0.0
  0
LINE
  8
DETAIL
  6
CONTINUOUS
 62
     5
 10
-134.7392304845072
 20
48.099999999823922
 30
0.0
 11
-126.90000000000001
 21
48.099999999823922
 31
0.0
  0
LINE
  8
DETAIL
  6
CONTINUOUS
 62
     5
 10
-158.40000000000009
 20
49.100000000176117
 30
0.0
 11
-136.47128129207749
 21
49.100000000176117
 31
0.0
  0
LINE
  8
DETAIL
  6
CONTINUOUS
 62
     5
 10
0.0
 20
-183.50000000017599
 30
0.0
 11
0.0
 21
183.50000000017599
 31
0.0
  0
LINE
  8
DETAIL
  6
CONTINUOUS
 62
     5
 10
-16.553418012676051
 20
-138.7204006536972
 30
0.0
 11
-16.999999999647908
 21
-139.49390334559851
 31
0.0
  0
LINE
  8
DETAIL
  6
CONTINUOUS
 62
     5
 10
-30.00000000000011
 20
120.0987193943663
 30
0.0
 11
-15.999999999823901
 21
120.0987193943663
 31
0.0
  0
LINE
  8
DETAIL
  6
CONTINUOUS
 62
     5
 10
-30.00000000000011
 20
122.22003973838039
 30
0.0
 11
-15.999999999823901
 21
122.22003973838039
 31
0.0
  0
LINE
  8
DETAIL
  6
CONTINUOUS
 62
     5
 10
-16.553418012676051
 20
138.7204006536972
 30
0.0
 11
-16.999999999647908
 21
139.49390334559871
 31
0.0
  0
LINE
  8
DETAIL
  6
CONTINUOUS
 62
     5
 10
-12.99999999982413
 20
138.7204006536972
 30
0.0
 11
-16.553418012676051
 21
138.7204006536972
 31
0.0
  0
LINE
  8
DETAIL
  6
CONTINUOUS
 62
     5
 10
-16.999999999647908
 20
139.89770926795771
 30
0.0
 11
-30.00000000000011
 21
139.89770926795771
 31
0.0
  0
LINE
  8
DETAIL
  6
CONTINUOUS
 62
     5
 10
-12.99999999982413
 20
141.60715199947191
 30
0.0
 11
-16.553418012676051
 21
141.60715199947191
 31
0.0
  0
LINE
  8
DETAIL
  6
CONTINUOUS
 62
     5
 10
-12.99999999982413
 20
147.38065469154941
 30
0.0
 11
-16.553418012676051
 21
147.38065469154941
 31
0.0
  0
LINE
  8
DETAIL
  6
CONTINUOUS
 62
     5
 10
-12.99999999982413
 20
150.26740603732401
 30
0.0
 11
-16.553418012676051
 21
150.26740603732401
 31
0.0
  0
LINE
  8
DETAIL
  6
CONTINUOUS
 62
     5
 10
-3.4999999996479119
 20
158.98959235985919
 30
0.0
 11
-3.0000000000001141
 21
158.98959235985919
 31
0.0
  0
LINE
  8
DETAIL
  6
CONTINUOUS
 62
     5
 10
-3.4999999996479119
 20
170.3033008589789
 30
0.0
 11
-3.0000000000001141
 21
170.3033008589789
 31
0.0
  0
LINE
  8
DETAIL
  6
CONTINUOUS
 62
     5
 10
-16.500000000000231
 20
171.50000000017619
 30
0.0
 11
-12.99999999982413
 21
171.50000000017619
 31
0.0
  0
LINE
  8
DETAIL
  6
CONTINUOUS
 62
     5
 10
-3.4999999996479119
 20
176.6672618894365
 30
0.0
 11
-3.0000000000001141
 21
176.6672618894365
 31
0.0
  0
LINE
  8
DETAIL
  6
CONTINUOUS
 62
     5
 10
-6.9999999998241256
 20
182.00000000017619
 30
0.0
 11
-3.0000000000001141
 21
182.00000000017619
 31
0.0
  0
ARC
  8
DETAIL
  6
CONTINUOUS
 62
     5
 10
-190.0239635667256
 20
-82.157442388204117
 30
0.0
 40
9.3628003304577661
 50
231.58842305029549
 51
234.19537387929449
  0
ARC
  8
DETAIL
  6
CONTINUOUS
 62
     5
 10
-190.25958011355641
 20
-81.507759600528061
 30
0.0
 40
9.3575181301056478
 50
234.95868805680061
 51
235.9321571370032
  0
ARC
  8
DETAIL
  6
CONTINUOUS
 62
     5
 10
-188.2116102908451
 20
-84.837002290140845
 30
0.0
 40
9.2859358674296182
 50
183.44699703730009
 51
183.91556574469681
  0
ARC
  8
DETAIL
  6
CONTINUOUS
 62
     5
 10
-188.9534384244719
 20
-84.890446404929435
 30
0.0
 40
8.5421902484154657
 50
183.89770637940711
 51
185.7439857463072
  0
ARC
  8
DETAIL
  6
CONTINUOUS
 62
     5
 10
-189.5539863892607
 20
-84.9482761325703
 30
0.0
 40
7.938870222887302
 50
185.76250233620161
 51
186.1608856143946
  0
ARC
  8
DETAIL
  6
CONTINUOUS
 62
     5
 10
-126.90000000000001
 20
-41.499999999823793
 30
0.0
 40
6.6000000000000094
 50
270.0
 51
0.0
  0
ARC
  8
DETAIL
  6
CONTINUOUS
 62
     5
 10
-193.99999999964791
 20
-47.000000000175987
 30
0.0
 40
2.9999999999999858
 50
270.0
 51
0.0
  0
ARC
  8
DETAIL
  6
CONTINUOUS
 62
     5
 10
-107.499999999824
 20
-139.25000000017599
 30
0.0
 40
2.0000000001761031
 50
198.89835866819621
 51
341.08889457410407
  0
ARC
  8
DETAIL
  6
CONTINUOUS
 62
     5
 10
-195.49999999964791
 20
-51.999999999823793
 30
0.0
 40
2.0000000001760569
 50
90.0
 51
180.0
  0
ARC
  8
DETAIL
  6
CONTINUOUS
 62
     5
 10
-158.40000000000009
 20
-51.0
 30
0.0
 40
1.899999999823933
 50
90.0
 51
179.99999999339499
  0
ARC
  8
DETAIL
  6
CONTINUOUS
 62
     5
 10
-209.29999999964801
 20
-47.000000000175987
 30
0.0
 40
1.7000000001760409
 50
118.07248693589889
 51
241.92751306410099
  0
ARC
  8
DETAIL
  6
CONTINUOUS
 62
     5
 10
-114.3000000000001
 20
-7.5
 30
0.0
 40
0.9999999998239381
 50
90.0
 51
179.99999999559671
  0
ARC
  8
DETAIL
  6
CONTINUOUS
 62
     5
 10
-116.29999999964799
 20
-18.117217781514
 30
0.0
 40
0.999999999823986
 50
277.12501634889821
 51
0.0
  0
ARC
  8
DETAIL
  6
CONTINUOUS
 62
     5
 10
-162.3000000000001
 20
-45.999999999824013
 30
0.0
 40
0.500000000176085
 50
359.99993752069452
 51
90.0
  0
ARC
  8
DETAIL
  6
CONTINUOUS
 62
     5
 10
-162.3000000000001
 20
-54.0
 30
0.0
 40
0.5000000001760441
 50
270.0
 51
0.0000624793055101
  0
ARC
  8
DETAIL
  6
CONTINUOUS
 62
     5
 10
-210.09999999982401
 20
-45.399999999823883
 30
0.0
 40
0.099999999823936
 50
270.0
 51
0.0
  0
ARC
  8
DETAIL
  6
CONTINUOUS
 62
     5
 10
-210.09999999982401
 20
-48.599999999999909
 30
0.0
 40
0.099999999823922
 50
0.0
 51
90.0
  0
ARC
  8
DETAIL
  6
CONTINUOUS
 62
     5
 10
-126.90000000000001
 20
41.499999999824013
 30
0.0
 40
6.599999999999965
 50
0.0
 51
90.0
  0
ARC
  8
DETAIL
  6
CONTINUOUS
 62
     5
 10
-193.99999999964791
 20
41.499999999824013
 30
0.0
 40
2.999999999999972
 50
0.0
 51
90.0
  0
ARC
  8
DETAIL
  6
CONTINUOUS
 62
     5
 10
-107.499999999824
 20
139.25000000017599
 30
0.0
 40
2.000000000176092
 50
18.91110542589584
 51
161.10164133180379
  0
ARC
  8
DETAIL
  6
CONTINUOUS
 62
     5
 10
-195.49999999964791
 20
46.5
 30
0.0
 40
2.0000000001760441
 50
180.0
 51
270.0
  0
ARC
  8
DETAIL
  6
CONTINUOUS
 62
     5
 10
-158.40000000000009
 20
51.0
 30
0.0
 40
1.899999999823933
 50
180.00000000660489
 51
270.0
  0
ARC
  8
DETAIL
  6
CONTINUOUS
 62
     5
 10
-209.29999999964801
 20
33.999999999824013
 30
0.0
 40
1.700000000175997
 50
118.07248693589889
 51
241.92751306410099
  0
ARC
  8
DETAIL
  6
CONTINUOUS
 62
     5
 10
-114.3000000000001
 20
7.5
 30
0.0
 40
0.9999999998239559
 50
180.00000000160239
 51
270.0
  0
ARC
  8
DETAIL
  6
CONTINUOUS
 62
     5
 10
-116.29999999964799
 20
18.117217781514
 30
0.0
 40
0.9999999998239559
 50
0.0
 51
82.874983651101843
  0
ARC
  8
DETAIL
  6
CONTINUOUS
 62
     5
 10
-210.09999999982401
 20
35.600000000176117
 30
0.0
 40
0.099999999823932
 50
270.0
 51
0.0
  0
ARC
  8
DETAIL
  6
CONTINUOUS
 62
     5
 10
-210.09999999982401
 20
32.400000000000091
 30
0.0
 40
0.099999999823922
 50
0.0
 51
90.0
  0
ARC
  8
DETAIL
  6
CONTINUOUS
 62
     5
 10
-16.500000000000231
 20
-168.0
 30
0.0
 40
3.5000000001760441
 50
180.0
 51
270.0
  0
ARC
  8
DETAIL
  6
CONTINUOUS
 62
     5
 10
-12.99999999982413
 20
-174.50000000017599
 30
0.0
 40
3.0000000000000568
 50
0.0
 51
90.0
  0
ARC
  8
DETAIL
  6
CONTINUOUS
 62
     5
 10
-6.9999999998241256
 20
-179.00000000017599
 30
0.0
 40
3.0000000000000568
 50
180.0
 51
270.0
  0
ARC
  8
DETAIL
  6
CONTINUOUS
 62
     5
 10
-1.5000000000001139
 20
-183.50000000017599
 30
0.0
 40
1.4999999999999429
 50
180.0
 51
0.0
  0
ARC
  8
DETAIL
  6
CONTINUOUS
 62
     5
 10
-16.500000000000231
 20
168.0
 30
0.0
 40
3.5000000001760729
 50
90.0
 51
180.0
  0
ARC
  8
DETAIL
  6
CONTINUOUS
 62
     5
 10
-6.9999999998241256
 20
179.00000000017619
 30
0.0
 40
3.0
 50
90.0
 51
180.0
  0
ARC
  8
DETAIL
  6
CONTINUOUS
 62
     5
 10
-12.99999999982413
 20
174.50000000017619
 30
0.0
 40
3.0
 50
270.0
 51
0.0
  0
ARC
  8
DETAIL
  6
CONTINUOUS
 62
     5
 10
-1.5000000000001139
 20
183.50000000017599
 30
0.0
 40
1.4999999999999429
 50
0.0
 51
180.0
  0
LINE
  8
DETAIL
  6
CONTINUOUS
 62
     5
 10
-197.44700535580989
 20
-85.800280835387184
 30
0.0
 11
-197.44106769337549
 21
-85.85299201703674
 31
0.0
  0
LINE
  8
DETAIL
  6
CONTINUOUS
 62
     5
 10
-197.44106769337549
 20
-85.85299201703674
 30
0.0
 11
-197.43489156525939
 21
-85.905696660177227
 31
0.0
  0
LINE
  8
DETAIL
  6
CONTINUOUS
 62
     5
 10
-197.43489156525939
 20
-85.905696660177227
 30
0.0
 11
-197.43489156525939
 21
-85.905696660177227
 31
0.0
  0
LINE
  8
DETAIL
  6
CONTINUOUS
 62
     5
 10
-197.43489156525939
 20
-85.905696660177227
 30
0.0
 11
-197.42829045892071
 21
-85.958372167274092
 31
0.0
  0
LINE
  8
DETAIL
  6
CONTINUOUS
 62
     5
 10
-197.42829045892071
 20
-85.958372167274092
 30
0.0
 11
-197.42128567438581
 21
-86.010931704688574
 31
0.0
  0
LINE
  8
DETAIL
  6
CONTINUOUS
 62
     5
 10
-197.42128567438581
 20
-86.010931704688574
 30
0.0
 11
-197.42128567438581
 21
-86.010931704688574
 31
0.0
  0
LINE
  8
DETAIL
  6
CONTINUOUS
 62
     5
 10
-197.42128567438581
 20
-86.010931704688574
 30
0.0
 11
-197.41392114350711
 21
-86.063355185894579
 31
0.0
  0
LINE
  8
DETAIL
  6
CONTINUOUS
 62
     5
 10
-197.41392114350711
 20
-86.063355185894579
 30
0.0
 11
-197.40612351287669
 21
-86.115953748922266
 31
0.0
  0
LINE
  8
DETAIL
  6
CONTINUOUS
 62
     5
 10
-197.40612351287669
 20
-86.115953748922266
 30
0.0
 11
-197.40612351287669
 21
-86.115953748922266
 31
0.0
  0
LINE
  8
DETAIL
  6
CONTINUOUS
 62
     5
 10
-197.40612351287669
 20
-86.115953748922266
 30
0.0
 11
-197.39785543989069
 21
-86.168806172410314
 31
0.0
  0
LINE
  8
DETAIL
  6
CONTINUOUS
 62
     5
 10
-197.39785543989069
 20
-86.168806172410314
 30
0.0
 11
-197.38934091041969
 21
-86.220730572879347
 31
0.0
  0
LINE
  8
DETAIL
  6
CONTINUOUS
 62
     5
 10
-197.38934091041969
 20
-86.220730572879347
 30
0.0
 11
-197.38934091041969
 21
-86.220730572879347
 31
0.0
  0
LINE
  8
DETAIL
  6
CONTINUOUS
 62
     5
 10
-197.38934091041969
 20
-86.220730572879347
 30
0.0
 11
-197.38063723529399
 21
-86.271407757299812
 31
0.0
  0
LINE
  8
DETAIL
  6
CONTINUOUS
 62
     5
 10
-197.38063723529399
 20
-86.271407757299812
 30
0.0
 11
-197.3708736967034
 21
-86.325229956560861
 31
0.0
  0
LINE
  8
DETAIL
  6
CONTINUOUS
 62
     5
 10
-197.3708736967034
 20
-86.325229956560861
 30
0.0
 11
-197.3708736967034
 21
-86.325229956560861
 31
0.0
  0
LINE
  8
DETAIL
  6
CONTINUOUS
 62
     5
 10
-197.3708736967034
 20
-86.325229956560861
 30
0.0
 11
-197.35929130161091
 21
-86.385905786467447
 31
0.0
  0
LINE
  8
DETAIL
  6
CONTINUOUS
 62
     5
 10
-197.35929130161091
 20
-86.385905786467447
 30
0.0
 11
-197.34650598471109
 21
-86.449697978564473
 31
0.0
  0
LINE
  8
DETAIL
  6
CONTINUOUS
 62
     5
 10
-197.34650598471109
 20
-86.449697978564473
 30
0.0
 11
-197.34650598471109
 21
-86.449697978564473
 31
0.0
  0
LINE
  8
DETAIL
  6
CONTINUOUS
 62
     5
 10
-197.34650598471109
 20
-86.449697978564473
 30
0.0
 11
-197.3332737789442
 21
-86.512182564084014
 31
0.0
  0
LINE
  8
DETAIL
  6
CONTINUOUS
 62
     5
 10
-197.3332737789442
 20
-86.512182564084014
 30
0.0
 11
-197.31953618250091
 21
-86.573634657261891
 31
0.0
  0
LINE
  8
DETAIL
  6
CONTINUOUS
 62
     5
 10
-197.31953618250091
 20
-86.573634657261891
 30
0.0
 11
-197.31953618250091
 21
-86.573634657261891
 31
0.0
  0
LINE
  8
DETAIL
  6
CONTINUOUS
 62
     5
 10
-197.31953618250091
 20
-86.573634657261891
 30
0.0
 11
-197.30507649260809
 21
-86.635217891435786
 31
0.0
  0
LINE
  8
DETAIL
  6
CONTINUOUS
 62
     5
 10
-197.30507649260809
 20
-86.635217891435786
 30
0.0
 11
-197.28985973738719
 21
-86.696950893347321
 31
0.0
  0
LINE
  8
DETAIL
  6
CONTINUOUS
 62
     5
 10
-197.28985973738719
 20
-86.696950893347321
 30
0.0
 11
-197.28985973738719
 21
-86.696950893347321
 31
0.0
  0
LINE
  8
DETAIL
  6
CONTINUOUS
 62
     5
 10
-197.28985973738719
 20
-86.696950893347321
 30
0.0
 11
-197.27391828047601
 21
-86.758536273934197
 31
0.0
  0
LINE
  8
DETAIL
  6
CONTINUOUS
 62
     5
 10
-197.27391828047601
 20
-86.758536273934197
 30
0.0
 11
-197.25737209668469
 21
-86.819557587515192
 31
0.0
  0
LINE
  8
DETAIL
  6
CONTINUOUS
 62
     5
 10
-197.25737209668469
 20
-86.819557587515192
 30
0.0
 11
-197.25737209668469
 21
-86.819557587515192
 31
0.0
  0
LINE
  8
DETAIL
  6
CONTINUOUS
 62
     5
 10
-197.25737209668469
 20
-86.819557587515192
 30
0.0
 11
-197.240230019721
 21
-86.879973932522262
 31
0.0
  0
LINE
  8
DETAIL
  6
CONTINUOUS
 62
     5
 10
-197.240230019721
 20
-86.879973932522262
 30
0.0
 11
-197.2219687077073
 21
-86.941365640459026
 31
0.0
  0
LINE
  8
DETAIL
  6
CONTINUOUS
 62
     5
 10
-197.2219687077073
 20
-86.941365640459026
 30
0.0
 11
-197.2219687077073
 21
-86.941365640459026
 31
0.0
  0
LINE
  8
DETAIL
  6
CONTINUOUS
 62
     5
 10
-197.2219687077073
 20
-86.941365640459026
 30
0.0
 11
-197.20213685978041
 21
-87.005045492702038
 31
0.0
  0
LINE
  8
DETAIL
  6
CONTINUOUS
 62
     5
 10
-197.20213685978041
 20
-87.005045492702038
 30
0.0
 11
-197.18110351471469
 21
-87.069634837048852
 31
0.0
  0
LINE
  8
DETAIL
  6
CONTINUOUS
 62
     5
 10
-197.18110351471469
 20
-87.069634837048852
 30
0.0
 11
-197.18110351471469
 21
-87.069634837048852
 31
0.0
  0
LINE
  8
DETAIL
  6
CONTINUOUS
 62
     5
 10
-197.18110351471469
 20
-87.069634837048852
 30
0.0
 11
-197.1593204074895
 21
-87.133509088102755
 31
0.0
  0
LINE
  8
DETAIL
  6
CONTINUOUS
 62
     5
 10
-197.1593204074895
 20
-87.133509088102755
 30
0.0
 11
-197.13674971826489
 21
-87.196751361269918
 31
0.0
  0
LINE
  8
DETAIL
  6
CONTINUOUS
 62
     5
 10
-197.13674971826489
 20
-87.196751361269918
 30
0.0
 11
-197.13674971826489
 21
-87.196751361269918
 31
0.0
  0
LINE
  8
DETAIL
  6
CONTINUOUS
 62
     5
 10
-197.13674971826489
 20
-87.196751361269918
 30
0.0
 11
-197.11325805971379
 21
-87.25976943820433
 31
0.0
  0
LINE
  8
DETAIL
  6
CONTINUOUS
 62
     5
 10
-197.11325805971379
 20
-87.25976943820433
 30
0.0
 11
-197.08881932938061
 21
-87.322562064753811
 31
0.0
  0
LINE
  8
DETAIL
  6
CONTINUOUS
 62
     5
 10
-197.08881932938061
 20
-87.322562064753811
 30
0.0
 11
-197.08881932938061
 21
-87.322562064753811
 31
0.0
  0
LINE
  8
DETAIL
  6
CONTINUOUS
 62
     5
 10
-197.08881932938061
 20
-87.322562064753811
 30
0.0
 11
-197.06344934986129
 21
-87.385007838420506
 31
0.0
  0
LINE
  8
DETAIL
  6
CONTINUOUS
 62
     5
 10
-197.06344934986129
 20
-87.385007838420506
 30
0.0
 11
-197.0372243590846
 21
-87.446913799132517
 31
0.0
  0
LINE
  8
DETAIL
  6
CONTINUOUS
 62
     5
 10
-197.0372243590846
 20
-87.446913799132517
 30
0.0
 11
-197.0372243590846
 21
-87.446913799132517
 31
0.0
  0
LINE
  8
DETAIL
  6
CONTINUOUS
 62
     5
 10
-197.0372243590846
 20
-87.446913799132517
 30
0.0
 11
-197.0101484622611
 21
-87.50824291395088
 31
0.0
  0
LINE
  8
DETAIL
  6
CONTINUOUS
 62
     5
 10
-197.0101484622611
 20
-87.50824291395088
 30
0.0
 11
-196.9818768183992
 21
-87.569653416038364
 31
0.0
  0
LINE
  8
DETAIL
  6
CONTINUOUS
 62
     5
 10
-196.9818768183992
 20
-87.569653416038364
 30
0.0
 11
-196.9818768183992
 21
-87.569653416038364
 31
0.0
  0
LINE
  8
DETAIL
  6
CONTINUOUS
 62
     5
 10
-196.9818768183992
 20
-87.569653416038364
 30
0.0
 11
-196.95211444384341
 21
-87.63168945475536
 31
0.0
  0
LINE
  8
DETAIL
  6
CONTINUOUS
 62
     5
 10
-196.95211444384341
 20
-87.63168945475536
 30
0.0
 11
-196.9211147304876
 21
-87.693743578145813
 31
0.0
  0
LINE
  8
DETAIL
  6
CONTINUOUS
 62
     5
 10
-196.9211147304876
 20
-87.693743578145813
 30
0.0
 11
-196.9211147304876
 21
-87.693743578145813
 31
0.0
  0
LINE
  8
DETAIL
  6
CONTINUOUS
 62
     5
 10
-196.9211147304876
 20
-87.693743578145813
 30
0.0
 11
-196.88918666772511
 21
-87.755103420490514
 31
0.0
  0
LINE
  8
DETAIL
  6
CONTINUOUS
 62
     5
 10
-196.88918666772511
 20
-87.755103420490514
 30
0.0
 11
-196.85631325939471
 21
-87.815788562335229
 31
0.0
  0
LINE
  8
DETAIL
  6
CONTINUOUS
 62
     5
 10
-196.85631325939471
 20
-87.815788562335229
 30
0.0
 11
-196.85631325939471
 21
-87.815788562335229
 31
0.0
  0
LINE
  8
DETAIL
  6
CONTINUOUS
 62
     5
 10
-196.85631325939471
 20
-87.815788562335229
 30
0.0
 11
-196.82241343603951
 21
-87.875958620835263
 31
0.0
  0
LINE
  8
DETAIL
  6
CONTINUOUS
 62
     5
 10
-196.82241343603951
 20
-87.875958620835263
 30
0.0
 11
-196.78747582057389
 21
-87.93560141332091
 31
0.0
  0
LINE
  8
DETAIL
  6
CONTINUOUS
 62
     5
 10
-196.78747582057389
 20
-87.93560141332091
 30
0.0
 11
-196.78747582057389
 21
-87.93560141332091
 31
0.0
  0
LINE
  8
DETAIL
  6
CONTINUOUS
 62
     5
 10
-196.78747582057389
 20
-87.93560141332091
 30
0.0
 11
-196.75151826302209
 21
-87.994650620425091
 31
0.0
  0
LINE
  8
DETAIL
  6
CONTINUOUS
 62
     5
 10
-196.75151826302209
 20
-87.994650620425091
 30
0.0
 11
-196.7146058294793
 21
-88.052995175816704
 31
0.0
  0
LINE
  8
DETAIL
  6
CONTINUOUS
 62
     5
 10
-196.7146058294793
 20
-88.052995175816704
 30
0.0
 11
-196.7146058294793
 21
-88.052995175816704
 31
0.0
  0
LINE
  8
DETAIL
  6
CONTINUOUS
 62
     5
 10
-196.7146058294793
 20
-88.052995175816704
 30
0.0
 11
-196.6767507508946
 21
-88.110600523343464
 31
0.0
  0
LINE
  8
DETAIL
  6
CONTINUOUS
 62
     5
 10
-196.6767507508946
 20
-88.110600523343464
 30
0.0
 11
-196.63770670156489
 21
-88.167782894536231
 31
0.0
  0
LINE
  8
DETAIL
  6
CONTINUOUS
 62
     5
 10
-196.63770670156489
 20
-88.167782894536231
 30
0.0
 11
-196.63770670156489
 21
-88.167782894536231
 31
0.0
  0
LINE
  8
DETAIL
  6
CONTINUOUS
 62
     5
 10
-196.63770670156489
 20
-88.167782894536231
 30
0.0
 11
-196.5972655845718
 21
-88.224802924428332
 31
0.0
  0
LINE
  8
DETAIL
  6
CONTINUOUS
 62
     5
 10
-196.5972655845718
 20
-88.224802924428332
 30
0.0
 11
-196.5556307747953
 21
-88.281348074380276
 31
0.0
  0
LINE
  8
DETAIL
  6
CONTINUOUS
 62
     5
 10
-196.5556307747953
 20
-88.281348074380276
 30
0.0
 11
-196.5556307747953
 21
-88.281348074380276
 31
0.0
  0
LINE
  8
DETAIL
  6
CONTINUOUS
 62
     5
 10
-196.5556307747953
 20
-88.281348074380276
 30
0.0
 11
-196.5130499647565
 21
-88.337052596843932
 31
0.0
  0
LINE
  8
DETAIL
  6
CONTINUOUS
 62
     5
 10
-196.5130499647565
 20
-88.337052596843932
 30
0.0
 11
-196.46953664575429
 21
-88.391911082309434
 31
0.0
  0
LINE
  8
DETAIL
  6
CONTINUOUS
 62
     5
 10
-196.46953664575429
 20
-88.391911082309434
 30
0.0
 11
-196.46953664575429
 21
-88.391911082309434
 31
0.0
  0
LINE
  8
DETAIL
  6
CONTINUOUS
 62
     5
 10
-196.46953664575429
 20
-88.391911082309434
 30
0.0
 11
-196.4250475104057
 21
-88.445997391960873
 31
0.0
  0
LINE
  8
DETAIL
  6
CONTINUOUS
 62
     5
 10
-196.4250475104057
 20
-88.445997391960873
 30
0.0
 11
-196.37954625783081
 21
-88.49934213172719
 31
0.0
  0
LINE
  8
DETAIL
  6
CONTINUOUS
 62
     5
 10
-196.37954625783081
 20
-88.49934213172719
 30
0.0
 11
-196.37954625783081
 21
-88.49934213172719
 31
0.0
  0
LINE
  8
DETAIL
  6
CONTINUOUS
 62
     5
 10
-196.37954625783081
 20
-88.49934213172719
 30
0.0
 11
-196.33304988257839
 21
-88.551918264469805
 31
0.0
  0
LINE
  8
DETAIL
  6
CONTINUOUS
 62
     5
 10
-196.33304988257839
 20
-88.551918264469805
 30
0.0
 11
-196.2857815544148
 21
-88.603511436037934
 31
0.0
  0
LINE
  8
DETAIL
  6
CONTINUOUS
 62
     5
 10
-196.2857815544148
 20
-88.603511436037934
 30
0.0
 11
-196.2857815544148
 21
-88.603511436037934
 31
0.0
  0
LINE
  8
DETAIL
  6
CONTINUOUS
 62
     5
 10
-196.2857815544148
 20
-88.603511436037934
 30
0.0
 11
-196.2378080600682
 21
-88.654058593854188
 31
0.0
  0
LINE
  8
DETAIL
  6
CONTINUOUS
 62
     5
 10
-196.2378080600682
 20
-88.654058593854188
 30
0.0
 11
-196.1883644788962
 21
-88.704289208644695
 31
0.0
  0
LINE
  8
DETAIL
  6
CONTINUOUS
 62
     5
 10
-196.1883644788962
 20
-88.704289208644695
 30
0.0
 11
-196.1883644788962
 21
-88.704289208644695
 31
0.0
  0
LINE
  8
DETAIL
  6
CONTINUOUS
 62
     5
 10
-196.1883644788962
 20
-88.704289208644695
 30
0.0
 11
-196.13680346618381
 21
-88.754811597717207
 31
0.0
  0
LINE
  8
DETAIL
  6
CONTINUOUS
 62
     5
 10
-196.13680346618381
 20
-88.754811597717207
 30
0.0
 11
-196.08377968829251
 21
-88.804956941398586
 31
0.0
  0
LINE
  8
DETAIL
  6
CONTINUOUS
 62
     5
 10
-196.08377968829251
 20
-88.804956941398586
 30
0.0
 11
-196.08377968829251
 21
-88.804956941398586
 31
0.0
  0
LINE
  8
DETAIL
  6
CONTINUOUS
 62
     5
 10
-196.08377968829251
 20
-88.804956941398586
 30
0.0
 11
-196.0300712896254
 21
-88.853943111731496
 31
0.0
  0
LINE
  8
DETAIL
  6
CONTINUOUS
 62
     5
 10
-196.0300712896254
 20
-88.853943111731496
 30
0.0
 11
-195.97564831567709
 21
-88.901811884599283
 31
0.0
  0
LINE
  8
DETAIL
  6
CONTINUOUS
 62
     5
 10
-195.97564831567709
 20
-88.901811884599283
 30
0.0
 11
-195.97564831567709
 21
-88.901811884599283
 31
0.0
  0
LINE
  8
DETAIL
  6
CONTINUOUS
 62
     5
 10
-195.97564831567709
 20
-88.901811884599283
 30
0.0
 11
-195.92033867907509
 21
-88.948764676108112
 31
0.0
  0
LINE
  8
DETAIL
  6
CONTINUOUS
 62
     5
 10
-195.92033867907509
 20
-88.948764676108112
 30
0.0
 11
-195.86420985989329
 21
-88.994817559414514
 31
0.0
  0
LINE
  8
DETAIL
  6
CONTINUOUS
 62
     5
 10
-195.86420985989329
 20
-88.994817559414514
 30
0.0
 11
-195.86420985989329
 21
-88.994817559414514
 31
0.0
  0
LINE
  8
DETAIL
  6
CONTINUOUS
 62
     5
 10
-195.86420985989329
 20
-88.994817559414514
 30
0.0
 11
-195.80735168734819
 21
-89.039919638926904
 31
0.0
  0
LINE
  8
DETAIL
  6
CONTINUOUS
 62
     5
 10
-195.80735168734819
 20
-89.039919638926904
 30
0.0
 11
-195.74970381978329
 21
-89.083937487011099
 31
0.0
  0
LINE
  8
DETAIL
  6
CONTINUOUS
 62
     5
 10
-195.74970381978329
 20
-89.083937487011099
 30
0.0
 11
-195.74970381978329
 21
-89.083937487011099
 31
0.0
  0
LINE
  8
DETAIL
  6
CONTINUOUS
 62
     5
 10
-195.74970381978329
 20
-89.083937487011099
 30
0.0
 11
-195.69125865183551
 21
-89.126845910802103
 31
0.0
  0
LINE
  8
DETAIL
  6
CONTINUOUS
 62
     5
 10
-195.69125865183551
 20
-89.126845910802103
 30
0.0
 11
-195.63236969419029
 21
-89.169135188556311
 31
0.0
  0
LINE
  8
DETAIL
  6
CONTINUOUS
 62
     5
 10
-195.49999999964791
 20
54.498379112324074
 30
0.0
 11
-195.53463479501181
 21
54.498208340846077
 31
0.0
  0
LINE
  8
DETAIL
  6
CONTINUOUS
 62
     5
 10
-195.53463479501181
 20
54.498208340846077
 30
0.0
 11
-195.5692678337571
 21
54.49787844925163
 31
0.0
  0
LINE
  8
DETAIL
  6
CONTINUOUS
 62
     5
 10
-195.5692678337571
 20
54.49787844925163
 30
0.0
 11
-195.5692678337571
 21
54.49787844925163
 31
0.0
  0
LINE
  8
DETAIL
  6
CONTINUOUS
 62
     5
 10
-195.5692678337571
 20
54.49787844925163
 30
0.0
 11
-195.60389827862841
 21
54.497263669557697
 31
0.0
  0
LINE
  8
DETAIL
  6
CONTINUOUS
 62
     5
 10
-195.60389827862841
 20
54.497263669557697
 30
0.0
 11
-195.63852896982661
 21
54.496371642311708
 31
0.0
  0
LINE
  8
DETAIL
  6
CONTINUOUS
 62
     5
 10
-195.63852896982661
 20
54.496371642311708
 30
0.0
 11
-195.63852896982661
 21
54.496371642311708
 31
0.0
  0
LINE
  8
DETAIL
  6
CONTINUOUS
 62
     5
 10
-195.63852896982661
 20
54.496371642311708
 30
0.0
 11
-195.67315862312961
 21
54.495234816324228
 31
0.0
  0
LINE
  8
DETAIL
  6
CONTINUOUS
 62
     5
 10
-195.67315862312961
 20
54.495234816324228
 30
0.0
 11
-195.70776577917411
 21
54.493851464921143
 31
0.0
  0
LINE
  8
DETAIL
  6
CONTINUOUS
 62
     5
 10
-195.70776577917411
 20
54.493851464921143
 30
0.0
 11
-195.70776577917411
 21
54.493851464921143
 31
0.0
  0
LINE
  8
DETAIL
  6
CONTINUOUS
 62
     5
 10
-195.70776577917411
 20
54.493851464921143
 30
0.0
 11
-195.74234319058959
 21
54.49221214090835
 31
0.0
  0
LINE
  8
DETAIL
  6
CONTINUOUS
 62
     5
 10
-195.74234319058959
 20
54.49221214090835
 30
0.0
 11
-195.7769606331174
 21
54.490310690495562
 31
0.0
  0
LINE
  8
DETAIL
  6
CONTINUOUS
 62
     5
 10
-195.7769606331174
 20
54.490310690495562
 30
0.0
 11
-195.7769606331174
 21
54.490310690495562
 31
0.0
  0
LINE
  8
DETAIL
  6
CONTINUOUS
 62
     5
 10
-195.7769606331174
 20
54.490310690495562
 30
0.0
 11
-195.81163515894991
 21
54.488147033710668
 31
0.0
  0
LINE
  8
DETAIL
  6
CONTINUOUS
 62
     5
 10
-195.81163515894991
 20
54.488147033710668
 30
0.0
 11
-195.84609590297339
 21
54.485742092451567
 31
0.0
  0
LINE
  8
DETAIL
  6
CONTINUOUS
 62
     5
 10
-195.84609590297339
 20
54.485742092451567
 30
0.0
 11
-195.84609590297339
 21
54.485742092451567
 31
0.0
  0
LINE
  8
DETAIL
  6
CONTINUOUS
 62
     5
 10
-195.84609590297339
 20
54.485742092451567
 30
0.0
 11
-195.8801129865893
 21
54.48311367334486
 31
0.0
  0
LINE
  8
DETAIL
  6
CONTINUOUS
 62
     5
 10
-195.8801129865893
 20
54.48311367334486
 30
0.0
 11
-195.91390839456389
 21
54.480246120060663
 31
0.0
  0
LINE
  8
DETAIL
  6
CONTINUOUS
 62
     5
 10
-195.91390839456389
 20
54.480246120060663
 30
0.0
 11
-195.91390839456389
 21
54.480246120060663
 31
0.0
  0
LINE
  8
DETAIL
  6
CONTINUOUS
 62
     5
 10
-195.91390839456389
 20
54.480246120060663
 30
0.0
 11
-195.947748877691
 21
54.477119390065347
 31
0.0
  0
LINE
  8
DETAIL
  6
CONTINUOUS
 62
     5
 10
-195.947748877691
 20
54.477119390065347
 30
0.0
 11
-195.98162838750901
 21
54.473729358963283
 31
0.0
  0
LINE
  8
DETAIL
  6
CONTINUOUS
 62
     5
 10
-195.98162838750901
 20
54.473729358963283
 30
0.0
 11
-195.98162838750901
 21
54.473729358963283
 31
0.0
  0
LINE
  8
DETAIL
  6
CONTINUOUS
 62
     5
 10
-195.98162838750901
 20
54.473729358963283
 30
0.0
 11
-196.01547646829351
 21
54.470077161830659
 31
0.0
  0
LINE
  8
DETAIL
  6
CONTINUOUS
 62
     5
 10
-196.01547646829351
 20
54.470077161830659
 30
0.0
 11
-196.0492378345233
 21
54.466169053488777
 31
0.0
  0
LINE
  8
DETAIL
  6
CONTINUOUS
 62
     5
 10
-196.0492378345233
 20
54.466169053488777
 30
0.0
 11
-196.0492378345233
 21
54.466169053488777
 31
0.0
  0
LINE
  8
DETAIL
  6
CONTINUOUS
 62
     5
 10
-196.0492378345233
 20
54.466169053488777
 30
0.0
 11
-196.0829140228378
 21
54.462003469415087
 31
0.0
  0
LINE
  8
DETAIL
  6
CONTINUOUS
 62
     5
 10
-196.0829140228378
 20
54.462003469415087
 30
0.0
 11
-196.1167186883213
 21
54.457542447966723
 31
0.0
  0
LINE
  8
DETAIL
  6
CONTINUOUS
 62
     5
 10
-196.1167186883213
 20
54.457542447966723
 30
0.0
 11
-196.1167186883213
 21
54.457542447966723
 31
0.0
  0
LINE
  8
DETAIL
  6
CONTINUOUS
 62
     5
 10
-196.1167186883213
 20
54.457542447966723
 30
0.0
 11
-196.15070260467289
 21
54.452774045405022
 31
0.0
  0
LINE
  8
DETAIL
  6
CONTINUOUS
 62
     5
 10
-196.15070260467289
 20
54.452774045405022
 30
0.0
 11
-196.18405290161709
 21
54.447826786727319
 31
0.0
  0
LINE
  8
DETAIL
  6
CONTINUOUS
 62
     5
 10
-196.18405290161709
 20
54.447826786727319
 30
0.0
 11
-196.18405290161709
 21
54.447826786727319
 31
0.0
  0
LINE
  8
DETAIL
  6
CONTINUOUS
 62
     5
 10
-196.18405290161709
 20
54.447826786727319
 30
0.0
 11
-196.21608269654629
 21
54.442811859076983
 31
0.0
  0
LINE
  8
DETAIL
  6
CONTINUOUS
 62
     5
 10
-196.21608269654629
 20
54.442811859076983
 30
0.0
 11
-196.24747270150351
 21
54.437630629445721
 31
0.0
  0
LINE
  8
DETAIL
  6
CONTINUOUS
 62
     5
 10
-196.24747270150351
 20
54.437630629445721
 30
0.0
 11
-196.24747270150351
 21
54.437630629445721
 31
0.0
  0
LINE
  8
DETAIL
  6
CONTINUOUS
 62
     5
 10
-196.24747270150351
 20
54.437630629445721
 30
0.0
 11
-196.27903245205971
 21
54.432161967520408
 31
0.0
  0
LINE
  8
DETAIL
  6
CONTINUOUS
 62
     5
 10
-196.27903245205971
 20
54.432161967520408
 30
0.0
 11
-196.31071918324511
 21
54.426404573917353
 31
0.0
  0
LINE
  8
DETAIL
  6
CONTINUOUS
 62
     5
 10
-196.31071918324511
 20
54.426404573917353
 30
0.0
 11
-196.31071918324511
 21
54.426404573917353
 31
0.0
  0
LINE
  8
DETAIL
  6
CONTINUOUS
 62
     5
 10
-196.31071918324511
 20
54.426404573917353
 30
0.0
 11
-196.34231650526871
 21
54.420383551158693
 31
0.0
  0
LINE
  8
DETAIL
  6
CONTINUOUS
 62
     5
 10
-196.34231650526871
 20
54.420383551158693
 30
0.0
 11
-196.3737658295961
 21
54.414109778459313
 31
0.0
  0
LINE
  8
DETAIL
  6
CONTINUOUS
 62
     5
 10
-196.3737658295961
 20
54.414109778459313
 30
0.0
 11
-196.3737658295961
 21
54.414109778459313
 31
0.0
  0
LINE
  8
DETAIL
  6
CONTINUOUS
 62
     5
 10
-196.3737658295961
 20
54.414109778459313
 30
0.0
 11
-196.40510329188541
 21
54.407574844781948
 31
0.0
  0
LINE
  8
DETAIL
  6
CONTINUOUS
 62
     5
 10
-196.40510329188541
 20
54.407574844781948
 30
0.0
 11
-196.43658612331231
 21
54.400707401388438
 31
0.0
  0
LINE
  8
DETAIL
  6
CONTINUOUS
 62
     5
 10
-196.43658612331231
 20
54.400707401388438
 30
0.0
 11
-196.43658612331231
 21
54.400707401388438
 31
0.0
  0
LINE
  8
DETAIL
  6
CONTINUOUS
 62
     5
 10
-196.43658612331231
 20
54.400707401388438
 30
0.0
 11
-196.46826628309989
 21
54.393486858643662
 31
0.0
  0
LINE
  8
DETAIL
  6
CONTINUOUS
 62
     5
 10
-196.46826628309989
 20
54.393486858643662
 30
0.0
 11
-196.49915354714841
 21
54.386158601021407
 31
0.0
  0
LINE
  8
DETAIL
  6
CONTINUOUS
 62
     5
 10
-196.49915354714841
 20
54.386158601021407
 30
0.0
 11
-196.49915354714841
 21
54.386158601021407
 31
0.0
  0
LINE
  8
DETAIL
  6
CONTINUOUS
 62
     5
 10
-196.49915354714841
 20
54.386158601021407
 30
0.0
 11
-196.52841345642679
 21
54.378933200714528
 31
0.0
  0
LINE
  8
DETAIL
  6
CONTINUOUS
 62
     5
 10
-196.52841345642679
 20
54.378933200714528
 30
0.0
 11
-196.55687679549931
 21
54.371616006681514
 31
0.0
  0
LINE
  8
DETAIL
  6
CONTINUOUS
 62
     5
 10
-196.55687679549931
 20
54.371616006681514
 30
0.0
 11
-196.55687679549931
 21
54.371616006681514
 31
0.0
  0
LINE
  8
DETAIL
  6
CONTINUOUS
 62
     5
 10
-196.55687679549931
 20
54.371616006681514
 30
0.0
 11
-196.5855302796131
 21
54.363970521662402
 31
0.0
  0
LINE
  8
DETAIL
  6
CONTINUOUS
 62
     5
 10
-196.5855302796131
 20
54.363970521662402
 30
0.0
 11
-196.6143191031546
 21
54.355998086754653
 31
0.0
  0
LINE
  8
DETAIL
  6
CONTINUOUS
 62
     5
 10
-196.6143191031546
 20
54.355998086754653
 30
0.0
 11
-196.6143191031546
 21
54.355998086754653
 31
0.0
  0
LINE
  8
DETAIL
  6
CONTINUOUS
 62
     5
 10
-196.6143191031546
 20
54.355998086754653
 30
0.0
 11
-196.64297775352699
 21
54.347750954340427
 31
0.0
  0
LINE
  8
DETAIL
  6
CONTINUOUS
 62
     5
 10
-196.64297775352699
 20
54.347750954340427
 30
0.0
 11
-196.67143941106431
 21
54.339247183576163
 31
0.0
  0
LINE
  8
DETAIL
  6
CONTINUOUS
 62
     5
 10
-196.67143941106431
 20
54.339247183576163
 30
0.0
 11
-196.67143941106431
 21
54.339247183576163
 31
0.0
  0
LINE
  8
DETAIL
  6
CONTINUOUS
 62
     5
 10
-196.67143941106431
 20
54.339247183576163
 30
0.0
 11
-196.69974861661771
 21
54.330471018947947
 31
0.0
  0
LINE
  8
DETAIL
  6
CONTINUOUS
 62
     5
 10
-196.69974861661771
 20
54.330471018947947
 30
0.0
 11
-196.72819666017921
 21
54.321305639480443
 31
0.0
  0
LINE
  8
DETAIL
  6
CONTINUOUS
 62
     5
 10
-196.72819666017921
 20
54.321305639480443
 30
0.0
 11
-196.72819666017921
 21
54.321305639480443
 31
0.0
  0
LINE
  8
DETAIL
  6
CONTINUOUS
 62
     5
 10
-196.72819666017921
 20
54.321305639480443
 30
0.0
 11
-196.75684009665241
 21
54.311718571600302
 31
0.0
  0
LINE
  8
DETAIL
  6
CONTINUOUS
 62
     5
 10
-196.75684009665241
 20
54.311718571600302
 30
0.0
 11
-196.78454979144939
 21
54.302115796802582
 31
0.0
  0
LINE
  8
DETAIL
  6
CONTINUOUS
 62
     5
 10
-196.78454979144939
 20
54.302115796802582
 30
0.0
 11
-196.78454979144939
 21
54.302115796802582
 31
0.0
  0
LINE
  8
DETAIL
  6
CONTINUOUS
 62
     5
 10
-196.78454979144939
 20
54.302115796802582
 30
0.0
 11
-196.81037484697799
 21
54.292844711211963
 31
0.0
  0
LINE
  8
DETAIL
  6
CONTINUOUS
 62
     5
 10
-196.81037484697799
 20
54.292844711211963
 30
0.0
 11
-196.8352630031219
 21
54.283579914402033
 31
0.0
  0
LINE
  8
DETAIL
  6
CONTINUOUS
 62
     5
 10
-196.8352630031219
 20
54.283579914402033
 30
0.0
 11
-196.8352630031219
 21
54.283579914402033
 31
0.0
  0
LINE
  8
DETAIL
  6
CONTINUOUS
 62
     5
 10
-196.8352630031219
 20
54.283579914402033
 30
0.0
 11
-196.86033950012879
 21
54.273927248239943
 31
0.0
  0
LINE
  8
DETAIL
  6
CONTINUOUS
 62
     5
 10
-196.86033950012879
 20
54.273927248239943
 30
0.0
 11
-196.8855409422284
 21
54.263890320314893
 31
0.0
  0
LINE
  8
DETAIL
  6
CONTINUOUS
 62
     5
 10
-196.8855409422284
 20
54.263890320314893
 30
0.0
 11
-196.8855409422284
 21
54.263890320314893
 31
0.0
  0
LINE
  8
DETAIL
  6
CONTINUOUS
 62
     5
 10
-196.8855409422284
 20
54.263890320314893
 30
0.0
 11
-196.91056152352871
 21
54.253558604528507
 31
0.0
  0
LINE
  8
DETAIL
  6
CONTINUOUS
 62
     5
 10
-196.91056152352871
 20
54.253558604528507
 30
0.0
 11
-196.9353144336699
 21
54.24296727430351
 31
0.0
  0
LINE
  8
DETAIL
  6
CONTINUOUS
 62
     5
 10
-196.9353144336699
 20
54.24296727430351
 30
0.0
 11
-196.9353144336699
 21
54.24296727430351
 31
0.0
  0
LINE
  8
DETAIL
  6
CONTINUOUS
 62
     5
 10
-196.9353144336699
 20
54.24296727430351
 30
0.0
 11
-196.95984577464779
 21
54.232092786990961
 31
0.0
  0
LINE
  8
DETAIL
  6
CONTINUOUS
 62
     5
 10
-196.95984577464779
 20
54.232092786990961
 30
0.0
 11
-196.98451430234681
 21
54.220731036129557
 31
0.0
  0
LINE
  8
DETAIL
  6
CONTINUOUS
 62
     5
 10
-196.98451430234681
 20
54.220731036129557
 30
0.0
 11
-196.98451430234681
 21
54.220731036129557
 31
0.0
  0
LINE
  8
DETAIL
  6
CONTINUOUS
 62
     5
 10
-196.98451430234681
 20
54.220731036129557
 30
0.0
 11
-197.00938953335191
 21
54.20882691323709
 31
0.0
  0
LINE
  8
DETAIL
  6
CONTINUOUS
 62
     5
 10
-197.00938953335191
 20
54.20882691323709
 30
0.0
 11
-197.03307137316031
 21
54.197101865555403
 31
0.0
  0
LINE
  8
DETAIL
  6
CONTINUOUS
 62
     5
 10
-197.03307137316031
 20
54.197101865555403
 30
0.0
 11
-197.03307137316031
 21
54.197101865555403
 31
0.0
  0
LINE
  8
DETAIL
  6
CONTINUOUS
 62
     5
 10
-197.03307137316031
 20
54.197101865555403
 30
0.0
 11
-197.0543823958179
 21
54.18617285949108
 31
0.0
  0
LINE
  8
DETAIL
  6
CONTINUOUS
 62
     5
 10
-197.0543823958179
 20
54.18617285949108
 30
0.0
 11
-197.07450546064979
 21
54.17546238238333
 31
0.0
  0
LINE
  8
DETAIL
  6
CONTINUOUS
 62
     5
 10
-197.07450546064979
 20
54.17546238238333
 30
0.0
 11
-197.07450546064979
 21
54.17546238238333
 31
0.0
  0
LINE
  8
DETAIL
  6
CONTINUOUS
 62
     5
 10
-197.07450546064979
 20
54.17546238238333
 30
0.0
 11
-197.0948403442483
 21
54.164273516418227
 31
0.0
  0
LINE
  8
DETAIL
  6
CONTINUOUS
 62
     5
 10
-197.0948403442483
 20
54.164273516418227
 30
0.0
 11
-197.11529420699901
 21
54.152626202239617
 31
0.0
  0
LINE
  8
DETAIL
  6
CONTINUOUS
 62
     5
 10
-197.11529420699901
 20
54.152626202239617
 30
0.0
 11
-197.11529420699901
 21
54.152626202239617
 31
0.0
  0
LINE
  8
DETAIL
  6
CONTINUOUS
 62
     5
 10
-197.11529420699901
 20
54.152626202239617
 30
0.0
 11
-197.1354798660102
 21
54.140687905639197
 31
0.0
  0
LINE
  8
DETAIL
  6
CONTINUOUS
 62
     5
 10
-197.1354798660102
 20
54.140687905639197
 30
0.0
 11
-197.15532538149151
 21
54.128499334540493
 31
0.0
  0
LINE
  8
DETAIL
  6
CONTINUOUS
 62
     5
 10
-197.15532538149151
 20
54.128499334540493
 30
0.0
 11
-197.15532538149151
 21
54.128499334540493
 31
0.0
  0
LINE
  8
DETAIL
  6
CONTINUOUS
 62
     5
 10
-197.15532538149151
 20
54.128499334540493
 30
0.0
 11
-197.1748955353784
 21
54.116017050654591
 31
0.0
  0
LINE
  8
DETAIL
  6
CONTINUOUS
 62
     5
 10
-197.1748955353784
 20
54.116017050654591
 30
0.0
 11
-197.1944867534107
 21
54.102987788702421
 31
0.0
  0
LINE
  8
DETAIL
  6
CONTINUOUS
 62
     5
 10
-197.1944867534107
 20
54.102987788702421
 30
0.0
 11
-197.1944867534107
 21
54.102987788702421
 31
0.0
  0
LINE
  8
DETAIL
  6
CONTINUOUS
 62
     5
 10
-197.1944867534107
 20
54.102987788702421
 30
0.0
 11
-197.21414291769989
 21
54.089347343114007
 31
0.0
  0
LINE
  8
DETAIL
  6
CONTINUOUS
 62
     5
 10
-197.21414291769989
 20
54.089347343114007
 30
0.0
 11
-197.23266609204029
 21
54.075997574141411
 31
0.0
  0
LINE
  8
DETAIL
  6
CONTINUOUS
 62
     5
 10
-197.23266609204029
 20
54.075997574141411
 30
0.0
 11
-197.23266609204029
 21
54.075997574141411
 31
0.0
  0
LINE
  8
DETAIL
  6
CONTINUOUS
 62
     5
 10
-197.23266609204029
 20
54.075997574141411
 30
0.0
 11
-197.24905308088941
 21
54.063708653812
 31
0.0
  0
LINE
  8
DETAIL
  6
CONTINUOUS
 62
     5
 10
-197.24905308088941
 20
54.063708653812
 30
0.0
 11
-197.2643214696765
 21
54.051757935434352
 31
0.0
  0
LINE
  8
DETAIL
  6
CONTINUOUS
 62
     5
 10
-197.2643214696765
 20
54.051757935434352
 30
0.0
 11
-197.2643214696765
 21
54.051757935434352
 31
0.0
  0
LINE
  8
DETAIL
  6
CONTINUOUS
 62
     5
 10
-197.2643214696765
 20
54.051757935434352
 30
0.0
 11
-197.27967046165449
 21
54.039275331405413
 31
0.0
  0
LINE
  8
DETAIL
  6
CONTINUOUS
 62
     5
 10
-197.27967046165449
 20
54.039275331405413
 30
0.0
 11
-197.29500495040651
 21
54.026293809193703
 31
0.0
  0
LINE
  8
DETAIL
  6
CONTINUOUS
 62
     5
 10
-197.29500495040651
 20
54.026293809193703
 30
0.0
 11
-197.29500495040651
 21
54.026293809193703
 31
0.0
  0
LINE
  8
DETAIL
  6
CONTINUOUS
 62
     5
 10
-197.29500495040651
 20
54.026293809193703
 30
0.0
 11
-197.30997918514089
 21
54.01302880379717
 31
0.0
  0
LINE
  8
DETAIL
  6
CONTINUOUS
 62
     5
 10
-197.30997918514089
 20
54.01302880379717
 30
0.0
 11
-197.3245391472442
 21
53.999522565256477
 31
0.0
  0
LINE
  8
DETAIL
  6
CONTINUOUS
 62
     5
 10
-197.3245391472442
 20
53.999522565256477
 30
0.0
 11
-197.3245391472442
 21
53.999522565256477
 31
0.0
  0
LINE
  8
DETAIL
  6
CONTINUOUS
 62
     5
 10
-197.3245391472442
 20
53.999522565256477
 30
0.0
 11
-197.3387355963871
 21
53.98572146856236
 31
0.0
  0
LINE
  8
DETAIL
  6
CONTINUOUS
 62
     5
 10
-197.3387355963871
 20
53.98572146856236
 30
0.0
 11
-197.35274667320411
 21
53.971361573459262
 31
0.0
  0
LINE
  8
DETAIL
  6
CONTINUOUS
 62
     5
 10
-197.35274667320411
 20
53.971361573459262
 30
0.0
 11
-197.35274667320411
 21
53.971361573459262
 31
0.0
  0
LINE
  8
DETAIL
  6
CONTINUOUS
 62
     5
 10
-197.35274667320411
 20
53.971361573459262
 30
0.0
 11
-197.36658204956271
 21
53.956379972365987
 31
0.0
  0
LINE
  8
DETAIL
  6
CONTINUOUS
 62
     5
 10
-197.36658204956271
 20
53.956379972365987
 30
0.0
 11
-197.37945014130051
 21
53.941728203639506
 31
0.0
  0
LINE
  8
DETAIL
  6
CONTINUOUS
 62
     5
 10
-197.37945014130051
 20
53.941728203639506
 30
0.0
 11
-197.37945014130051
 21
53.941728203639506
 31
0.0
  0
LINE
  8
DETAIL
  6
CONTINUOUS
 62
     5
 10
-197.37945014130051
 20
53.941728203639506
 30
0.0
 11
-197.39069333595171
 21
53.928218731375637
 31
0.0
  0
LINE
  8
DETAIL
  6
CONTINUOUS
 62
     5
 10
-197.39069333595171
 20
53.928218731375637
 30
0.0
 11
-197.40099116386691
 21
53.915093276682228
 31
0.0
  0
LINE
  8
DETAIL
  6
CONTINUOUS
 62
     5
 10
-197.40099116386691
 20
53.915093276682228
 30
0.0
 11
-197.40099116386691
 21
53.915093276682228
 31
0.0
  0
LINE
  8
DETAIL
  6
CONTINUOUS
 62
     5
 10
-197.40099116386691
 20
53.915093276682228
 30
0.0
 11
-197.41113766959259
 21
53.901441153682299
 31
0.0
  0
LINE
  8
DETAIL
  6
CONTINUOUS
 62
     5
 10
-197.41113766959259
 20
53.901441153682299
 30
0.0
 11
-197.4210478116446
 21
53.887312791541717
 31
0.0
  0
LINE
  8
DETAIL
  6
CONTINUOUS
 62
     5
 10
-197.4210478116446
 20
53.887312791541717
 30
0.0
 11
-197.4210478116446
 21
53.887312791541717
 31
0.0
  0
LINE
  8
DETAIL
  6
CONTINUOUS
 62
     5
 10
-197.4210478116446
 20
53.887312791541717
 30
0.0
 11
-197.43047078824611
 21
53.87294817191605
 31
0.0
  0
LINE
  8
DETAIL
  6
CONTINUOUS
 62
     5
 10
-197.43047078824611
 20
53.87294817191605
 30
0.0
 11
-197.43937184248111
 21
53.858384371369993
 31
0.0
  0
LINE
  8
DETAIL
  6
CONTINUOUS
 62
     5
 10
-197.43937184248111
 20
53.858384371369993
 30
0.0
 11
-197.43937184248111
 21
53.858384371369993
 31
0.0
  0
LINE
  8
DETAIL
  6
CONTINUOUS
 62
     5
 10
-197.43937184248111
 20
53.858384371369993
 30
0.0
 11
-197.4477739552955
 21
53.843570366525
 31
0.0
  0
LINE
  8
DETAIL
  6
CONTINUOUS
 62
     5
 10
-197.4477739552955
 20
53.843570366525
 30
0.0
 11
-197.45571501422381
 21
53.828305639318607
 31
0.0
  0
LINE
  8
DETAIL
  6
CONTINUOUS
 62
     5
 10
-197.45571501422381
 20
53.828305639318607
 30
0.0
 11
-197.45571501422381
 21
53.828305639318607
 31
0.0
  0
LINE
  8
DETAIL
  6
CONTINUOUS
 62
     5
 10
-197.45571501422381
 20
53.828305639318607
 30
0.0
 11
-197.46316771564369
 21
53.812552518973916
 31
0.0
  0
LINE
  8
DETAIL
  6
CONTINUOUS
 62
     5
 10
-197.46316771564369
 20
53.812552518973916
 30
0.0
 11
-197.46982908471989
 21
53.797074218540047
 31
0.0
  0
LINE
  8
DETAIL
  6
CONTINUOUS
 62
     5
 10
-197.46982908471989
 20
53.797074218540047
 30
0.0
 11
-197.46982908471989
 21
53.797074218540047
 31
0.0
  0
LINE
  8
DETAIL
  6
CONTINUOUS
 62
     5
 10
-197.46982908471989
 20
53.797074218540047
 30
0.0
 11
-197.47545762717311
 21
53.782522745578042
 31
0.0
  0
LINE
  8
DETAIL
  6
CONTINUOUS
 62
     5
 10
-197.47545762717311
 20
53.782522745578042
 30
0.0
 11
-197.48033344216461
 21
53.768304401867233
 31
0.0
  0
LINE
  8
DETAIL
  6
CONTINUOUS
 62
     5
 10
-197.48033344216461
 20
53.768304401867233
 30
0.0
 11
-197.48033344216461
 21
53.768304401867233
 31
0.0
  0
LINE
  8
DETAIL
  6
CONTINUOUS
 62
     5
 10
-197.48033344216461
 20
53.768304401867233
 30
0.0
 11
-197.48477549872109
 21
53.753710730524062
 31
0.0
  0
LINE
  8
DETAIL
  6
CONTINUOUS
 62
     5
 10
-197.48477549872109
 20
53.753710730524062
 30
0.0
 11
-197.48873665189461
 21
53.738819945791647
 31
0.0
  0
LINE
  8
DETAIL
  6
CONTINUOUS
 62
     5
 10
-197.48873665189461
 20
53.738819945791647
 30
0.0
 11
-197.48873665189461
 21
53.738819945791647
 31
0.0
  0
LINE
  8
DETAIL
  6
CONTINUOUS
 62
     5
 10
-197.48873665189461
 20
53.738819945791647
 30
0.0
 11
-197.4921086307539
 21
53.723854037298679
 31
0.0
  0
LINE
  8
DETAIL
  6
CONTINUOUS
 62
     5
 10
-197.4921086307539
 20
53.723854037298679
 30
0.0
 11
-197.4949047744127
 21
53.708823425089122
 31
0.0
  0
LINE
  8
DETAIL
  6
CONTINUOUS
 62
     5
 10
-197.4949047744127
 20
53.708823425089122
 30
0.0
 11
-197.4949047744127
 21
53.708823425089122
 31
0.0
  0
LINE
  8
DETAIL
  6
CONTINUOUS
 62
     5
 10
-197.4949047744127
 20
53.708823425089122
 30
0.0
 11
-197.49713874294449
 21
53.693700538613712
 31
0.0
  0
LINE
  8
DETAIL
  6
CONTINUOUS
 62
     5
 10
-197.49713874294449
 20
53.693700538613712
 30
0.0
 11
-197.49870387022159
 21
53.678517414536152
 31
0.0
  0
LINE
  8
DETAIL
  6
CONTINUOUS
 62
     5
 10
-197.49870387022159
 20
53.678517414536152
 30
0.0
 11
-197.49870387022159
 21
53.678517414536152
 31
0.0
  0
LINE
  8
DETAIL
  6
CONTINUOUS
 62
     5
 10
-197.49870387022159
 20
53.678517414536152
 30
0.0
 11
-197.499553332256
 21
53.663314276506298
 31
0.0
  0
LINE
  8
DETAIL
  6
CONTINUOUS
 62
     5
 10
-197.499553332256
 20
53.663314276506298
 30
0.0
 11
-197.49999999982401
 21
53.64810448890853
 31
0.0
  0
LINE
  8
DETAIL
  6
CONTINUOUS
 62
     5
 10
-195.8411354086268
 20
-89.493840981866242
 30
0.0
 11
-195.89036976957681
 21
-89.453989539324994
 31
0.0
  0
LINE
  8
DETAIL
  6
CONTINUOUS
 62
     5
 10
-195.89036976957681
 20
-89.453989539324994
 30
0.0
 11
-195.93923053856571
 21
-89.413676188747786
 31
0.0
  0
LINE
  8
DETAIL
  6
CONTINUOUS
 62
     5
 10
-195.93923053856571
 20
-89.413676188747786
 30
0.0
 11
-195.93923053856571
 21
-89.413676188747786
 31
0.0
  0
LINE
  8
DETAIL
  6
CONTINUOUS
 62
     5
 10
-195.93923053856571
 20
-89.413676188747786
 30
0.0
 11
-195.98742086776869
 21
-89.372535885647949
 31
0.0
  0
LINE
  8
DETAIL
  6
CONTINUOUS
 62
     5
 10
-195.98742086776869
 20
-89.372535885647949
 30
0.0
 11
-196.03495088590341
 21
-89.330591039742785
 31
0.0
  0
LINE
  8
DETAIL
  6
CONTINUOUS
 62
     5
 10
-196.03495088590341
 20
-89.330591039742785
 30
0.0
 11
-196.03495088590341
 21
-89.330591039742785
 31
0.0
  0
LINE
  8
DETAIL
  6
CONTINUOUS
 62
     5
 10
-196.03495088590341
 20
-89.330591039742785
 30
0.0
 11
-196.08187868328241
 21
-89.287944155783862
 31
0.0
  0
LINE
  8
DETAIL
  6
CONTINUOUS
 62
     5
 10
-196.08187868328241
 20
-89.287944155783862
 30
0.0
 11
-196.12814722005541
 21
-89.244630664461965
 31
0.0
  0
LINE
  8
DETAIL
  6
CONTINUOUS
 62
     5
 10
-196.12814722005541
 20
-89.244630664461965
 30
0.0
 11
-196.12814722005541
 21
-89.244630664461965
 31
0.0
  0
LINE
  8
DETAIL
  6
CONTINUOUS
 62
     5
 10
-196.12814722005541
 20
-89.244630664461965
 30
0.0
 11
-196.17370905985879
 21
-89.200639438462758
 31
0.0
  0
LINE
  8
DETAIL
  6
CONTINUOUS
 62
     5
 10
-196.17370905985879
 20
-89.200639438462758
 30
0.0
 11
-196.21867031043681
 21
-89.155840192515143
 31
0.0
  0
LINE
  8
DETAIL
  6
CONTINUOUS
 62
     5
 10
-196.21867031043681
 20
-89.155840192515143
 30
0.0
 11
-196.21867031043681
 21
-89.155840192515143
 31
0.0
  0
LINE
  8
DETAIL
  6
CONTINUOUS
 62
     5
 10
-196.21867031043681
 20
-89.155840192515143
 30
0.0
 11
-196.2630507039938
 21
-89.110208778330843
 31
0.0
  0
LINE
  8
DETAIL
  6
CONTINUOUS
 62
     5
 10
-196.2630507039938
 20
-89.110208778330843
 30
0.0
 11
-196.3063709264629
 21
-89.064264753513044
 31
0.0
  0
LINE
  8
DETAIL
  6
CONTINUOUS
 62
     5
 10
-196.3063709264629
 20
-89.064264753513044
 30
0.0
 11
-196.3063709264629
 21
-89.064264753513044
 31
0.0
  0
LINE
  8
DETAIL
  6
CONTINUOUS
 62
     5
 10
-196.3063709264629
 20
-89.064264753513044
 30
0.0
 11
-196.34822710338369
 21
-89.018451490166626
 31
0.0
  0
LINE
  8
DETAIL
  6
CONTINUOUS
 62
     5
 10
-196.34822710338369
 20
-89.018451490166626
 30
0.0
 11
-196.3890161649889
 21
-88.972363912516812
 31
0.0
  0
LINE
  8
DETAIL
  6
CONTINUOUS
 62
     5
 10
-196.3890161649889
 20
-88.972363912516812
 30
0.0
 11
-196.3890161649889
 21
-88.972363912516812
 31
0.0
  0
LINE
  8
DETAIL
  6
CONTINUOUS
 62
     5
 10
-196.3890161649889
 20
-88.972363912516812
 30
0.0
 11
-196.42920785544769
 21
-88.925516445638323
 31
0.0
  0
LINE
  8
DETAIL
  6
CONTINUOUS
 62
     5
 10
-196.42920785544769
 20
-88.925516445638323
 30
0.0
 11
-196.46876236997841
 21
-88.877949965888547
 31
0.0
  0
LINE
  8
DETAIL
  6
CONTINUOUS
 62
     5
 10
-196.46876236997841
 20
-88.877949965888547
 30
0.0
 11
-196.46876236997841
 21
-88.877949965888547
 31
0.0
  0
LINE
  8
DETAIL
  6
CONTINUOUS
 62
     5
 10
-196.46876236997841
 20
-88.877949965888547
 30
0.0
 11
-196.50754294765761
 21
-88.829807410110107
 31
0.0
  0
LINE
  8
DETAIL
  6
CONTINUOUS
 62
     5
 10
-196.50754294765761
 20
-88.829807410110107
 30
0.0
 11
-196.5455345519434
 21
-88.781113505801159
 31
0.0
  0
LINE
  8
DETAIL
  6
CONTINUOUS
 62
     5
 10
-196.5455345519434
 20
-88.781113505801159
 30
0.0
 11
-196.5455345519434
 21
-88.781113505801159
 31
0.0
  0
LINE
  8
DETAIL
  6
CONTINUOUS
 62
     5
 10
-196.5455345519434
 20
-88.781113505801159
 30
0.0
 11
-196.58275824024511
 21
-88.731850024646519
 31
0.0
  0
LINE
  8
DETAIL
  6
CONTINUOUS
 62
     5
 10
-196.58275824024511
 20
-88.731850024646519
 30
0.0
 11
-196.61925772139469
 21
-88.681945124426875
 31
0.0
  0
LINE
  8
DETAIL
  6
CONTINUOUS
 62
     5
 10
-196.61925772139469
 20
-88.681945124426875
 30
0.0
 11
-196.61925772139469
 21
-88.681945124426875
 31
0.0
  0
LINE
  8
DETAIL
  6
CONTINUOUS
 62
     5
 10
-196.61925772139469
 20
-88.681945124426875
 30
0.0
 11
-196.65502928456169
 21
-88.631396725687182
 31
0.0
  0
LINE
  8
DETAIL
  6
CONTINUOUS
 62
     5
 10
-196.65502928456169
 20
-88.631396725687182
 30
0.0
 11
-196.68985688884379
 21
-88.580535413938833
 31
0.0
  0
LINE
  8
DETAIL
  6
CONTINUOUS
 62
     5
 10
-196.68985688884379
 20
-88.580535413938833
 30
0.0
 11
-196.68985688884379
 21
-88.580535413938833
 31
0.0
  0
LINE
  8
DETAIL
  6
CONTINUOUS
 62
     5
 10
-196.68985688884379
 20
-88.580535413938833
 30
0.0
 11
-196.72356198451561
 21
-88.529643059320961
 31
0.0
  0
LINE
  8
DETAIL
  6
CONTINUOUS
 62
     5
 10
-196.72356198451561
 20
-88.529643059320961
 30
0.0
 11
-196.7563283166304
 21
-88.478474005513362
 31
0.0
  0
LINE
  8
DETAIL
  6
CONTINUOUS
 62
     5
 10
-196.7563283166304
 20
-88.478474005513362
 30
0.0
 11
-196.7563283166304
 21
-88.478474005513362
 31
0.0
  0
LINE
  8
DETAIL
  6
CONTINUOUS
 62
     5
 10
-196.7563283166304
 20
-88.478474005513362
 30
0.0
 11
-196.78837285333441
 21
-88.426731892070364
 31
0.0
  0
LINE
  8
DETAIL
  6
CONTINUOUS
 62
     5
 10
-196.78837285333441
 20
-88.426731892070364
 30
0.0
 11
-196.8196831603664
 21
-88.374445068502155
 31
0.0
  0
LINE
  8
DETAIL
  6
CONTINUOUS
 62
     5
 10
-196.8196831603664
 20
-88.374445068502155
 30
0.0
 11
-196.8196831603664
 21
-88.374445068502155
 31
0.0
  0
LINE
  8
DETAIL
  6
CONTINUOUS
 62
     5
 10
-196.8196831603664
 20
-88.374445068502155
 30
0.0
 11
-196.85020085244651
 21
-88.32170999221762
 31
0.0
  0
LINE
  8
DETAIL
  6
CONTINUOUS
 62
     5
 10
-196.85020085244651
 20
-88.32170999221762
 30
0.0
 11
-196.87991314262729
 21
-88.2685708422689
 31
0.0
  0
LINE
  8
DETAIL
  6
CONTINUOUS
 62
     5
 10
-196.87991314262729
 20
-88.2685708422689
 30
0.0
 11
-196.87991314262729
 21
-88.2685708422689
 31
0.0
  0
LINE
  8
DETAIL
  6
CONTINUOUS
 62
     5
 10
-196.87991314262729
 20
-88.2685708422689
 30
0.0
 11
-196.90883039581371
 21
-88.215029828986872
 31
0.0
  0
LINE
  8
DETAIL
  6
CONTINUOUS
 62
     5
 10
-196.90883039581371
 20
-88.215029828986872
 30
0.0
 11
-196.9370099859884
 21
-88.160973566176153
 31
0.0
  0
LINE
  8
DETAIL
  6
CONTINUOUS
 62
     5
 10
-196.9370099859884
 20
-88.160973566176153
 30
0.0
 11
-196.9370099859884
 21
-88.160973566176153
 31
0.0
  0
LINE
  8
DETAIL
  6
CONTINUOUS
 62
     5
 10
-196.9370099859884
 20
-88.160973566176153
 30
0.0
 11
-196.9644626307429
 21
-88.106388434626069
 31
0.0
  0
LINE
  8
DETAIL
  6
CONTINUOUS
 62
     5
 10
-196.9644626307429
 20
-88.106388434626069
 30
0.0
 11
-196.9909654130258
 21
-88.051775479587604
 31
0.0
  0
LINE
  8
DETAIL
  6
CONTINUOUS
 62
     5
 10
-196.9909654130258
 20
-88.051775479587604
 30
0.0
 11
-196.9909654130258
 21
-88.051775479587604
 31
0.0
  0
LINE
  8
DETAIL
  6
CONTINUOUS
 62
     5
 10
-196.9909654130258
 20
-88.051775479587604
 30
0.0
 11
-197.0163348508388
 21
-87.997561528775577
 31
0.0
  0
LINE
  8
DETAIL
  6
CONTINUOUS
 62
     5
 10
-197.0163348508388
 20
-87.997561528775577
 30
0.0
 11
-197.04077883703781
 21
-87.943361875298251
 31
0.0
  0
LINE
  8
DETAIL
  6
CONTINUOUS
 62
     5
 10
-197.04077883703781
 20
-87.943361875298251
 30
0.0
 11
-197.04077883703781
 21
-87.943361875298251
 31
0.0
  0
LINE
  8
DETAIL
  6
CONTINUOUS
 62
     5
 10
-197.04077883703781
 20
-87.943361875298251
 30
0.0
 11
-197.06454110262769
 21
-87.888711618176785
 31
0.0
  0
LINE
  8
DETAIL
  6
CONTINUOUS
 62
     5
 10
-197.06454110262769
 20
-87.888711618176785
 30
0.0
 11
-197.08761735635409
 21
-87.833636614698207
 31
0.0
  0
LINE
  8
DETAIL
  6
CONTINUOUS
 62
     5
 10
-197.08761735635409
 20
-87.833636614698207
 30
0.0
 11
-197.08761735635409
 21
-87.833636614698207
 31
0.0
  0
LINE
  8
DETAIL
  6
CONTINUOUS
 62
     5
 10
-197.08761735635409
 20
-87.833636614698207
 30
0.0
 11
-197.10995159338961
 21
-87.778272979252051
 31
0.0
  0
LINE
  8
DETAIL
  6
CONTINUOUS
 62
     5
 10
-197.10995159338961
 20
-87.778272979252051
 30
0.0
 11
-197.13152897687769
 21
-87.722707096377235
 31
0.0
  0
LINE
  8
DETAIL
  6
CONTINUOUS
 62
     5
 10
-197.13152897687769
 20
-87.722707096377235
 30
0.0
 11
-197.13152897687769
 21
-87.722707096377235
 31
0.0
  0
LINE
  8
DETAIL
  6
CONTINUOUS
 62
     5
 10
-197.13152897687769
 20
-87.722707096377235
 30
0.0
 11
-197.15236579954811
 21
-87.666939958435023
 31
0.0
  0
LINE
  8
DETAIL
  6
CONTINUOUS
 62
     5
 10
-197.15236579954811
 20
-87.666939958435023
 30
0.0
 11
-197.1725617045112
 21
-87.610680718925323
 31
0.0
  0
LINE
  8
DETAIL
  6
CONTINUOUS
 62
     5
 10
-197.1725617045112
 20
-87.610680718925323
 30
0.0
 11
-197.1725617045112
 21
-87.610680718925323
 31
0.0
  0
LINE
  8
DETAIL
  6
CONTINUOUS
 62
     5
 10
-197.1725617045112
 20
-87.610680718925323
 30
0.0
 11
-197.192143530099
 21
-87.553869842956374
 31
0.0
  0
LINE
  8
DETAIL
  6
CONTINUOUS
 62
     5
 10
-197.192143530099
 20
-87.553869842956374
 30
0.0
 11
-197.2107635451575
 21
-87.497664880932007
 31
0.0
  0
LINE
  8
DETAIL
  6
CONTINUOUS
 62
     5
 10
-197.2107635451575
 20
-87.497664880932007
 30
0.0
 11
-197.2107635451575
 21
-87.497664880932007
 31
0.0
  0
LINE
  8
DETAIL
  6
CONTINUOUS
 62
     5
 10
-197.2107635451575
 20
-87.497664880932007
 30
0.0
 11
-197.22813657539211
 21
-87.443046685284344
 31
0.0
  0
LINE
  8
DETAIL
  6
CONTINUOUS
 62
     5
 10
-197.22813657539211
 20
-87.443046685284344
 30
0.0
 11
-197.24460224343321
 21
-87.389072231262617
 31
0.0
  0
LINE
  8
DETAIL
  6
CONTINUOUS
 62
     5
 10
-197.24460224343321
 20
-87.389072231262617
 30
0.0
 11
-197.24460224343321
 21
-87.389072231262617
 31
0.0
  0
LINE
  8
DETAIL
  6
CONTINUOUS
 62
     5
 10
-197.24460224343321
 20
-87.389072231262617
 30
0.0
 11
-197.26055413923589
 21
-87.334616304678775
 31
0.0
  0
LINE
  8
DETAIL
  6
CONTINUOUS
 62
     5
 10
-197.26055413923589
 20
-87.334616304678775
 30
0.0
 11
-197.27597692513169
 21
-87.279748810777846
 31
0.0
  0
LINE
  8
DETAIL
  6
CONTINUOUS
 62
     5
 10
-197.27597692513169
 20
-87.279748810777846
 30
0.0
 11
-197.27597692513169
 21
-87.279748810777846
 31
0.0
  0
LINE
  8
DETAIL
  6
CONTINUOUS
 62
     5
 10
-197.27597692513169
 20
-87.279748810777846
 30
0.0
 11
-197.29077665956879
 21
-87.224777435109672
 31
0.0
  0
LINE
  8
DETAIL
  6
CONTINUOUS
 62
     5
 10
-197.29077665956879
 20
-87.224777435109672
 30
0.0
 11
-197.30495391309029
 21
-87.169765865010277
 31
0.0
  0
LINE
  8
DETAIL
  6
CONTINUOUS
 62
     5
 10
-197.30495391309029
 20
-87.169765865010277
 30
0.0
 11
-197.30495391309029
 21
-87.169765865010277
 31
0.0
  0
LINE
  8
DETAIL
  6
CONTINUOUS
 62
     5
 10
-197.30495391309029
 20
-87.169765865010277
 30
0.0
 11
-197.31854060407389
 21
-87.114662006617209
 31
0.0
  0
LINE
  8
DETAIL
  6
CONTINUOUS
 62
     5
 10
-197.31854060407389
 20
-87.114662006617209
 30
0.0
 11
-197.33159953014601
 21
-87.059194639491352
 31
0.0
  0
LINE
  8
DETAIL
  6
CONTINUOUS
 62
     5
 10
-197.33159953014601
 20
-87.059194639491352
 30
0.0
 11
-197.33159953014601
 21
-87.059194639491352
 31
0.0
  0
LINE
  8
DETAIL
  6
CONTINUOUS
 62
     5
 10
-197.33159953014601
 20
-87.059194639491352
 30
0.0
 11
-197.34414670147339
 21
-87.003317887679486
 31
0.0
  0
LINE
  8
DETAIL
  6
CONTINUOUS
 62
     5
 10
-197.34414670147339
 20
-87.003317887679486
 30
0.0
 11
-197.35598009913639
 21
-86.948106379753881
 31
0.0
  0
LINE
  8
DETAIL
  6
CONTINUOUS
 62
     5
 10
-197.35598009913639
 20
-86.948106379753881
 30
0.0
 11
-197.35598009913639
 21
-86.948106379753881
 31
0.0
  0
LINE
  8
DETAIL
  6
CONTINUOUS
 62
     5
 10
-197.35598009913639
 20
-86.948106379753881
 30
0.0
 11
-197.36693667269461
 21
-86.894466585641567
 31
0.0
  0
LINE
  8
DETAIL
  6
CONTINUOUS
 62
     5
 10
-197.36693667269461
 20
-86.894466585641567
 30
0.0
 11
-197.37722727471319
 21
-86.8415118361645
 31
0.0
  0
LINE
  8
DETAIL
  6
CONTINUOUS
 62
     5
 10
-197.37722727471319
 20
-86.8415118361645
 30
0.0
 11
-197.37722727471319
 21
-86.8415118361645
 31
0.0
  0
LINE
  8
DETAIL
  6
CONTINUOUS
 62
     5
 10
-197.37722727471319
 20
-86.8415118361645
 30
0.0
 11
-197.38709405402261
 21
-86.788186567981711
 31
0.0
  0
LINE
  8
DETAIL
  6
CONTINUOUS
 62
     5
 10
-197.38709405402261
 20
-86.788186567981711
 30
0.0
 11
-197.39653044151649
 21
-86.734552780205604
 31
0.0
  0
LINE
  8
DETAIL
  6
CONTINUOUS
 62
     5
 10
-197.39653044151649
 20
-86.734552780205604
 30
0.0
 11
-197.39653044151649
 21
-86.734552780205604
 31
0.0
  0
LINE
  8
DETAIL
  6
CONTINUOUS
 62
     5
 10
-197.39653044151649
 20
-86.734552780205604
 30
0.0
 11
-197.40548231706461
 21
-86.680895201584235
 31
0.0
  0
LINE
  8
DETAIL
  6
CONTINUOUS
 62
     5
 10
-197.40548231706461
 20
-86.680895201584235
 30
0.0
 11
-197.4139540743835
 21
-86.627271916953305
 31
0.0
  0
LINE
  8
DETAIL
  6
CONTINUOUS
 62
     5
 10
-197.4139540743835
 20
-86.627271916953305
 30
0.0
 11
-197.4139540743835
 21
-86.627271916953305
 31
0.0
  0
LINE
  8
DETAIL
  6
CONTINUOUS
 62
     5
 10
-197.4139540743835
 20
-86.627271916953305
 30
0.0
 11
-197.42196840128901
 21
-86.573631603469039
 31
0.0
  0
LINE
  8
DETAIL
  6
CONTINUOUS
 62
     5
 10
-197.42196840128901
 20
-86.573631603469039
 30
0.0
 11
-197.42956264815061
 21
-86.519711951483941
 31
0.0
  0
LINE
  8
DETAIL
  6
CONTINUOUS
 62
     5
 10
-197.42956264815061
 20
-86.519711951483941
 30
0.0
 11
-197.42956264815061
 21
-86.519711951483941
 31
0.0
  0
LINE
  8
DETAIL
  6
CONTINUOUS
 62
     5
 10
-197.42956264815061
 20
-86.519711951483941
 30
0.0
 11
-197.43674853996129
 21
-86.465465552431169
 31
0.0
  0
LINE
  8
DETAIL
  6
CONTINUOUS
 62
     5
 10
-197.43674853996129
 20
-86.465465552431169
 30
0.0
 11
-197.44342063765509
 21
-86.411915588873399
 31
0.0
  0
LINE
  8
DETAIL
  6
CONTINUOUS
 62
     5
 10
-197.44342063765509
 20
-86.411915588873399
 30
0.0
 11
-197.44342063765509
 21
-86.411915588873399
 31
0.0
  0
LINE
  8
DETAIL
  6
CONTINUOUS
 62
     5
 10
-197.44342063765509
 20
-86.411915588873399
 30
0.0
 11
-197.44949558734959
 21
-86.359924316468778
 31
0.0
  0
LINE
  8
DETAIL
  6
CONTINUOUS
 62
     5
 10
-197.44949558734959
 20
-86.359924316468778
 30
0.0
 11
-197.45509553995629
 21
-86.308639692128054
 31
0.0
  0
LINE
  8
DETAIL
  6
CONTINUOUS
 62
     5
 10
-197.45509553995629
 20
-86.308639692128054
 30
0.0
 11
-197.45509553995629
 21
-86.308639692128054
 31
0.0
  0
LINE
  8
DETAIL
  6
CONTINUOUS
 62
     5
 10
-197.45509553995629
 20
-86.308639692128054
 30
0.0
 11
-197.46035899201181
 21
-86.25704881628144
 31
0.0
  0
LINE
  8
DETAIL
  6
CONTINUOUS
 62
     5
 10
-197.46035899201181
 20
-86.25704881628144
 30
0.0
 11
-197.46528431776181
 21
-86.205209662183734
 31
0.0
  0
LINE
  8
DETAIL
  6
CONTINUOUS
 62
     5
 10
-197.46528431776181
 20
-86.205209662183734
 30
0.0
 11
-197.46528431776181
 21
-86.205209662183734
 31
0.0
  0
LINE
  8
DETAIL
  6
CONTINUOUS
 62
     5
 10
-197.46528431776181
 20
-86.205209662183734
 30
0.0
 11
-197.4698434891919
 21
-86.153392825656965
 31
0.0
  0
LINE
  8
DETAIL
  6
CONTINUOUS
 62
     5
 10
-197.4698434891919
 20
-86.153392825656965
 30
0.0
 11
-197.47404299154309
 21
-86.101648519967739
 31
0.0
  0
LINE
  8
DETAIL
  6
CONTINUOUS
 62
     5
 10
-197.47404299154309
 20
-86.101648519967739
 30
0.0
 11
-197.47404299154309
 21
-86.101648519967739
 31
0.0
  0
LINE
  8
DETAIL
  6
CONTINUOUS
 62
     5
 10
-197.47404299154309
 20
-86.101648519967739
 30
0.0
 11
-197.4778984556873
 21
-86.049924527092571
 31
0.0
  0
LINE
  8
DETAIL
  6
CONTINUOUS
 62
     5
 10
-197.4778984556873
 20
-86.049924527092571
 30
0.0
 11
-197.48142758177161
 21
-85.997979286407826
 31
0.0
  0
LINE
  8
DETAIL
  6
CONTINUOUS
 62
     5
 10
-197.48142758177161
 20
-85.997979286407826
 30
0.0
 11
-197.48142758177161
 21
-85.997979286407826
 31
0.0
  0
LINE
  8
DETAIL
  6
CONTINUOUS
 62
     5
 10
-197.48142758177161
 20
-85.997979286407826
 30
0.0
 11
-197.48463788967339
 21
-85.945768339879578
 31
0.0
  0
LINE
  8
DETAIL
  6
CONTINUOUS
 62
     5
 10
-197.48463788967339
 20
-85.945768339879578
 30
0.0
 11
-197.48749410891909
 21
-85.894224982431979
 31
0.0
  0
LINE
  8
DETAIL
  6
CONTINUOUS
 62
     5
 10
-197.48749410891909
 20
-85.894224982431979
 30
0.0
 11
-197.48749410891909
 21
-85.894224982431979
 31
0.0
  0
LINE
  8
DETAIL
  6
CONTINUOUS
 62
     5
 10
-197.48749410891909
 20
-85.894224982431979
 30
0.0
 11
-197.4899706589722
 21
-85.8441344489936
 31
0.0
  0
LINE
  8
DETAIL
  6
CONTINUOUS
 62
     5
 10
-197.4899706589722
 20
-85.8441344489936
 30
0.0
 11
-197.49212350939791
 21
-85.794711981552837
 31
0.0
  0
LINE
  8
DETAIL
  6
CONTINUOUS
 62
     5
 10
-197.49212350939791
 20
-85.794711981552837
 30
0.0
 11
-197.49212350939791
 21
-85.794711981552837
 31
0.0
  0
LINE
  8
DETAIL
  6
CONTINUOUS
 62
     5
 10
-197.49212350939791
 20
-85.794711981552837
 30
0.0
 11
-197.4940137079478
 21
-85.745029459329771
 31
0.0
  0
LINE
  8
DETAIL
  6
CONTINUOUS
 62
     5
 10
-197.4940137079478
 20
-85.745029459329771
 30
0.0
 11
-197.49564106501751
 21
-85.695155303414595
 31
0.0
  0
LINE
  8
DETAIL
  6
CONTINUOUS
 62
     5
 10
-197.49564106501751
 20
-85.695155303414595
 30
0.0
 11
-197.49564106501751
 21
-85.695155303414595
 31
0.0
  0
LINE
  8
DETAIL
  6
CONTINUOUS
 62
     5
 10
-197.49564106501751
 20
-85.695155303414595
 30
0.0
 11
-197.49699623798131
 21
-85.645340316085822
 31
0.0
  0
LINE
  8
DETAIL
  6
CONTINUOUS
 62
     5
 10
-197.49699623798131
 20
-85.645340316085822
 30
0.0
 11
-197.49809450948831
 21
-85.595568282508111
 31
0.0
  0
LINE
  8
DETAIL
  6
CONTINUOUS
 62
     5
 10
-197.49809450948831
 20
-85.595568282508111
 30
0.0
 11
-197.49809450948831
 21
-85.595568282508111
 31
0.0
  0
LINE
  8
DETAIL
  6
CONTINUOUS
 62
     5
 10
-197.49809450948831
 20
-85.595568282508111
 30
0.0
 11
-197.4989480025707
 21
-85.545774115214044
 31
0.0
  0
LINE
  8
DETAIL
  6
CONTINUOUS
 62
     5
 10
-197.4989480025707
 20
-85.545774115214044
 30
0.0
 11
-197.49953157652041
 21
-85.495964253323791
 31
0.0
  0
LINE
  8
DETAIL
  6
CONTINUOUS
 62
     5
 10
-197.49953157652041
 20
-85.495964253323791
 30
0.0
 11
-197.49953157652041
 21
-85.495964253323791
 31
0.0
  0
LINE
  8
DETAIL
  6
CONTINUOUS
 62
     5
 10
-197.49953157652041
 20
-85.495964253323791
 30
0.0
 11
-197.4998418821161
 21
-85.446158245295237
 31
0.0
  0
LINE
  8
DETAIL
  6
CONTINUOUS
 62
     5
 10
-197.4998418821161
 20
-85.446158245295237
 30
0.0
 11
-197.49999999982401
 21
-85.396356550352039
 31
0.0
  0
LINE
  8
DETAIL
  6
CONTINUOUS
 62
     5
 10
-197.49999999982401
 20
54.19302814595062
 30
0.0
 11
-197.49954956815091
 21
54.208244649511933
 31
0.0
  0
LINE
  8
DETAIL
  6
CONTINUOUS
 62
     5
 10
-197.49954956815091
 20
54.208244649511933
 30
0.0
 11
-197.4987038286196
 21
54.223437700218938
 31
0.0
  0
LINE
  8
DETAIL
  6
CONTINUOUS
 62
     5
 10
-197.4987038286196
 20
54.223437700218938
 30
0.0
 11
-197.4987038286196
 21
54.223437700218938
 31
0.0
  0
LINE
  8
DETAIL
  6
CONTINUOUS
 62
     5
 10
-197.4987038286196
 20
54.223437700218938
 30
0.0
 11
-197.49714990524259
 21
54.238593930382422
 31
0.0
  0
LINE
  8
DETAIL
  6
CONTINUOUS
 62
     5
 10
-197.49714990524259
 20
54.238593930382422
 30
0.0
 11
-197.49490464951941
 21
54.253740312970422
 31
0.0
  0
LINE
  8
DETAIL
  6
CONTINUOUS
 62
     5
 10
-197.49490464951941
 20
54.253740312970422
 30
0.0
 11
-197.49490464951941
 21
54.253740312970422
 31
0.0
  0
LINE
  8
DETAIL
  6
CONTINUOUS
 62
     5
 10
-197.49490464951941
 20
54.253740312970422
 30
0.0
 11
-197.49206724354241
 21
54.268861611157263
 31
0.0
  0
LINE
  8
DETAIL
  6
CONTINUOUS
 62
     5
 10
-197.49206724354241
 20
54.268861611157263
 30
0.0
 11
-197.4887364642947
 21
54.283733408279659
 31
0.0
  0
LINE
  8
DETAIL
  6
CONTINUOUS
 62
     5
 10
-197.4887364642947
 20
54.283733408279659
 30
0.0
 11
-197.4887364642947
 21
54.283733408279659
 31
0.0
  0
LINE
  8
DETAIL
  6
CONTINUOUS
 62
     5
 10
-197.4887364642947
 20
54.283733408279659
 30
0.0
 11
-197.4849289607204
 21
54.298278087387423
 31
0.0
  0
LINE
  8
DETAIL
  6
CONTINUOUS
 62
     5
 10
-197.4849289607204
 20
54.298278087387423
 30
0.0
 11
-197.4803332747164
 21
54.313214410221462
 31
0.0
  0
LINE
  8
DETAIL
  6
CONTINUOUS
 62
     5
 10
-197.4803332747164
 20
54.313214410221462
 30
0.0
 11
-197.4803332747164
 21
54.313214410221462
 31
0.0
  0
LINE
  8
DETAIL
  6
CONTINUOUS
 62
     5
 10
-197.4803332747164
 20
54.313214410221462
 30
0.0
 11
-197.47488412974261
 21
54.328716149463617
 31
0.0
  0
LINE
  8
DETAIL
  6
CONTINUOUS
 62
     5
 10
-197.47488412974261
 20
54.328716149463617
 30
0.0
 11
-197.46982908255509
 21
54.341980742870419
 31
0.0
  0
LINE
  8
DETAIL
  6
CONTINUOUS
 62
     5
 10
-197.46982908255509
 20
54.341980742870419
 30
0.0
 11
-197.46982908255509
 21
54.341980742870419
 31
0.0
  0
LINE
  8
DETAIL
  6
CONTINUOUS
 62
     5
 10
-197.46982908255509
 20
54.341980742870419
 30
0.0
 11
-197.46625855808779
 21
54.350656724798682
 31
0.0
  0
LINE
  8
DETAIL
  6
CONTINUOUS
 62
     5
 10
-197.46625855808779
 20
54.350656724798682
 30
0.0
 11
-197.46332162069089
 21
54.357173350933643
 31
0.0
  0
LINE
  8
DETAIL
  6
CONTINUOUS
 62
     5
 10
-197.46332162069089
 20
54.357173350933643
 30
0.0
 11
-197.46332162069089
 21
54.357173350933643
 31
0.0
  0
LINE
  8
DETAIL
  6
CONTINUOUS
 62
     5
 10
-197.46332162069089
 20
54.357173350933643
 30
0.0
 11
-197.45996490540239
 21
54.364389020003273
 31
0.0
  0
LINE
  8
DETAIL
  6
CONTINUOUS
 62
     5
 10
-197.45996490540239
 20
54.364389020003273
 30
0.0
 11
-197.45626669059629
 21
54.372097981583472
 31
0.0
  0
LINE
  8
DETAIL
  6
CONTINUOUS
 62
     5
 10
-197.45626669059629
 20
54.372097981583472
 30
0.0
 11
-197.45626669059629
 21
54.372097981583472
 31
0.0
  0
LINE
  8
DETAIL
  6
CONTINUOUS
 62
     5
 10
-197.45626669059629
 20
54.372097981583472
 30
0.0
 11
-197.45251335977281
 21
54.379534232264859
 31
0.0
  0
LINE
  8
DETAIL
  6
CONTINUOUS
 62
     5
 10
-197.45251335977281
 20
54.379534232264859
 30
0.0
 11
-197.4486920736006
 21
54.386754905851383
 31
0.0
  0
LINE
  8
DETAIL
  6
CONTINUOUS
 62
     5
 10
-197.4486920736006
 20
54.386754905851383
 30
0.0
 11
-197.4486920736006
 21
54.386754905851383
 31
0.0
  0
LINE
  8
DETAIL
  6
CONTINUOUS
 62
     5
 10
-197.4486920736006
 20
54.386754905851383
 30
0.0
 11
-197.4447314990376
 21
54.393965820525182
 31
0.0
  0
LINE
  8
DETAIL
  6
CONTINUOUS
 62
     5
 10
-197.4447314990376
 20
54.393965820525182
 30
0.0
 11
-197.4406255510338
 21
54.401144394768608
 31
0.0
  0
LINE
  8
DETAIL
  6
CONTINUOUS
 62
     5
 10
-197.4406255510338
 20
54.401144394768608
 30
0.0
 11
-197.4406255510338
 21
54.401144394768608
 31
0.0
  0
LINE
  8
DETAIL
  6
CONTINUOUS
 62
     5
 10
-197.4406255510338
 20
54.401144394768608
 30
0.0
 11
-197.43639401425301
 21
54.408233562535543
 31
0.0
  0
LINE
  8
DETAIL
  6
CONTINUOUS
 62
     5
 10
-197.43639401425301
 20
54.408233562535543
 30
0.0
 11
-197.43209490422541
 21
54.415266719366173
 31
0.0
  0
LINE
  8
DETAIL
  6
CONTINUOUS
 62
     5
 10
-197.43209490422541
 20
54.415266719366173
 30
0.0
 11
-197.42731126970031
 21
54.422725904344361
 31
0.0
  0
LINE
  8
DETAIL
  6
CONTINUOUS
 62
     5
 10
-197.42731126970031
 20
54.422725904344361
 30
0.0
 11
-197.42243669843501
 21
54.430153349358527
 31
0.0
  0
LINE
  8
DETAIL
  6
CONTINUOUS
 62
     5
 10
-197.42243669843501
 20
54.430153349358527
 30
0.0
 11
-197.42243669843501
 21
54.430153349358527
 31
0.0
  0
LINE
  8
DETAIL
  6
CONTINUOUS
 62
     5
 10
-197.42243669843501
 20
54.430153349358527
 30
0.0
 11
-197.41741245195229
 21
54.437510528339999
 31
0.0
  0
LINE
  8
DETAIL
  6
CONTINUOUS
 62
     5
 10
-197.41741245195229
 20
54.437510528339999
 30
0.0
 11
-197.41230858482891
 21
54.444731770797027
 31
0.0
  0
LINE
  8
DETAIL
  6
CONTINUOUS
 62
     5
 10
-197.41230858482891
 20
54.444731770797027
 30
0.0
 11
-197.41230858482891
 21
54.444731770797027
 31
0.0
  0
LINE
  8
DETAIL
  6
CONTINUOUS
 62
     5
 10
-197.41230858482891
 20
54.444731770797027
 30
0.0
 11
-197.40716161186199
 21
54.45181033274207
 31
0.0
  0
LINE
  8
DETAIL
  6
CONTINUOUS
 62
     5
 10
-197.40716161186199
 20
54.45181033274207
 30
0.0
 11
-197.40174509567481
 21
54.459002320626269
 31
0.0
  0
LINE
  8
DETAIL
  6
CONTINUOUS
 62
     5
 10
-197.40174509567481
 20
54.459002320626269
 30
0.0
 11
-197.40174509567481
 21
54.459002320626269
 31
0.0
  0
LINE
  8
DETAIL
  6
CONTINUOUS
 62
     5
 10
-197.40174509567481
 20
54.459002320626269
 30
0.0
 11
-197.39599761475759
 21
54.466373489177613
 31
0.0
  0
LINE
  8
DETAIL
  6
CONTINUOUS
 62
     5
 10
-197.39599761475759
 20
54.466373489177613
 30
0.0
 11
-197.39078076324029
 21
54.472965335791059
 31
0.0
  0
LINE
  8
DETAIL
  6
CONTINUOUS
 62
     5
 10
-197.39078076324029
 20
54.472965335791059
 30
0.0
 11
-197.39078076324029
 21
54.472965335791059
 31
0.0
  0
LINE
  8
DETAIL
  6
CONTINUOUS
 62
     5
 10
-197.39078076324029
 20
54.472965335791059
 30
0.0
 11
-197.38632961156651
 21
54.478521838251481
 31
0.0
  0
LINE
  8
DETAIL
  6
CONTINUOUS
 62
     5
 10
-197.38632961156651
 20
54.478521838251481
 30
0.0
 11
-197.37945011979289
 21
54.486621153236463
 31
0.0
  0
LINE
  8
DETAIL
  6
CONTINUOUS
 62
     5
 10
-197.37945011979289
 20
54.486621153236463
 30
0.0
 11
-197.37945011979289
 21
54.486621153236463
 31
0.0
  0
LINE
  8
DETAIL
  6
CONTINUOUS
 62
     5
 10
-197.37945011979289
 20
54.486621153236463
 30
0.0
 11
-197.36740915516361
 21
54.500257159062812
 31
0.0
  0
LINE
  8
DETAIL
  6
CONTINUOUS
 62
     5
 10
-197.36740915516361
 20
54.500257159062812
 30
0.0
 11
-197.35274632405819
 21
54.516252441715103
 31
0.0
  0
LINE
  8
DETAIL
  6
CONTINUOUS
 62
     5
 10
-197.35274632405819
 20
54.516252441715103
 30
0.0
 11
-197.35274632405819
 21
54.516252441715103
 31
0.0
  0
LINE
  8
DETAIL
  6
CONTINUOUS
 62
     5
 10
-197.35274632405819
 20
54.516252441715103
 30
0.0
 11
-197.33851346941529
 21
54.530883201255392
 31
0.0
  0
LINE
  8
DETAIL
  6
CONTINUOUS
 62
     5
 10
-197.33851346941529
 20
54.530883201255392
 30
0.0
 11
-197.32453864127459
 21
54.544411386395268
 31
0.0
  0
LINE
  8
DETAIL
  6
CONTINUOUS
 62
     5
 10
-197.32453864127459
 20
54.544411386395268
 30
0.0
 11
-197.32453864127459
 21
54.544411386395268
 31
0.0
  0
LINE
  8
DETAIL
  6
CONTINUOUS
 62
     5
 10
-197.32453864127459
 20
54.544411386395268
 30
0.0
 11
-197.31003806340391
 21
54.557843765459438
 31
0.0
  0
LINE
  8
DETAIL
  6
CONTINUOUS
 62
     5
 10
-197.31003806340391
 20
54.557843765459438
 30
0.0
 11
-197.29500444737971
 21
54.571180636584593
 31
0.0
  0
LINE
  8
DETAIL
  6
CONTINUOUS
 62
     5
 10
-197.29500444737971
 20
54.571180636584593
 30
0.0
 11
-197.29500444737971
 21
54.571180636584593
 31
0.0
  0
LINE
  8
DETAIL
  6
CONTINUOUS
 62
     5
 10
-197.29500444737971
 20
54.571180636584593
 30
0.0
 11
-197.27965408714641
 21
54.584180713386793
 31
0.0
  0
LINE
  8
DETAIL
  6
CONTINUOUS
 62
     5
 10
-197.27965408714641
 20
54.584180713386793
 30
0.0
 11
-197.26432111831051
 21
54.596642841591347
 31
0.0
  0
LINE
  8
DETAIL
  6
CONTINUOUS
 62
     5
 10
-197.26432111831051
 20
54.596642841591347
 30
0.0
 11
-197.26432111831051
 21
54.596642841591347
 31
0.0
  0
LINE
  8
DETAIL
  6
CONTINUOUS
 62
     5
 10
-197.26432111831051
 20
54.596642841591347
 30
0.0
 11
-197.24905717327991
 21
54.608587385389683
 31
0.0
  0
LINE
  8
DETAIL
  6
CONTINUOUS
 62
     5
 10
-197.24905717327991
 20
54.608587385389683
 30
0.0
 11
-197.2326660300042
 21
54.620880650724082
 31
0.0
  0
LINE
  8
DETAIL
  6
CONTINUOUS
 62
     5
 10
-197.2326660300042
 20
54.620880650724082
 30
0.0
 11
-197.2326660300042
 21
54.620880650724082
 31
0.0
  0
LINE
  8
DETAIL
  6
CONTINUOUS
 62
     5
 10
-197.2326660300042
 20
54.620880650724082
 30
0.0
 11
-197.2141416351175
 21
54.634231033532387
 31
0.0
  0
LINE
  8
DETAIL
  6
CONTINUOUS
 62
     5
 10
-197.2141416351175
 20
54.634231033532387
 30
0.0
 11
-197.19448646445119
 21
54.647869347979167
 31
0.0
  0
LINE
  8
DETAIL
  6
CONTINUOUS
 62
     5
 10
-197.19448646445119
 20
54.647869347979167
 30
0.0
 11
-197.19448646445119
 21
54.647869347979167
 31
0.0
  0
LINE
  8
DETAIL
  6
CONTINUOUS
 62
     5
 10
-197.19448646445119
 20
54.647869347979167
 30
0.0
 11
-197.174895470922
 21
54.660897515833078
 31
0.0
  0
LINE
  8
DETAIL
  6
CONTINUOUS
 62
     5
 10
-197.174895470922
 20
54.660897515833078
 30
0.0
 11
-197.1553249865901
 21
54.673379471055341
 31
0.0
  0
LINE
  8
DETAIL
  6
CONTINUOUS
 62
     5
 10
-197.1553249865901
 20
54.673379471055341
 30
0.0
 11
-197.1553249865901
 21
54.673379471055341
 31
0.0
  0
LINE
  8
DETAIL
  6
CONTINUOUS
 62
     5
 10
-197.1553249865901
 20
54.673379471055341
 30
0.0
 11
-197.1354793835454
 21
54.6855674656465
 31
0.0
  0
LINE
  8
DETAIL
  6
CONTINUOUS
 62
     5
 10
-197.1354793835454
 20
54.6855674656465
 30
0.0
 11
-197.11529381484829
 21
54.697505011572048
 31
0.0
  0
LINE
  8
DETAIL
  6
CONTINUOUS
 62
     5
 10
-197.11529381484829
 20
54.697505011572048
 30
0.0
 11
-197.11529381484829
 21
54.697505011572048
 31
0.0
  0
LINE
  8
DETAIL
  6
CONTINUOUS
 62
     5
 10
-197.11529381484829
 20
54.697505011572048
 30
0.0
 11
-197.09484000304531
 21
54.709151672775533
 31
0.0
  0
LINE
  8
DETAIL
  6
CONTINUOUS
 62
     5
 10
-197.09484000304531
 20
54.709151672775533
 30
0.0
 11
-197.07450516765141
 21
54.720339961149421
 31
0.0
  0
LINE
  8
DETAIL
  6
CONTINUOUS
 62
     5
 10
-197.07450516765141
 20
54.720339961149421
 30
0.0
 11
-197.07450516765141
 21
54.720339961149421
 31
0.0
  0
LINE
  8
DETAIL
  6
CONTINUOUS
 62
     5
 10
-197.07450516765141
 20
54.720339961149421
 30
0.0
 11
-197.0543822102122
 21
54.731049862633427
 31
0.0
  0
LINE
  8
DETAIL
  6
CONTINUOUS
 62
     5
 10
-197.0543822102122
 20
54.731049862633427
 30
0.0
 11
-197.0330712634258
 21
54.74197831140782
 31
0.0
  0
LINE
  8
DETAIL
  6
CONTINUOUS
 62
     5
 10
-197.0330712634258
 20
54.74197831140782
 30
0.0
 11
-197.0330712634258
 21
54.74197831140782
 31
0.0
  0
LINE
  8
DETAIL
  6
CONTINUOUS
 62
     5
 10
-197.0330712634258
 20
54.74197831140782
 30
0.0
 11
-197.00938937948499
 21
54.753702849097643
 31
0.0
  0
LINE
  8
DETAIL
  6
CONTINUOUS
 62
     5
 10
-197.00938937948499
 20
54.753702849097643
 30
0.0
 11
-196.9845140574121
 21
54.765606498865743
 31
0.0
  0
LINE
  8
DETAIL
  6
CONTINUOUS
 62
     5
 10
-196.9845140574121
 20
54.765606498865743
 30
0.0
 11
-196.9845140574121
 21
54.765606498865743
 31
0.0
  0
LINE
  8
DETAIL
  6
CONTINUOUS
 62
     5
 10
-196.9845140574121
 20
54.765606498865743
 30
0.0
 11
-196.95984548109411
 21
54.77696779729763
 31
0.0
  0
LINE
  8
DETAIL
  6
CONTINUOUS
 62
     5
 10
-196.95984548109411
 20
54.77696779729763
 30
0.0
 11
-196.93531412705121
 21
54.787841853129521
 31
0.0
  0
LINE
  8
DETAIL
  6
CONTINUOUS
 62
     5
 10
-196.93531412705121
 20
54.787841853129521
 30
0.0
 11
-196.93531412705121
 21
54.787841853129521
 31
0.0
  0
LINE
  8
DETAIL
  6
CONTINUOUS
 62
     5
 10
-196.93531412705121
 20
54.787841853129521
 30
0.0
 11
-196.91056121411791
 21
54.798432776144637
 31
0.0
  0
LINE
  8
DETAIL
  6
CONTINUOUS
 62
     5
 10
-196.91056121411791
 20
54.798432776144637
 30
0.0
 11
-196.88554063776371
 21
54.808764108162677
 31
0.0
  0
LINE
  8
DETAIL
  6
CONTINUOUS
 62
     5
 10
-196.88554063776371
 20
54.808764108162677
 30
0.0
 11
-196.88554063776371
 21
54.808764108162677
 31
0.0
  0
LINE
  8
DETAIL
  6
CONTINUOUS
 62
     5
 10
-196.88554063776371
 20
54.808764108162677
 30
0.0
 11
-196.86033921282461
 21
54.81880067393854
 31
0.0
  0
LINE
  8
DETAIL
  6
CONTINUOUS
 62
     5
 10
-196.86033921282461
 20
54.81880067393854
 30
0.0
 11
-196.8352627549701
 21
54.828452997928032
 31
0.0
  0
LINE
  8
DETAIL
  6
CONTINUOUS
 62
     5
 10
-196.8352627549701
 20
54.828452997928032
 30
0.0
 11
-196.8352627549701
 21
54.828452997928032
 31
0.0
  0
LINE
  8
DETAIL
  6
CONTINUOUS
 62
     5
 10
-196.8352627549701
 20
54.828452997928032
 30
0.0
 11
-196.81037466008681
 21
54.837717471801398
 31
0.0
  0
LINE
  8
DETAIL
  6
CONTINUOUS
 62
     5
 10
-196.81037466008681
 20
54.837717471801398
 30
0.0
 11
-196.7845496440915
 21
54.846988256388613
 31
0.0
  0
LINE
  8
DETAIL
  6
CONTINUOUS
 62
     5
 10
-196.7845496440915
 20
54.846988256388613
 30
0.0
 11
-196.7845496440915
 21
54.846988256388613
 31
0.0
  0
LINE
  8
DETAIL
  6
CONTINUOUS
 62
     5
 10
-196.7845496440915
 20
54.846988256388613
 30
0.0
 11
-196.75683993041511
 21
54.856590754359559
 31
0.0
  0
LINE
  8
DETAIL
  6
CONTINUOUS
 62
     5
 10
-196.75683993041511
 20
54.856590754359559
 30
0.0
 11
-196.7281964525159
 21
54.866177566591659
 31
0.0
  0
LINE
  8
DETAIL
  6
CONTINUOUS
 62
     5
 10
-196.7281964525159
 20
54.866177566591659
 30
0.0
 11
-196.7281964525159
 21
54.866177566591659
 31
0.0
  0
LINE
  8
DETAIL
  6
CONTINUOUS
 62
     5
 10
-196.7281964525159
 20
54.866177566591659
 30
0.0
 11
-196.6997483875048
 21
54.875342708005292
 31
0.0
  0
LINE
  8
DETAIL
  6
CONTINUOUS
 62
     5
 10
-196.6997483875048
 20
54.875342708005292
 30
0.0
 11
-196.6714391770773
 21
54.884118651487597
 31
0.0
  0
LINE
  8
DETAIL
  6
CONTINUOUS
 62
     5
 10
-196.6714391770773
 20
54.884118651487597
 30
0.0
 11
-196.6714391770773
 21
54.884118651487597
 31
0.0
  0
LINE
  8
DETAIL
  6
CONTINUOUS
 62
     5
 10
-196.6714391770773
 20
54.884118651487597
 30
0.0
 11
-196.64297751913799
 21
54.892622217860662
 31
0.0
  0
LINE
  8
DETAIL
  6
CONTINUOUS
 62
     5
 10
-196.64297751913799
 20
54.892622217860662
 30
0.0
 11
-196.61431887183551
 21
54.90086916172163
 31
0.0
  0
LINE
  8
DETAIL
  6
CONTINUOUS
 62
     5
 10
-196.61431887183551
 20
54.90086916172163
 30
0.0
 11
-196.61431887183551
 21
54.90086916172163
 31
0.0
  0
LINE
  8
DETAIL
  6
CONTINUOUS
 62
     5
 10
-196.61431887183551
 20
54.90086916172163
 30
0.0
 11
-196.58553005698869
 21
54.908841422844723
 31
0.0
  0
LINE
  8
DETAIL
  6
CONTINUOUS
 62
     5
 10
-196.58553005698869
 20
54.908841422844723
 30
0.0
 11
-196.5568765908491
 21
54.916486747939189
 31
0.0
  0
LINE
  8
DETAIL
  6
CONTINUOUS
 62
     5
 10
-196.5568765908491
 20
54.916486747939189
 30
0.0
 11
-196.5568765908491
 21
54.916486747939189
 31
0.0
  0
LINE
  8
DETAIL
  6
CONTINUOUS
 62
     5
 10
-196.5568765908491
 20
54.916486747939189
 30
0.0
 11
-196.52841327878181
 21
54.923803795069723
 31
0.0
  0
LINE
  8
DETAIL
  6
CONTINUOUS
 62
     5
 10
-196.52841327878181
 20
54.923803795069723
 30
0.0
 11
-196.49915338817721
 21
54.931029060785932
 31
0.0
  0
LINE
  8
DETAIL
  6
CONTINUOUS
 62
     5
 10
-196.49915338817721
 20
54.931029060785932
 30
0.0
 11
-196.49915338817721
 21
54.931029060785932
 31
0.0
  0
LINE
  8
DETAIL
  6
CONTINUOUS
 62
     5
 10
-196.49915338817721
 20
54.931029060785932
 30
0.0
 11
-196.46826611996349
 21
54.938357195523622
 31
0.0
  0
LINE
  8
DETAIL
  6
CONTINUOUS
 62
     5
 10
-196.46826611996349
 20
54.938357195523622
 30
0.0
 11
-196.43658594719679
 21
54.945577626781869
 31
0.0
  0
LINE
  8
DETAIL
  6
CONTINUOUS
 62
     5
 10
-196.43658594719679
 20
54.945577626781869
 30
0.0
 11
-196.43658594719679
 21
54.945577626781869
 31
0.0
  0
LINE
  8
DETAIL
  6
CONTINUOUS
 62
     5
 10
-196.43658594719679
 20
54.945577626781869
 30
0.0
 11
-196.4051031106155
 21
54.952444969753287
 31
0.0
  0
LINE
  8
DETAIL
  6
CONTINUOUS
 62
     5
 10
-196.4051031106155
 20
54.952444969753287
 30
0.0
 11
-196.37376564956199
 21
54.958979813345188
 31
0.0
  0
LINE
  8
DETAIL
  6
CONTINUOUS
 62
     5
 10
-196.37376564956199
 20
54.958979813345188
 30
0.0
 11
-196.37376564956199
 21
54.958979813345188
 31
0.0
  0
LINE
  8
DETAIL
  6
CONTINUOUS
 62
     5
 10
-196.37376564956199
 20
54.958979813345188
 30
0.0
 11
-196.34231632804651
 21
54.965253505490409
 31
0.0
  0
LINE
  8
DETAIL
  6
CONTINUOUS
 62
     5
 10
-196.34231632804651
 20
54.965253505490409
 30
0.0
 11
-196.3107190101509
 21
54.971274456508347
 31
0.0
  0
LINE
  8
DETAIL
  6
CONTINUOUS
 62
     5
 10
-196.3107190101509
 20
54.971274456508347
 30
0.0
 11
-196.3107190101509
 21
54.971274456508347
 31
0.0
  0
LINE
  8
DETAIL
  6
CONTINUOUS
 62
     5
 10
-196.3107190101509
 20
54.971274456508347
 30
0.0
 11
-196.2790322852521
 21
54.977031786500667
 31
0.0
  0
LINE
  8
DETAIL
  6
CONTINUOUS
 62
     5
 10
-196.2790322852521
 20
54.977031786500667
 30
0.0
 11
-196.24747254384141
 21
54.982500392304019
 31
0.0
  0
LINE
  8
DETAIL
  6
CONTINUOUS
 62
     5
 10
-196.24747254384141
 20
54.982500392304019
 30
0.0
 11
-196.24747254384141
 21
54.982500392304019
 31
0.0
  0
LINE
  8
DETAIL
  6
CONTINUOUS
 62
     5
 10
-196.24747254384141
 20
54.982500392304019
 30
0.0
 11
-196.21608255055679
 21
54.987681572607237
 31
0.0
  0
LINE
  8
DETAIL
  6
CONTINUOUS
 62
     5
 10
-196.21608255055679
 20
54.987681572607237
 30
0.0
 11
-196.18405276551161
 21
54.992696456764627
 31
0.0
  0
LINE
  8
DETAIL
  6
CONTINUOUS
 62
     5
 10
-196.18405276551161
 20
54.992696456764627
 30
0.0
 11
-196.18405276551161
 21
54.992696456764627
 31
0.0
  0
LINE
  8
DETAIL
  6
CONTINUOUS
 62
     5
 10
-196.18405276551161
 20
54.992696456764627
 30
0.0
 11
-196.15070247307801
 21
54.997643676958887
 31
0.0
  0
LINE
  8
DETAIL
  6
CONTINUOUS
 62
     5
 10
-196.15070247307801
 20
54.997643676958887
 30
0.0
 11
-196.11671855919249
 21
55.002412046021853
 31
0.0
  0
LINE
  8
DETAIL
  6
CONTINUOUS
 62
     5
 10
-196.11671855919249
 20
55.002412046021853
 30
0.0
 11
-196.11671855919249
 21
55.002412046021853
 31
0.0
  0
LINE
  8
DETAIL
  6
CONTINUOUS
 62
     5
 10
-196.11671855919249
 20
55.002412046021853
 30
0.0
 11
-196.08291389809949
 21
55.006873038999402
 31
0.0
  0
LINE
  8
DETAIL
  6
CONTINUOUS
 62
     5
 10
-196.08291389809949
 20
55.006873038999402
 30
0.0
 11
-196.0492377157166
 21
55.011038599144968
 31
0.0
  0
LINE
  8
DETAIL
  6
CONTINUOUS
 62
     5
 10
-196.0492377157166
 20
55.011038599144968
 30
0.0
 11
-196.0492377157166
 21
55.011038599144968
 31
0.0
  0
LINE
  8
DETAIL
  6
CONTINUOUS
 62
     5
 10
-196.0492377157166
 20
55.011038599144968
 30
0.0
 11
-196.01547635577509
 21
55.014946687519341
 31
0.0
  0
LINE
  8
DETAIL
  6
CONTINUOUS
 62
     5
 10
-196.01547635577509
 20
55.014946687519341
 30
0.0
 11
-195.98162828159761
 21
55.018598868203298
 31
0.0
  0
LINE
  8
DETAIL
  6
CONTINUOUS
 62
     5
 10
-195.98162828159761
 20
55.018598868203298
 30
0.0
 11
-195.98162828159761
 21
55.018598868203298
 31
0.0
  0
LINE
  8
DETAIL
  6
CONTINUOUS
 62
     5
 10
-195.98162828159761
 20
55.018598868203298
 30
0.0
 11
-195.94774877889549
 21
55.021988885960809
 31
0.0
  0
LINE
  8
DETAIL
  6
CONTINUOUS
 62
     5
 10
-195.94774877889549
 20
55.021988885960809
 30
0.0
 11
-195.91390830334959
 21
55.025115605266592
 31
0.0
  0
LINE
  8
DETAIL
  6
CONTINUOUS
 62
     5
 10
-195.91390830334959
 20
55.025115605266592
 30
0.0
 11
-195.91390830334959
 21
55.025115605266592
 31
0.0
  0
LINE
  8
DETAIL
  6
CONTINUOUS
 62
     5
 10
-195.91390830334959
 20
55.025115605266592
 30
0.0
 11
-195.88011290326639
 21
55.027983150057707
 31
0.0
  0
LINE
  8
DETAIL
  6
CONTINUOUS
 62
     5
 10
-195.88011290326639
 20
55.027983150057707
 30
0.0
 11
-195.84609582748601
 21
55.030611562404367
 31
0.0
  0
LINE
  8
DETAIL
  6
CONTINUOUS
 62
     5
 10
-195.84609582748601
 20
55.030611562404367
 30
0.0
 11
-195.84609582748601
 21
55.030611562404367
 31
0.0
  0
LINE
  8
DETAIL
  6
CONTINUOUS
 62
     5
 10
-195.84609582748601
 20
55.030611562404367
 30
0.0
 11
-195.8116350909481
 21
55.033016498232428
 31
0.0
  0
LINE
  8
DETAIL
  6
CONTINUOUS
 62
     5
 10
-195.8116350909481
 20
55.033016498232428
 30
0.0
 11
-195.7769605724616
 21
55.035180150750421
 31
0.0
  0
LINE
  8
DETAIL
  6
CONTINUOUS
 62
     5
 10
-195.7769605724616
 20
55.035180150750421
 30
0.0
 11
-195.7769605724616
 21
55.035180150750421
 31
0.0
  0
LINE
  8
DETAIL
  6
CONTINUOUS
 62
     5
 10
-195.7769605724616
 20
55.035180150750421
 30
0.0
 11
-195.74234313740169
 21
55.037081597947243
 31
0.0
  0
LINE
  8
DETAIL
  6
CONTINUOUS
 62
     5
 10
-195.74234313740169
 20
55.037081597947243
 30
0.0
 11
-195.7077657335486
 21
55.038720919647183
 31
0.0
  0
LINE
  8
DETAIL
  6
CONTINUOUS
 62
     5
 10
-195.7077657335486
 20
55.038720919647183
 30
0.0
 11
-195.7077657335486
 21
55.038720919647183
 31
0.0
  0
LINE
  8
DETAIL
  6
CONTINUOUS
 62
     5
 10
-195.7077657335486
 20
55.038720919647183
 30
0.0
 11
-195.67315858507979
 21
55.040104269487067
 31
0.0
  0
LINE
  8
DETAIL
  6
CONTINUOUS
 62
     5
 10
-195.67315858507979
 20
55.040104269487067
 30
0.0
 11
-195.63852893936419
 21
55.041241094521183
 31
0.0
  0
LINE
  8
DETAIL
  6
CONTINUOUS
 62
     5
 10
-195.63852893936419
 20
55.041241094521183
 30
0.0
 11
-195.63852893936419
 21
55.041241094521183
 31
0.0
  0
LINE
  8
DETAIL
  6
CONTINUOUS
 62
     5
 10
-195.63852893936419
 20
55.041241094521183
 30
0.0
 11
-195.6038982557757
 21
55.042133121282177
 31
0.0
  0
LINE
  8
DETAIL
  6
CONTINUOUS
 62
     5
 10
-195.6038982557757
 20
55.042133121282177
 30
0.0
 11
-195.56926781852471
 21
55.042747900799441
 31
0.0
  0
LINE
  8
DETAIL
  6
CONTINUOUS
 62
     5
 10
-195.56926781852471
 20
55.042747900799441
 30
0.0
 11
-195.56926781852471
 21
55.042747900799441
 31
0.0
  0
LINE
  8
DETAIL
  6
CONTINUOUS
 62
     5
 10
-195.56926781852471
 20
55.042747900799441
 30
0.0
 11
-195.53463478739729
 21
55.043077792376153
 31
0.0
  0
LINE
  8
DETAIL
  6
CONTINUOUS
 62
     5
 10
-195.53463478739729
 20
55.043077792376153
 30
0.0
 11
-195.49999999964791
 21
55.043248563908492
 31
0.0
  0
LINE
  8
DETAIL
  6
CONTINUOUS
 62
     5
 10
-208.21512296302811
 20
55.175517476936648
 30
0.0
 11
-202.91925694014091
 21
59.273508750000019
 31
0.0
  0
LINE
  8
DETAIL
  6
CONTINUOUS
 62
     5
 10
-210.0
 20
-84.537517679577377
 30
0.0
 11
-210.0
 21
51.537512157570518
 31
0.0
  0
LINE
  8
DETAIL
  6
CONTINUOUS
 62
     5
 10
-201.60000000000011
 20
-99.500000000175987
 30
0.0
 11
-201.60000000000011
 21
66.499963842253464
 31
0.0
  0
LINE
  8
DETAIL
  6
CONTINUOUS
 62
     5
 10
-208.21512302640849
 20
-88.175522949823971
 30
0.0
 11
-202.91925689313371
 21
-92.273514456338035
 31
0.0
  0
LINE
  8
DETAIL
  6
CONTINUOUS
 62
     5
 10
-163.50000000000011
 20
-95.000000000175987
 30
0.0
 11
-163.50000000000011
 21
63.499927804753497
 31
0.0
  0
LINE
  8
DETAIL
  6
CONTINUOUS
 62
     5
 10
-160.299999999824
 20
63.499927804753497
 30
0.0
 11
-160.299999999824
 21
-63.499931691549357
 31
0.0
  0
LINE
  8
DETAIL
  6
CONTINUOUS
 62
     5
 10
-159.79999999964801
 20
62.700000000000053
 30
0.0
 11
-159.79999999964801
 21
53.300000000176169
 31
0.0
  0
LINE
  8
DETAIL
  6
CONTINUOUS
 62
     5
 10
-159.79999999964801
 20
-62.700000000000053
 30
0.0
 11
-159.79999999964801
 21
-53.300000000175942
 31
0.0
  0
LINE
  8
DETAIL
  6
CONTINUOUS
 62
     5
 10
-192.76769576118659
 20
-101.09999999999989
 30
0.0
 11
-199.99999999964791
 21
-101.09999999999989
 31
0.0
  0
LINE
  8
DETAIL
  6
CONTINUOUS
 62
     5
 10
-197.49999999982401
 20
-81.734534199823884
 30
0.0
 11
-195.49999999964791
 21
-81.734534199823884
 31
0.0
  0
LINE
  8
DETAIL
  6
CONTINUOUS
 62
     5
 10
-197.49999999982401
 20
-81.423951345422438
 30
0.0
 11
-195.49999999964791
 21
-81.423951345422438
 31
0.0
  0
LINE
  8
DETAIL
  6
CONTINUOUS
 62
     5
 10
-197.49999999982401
 20
-70.143424284506864
 30
0.0
 11
-195.49999999964791
 21
-70.143424284506864
 31
0.0
  0
LINE
  8
DETAIL
  6
CONTINUOUS
 62
     5
 10
-159.79999999964801
 20
-62.700000000000053
 30
0.0
 11
-160.299999999824
 21
-62.700000000000053
 31
0.0
  0
LINE
  8
DETAIL
  6
CONTINUOUS
 62
     5
 10
-159.79999999964801
 20
-53.300000000175942
 30
0.0
 11
-160.299999999824
 21
-53.300000000175942
 31
0.0
  0
LINE
  8
DETAIL
  6
CONTINUOUS
 62
     5
 10
-163.50000000000011
 20
-22.058160610035198
 30
0.0
 11
-160.299999999824
 21
-22.058160610035198
 31
0.0
  0
LINE
  8
DETAIL
  6
CONTINUOUS
 62
     5
 10
-163.50000000000011
 20
-13.40020863116183
 30
0.0
 11
-160.299999999824
 21
-13.40020863116183
 31
0.0
  0
LINE
  8
DETAIL
  6
CONTINUOUS
 62
     5
 10
-163.50000000000011
 20
21.377691491725269
 30
0.0
 11
-160.299999999824
 21
21.377691491725269
 31
0.0
  0
LINE
  8
DETAIL
  6
CONTINUOUS
 62
     5
 10
-163.50000000000011
 20
29.632669030457691
 30
0.0
 11
-160.299999999824
 21
29.632669030457691
 31
0.0
  0
LINE
  8
DETAIL
  6
CONTINUOUS
 62
     5
 10
-159.79999999964801
 20
53.300000000176169
 30
0.0
 11
-160.299999999824
 21
53.300000000176169
 31
0.0
  0
LINE
  8
DETAIL
  6
CONTINUOUS
 62
     5
 10
-159.79999999964801
 20
62.700000000000053
 30
0.0
 11
-160.299999999824
 21
62.700000000000053
 31
0.0
  0
LINE
  8
DETAIL
  6
CONTINUOUS
 62
     5
 10
-168.49999999964791
 20
66.999999999824013
 30
0.0
 11
-170.49999999982401
 21
66.999999999824013
 31
0.0
  0
LINE
  8
DETAIL
  6
CONTINUOUS
 62
     5
 10
-195.49999999964791
 20
68.100000000000136
 30
0.0
 11
-199.99999999964791
 21
68.100000000000136
 31
0.0
  0
LINE
  8
DETAIL
  6
CONTINUOUS
 62
     5
 10
-130.5
 20
120.0987193943663
 30
0.0
 11
-60.000000000000107
 21
120.0987193943663
 31
0.0
  0
LINE
  8
DETAIL
  6
CONTINUOUS
 62
     5
 10
-60.000000000000107
 20
137.7763889244718
 30
0.0
 11
-130.5
 21
137.7763889244718
 31
0.0
  0
LINE
  8
DETAIL
  6
CONTINUOUS
 62
     5
 10
-130.5
 20
139.89770926795771
 30
0.0
 11
-60.000000000000107
 21
139.89770926795771
 31
0.0
  0
ARC
  8
DETAIL
  6
CONTINUOUS
 62
     5
 10
-164.3224999996479
 20
-57.999999999824013
 30
0.0
 40
6.5225000001760414
 50
313.89739816710642
 51
46.102601832893633
  0
ARC
  8
DETAIL
  6
CONTINUOUS
 62
     5
 10
-168.49999999964791
 20
-95.000000000175987
 30
0.0
 40
5.0000000001760121
 50
285.16956700075201
 51
0.0
  0
ARC
  8
DETAIL
  6
CONTINUOUS
 62
     5
 10
-205.399999999648
 20
-84.537517679577377
 30
0.0
 40
4.5999999998239502
 50
180.0
 51
232.26695538230291
  0
ARC
  8
DETAIL
  6
CONTINUOUS
 62
     5
 10
-204.99999999982401
 20
-94.962474873063229
 30
0.0
 40
3.3999999998239621
 50
0.0
 51
52.266955382302903
  0
ARC
  8
DETAIL
  6
CONTINUOUS
 62
     5
 10
-199.99999999964791
 20
-99.500000000175987
 30
0.0
 40
1.5999999998239789
 50
180.0
 51
270.0
  0
ARC
  8
DETAIL
  6
CONTINUOUS
 62
     5
 10
-164.3224999996479
 20
57.999999999824013
 30
0.0
 40
6.5225000001760414
 50
313.89739816710642
 51
46.102601832893633
  0
ARC
  8
DETAIL
  6
CONTINUOUS
 62
     5
 10
-168.49999999964791
 20
62.000000000176207
 30
0.0
 40
5.0000000001760441
 50
0.0
 51
90.0
  0
ARC
  8
DETAIL
  6
CONTINUOUS
 62
     5
 10
-205.399999999648
 20
51.537512157570518
 30
0.0
 40
4.5999999998239529
 50
127.7330436176031
 51
180.0
  0
ARC
  8
DETAIL
  6
CONTINUOUS
 62
     5
 10
-204.99999999982401
 20
61.96246920369731
 30
0.0
 40
3.399999999823931
 50
307.73304361760302
 51
0.0
  0
ARC
  8
DETAIL
  6
CONTINUOUS
 62
     5
 10
-199.99999999964791
 20
66.500000000175987
 30
0.0
 40
1.5999999998239649
 50
90.0
 51
180.0
  0
LINE
  8
DETAIL
  6
CONTINUOUS
 62
     5
 10
-163.50000000000011
 20
-63.500000000175987
 30
0.0
 11
-160.299999999824
 21
-63.500000000175987
 31
0.0
  0
LINE
  8
DETAIL
  6
CONTINUOUS
 62
     5
 10
-163.50000000000011
 20
63.500000000175987
 30
0.0
 11
-160.299999999824
 21
63.500000000175987
 31
0.0
  0
LINE
  8
BASIS
  6
DASHDOT
 62
     6
 10
59.762058159181827
 20
0.0
 30
0.0
 11
-220.21443774022461
 21
0.0
 31
0.0
  0
LINE
  8
DETAIL
  6
CONTINUOUS
 62
     5
 10
-60.000000000064567
 20
137.7763889244948
 30
0.0
 11
-30.00000000006446
 21
122.2200397384033
 31
0.0
  0
LINE
  8
DETAIL
  6
CONTINUOUS
 62
     5
 10
-30.00000000006446
 20
139.89770926798079
 30
0.0
 11
-60.000000000064567
 21
120.09871939438921
 31
0.0
  0
ARC
  8
DETAIL
  6
CONTINUOUS
 62
     5
 10
-132.80967560189939
 20
80.938523625299638
 30
0.0
 40
39.228131327279947
 50
86.598145484832457
 51
163.903969386379
  0
ARC
  8
DETAIL
  6
CONTINUOUS
 62
     5
 10
-132.1762367764554
 20
70.155434197642933
 30
0.0
 40
67.641727416805963
 50
88.580001886136031
 51
159.41704985129149
  0
ARC
  8
DETAIL
  6
CONTINUOUS
 62
     5
 10
-132.72139055710451
 20
74.096318755033792
 30
0.0
 40
65.838875821519849
 50
88.066484848480272
 51
162.46229451639871
  0
ARC
  8
DETAIL
  6
CONTINUOUS
 62
     5
 10
-15.85346782691715
 20
125.1947924670031
 30
0.0
 40
2.978359527218601
 50
267.17996913213398
 51
343.34881022567799
  0
ARC
  8
DETAIL
  6
CONTINUOUS
 62
     5
 10
-15.75629552128277
 20
126.1180302459555
 30
0.0
 40
6.0242422757157659
 50
267.68152594227871
 51
342.84725342222339
  0
ARC
  8
DETAIL
  6
CONTINUOUS
 62
     5
 10
-6.6630859096270569
 20
141.52207528788961
 30
0.0
 40
3.6825478361323398
 50
87.461759680980691
 51
154.9776372165492
  0
ARC
  8
DETAIL
  6
CONTINUOUS
 62
     5
 10
-6.477873086701095
 20
153.19071688268971
 30
0.0
 40
7.9897373949198451
 50
269.84132389918688
 51
295.80391012842688
  0
ARC
  8
DETAIL
  6
CONTINUOUS
 62
     5
 10
-7.4429514266466867
 20
141.52973187903541
 30
0.0
 40
5.7691557749567552
 50
92.604694515698981
 51
164.4152851363078
  0
ARC
  8
DETAIL
  6
CONTINUOUS
 62
     5
 10
-7.5560632907078116
 20
152.18780095347611
 30
0.0
 40
4.8971429838875631
 50
268.2556768025774
 51
325.91948446885368
  0
ARC
  8
DETAIL
  6
CONTINUOUS
 62
     5
 10
-7.0824573528118444
 20
158.75265127528971
 30
0.0
 40
6.2478928690540112
 50
89.243809783406235
 51
161.2849695739834
  0
ARC
  8
DETAIL
  6
CONTINUOUS
 62
     5
 10
-6.7500000003085461
 20
168.59146149999231
 30
0.0
 40
3.6001521781441701
 50
266.01809001997401
 51
334.43529391091579
  0
ARC
  8
DETAIL
  6
CONTINUOUS
 62
     5
 10
-45.000000000000803
 20
97.937145263830644
 30
0.0
 40
44.561069685819596
 50
70.32912164928976
 51
109.6708783507103
  0
ARC
  8
DETAIL
  6
CONTINUOUS
 62
     5
 10
-41.046426687697192
 20
109.2218925905742
 30
0.0
 40
32.604129667744473
 50
70.195943949786567
 51
109.5888064591317
  0
ARC
  8
DETAIL
  6
CONTINUOUS
 62
     5
 10
-61.372776845166193
 20
158.830403255058
 30
0.0
 40
21.098721186117441
 50
273.7305541120549
 51
296.44248558788951
  0
ARC
  8
DETAIL
  6
CONTINUOUS
 62
     5
 10
-45.000000000000803
 20
160.06342003792221
 30
0.0
 40
42.686968708238332
 50
249.42731858781241
 51
290.57268141218748
  0
ARC
  8
DETAIL
  6
CONTINUOUS
 62
     5
 10
-47.425760862901939
 20
135.76195503413439
 30
0.0
 40
18.304475483558239
 50
269.70431647952211
 51
300.91163741835908
  0
ARC
  8
DETAIL
  6
CONTINUOUS
 62
     5
 10
-28.62722314954414
 20
101.1660253913569
 30
0.0
 40
21.098721203247639
 50
93.730554123425975
 51
116.44248558121841
  0
ARC
  8
DETAIL
  6
CONTINUOUS
 62
     5
 10
-45.34325519939739
 20
166.22576305001459
 30
0.0
 40
25.580490864517209
 50
287.82025853628659
 51
352.19074874775953
  0
LINE
  8
DETAIL
  6
CONTINUOUS
 62
     5
 10
-60.000000000064567
 20
-137.7763889244948
 30
0.0
 11
-30.00000000006446
 21
-122.2200397384033
 31
0.0
  0
LINE
  8
DETAIL
  6
CONTINUOUS
 62
     5
 10
-30.00000000006446
 20
-139.89770926798079
 30
0.0
 11
-60.000000000064567
 21
-120.09871939438921
 31
0.0
  0
ARC
  8
DETAIL
  6
CONTINUOUS
 62
     5
 10
-132.80967560189939
 20
-80.938523625299638
 30
0.0
 40
39.228131327279968
 50
196.096030613621
 51
273.40185451516749
  0
ARC
  8
DETAIL
  6
CONTINUOUS
 62
     5
 10
-132.1762367764554
 20
-70.155434197642933
 30
0.0
 40
67.641727416805963
 50
200.58295014870851
 51
271.41999811386398
  0
ARC
  8
DETAIL
  6
CONTINUOUS
 62
     5
 10
-132.72139055710451
 20
-74.096318755033792
 30
0.0
 40
65.838875821519849
 50
197.53770548360129
 51
271.93351515151971
  0
ARC
  8
DETAIL
  6
CONTINUOUS
 62
     5
 10
-15.85346782691715
 20
-125.1947924670031
 30
0.0
 40
2.978359527218601
 50
16.65118977432202
 51
92.820030867866052
  0
ARC
  8
DETAIL
  6
CONTINUOUS
 62
     5
 10
-15.75629552128277
 20
-126.1180302459555
 30
0.0
 40
6.0242422757157659
 50
17.152746577776451
 51
92.318474057721275
  0
ARC
  8
DETAIL
  6
CONTINUOUS
 62
     5
 10
-6.6630859096270569
 20
-141.52207528788961
 30
0.0
 40
3.6825478361323398
 50
205.0223627834508
 51
272.53824031901928
  0
ARC
  8
DETAIL
  6
CONTINUOUS
 62
     5
 10
-6.477873086701095
 20
-153.19071688268971
 30
0.0
 40
7.9897373949198451
 50
64.196089871573037
 51
90.158676100813025
  0
ARC
  8
DETAIL
  6
CONTINUOUS
 62
     5
 10
-7.4429514266466867
 20
-141.52973187903541
 30
0.0
 40
5.7691557749567552
 50
195.58471486369211
 51
267.39530548430099
  0
ARC
  8
DETAIL
  6
CONTINUOUS
 62
     5
 10
-7.5560632907078116
 20
-152.18780095347611
 30
0.0
 40
4.8971429838875631
 50
34.080515531146297
 51
91.74432319742256
  0
ARC
  8
DETAIL
  6
CONTINUOUS
 62
     5
 10
-7.0824573528118444
 20
-158.75265127528971
 30
0.0
 40
6.2478928690540112
 50
198.7150304260166
 51
270.75619021659378
  0
ARC
  8
DETAIL
  6
CONTINUOUS
 62
     5
 10
-6.7500000003085461
 20
-168.59146149999231
 30
0.0
 40
3.6001521781441701
 50
25.56470608908419
 51
93.981909980026032
  0
ARC
  8
DETAIL
  6
CONTINUOUS
 62
     5
 10
-45.000000000000803
 20
-97.937145263830644
 30
0.0
 40
44.561069685819596
 50
250.32912164928979
 51
289.67087835071032
  0
ARC
  8
DETAIL
  6
CONTINUOUS
 62
     5
 10
-41.046426687697192
 20
-109.2218925905742
 30
0.0
 40
32.604129667744473
 50
250.41119354086831
 51
289.80405605021338
  0
ARC
  8
DETAIL
  6
CONTINUOUS
 62
     5
 10
-61.372776845166193
 20
-158.830403255058
 30
0.0
 40
21.098721186117441
 50
63.557514412110329
 51
86.269445887945139
  0
ARC
  8
DETAIL
  6
CONTINUOUS
 62
     5
 10
-45.000000000000803
 20
-160.06342003792221
 30
0.0
 40
42.686968708238332
 50
69.427318587812422
 51
110.57268141218761
  0
ARC
  8
DETAIL
  6
CONTINUOUS
 62
     5
 10
-47.425760862901939
 20
-135.76195503413439
 30
0.0
 40
18.304475483558239
 50
59.088362581640958
 51
90.295683520477937
  0
ARC
  8
DETAIL
  6
CONTINUOUS
 62
     5
 10
-28.62722314954414
 20
-101.1660253913569
 30
0.0
 40
21.098721203247639
 50
243.55751441878161
 51
266.26944587657403
  0
ARC
  8
DETAIL
  6
CONTINUOUS
 62
     5
 10
-45.34325519939739
 20
-166.22576305001459
 30
0.0
 40
25.580490864517209
 50
7.8092512522405384
 51
72.179741463713441
  0
ARC
  8
OUTLINE
  6
CONTINUOUS
 62
     3
 10
-132.72139055710079
 20
74.096318755033622
 30
0.0
 40
65.838875821519849
 50
88.066484848480272
 51
162.46229451639871
  0
ARC
  8
OUTLINE
  6
CONTINUOUS
 62
     3
 10
-44.999999999997037
 20
97.93714526383053
 30
0.0
 40
44.561069685819596
 50
70.32912164928976
 51
109.6708783507103
  0
ARC
  8
OUTLINE
  6
CONTINUOUS
 62
     3
 10
-45.343255199393639
 20
166.22576305001451
 30
0.0
 40
25.580490864517209
 50
287.82025853628659
 51
352.19074874775953
  0
ARC
  8
OUTLINE
  6
CONTINUOUS
 62
     3
 10
-132.72139055710079
 20
-74.096318755033906
 30
0.0
 40
65.838875821519849
 50
197.53770548360129
 51
271.93351515151971
  0
ARC
  8
OUTLINE
  6
CONTINUOUS
 62
     3
 10
-44.999999999997037
 20
-97.937145263830757
 30
0.0
 40
44.561069685819596
 50
250.32912164928979
 51
289.67087835071032
  0
ARC
  8
OUTLINE
  6
CONTINUOUS
 62
     3
 10
-45.343255199393639
 20
-166.22576305001471
 30
0.0
 40
25.580490864517209
 50
7.8092512522405384
 51
72.179741463713441
  0
ENDSEC
  0
EOF
