  0
SECTION
  2
HEADER
  9
$ACADVER
  1
AC1009
  9
$DWGCODEPAGE
  3
dos932
  9
$INSBASE
 10
0.0
 20
0.0
 30
0.0
  9
$EXTMIN
 10
-523.88303996283139
 20
-372.98582805435399
 30
-0.0015257624927045
  9
$EXTMAX
 10
988.8519402347174
 20
557.23572575631079
 30
0.0022888765696933
  9
$LIMMIN
 10
-2970.0
 20
-2100.0
  9
$LIMMAX
 10
2970.0
 20
2100.0
  9
$ORTHOMODE
 70
     1
  9
$REGENMODE
 70
     1
  9
$FILLMODE
 70
     1
  9
$QTEXTMODE
 70
     0
  9
$MIRRTEXT
 70
     0
  9
$LTSCALE
 40
20.0
  9
$ATTMODE
 70
     1
  9
$TEXTSIZE
 40
64.0
  9
$TRACEWID
 40
0.05
  9
$TEXTSTYLE
  7
STANDARD
  9
$CLAYER
  8
SIZE
  9
$CELTYPE
  6
CONTINUOUS
  9
$CECOLOR
 62
     7
  9
$DIMSCALE
 40
1.0
  9
$DIMASZ
 40
12.0
  9
$DIMEXO
 40
20.0
  9
$DIMDLI
 40
200.0
  9
$DIMRND
 40
0.0
  9
$DIMDLE
 40
0.0
  9
$DIMEXE
 40
20.0
  9
$DIMTP
 40
0.0
  9
$DIMTM
 40
0.0
  9
$DIMTXT
 40
64.0
  9
$DIMCEN
 40
0.09
  9
$DIMTSZ
 40
0.0
  9
$DIMTOL
 70
     0
  9
$DIMLIM
 70
     0
  9
$DIMTIH
 70
     0
  9
$DIMTOH
 70
     0
  9
$DIMSE1
 70
     0
  9
$DIMSE2
 70
     0
  9
$DIMTAD
 70
     1
  9
$DIMZIN
 70
     8
  9
$DIMBLK
  1

  9
$DIMASO
 70
     1
  9
$DIMSHO
 70
     0
  9
$DIMPOST
  1

  9
$DIMAPOST
  1

  9
$DIMALT
 70
     0
  9
$DIMALTD
 70
     2
  9
$DIMALTF
 40
25.399999999999999
  9
$DIMLFAC
 40
1.0
  9
$DIMTOFL
 70
     1
  9
$DIMTVP
 40
0.0
  9
$DIMTIX
 70
     1
  9
$DIMSOXD
 70
     0
  9
$DIMSAH
 70
     0
  9
$DIMBLK1
  1

  9
$DIMBLK2
  1

  9
$DIMSTYLE
  2
STANDARD
  9
$DIMCLRD
 70
     7
  9
$DIMCLRE
 70
     7
  9
$DIMCLRT
 70
     7
  9
$DIMTFAC
 40
1.0
  9
$DIMGAP
 40
25.0
  9
$LUNITS
 70
     2
  9
$LUPREC
 70
     4
  9
$SKETCHINC
 40
0.1
  9
$FILLETRAD
 40
3.0
  9
$AUNITS
 70
     1
  9
$AUPREC
 70
     3
  9
$MENU
  1
ACAD
  9
$ELEVATION
 40
0.0
  9
$PELEVATION
 40
0.0
  9
$THICKNESS
 40
50.0
  9
$LIMCHECK
 70
     0
  9
$CHAMFERA
 40
0.0
  9
$CHAMFERB
 40
0.0
  9
$SKPOLY
 70
     0
  9
$TDCREATE
 40
2453019.62301037
  9
$TDUPDATE
 40
2458949.440531968
  9
$TDINDWG
 40
1.7140669097
  9
$TDUSRTIMER
 40
1.7140669097
  9
$USRTIMER
 70
     1
  9
$ANGBASE
 50
0.0
  9
$ANGDIR
 70
     0
  9
$PDMODE
 70
     3
  9
$PDSIZE
 40
-2.0
  9
$PLINEWID
 40
0.0
  9
$SPLFRAME
 70
     0
  9
$SPLINETYPE
 70
     6
  9
$SPLINESEGS
 70
     8
  9
$SURFTAB1
 70
     6
  9
$SURFTAB2
 70
     6
  9
$SURFTYPE
 70
     6
  9
$SURFU
 70
     6
  9
$SURFV
 70
     6
  9
$UCSNAME
  2

  9
$UCSORG
 10
0.0
 20
0.0
 30
0.0
  9
$UCSXDIR
 10
1.0
 20
0.0
 30
0.0
  9
$UCSYDIR
 10
0.0
 20
1.0
 30
0.0
  9
$PUCSNAME
  2

  9
$PUCSORG
 10
0.0
 20
0.0
 30
0.0
  9
$PUCSXDIR
 10
1.0
 20
0.0
 30
0.0
  9
$PUCSYDIR
 10
0.0
 20
1.0
 30
0.0
  9
$USERI1
 70
     0
  9
$USERI2
 70
     0
  9
$USERI3
 70
     0
  9
$USERI4
 70
     0
  9
$USERI5
 70
     0
  9
$USERR1
 40
20.0
  9
$USERR2
 40
0.0
  9
$USERR3
 40
0.0
  9
$USERR4
 40
0.0
  9
$USERR5
 40
0.0
  9
$WORLDVIEW
 70
     1
  9
$SHADEDGE
 70
     3
  9
$SHADEDIF
 70
    70
  9
$TILEMODE
 70
     1
  9
$MAXACTVP
 70
    48
  9
$PINSBASE
 10
0.0
 20
0.0
 30
0.0
  9
$PLIMCHECK
 70
     0
  9
$PEXTMIN
 10
-100000000000000000000.0
 20
-100000000000000000000.0
 30
-100000000000000000000.0
  9
$PEXTMAX
 10
100000000000000000000.0
 20
100000000000000000000.0
 30
100000000000000000000.0
  9
$PLIMMIN
 10
0.0
 20
0.0
  9
$PLIMMAX
 10
12.0
 20
9.0
  9
$UNITMODE
 70
     0
  9
$VISRETAIN
 70
     0
  9
$PLINEGEN
 70
     0
  9
$PSLTSCALE
 70
     0
  9
$TREEDEPTH
 70
  3020
  9
$ATTDIA
 70
     0
  9
$ATTREQ
 70
     1
  9
$BLIPMODE
 70
     1
  9
$COORDS
 70
     1
  9
$DRAGMODE
 70
     2
  9
$OSMODE
 70
     0
  9
$HANDLING
 70
     0
  9
$HANDSEED
  5
111E1
  0
ENDSEC
  0
SECTION
  2
TABLES
  0
TABLE
  2
LTYPE
 70
     2
  0
LTYPE
  2
CONTINUOUS
 70
     0
  3
実線
 72
    65
 73
     0
 40
0.0
  0
LTYPE
  2
DASHDOT
 70
     0
  3
____ _ ____ _ ____ _ ____ _ ____ _ ____ _ ____
 72
    65
 73
     4
 40
5.5
 49
4.0
 49
-0.6
 49
0.3
 49
-0.6
  0
ENDTAB
  0
TABLE
  2
LAYER
 70
    12
  0
LAYER
  2
0
 70
     0
 62
     7
  6
CONTINUOUS
  0
LAYER
  2
BASIS
 70
     0
 62
     6
  6
DASHDOT
  0
LAYER
  2
OUTLINE
 70
     0
 62
     3
  6
CONTINUOUS
  0
LAYER
  2
DETAIL
 70
     0
 62
     5
  6
CONTINUOUS
  0
LAYER
  2
SIZE
 70
     0
 62
    30
  6
CONTINUOUS
  0
LAYER
  2
ARRANGE
 70
     0
 62
     1
  6
CONTINUOUS
  0
LAYER
  2
DEFPOINTS
 70
     0
 62
     7
  6
CONTINUOUS
  0
LAYER
  2
ETC
 70
     0
 62
    61
  6
CONTINUOUS
  0
LAYER
  2
FIX
 70
     0
 62
    11
  6
CONTINUOUS
  0
LAYER
  2
NOTE
 70
     0
 62
     4
  6
CONTINUOUS
  0
LAYER
  2
SERVICESPACE
 70
    64
 62
     2
  6
DASHDOT
  0
LAYER
  2
SYMBOLLINE
 70
    64
 62
    15
  6
CONTINUOUS
  0
ENDTAB
  0
TABLE
  2
STYLE
 70
     1
  0
STYLE
  2
STANDARD
 70
     0
 40
64.0
 41
0.9
 50
0.0
 71
     0
 42
64.0
  3
SIMPLEX.shx
  4
BIGFONT.shx
  0
ENDTAB
  0
TABLE
  2
APPID
 70
    19
  0
APPID
  2
ACAD
 70
     0
  0
APPID
  2
AUTOCAD_POSTSCRIPT_FIGURE
 70
     0
  0
APPID
  2
ACAD_EXEMPT_FROM_CAD_STANDARDS
 70
     0
  0
APPID
  2
ACAD_PSEXT
 70
     0
  0
APPID
  2
ACAUTHENVIRON
 70
     0
  0
APPID
  2
GENIUS_GENOENT_13
 70
     0
  0
APPID
  2
GENIUS_GENCFG_13
 70
     0
  0
APPID
  2
GENIUS_GENCFG0_13
 70
     0
  0
APPID
  2
GENIUS_GENCFG1_13
 70
     0
  0
APPID
  2
GENIUS_GENCFG2_13
 70
     0
  0
APPID
  2
GENIUS_GENCFG3_13
 70
     0
  0
APPID
  2
GENIUS_GENCFG4_13
 70
     0
  0
APPID
  2
GENIUS_GEVCFG0_13
 70
     0
  0
APPID
  2
CONTENTBLOCKICON
 70
     0
  0
APPID
  2
CONTENTBLOCKDESCRIPTION
 70
     0
  0
APPID
  2
ACAD_NAV_VCDISPLAY
 70
     0
  0
APPID
  2
ACAD_MLEADERVER
 70
     0
  0
APPID
  2
ACDBDYNAMICBLOCKTRUENAME
 70
     0
  0
APPID
  2
ACDBDYNAMICBLOCKGUID
 70
     0
  0
ENDTAB
  0
TABLE
  2
DIMSTYLE
 70
     1
  0
DIMSTYLE
  2
STANDARD
 70
     0
  3

  4

  5
_ORIGIN
  6

  7

 40
1.0
 41
12.0
 42
20.0
 43
200.0
 44
20.0
 45
0.0
 46
0.0
 47
0.0
 48
0.0
140
64.0
141
0.09
142
0.0
143
25.399999999999999
144
1.0
145
0.0
146
1.0
147
25.0
 71
     0
 72
     0
 73
     0
 74
     0
 75
     0
 76
     0
 77
     1
 78
     8
170
     0
171
     2
172
     1
173
     0
174
     1
175
     0
176
     7
177
     7
178
     7
  0
ENDTAB
  0
TABLE
  2
VIEW
 70
     1
  0
VIEW
  2
ALL
 70
     0
 40
4282.6198079999986
 10
0.0
 20
41.309904000000003
 41
5940.0
 11
0.0
 21
0.0
 31
1.0
 12
0.0
 22
0.0
 32
0.0
 42
50.0
 43
0.0
 44
0.0
 50
0.0
 71
     0
  0
ENDTAB
  0
TABLE
  2
UCS
 70
     0
  0
ENDTAB
  0
TABLE
  2
VPORT
 70
     1
  0
VPORT
  2
*ACTIVE
 70
     0
 10
0.0
 20
0.0
 11
1.0
 21
1.0
 12
232.48445013594301
 22
92.124948850978399
 13
0.0
 23
0.0
 14
1.0
 24
1.0
 15
0.0
 25
0.0
 16
0.0
 26
0.0
 36
1.0
 17
0.0
 27
0.0
 37
0.0
 40
936.38876853206148
 41
1.747787610619469
 42
50.0
 43
0.0
 44
0.0
 50
0.0
 51
0.0
 71
     0
 72
  1000
 73
     1
 74
     3
 75
     0
 76
     0
 77
     0
 78
     0
  0
ENDTAB
  0
ENDSEC
  0
SECTION
  2
BLOCKS
  0
BLOCK
  8
0
  2
_ORIGIN
 70
     0
 10
0.0
 20
0.0
 30
0.0
  3
_ORIGIN
  1
_ORIGIN
  0
CIRCLE
  8
0
  6
CONTINUOUS
 62
     7
 10
0.0
 20
0.0
 30
0.0
 40
0.5
  0
LINE
  8
0
  6
CONTINUOUS
 62
     7
 10
0.0
 20
0.0
 30
0.0
 11
-1.0
 21
0.0
 31
0.0
  0
ENDBLK
  8
0
  0
ENDSEC
  0
SECTION
  2
ENTITIES
  0
POINT
  8
ARRANGE
  6
CONTINUOUS
 62
     1
 10
0.0
 20
0.0
 30
0.0
  0
CIRCLE
  8
ARRANGE
  6
CONTINUOUS
 62
     1
 10
0.0
 20
0.0
 30
0.0
 40
40.0
  0
TEXT
  8
ETC
  6
CONTINUOUS
 62
    61
 10
237.11329688568549
 20
492.97663547859912
 30
0.0
 40
64.0
  1
EWF-25ATA2-Q_6
 41
0.9
  0
TEXT
  8
ETC
  6
CONTINUOUS
 62
    61
 10
232.92730288568509
 20
375.02132546376788
 30
0.0
 40
64.0
  1
産業扇
 41
0.9
  0
TEXT
  8
ETC
  6
CONTINUOUS
 62
    61
 10
283.62870113424128
 20
266.87255257754259
 30
0.0
 40
40.0
  1
EWF-25ATA2-Q
 41
0.9
  0
LINE
  8
NOTE
  6
CONTINUOUS
 62
     4
 10
-165.0
 20
14.83140142247521
 30
0.0
 11
-165.0
 21
-29.966219760505741
 31
0.0
  0
LINE
  8
NOTE
  6
CONTINUOUS
 62
     4
 10
165.0
 20
12.390011101496381
 30
0.0
 11
165.0
 21
-29.966219760505741
 31
0.0
  0
LINE
  8
SIZE
  6
CONTINUOUS
 62
    30
 10
-184.99999999964791
 20
18.5
 30
0.0
 11
-184.99999999964791
 21
264.96668498765212
 31
0.0
  0
LINE
  8
SIZE
  6
CONTINUOUS
 62
    30
 10
184.99153674126009
 20
18.659116781001391
 30
0.0
 11
184.99153674126009
 21
264.96668498765212
 31
0.0
  0
LINE
  8
SIZE
  6
CONTINUOUS
 62
    30
 10
-172.99999999964791
 20
244.96668498765209
 30
0.0
 11
172.99153674126009
 21
244.96668498765209
 31
0.0
  0
CIRCLE
  8
SIZE
  6
CONTINUOUS
 62
    30
 10
-184.99999999964791
 20
244.96668498765209
 30
0.0
 40
6.0
  0
LINE
  8
SIZE
  6
CONTINUOUS
 62
    30
 10
-184.99999999964791
 20
244.96668498765209
 30
0.0
 11
-172.99999999964791
 21
244.96668498765209
 31
0.0
  0
CIRCLE
  8
SIZE
  6
CONTINUOUS
 62
    30
 10
184.99153674126009
 20
244.96668498765209
 30
0.0
 40
6.0
  0
LINE
  8
SIZE
  6
CONTINUOUS
 62
    30
 10
184.99153674126009
 20
244.96668498765209
 30
0.0
 11
172.99153674126009
 21
244.96668498765209
 31
0.0
  0
TEXT
  8
SIZE
  6
CONTINUOUS
 62
    30
 10
-74.057142857371474
 20
269.96668498765212
 30
0.0
 40
64.0
  1
370
 41
0.9
 72
     1
 11
-0.0000000002286242
 21
269.96668498765212
 31
0.0
  0
POINT
  8
DEFPOINTS
  6
CONTINUOUS
 62
    30
 10
-184.99999999964791
 20
-1.5
 30
0.0
  0
POINT
  8
DEFPOINTS
  6
CONTINUOUS
 62
    30
 10
184.99153674126009
 20
-1.3408832189986131
 30
0.0
  0
POINT
  8
DEFPOINTS
  6
CONTINUOUS
 62
    30
 10
184.99153674126009
 20
244.96668498765209
 30
0.0
  0
LINE
  8
SIZE
  6
CONTINUOUS
 62
    30
 10
-165.0
 20
29.70070445635406
 30
0.0
 11
-165.0
 21
151.39419561661629
 31
0.0
  0
LINE
  8
SIZE
  6
CONTINUOUS
 62
    30
 10
165.0
 20
32.390011101496377
 30
0.0
 11
165.0
 21
151.39419561661629
 31
0.0
  0
LINE
  8
SIZE
  6
CONTINUOUS
 62
    30
 10
-153.0
 20
131.39419561661629
 30
0.0
 11
153.0
 21
131.39419561661629
 31
0.0
  0
CIRCLE
  8
SIZE
  6
CONTINUOUS
 62
    30
 10
-165.0
 20
131.39419561661629
 30
0.0
 40
6.0
  0
LINE
  8
SIZE
  6
CONTINUOUS
 62
    30
 10
-165.0
 20
131.39419561661629
 30
0.0
 11
-153.0
 21
131.39419561661629
 31
0.0
  0
CIRCLE
  8
SIZE
  6
CONTINUOUS
 62
    30
 10
165.0
 20
131.39419561661629
 30
0.0
 40
6.0
  0
LINE
  8
SIZE
  6
CONTINUOUS
 62
    30
 10
165.0
 20
131.39419561661629
 30
0.0
 11
153.0
 21
131.39419561661629
 31
0.0
  0
TEXT
  8
SIZE
  6
CONTINUOUS
 62
    30
 10
-74.057142857142864
 20
156.39419561661629
 30
0.0
 40
64.0
  1
330
 41
0.9
 72
     1
 11
0.0
 21
156.39419561661629
 31
0.0
  0
POINT
  8
DEFPOINTS
  6
CONTINUOUS
 62
    30
 10
-165.0
 20
9.7007044563540603
 30
0.0
  0
POINT
  8
DEFPOINTS
  6
CONTINUOUS
 62
    30
 10
165.0
 20
12.390011101496381
 30
0.0
  0
POINT
  8
DEFPOINTS
  6
CONTINUOUS
 62
    30
 10
165.0
 20
131.39419561661629
 30
0.0
  0
CIRCLE
  8
FIX
  6
CONTINUOUS
 62
    11
 10
-165.0
 20
0.0
 30
0.0
 40
7.0
  0
CIRCLE
  8
FIX
  6
CONTINUOUS
 62
    11
 10
165.0
 20
0.0
 30
0.0
 40
7.0
  0
LINE
  8
SIZE
  6
CONTINUOUS
 62
    30
 10
203.50000000017599
 20
0.0
 30
0.0
 11
305.01153923418218
 21
-0.0000000000000568
 31
0.0
  0
LINE
  8
SIZE
  6
CONTINUOUS
 62
    30
 10
199.00000000017599
 20
-9.9999999998241265
 30
0.0
 11
305.01153923418218
 21
-9.9999999998241833
 31
0.0
  0
LINE
  8
SIZE
  6
CONTINUOUS
 62
    30
 10
285.01153923418218
 20
-21.99999999982418
 30
0.0
 11
285.01153923418218
 21
-33.999999999824183
 31
0.0
  0
LINE
  8
SIZE
  6
CONTINUOUS
 62
    30
 10
285.01153923418218
 20
11.99999999999994
 30
0.0
 11
285.01153923418218
 21
156.28571428571419
 31
0.0
  0
LINE
  8
SIZE
  6
CONTINUOUS
 62
    30
 10
285.01153923418218
 20
-9.9999999998241833
 30
0.0
 11
285.01153923418218
 21
-0.0000000000000568
 31
0.0
  0
CIRCLE
  8
SIZE
  6
CONTINUOUS
 62
    30
 10
285.01153923418218
 20
-9.9999999998241833
 30
0.0
 40
6.0
  0
LINE
  8
SIZE
  6
CONTINUOUS
 62
    30
 10
285.01153923418218
 20
-9.9999999998241833
 30
0.0
 11
285.01153923418218
 21
-21.99999999982418
 31
0.0
  0
CIRCLE
  8
SIZE
  6
CONTINUOUS
 62
    30
 10
285.01153923418218
 20
-0.0000000000000568
 30
0.0
 40
6.0
  0
LINE
  8
SIZE
  6
CONTINUOUS
 62
    30
 10
285.01153923418218
 20
-0.0000000000000568
 30
0.0
 11
285.01153923418218
 21
11.99999999999994
 31
0.0
  0
TEXT
  8
SIZE
  6
CONTINUOUS
 62
    30
 10
260.01153923418218
 20
49.000000000000092
 30
0.0
 40
64.0
  1
10
 50
90.0
 41
0.9
 72
     1
 11
260.01153923418218
 21
90.142857142857224
 31
0.0
  0
POINT
  8
DEFPOINTS
  6
CONTINUOUS
 62
    30
 10
183.50000000017599
 20
0.0
 30
0.0
  0
POINT
  8
DEFPOINTS
  6
CONTINUOUS
 62
    30
 10
179.00000000017599
 20
-9.9999999998241265
 30
0.0
  0
POINT
  8
DEFPOINTS
  6
CONTINUOUS
 62
    30
 10
285.01153923418218
 20
-9.9999999998241833
 30
0.0
  0
LINE
  8
SIZE
  6
CONTINUOUS
 62
    30
 10
199.00000000017599
 20
-9.9999999998241265
 30
0.0
 11
305.01153923418218
 21
-9.9999999998241833
 31
0.0
  0
LINE
  8
SIZE
  6
CONTINUOUS
 62
    30
 10
187.99995204888279
 20
-19.99999999984766
 30
0.0
 11
305.01153923418218
 21
-19.99999999984766
 31
0.0
  0
LINE
  8
SIZE
  6
CONTINUOUS
 62
    30
 10
285.01153923418218
 20
2.0000000001758171
 30
0.0
 11
285.01153923418218
 21
14.00000000017582
 31
0.0
  0
LINE
  8
SIZE
  6
CONTINUOUS
 62
    30
 10
285.01153923418218
 20
-31.99999999984766
 30
0.0
 11
285.01153923418201
 21
-242.4285714284191
 31
0.0
  0
LINE
  8
SIZE
  6
CONTINUOUS
 62
    30
 10
285.01153923418218
 20
-9.9999999998241833
 30
0.0
 11
285.01153923418218
 21
-19.99999999984766
 31
0.0
  0
CIRCLE
  8
SIZE
  6
CONTINUOUS
 62
    30
 10
285.01153923418218
 20
-9.9999999998241833
 30
0.0
 40
6.0
  0
LINE
  8
SIZE
  6
CONTINUOUS
 62
    30
 10
285.01153923418218
 20
-9.9999999998241833
 30
0.0
 11
285.01153923418218
 21
2.0000000001758171
 31
0.0
  0
CIRCLE
  8
SIZE
  6
CONTINUOUS
 62
    30
 10
285.01153923418218
 20
-19.99999999984766
 30
0.0
 40
6.0
  0
LINE
  8
SIZE
  6
CONTINUOUS
 62
    30
 10
285.01153923418218
 20
-19.99999999984766
 30
0.0
 11
285.01153923418218
 21
-31.99999999984766
 31
0.0
  0
TEXT
  8
SIZE
  6
CONTINUOUS
 62
    30
 10
260.01153923418218
 20
-217.42857142841899
 30
0.0
 40
64.0
  1
10
 50
90.0
 41
0.9
 72
     1
 11
260.01153923418218
 21
-176.28571428556191
 31
0.0
  0
POINT
  8
DEFPOINTS
  6
CONTINUOUS
 62
    30
 10
179.00000000017599
 20
-9.9999999998241265
 30
0.0
  0
POINT
  8
DEFPOINTS
  6
CONTINUOUS
 62
    30
 10
167.99995204888279
 20
-19.99999999984766
 30
0.0
  0
POINT
  8
DEFPOINTS
  6
CONTINUOUS
 62
    30
 10
285.01153923418218
 20
-19.99999999984766
 30
0.0
  0
LINE
  8
SIZE
  6
CONTINUOUS
 62
    30
 10
203.50000000017599
 20
0.0
 30
0.0
 11
454.52782115711852
 21
-0.0000000000000568
 31
0.0
  0
LINE
  8
SIZE
  6
CONTINUOUS
 62
    30
 10
140.09871939436621
 20
-109.5
 30
0.0
 11
454.52782115711852
 21
-109.5000000000001
 31
0.0
  0
LINE
  8
SIZE
  6
CONTINUOUS
 62
    30
 10
434.52782115711852
 20
-12.00000000000006
 30
0.0
 11
434.52782115711852
 21
-97.500000000000057
 31
0.0
  0
LINE
  8
SIZE
  6
CONTINUOUS
 62
    30
 10
434.52782115711852
 20
-109.5000000000001
 30
0.0
 11
434.52782115711852
 21
-301.67783925122848
 31
0.0
  0
CIRCLE
  8
SIZE
  6
CONTINUOUS
 62
    30
 10
434.52782115711852
 20
-0.0000000000000568
 30
0.0
 40
6.0
  0
LINE
  8
SIZE
  6
CONTINUOUS
 62
    30
 10
434.52782115711852
 20
-0.0000000000000568
 30
0.0
 11
434.52782115711852
 21
-12.00000000000006
 31
0.0
  0
CIRCLE
  8
SIZE
  6
CONTINUOUS
 62
    30
 10
434.52782115711852
 20
-109.5000000000001
 30
0.0
 40
6.0
  0
LINE
  8
SIZE
  6
CONTINUOUS
 62
    30
 10
434.52782115711852
 20
-109.5000000000001
 30
0.0
 11
434.52782115711852
 21
-97.500000000000114
 31
0.0
  0
TEXT
  8
SIZE
  6
CONTINUOUS
 62
    30
 10
409.52782115711852
 20
-276.67783925122842
 30
0.0
 40
64.0
  1
110
 50
90.0
 41
0.9
 72
     1
 11
409.52782115711852
 21
-213.5921249655141
 31
0.0
  0
POINT
  8
DEFPOINTS
  6
CONTINUOUS
 62
    30
 10
183.50000000017599
 20
0.0
 30
0.0
  0
POINT
  8
DEFPOINTS
  6
CONTINUOUS
 62
    30
 10
120.0987193943662
 20
-109.5
 30
0.0
  0
POINT
  8
DEFPOINTS
  6
CONTINUOUS
 62
    30
 10
434.52782115711852
 20
-109.5000000000001
 30
0.0
  0
LINE
  8
SIZE
  6
CONTINUOUS
 62
    30
 10
-203.499999999648
 20
0.0000000000001137
 30
0.0
 11
-273.704441193712
 21
0.0000000000001137
 31
0.0
  0
LINE
  8
SIZE
  6
CONTINUOUS
 62
    30
 10
-55.17946417467374
 20
-210.8943083639829
 30
0.0
 11
-273.70444119371211
 21
-210.89430836398279
 31
0.0
  0
LINE
  8
SIZE
  6
CONTINUOUS
 62
    30
 10
-253.704441193712
 20
-11.99999999999989
 30
0.0
 11
-253.70444119371211
 21
-198.89430836398279
 31
0.0
  0
CIRCLE
  8
SIZE
  6
CONTINUOUS
 62
    30
 10
-253.704441193712
 20
0.0000000000001137
 30
0.0
 40
6.0
  0
LINE
  8
SIZE
  6
CONTINUOUS
 62
    30
 10
-253.704441193712
 20
0.0000000000001137
 30
0.0
 11
-253.704441193712
 21
-11.99999999999989
 31
0.0
  0
CIRCLE
  8
SIZE
  6
CONTINUOUS
 62
    30
 10
-253.70444119371211
 20
-210.89430836398279
 30
0.0
 40
6.0
  0
LINE
  8
SIZE
  6
CONTINUOUS
 62
    30
 10
-253.70444119371211
 20
-210.89430836398279
 30
0.0
 11
-253.70444119371211
 21
-198.89430836398279
 31
0.0
  0
TEXT
  8
SIZE
  6
CONTINUOUS
 62
    30
 10
-278.704441193712
 20
-157.07857142848329
 30
0.0
 40
64.0
  1
211
 50
90.0
 41
0.9
 72
     1
 11
-278.704441193712
 21
-100.8499999999119
 31
0.0
  0
POINT
  8
DEFPOINTS
  6
CONTINUOUS
 62
    30
 10
-183.499999999648
 20
0.0000000000001137
 30
0.0
  0
POINT
  8
DEFPOINTS
  6
CONTINUOUS
 62
    30
 10
-35.17946417467374
 20
-210.8943083639829
 30
0.0
  0
POINT
  8
DEFPOINTS
  6
CONTINUOUS
 62
    30
 10
-253.70444119371211
 20
-210.89430836398279
 30
0.0
  0
TEXT
  8
NOTE
  6
CONTINUOUS
 62
     4
 10
-511.84870452064968
 20
89.632665428528526
 30
0.0
 40
64.0
  1
4-φ10
 41
0.9
  0
LINE
  8
NOTE
  6
CONTINUOUS
 62
     4
 10
-172.93813827906831
 20
8.9992200029997775
 30
0.0
 11
-221.10359287950141
 21
63.602894977615513
 31
0.0
  0
LINE
  8
NOTE
  6
CONTINUOUS
 62
     4
 10
-221.10359287950141
 20
63.602894977615513
 30
0.0
 11
-523.53771521590147
 21
63.602894977615513
 31
0.0
  0
LINE
  8
NOTE
  6
CONTINUOUS
 62
     4
 10
-167.76339863963219
 20
5.5631220774380381
 30
0.0
 11
-165.0
 21
0.0
 31
0.0
  0
LINE
  8
NOTE
  6
CONTINUOUS
 62
     4
 10
-165.0
 20
0.0
 30
0.0
 11
-170.17473963943601
 21
3.436097925561739
 31
0.0
  0
LINE
  8
NOTE
  6
CONTINUOUS
 62
     4
 10
-165.0
 20
0.0
 30
0.0
 11
-172.93813827906831
 21
8.9992200029997775
 31
0.0
  0
ARC
  8
OUTLINE
  6
CONTINUOUS
 62
     3
 10
183.5000000001755
 20
-1.5
 30
0.0
 40
1.5
 50
270.0
 51
90.0
  0
ARC
  8
OUTLINE
  6
CONTINUOUS
 62
     3
 10
-183.50000000017641
 20
-1.5
 30
0.0
 40
1.5
 50
90.0
 51
270.0
  0
LINE
  8
OUTLINE
  6
CONTINUOUS
 62
     3
 10
183.5000000001755
 20
0.0
 30
0.0
 11
-183.50000000017641
 21
0.0
 31
0.0
  0
LINE
  8
OUTLINE
  6
CONTINUOUS
 62
     3
 10
-182.00000000017641
 20
-6.9999999998240128
 30
0.0
 11
-182.00000000017641
 21
-3.0
 31
0.0
  0
ARC
  8
OUTLINE
  6
CONTINUOUS
 62
     3
 10
-179.00000000017641
 20
-6.9999999998240128
 30
0.0
 40
3.0
 50
180.0
 51
270.0
  0
ARC
  8
OUTLINE
  6
CONTINUOUS
 62
     3
 10
-168.0
 20
-16.5
 30
0.0
 40
3.500000000176442
 50
180.0
 51
270.0
  0
LINE
  8
OUTLINE
  6
CONTINUOUS
 62
     3
 10
-171.50000000017641
 20
-16.5
 30
0.0
 11
-171.50000000017641
 21
-12.999999999824009
 31
0.0
  0
LINE
  8
OUTLINE
  6
CONTINUOUS
 62
     3
 10
-182.00000000017641
 20
-3.0
 30
0.0
 11
-183.50000000017641
 21
-3.0
 31
0.0
  0
ARC
  8
OUTLINE
  6
CONTINUOUS
 62
     3
 10
-174.50000000017641
 20
-12.999999999824009
 30
0.0
 40
3.0
 50
0.0
 51
90.0
  0
LINE
  8
OUTLINE
  6
CONTINUOUS
 62
     3
 10
-174.50000000017641
 20
-9.9999999998240128
 30
0.0
 11
-179.00000000017641
 21
-9.9999999998240128
 31
0.0
  0
LINE
  8
OUTLINE
  6
CONTINUOUS
 62
     3
 10
-162.74999999996541
 20
-19.999999999648029
 30
0.0
 11
-168.0
 21
-19.999999999648029
 31
0.0
  0
ARC
  8
OUTLINE
  6
CONTINUOUS
 62
     3
 10
-139.25000000017641
 20
-107.4999999998241
 30
0.0
 40
2.0000000001763349
 50
108.9111054259094
 51
251.1016413318041
  0
LINE
  8
OUTLINE
  6
CONTINUOUS
 62
     3
 10
-139.89770926795839
 20
-105.60778629489189
 30
0.0
 11
-139.89770926795839
 21
-60.0
 31
0.0
  0
LINE
  8
OUTLINE
  6
CONTINUOUS
 62
     3
 10
-139.89770926795839
 20
-130.50000000000011
 30
0.0
 11
-139.89770926795839
 21
-109.3922137047562
 31
0.0
  0
ARC
  8
OUTLINE
  6
CONTINUOUS
 62
     3
 10
-66.500000000176442
 20
-199.999999999648
 30
0.0
 40
1.599999999823922
 50
180.0
 51
270.0
  0
LINE
  8
OUTLINE
  6
CONTINUOUS
 62
     3
 10
-93.935768491128556
 20
-195.49999999939129
 30
0.0
 11
-68.100000000000364
 21
-195.499999999648
 31
0.0
  0
LINE
  8
OUTLINE
  6
CONTINUOUS
 62
     3
 10
-68.100000000000364
 20
-195.499999999648
 30
0.0
 11
-68.100000000000364
 21
-199.999999999648
 31
0.0
  0
LINE
  8
OUTLINE
  6
CONTINUOUS
 62
     3
 10
-61.962469203696863
 20
-201.59999999999991
 30
0.0
 11
-66.499963842254147
 21
-201.59999999999991
 31
0.0
  0
ARC
  8
OUTLINE
  6
CONTINUOUS
 62
     3
 10
-61.962469203696863
 20
-204.99999999982401
 30
0.0
 40
3.399999999823784
 50
37.733043617607471
 51
90.0
  0
LINE
  8
OUTLINE
  6
CONTINUOUS
 62
     3
 10
-55.17551747693733
 20
-208.21512296302811
 30
0.0
 11
-59.273508750000467
 21
-202.91925694014071
 31
0.0
  0
ARC
  8
OUTLINE
  6
CONTINUOUS
 62
     3
 10
-51.5375121575712
 20
-205.39999999964769
 30
0.0
 40
4.5999999998240808
 50
217.73304361760739
 51
270.0
  0
ARC
  8
OUTLINE
  6
CONTINUOUS
 62
     3
 10
139.2500000001755
 20
-107.4999999998241
 30
0.0
 40
2.0000000001759481
 50
288.89835866819601
 51
71.088894574104032
  0
LINE
  8
OUTLINE
  6
CONTINUOUS
 62
     3
 10
139.89770926795791
 20
-60.0
 30
0.0
 11
139.89770926795791
 21
-105.6077862948914
 31
0.0
  0
LINE
  8
OUTLINE
  6
CONTINUOUS
 62
     3
 10
139.89770926795791
 20
-109.3922137047567
 30
0.0
 11
139.89770926795791
 21
-130.50000000000011
 31
0.0
  0
LINE
  8
OUTLINE
  6
CONTINUOUS
 62
     3
 10
171.5000000001755
 20
-12.999999999824009
 30
0.0
 11
171.5000000001755
 21
-16.5
 31
0.0
  0
ARC
  8
OUTLINE
  6
CONTINUOUS
 62
     3
 10
168.0
 20
-16.5
 30
0.0
 40
3.5000000001759868
 50
270.0
 51
0.0
  0
LINE
  8
OUTLINE
  6
CONTINUOUS
 62
     3
 10
168.0
 20
-19.999999999648029
 30
0.0
 11
162.75078653450649
 21
-19.999999999648029
 31
0.0
  0
ARC
  8
OUTLINE
  6
CONTINUOUS
 62
     3
 10
179.0000000001755
 20
-6.9999999998240128
 30
0.0
 40
3.0
 50
270.0
 51
0.0
  0
LINE
  8
OUTLINE
  6
CONTINUOUS
 62
     3
 10
183.5000000001755
 20
-3.0
 30
0.0
 11
182.0000000001755
 21
-3.0
 31
0.0
  0
LINE
  8
OUTLINE
  6
CONTINUOUS
 62
     3
 10
182.0000000001755
 20
-3.0
 30
0.0
 11
182.0000000001755
 21
-6.9999999998240128
 31
0.0
  0
ARC
  8
OUTLINE
  6
CONTINUOUS
 62
     3
 10
174.5000000001755
 20
-12.999999999824009
 30
0.0
 40
3.0
 50
90.0
 51
180.0
  0
LINE
  8
OUTLINE
  6
CONTINUOUS
 62
     3
 10
179.0000000001755
 20
-9.9999999998240128
 30
0.0
 11
174.5000000001755
 21
-9.9999999998240128
 31
0.0
  0
ARC
  8
OUTLINE
  6
CONTINUOUS
 62
     3
 10
61.9624772334505
 20
-204.99999999982401
 30
0.0
 40
3.3999995492956341
 50
90.0
 51
142.26693960339841
  0
ARC
  8
OUTLINE
  6
CONTINUOUS
 62
     3
 10
66.500000000175532
 20
-199.999999999648
 30
0.0
 40
1.5999999998238079
 50
270.0
 51
0.0
  0
LINE
  8
OUTLINE
  6
CONTINUOUS
 62
     3
 10
59.273518287147908
 20
-202.91925684718311
 30
0.0
 11
55.175526552993688
 21
-208.21512308820411
 31
0.0
  0
LINE
  8
OUTLINE
  6
CONTINUOUS
 62
     3
 10
68.099999999999454
 20
-195.499999999648
 30
0.0
 11
93.935768490845476
 21
-195.499999999648
 31
0.0
  0
LINE
  8
OUTLINE
  6
CONTINUOUS
 62
     3
 10
68.099999999999454
 20
-199.999999999648
 30
0.0
 11
68.099999999999454
 21
-195.499999999648
 31
0.0
  0
LINE
  8
OUTLINE
  6
CONTINUOUS
 62
     3
 10
66.500000000175532
 20
-201.60000000000039
 30
0.0
 11
61.857558115299071
 21
-201.60000000000039
 31
0.0
  0
LINE
  8
OUTLINE
  6
CONTINUOUS
 62
     3
 10
51.537519453168898
 20
-210.0
 30
0.0
 11
-51.5375121575712
 21
-210.0
 31
0.0
  0
ARC
  8
OUTLINE
  6
CONTINUOUS
 62
     3
 10
51.537519453168898
 20
-205.39999999964809
 30
0.0
 40
4.6000000003522246
 50
270.0
 51
322.26696872109699
  0
LINE
  8
DETAIL
  6
CONTINUOUS
 62
     5
 10
-182.0000000001761
 20
-3.0
 30
0.0
 11
-182.0000000001761
 21
-7.0000000003519736
 31
0.0
  0
LINE
  8
DETAIL
  6
CONTINUOUS
 62
     5
 10
-176.66726188943659
 20
-3.5000000001759868
 30
0.0
 11
-176.66726188943659
 21
-3.0
 31
0.0
  0
LINE
  8
DETAIL
  6
CONTINUOUS
 62
     5
 10
-171.5000000001761
 20
-13.00000000035209
 30
0.0
 11
-171.5000000001761
 21
-16.5
 31
0.0
  0
LINE
  8
DETAIL
  6
CONTINUOUS
 62
     5
 10
-170.3033008589789
 20
-3.5000000001759868
 30
0.0
 11
-170.3033008589789
 21
-3.0
 31
0.0
  0
LINE
  8
DETAIL
  6
CONTINUOUS
 62
     5
 10
-158.9895923598591
 20
-3.5000000001759868
 30
0.0
 11
-158.9895923598591
 21
-3.0
 31
0.0
  0
LINE
  8
DETAIL
  6
CONTINUOUS
 62
     5
 10
-149.49390334542261
 20
-17.000000000175991
 30
0.0
 11
-149.49390334542261
 21
-13.00000000035209
 31
0.0
  0
LINE
  8
DETAIL
  6
CONTINUOUS
 62
     5
 10
-144.4939033457747
 20
-13.00000000035209
 30
0.0
 11
-144.4939033457747
 21
-16.553418012676051
 31
0.0
  0
LINE
  8
DETAIL
  6
CONTINUOUS
 62
     5
 10
-139.89770926795779
 20
-30.0
 30
0.0
 11
-139.89770926795779
 21
-17.000000000175991
 31
0.0
  0
LINE
  8
DETAIL
  6
CONTINUOUS
 62
     5
 10
-139.4939033455986
 20
-13.00000000035209
 30
0.0
 11
-139.4939033455986
 21
-17.000000000175991
 31
0.0
  0
LINE
  8
DETAIL
  6
CONTINUOUS
 62
     5
 10
-122.22003973838039
 20
-16.000000000352092
 30
0.0
 11
-122.22003973838039
 21
-30.0
 31
0.0
  0
LINE
  8
DETAIL
  6
CONTINUOUS
 62
     5
 10
-120.0987193948944
 20
-16.000000000352092
 30
0.0
 11
-120.0987193948944
 21
-30.0
 31
0.0
  0
LINE
  8
DETAIL
  6
CONTINUOUS
 62
     5
 10
-183.5000000001761
 20
0.0
 30
0.0
 11
183.50000000017599
 21
0.0
 31
0.0
  0
LINE
  8
DETAIL
  6
CONTINUOUS
 62
     5
 10
-183.5000000001761
 20
-3.0
 30
0.0
 11
183.50000000017599
 21
-3.0
 31
0.0
  0
LINE
  8
DETAIL
  6
CONTINUOUS
 62
     5
 10
-176.66726188943659
 20
-3.5000000001759868
 30
0.0
 11
-149.44365081390839
 21
-3.5000000001759868
 31
0.0
  0
LINE
  8
DETAIL
  6
CONTINUOUS
 62
     5
 10
149.44365081390831
 20
-3.5000000001759868
 30
0.0
 11
176.66726188943659
 21
-3.5000000001759868
 31
0.0
  0
LINE
  8
DETAIL
  6
CONTINUOUS
 62
     5
 10
-179.0000000001761
 20
-10.00000000035209
 30
0.0
 11
-164.43159392693661
 21
-10.00000000035209
 31
0.0
  0
LINE
  8
DETAIL
  6
CONTINUOUS
 62
     5
 10
140.75000000017599
 20
-10.00000000035209
 30
0.0
 11
143.07968978292249
 21
-10.00000000035209
 31
0.0
  0
LINE
  8
DETAIL
  6
CONTINUOUS
 62
     5
 10
-143.07968978152181
 20
-10.00000000035209
 30
0.0
 11
140.75000000017599
 21
-10.00000000035209
 31
0.0
  0
LINE
  8
DETAIL
  6
CONTINUOUS
 62
     5
 10
164.43159392693661
 20
-10.00000000035209
 30
0.0
 11
179.00000000017599
 21
-10.00000000035209
 31
0.0
  0
LINE
  8
DETAIL
  6
CONTINUOUS
 62
     5
 10
-160.7573593130281
 20
-13.00000000035209
 30
0.0
 11
-124.3413600818661
 21
-13.00000000035209
 31
0.0
  0
LINE
  8
DETAIL
  6
CONTINUOUS
 62
     5
 10
124.3413600818662
 20
-13.00000000035209
 30
0.0
 11
160.75735931302799
 21
-13.00000000035209
 31
0.0
  0
LINE
  8
DETAIL
  6
CONTINUOUS
 62
     5
 10
-149.49390334542261
 20
-17.000000000175991
 30
0.0
 11
-139.4939033455986
 21
-17.000000000175991
 31
0.0
  0
LINE
  8
DETAIL
  6
CONTINUOUS
 62
     5
 10
139.4939033455986
 20
-17.000000000175991
 30
0.0
 11
149.4939033454225
 21
-17.000000000175991
 31
0.0
  0
LINE
  8
DETAIL
  6
CONTINUOUS
 62
     5
 10
-168.0
 20
-20.000000000175991
 30
0.0
 11
-139.89770926795779
 21
-20.000000000175991
 31
0.0
  0
LINE
  8
DETAIL
  6
CONTINUOUS
 62
     5
 10
-120.0987193948944
 20
-20.000000000175991
 30
0.0
 11
120.0987193943662
 21
-20.000000000175991
 31
0.0
  0
LINE
  8
DETAIL
  6
CONTINUOUS
 62
     5
 10
139.89770926795771
 20
-20.000000000175991
 30
0.0
 11
147.46192833118229
 21
-20.000000000175991
 31
0.0
  0
LINE
  8
DETAIL
  6
CONTINUOUS
 62
     5
 10
156.7169087471832
 20
-20.000000000175991
 30
0.0
 11
167.99999999999989
 21
-20.000000000175991
 31
0.0
  0
LINE
  8
DETAIL
  6
CONTINUOUS
 62
     5
 10
-68.100000000000023
 20
-195.50000000017599
 30
0.0
 11
-68.100000000000023
 21
-200.00000000017599
 31
0.0
  0
LINE
  8
DETAIL
  6
CONTINUOUS
 62
     5
 10
-67.500000000000114
 20
-197.500000000352
 30
0.0
 11
-67.500000000000114
 21
-195.50000000017599
 31
0.0
  0
LINE
  8
DETAIL
  6
CONTINUOUS
 62
     5
 10
-63.166446789612678
 20
-161.90000000017599
 30
0.0
 11
-63.166446789612678
 21
-163.5
 31
0.0
  0
LINE
  8
DETAIL
  6
CONTINUOUS
 62
     5
 10
-49.10000000017601
 20
-158.40000000000001
 30
0.0
 11
-49.10000000017601
 21
-136.47128129207729
 31
0.0
  0
LINE
  8
DETAIL
  6
CONTINUOUS
 62
     5
 10
-48.430577701056343
 20
-160.3000000003519
 30
0.0
 11
-48.430577701056343
 21
-156.30000000000001
 31
0.0
  0
LINE
  8
DETAIL
  6
CONTINUOUS
 62
     5
 10
-48.099999999824043
 20
-134.73923048450681
 30
0.0
 11
-48.099999999824043
 21
-126.90000000000001
 31
0.0
  0
LINE
  8
DETAIL
  6
CONTINUOUS
 62
     5
 10
-46.430577700880242
 20
-156.30000000000001
 30
0.0
 11
-46.430577700880242
 21
-152.6999999999999
 31
0.0
  0
LINE
  8
DETAIL
  6
CONTINUOUS
 62
     5
 10
-44.430577701232437
 20
-160.3000000003519
 30
0.0
 11
-44.430577701232437
 21
-156.65726558978861
 31
0.0
  0
LINE
  8
DETAIL
  6
CONTINUOUS
 62
     5
 10
-42.43057770105645
 20
-156.30000000000001
 30
0.0
 11
-42.43057770105645
 21
-152.6999999999999
 31
0.0
  0
LINE
  8
DETAIL
  6
CONTINUOUS
 62
     5
 10
-40.430577700880242
 20
-160.3000000003519
 30
0.0
 11
-40.430577700880242
 21
-156.30000000000001
 31
0.0
  0
LINE
  8
DETAIL
  6
CONTINUOUS
 62
     5
 10
-39.999999999824013
 20
-210.59999999999991
 30
0.0
 11
-39.999999999824013
 21
-209.6000000001759
 31
0.0
  0
LINE
  8
DETAIL
  6
CONTINUOUS
 62
     5
 10
37.177694901760447
 20
-183.11364676426049
 30
0.0
 11
50.290877366197151
 21
-195.84113540915499
 31
0.0
  0
LINE
  8
DETAIL
  6
CONTINUOUS
 62
     5
 10
-16.51150461602117
 20
-160.3000000003519
 30
0.0
 11
-16.51150461602117
 21
-152.6999999999999
 31
0.0
  0
LINE
  8
DETAIL
  6
CONTINUOUS
 62
     5
 10
-13.51150461602117
 20
-160.3000000003519
 30
0.0
 11
-13.51150461602117
 21
-152.6999999999999
 31
0.0
  0
LINE
  8
DETAIL
  6
CONTINUOUS
 62
     5
 10
-48.099999999824043
 20
-134.73923048450681
 30
0.0
 11
-49.10000000017601
 21
-136.47128129207729
 31
0.0
  0
LINE
  8
DETAIL
  6
CONTINUOUS
 62
     5
 10
-19.109495658274682
 20
-116.17596526373229
 30
0.0
 11
-19.625000000176101
 21
-120.3
 31
0.0
  0
LINE
  8
DETAIL
  6
CONTINUOUS
 62
     5
 10
-6.5000000001761009
 20
-114.3
 30
0.0
 11
-6.5000000001761009
 21
-112.3000000003519
 31
0.0
  0
LINE
  8
DETAIL
  6
CONTINUOUS
 62
     5
 10
-5.0000000001761009
 20
-112.3000000003519
 30
0.0
 11
-5.0000000001761009
 21
-109.5
 31
0.0
  0
LINE
  8
DETAIL
  6
CONTINUOUS
 62
     5
 10
120.60819021285199
 20
-95.25
 30
0.0
 11
143.02816812095071
 21
-95.25
 31
0.0
  0
LINE
  8
DETAIL
  6
CONTINUOUS
 62
     5
 10
120.60819021285199
 20
-98.750000000175987
 30
0.0
 11
143.02816812095071
 21
-98.750000000175987
 31
0.0
  0
LINE
  8
DETAIL
  6
CONTINUOUS
 62
     5
 10
120.0987193943662
 20
-105.500000000176
 30
0.0
 11
-120.0987193948944
 21
-105.500000000176
 31
0.0
  0
LINE
  8
DETAIL
  6
CONTINUOUS
 62
     5
 10
5.0000000001759872
 20
-112.3000000003519
 30
0.0
 11
5.0000000001759872
 21
-109.5
 31
0.0
  0
LINE
  8
DETAIL
  6
CONTINUOUS
 62
     5
 10
6.5000000001759872
 20
-114.3
 30
0.0
 11
6.5000000001759872
 21
-112.3000000003519
 31
0.0
  0
LINE
  8
DETAIL
  6
CONTINUOUS
 62
     5
 10
120.0987193943662
 20
-109.5
 30
0.0
 11
-120.0987193948944
 21
-109.5
 31
0.0
  0
LINE
  8
DETAIL
  6
CONTINUOUS
 62
     5
 10
6.499349049295688
 20
-112.3000000003519
 30
0.0
 11
-6.4993490492958017
 21
-112.3000000003519
 31
0.0
  0
LINE
  8
DETAIL
  6
CONTINUOUS
 62
     5
 10
18.117194754929528
 20
-115.3000000003519
 30
0.0
 11
-18.117194754929638
 21
-115.3000000003519
 31
0.0
  0
LINE
  8
DETAIL
  6
CONTINUOUS
 62
     5
 10
19.109495657746489
 20
-116.17596526373229
 30
0.0
 11
19.625000000175991
 21
-120.3
 31
0.0
  0
LINE
  8
DETAIL
  6
CONTINUOUS
 62
     5
 10
48.099999999823922
 20
-134.73923048450681
 30
0.0
 11
49.10000000017601
 21
-136.47128129207729
 31
0.0
  0
LINE
  8
DETAIL
  6
CONTINUOUS
 62
     5
 10
41.499999999823899
 20
-120.3
 30
0.0
 11
-41.499999999824013
 21
-120.3
 31
0.0
  0
LINE
  8
DETAIL
  6
CONTINUOUS
 62
     5
 10
39.999999999823899
 20
-210.59999999999991
 30
0.0
 11
39.999999999823899
 21
-209.6000000001759
 31
0.0
  0
LINE
  8
DETAIL
  6
CONTINUOUS
 62
     5
 10
40.430577700880242
 20
-160.3000000003519
 30
0.0
 11
40.430577700880242
 21
-156.30000000000001
 31
0.0
  0
LINE
  8
DETAIL
  6
CONTINUOUS
 62
     5
 10
42.430577701056343
 20
-156.30000000000001
 30
0.0
 11
42.430577701056343
 21
-152.6999999999999
 31
0.0
  0
LINE
  8
DETAIL
  6
CONTINUOUS
 62
     5
 10
44.430577700704127
 20
-160.3000000003519
 30
0.0
 11
44.430577700704127
 21
-156.65726558978861
 31
0.0
  0
LINE
  8
DETAIL
  6
CONTINUOUS
 62
     5
 10
48.099999999823922
 20
-134.73923048450681
 30
0.0
 11
-48.099999999824043
 21
-134.73923048450681
 31
0.0
  0
LINE
  8
DETAIL
  6
CONTINUOUS
 62
     5
 10
49.10000000017601
 20
-136.47128129207729
 30
0.0
 11
-49.10000000017601
 21
-136.47128129207729
 31
0.0
  0
LINE
  8
DETAIL
  6
CONTINUOUS
 62
     5
 10
-37.177694904929581
 20
-183.1136467674296
 30
0.0
 11
-50.290877422183137
 21
-195.8411354577465
 31
0.0
  0
LINE
  8
DETAIL
  6
CONTINUOUS
 62
     5
 10
45.500000000175987
 20
-163.5
 30
0.0
 11
45.500000000175987
 21
-162.30000000000001
 31
0.0
  0
LINE
  8
DETAIL
  6
CONTINUOUS
 62
     5
 10
46.430577700880242
 20
-156.30000000000001
 30
0.0
 11
46.430577700880242
 21
-152.6999999999999
 31
0.0
  0
LINE
  8
DETAIL
  6
CONTINUOUS
 62
     5
 10
48.099999999823922
 20
-134.73923048450681
 30
0.0
 11
48.099999999823922
 21
-126.90000000000001
 31
0.0
  0
LINE
  8
DETAIL
  6
CONTINUOUS
 62
     5
 10
48.430577701056343
 20
-160.3000000003519
 30
0.0
 11
48.430577701056343
 21
-156.30000000000001
 31
0.0
  0
LINE
  8
DETAIL
  6
CONTINUOUS
 62
     5
 10
49.10000000017601
 20
-158.40000000000001
 30
0.0
 11
49.10000000017601
 21
-136.47128129207729
 31
0.0
  0
LINE
  8
DETAIL
  6
CONTINUOUS
 62
     5
 10
54.500000000175987
 20
-163.5
 30
0.0
 11
54.500000000175987
 21
-162.30000000000001
 31
0.0
  0
LINE
  8
DETAIL
  6
CONTINUOUS
 62
     5
 10
46.430577700880242
 20
-152.6999999999999
 30
0.0
 11
42.430577701056343
 21
-152.6999999999999
 31
0.0
  0
LINE
  8
DETAIL
  6
CONTINUOUS
 62
     5
 10
-13.51150461602117
 20
-152.6999999999999
 30
0.0
 11
-16.51150461602117
 21
-152.6999999999999
 31
0.0
  0
LINE
  8
DETAIL
  6
CONTINUOUS
 62
     5
 10
-42.43057770105645
 20
-152.6999999999999
 30
0.0
 11
-46.430577700880242
 21
-152.6999999999999
 31
0.0
  0
LINE
  8
DETAIL
  6
CONTINUOUS
 62
     5
 10
48.430577701056343
 20
-156.30000000000001
 30
0.0
 11
40.430577700880242
 21
-156.30000000000001
 31
0.0
  0
LINE
  8
DETAIL
  6
CONTINUOUS
 62
     5
 10
-40.430577700880242
 20
-156.30000000000001
 30
0.0
 11
-48.430577701056343
 21
-156.30000000000001
 31
0.0
  0
LINE
  8
DETAIL
  6
CONTINUOUS
 62
     5
 10
53.999999999999893
 20
-161.8000000003519
 30
0.0
 11
45.999999999823899
 21
-161.8000000003519
 31
0.0
  0
LINE
  8
DETAIL
  6
CONTINUOUS
 62
     5
 10
-63.166446789612678
 20
-161.90000000017599
 30
0.0
 11
-63.499938693485888
 21
-161.90000000017599
 31
0.0
  0
LINE
  8
DETAIL
  6
CONTINUOUS
 62
     5
 10
67.5
 20
-195.50000000017599
 30
0.0
 11
67.5
 21
-197.500000000352
 31
0.0
  0
LINE
  8
DETAIL
  6
CONTINUOUS
 62
     5
 10
68.099999999999909
 20
-200.00000000017599
 30
0.0
 11
68.099999999999909
 21
-195.50000000017599
 31
0.0
  0
LINE
  8
DETAIL
  6
CONTINUOUS
 62
     5
 10
-63.166446789612678
 20
-163.5
 30
0.0
 11
-61.062088342077573
 21
-163.5
 31
0.0
  0
LINE
  8
DETAIL
  6
CONTINUOUS
 62
     5
 10
-91.814448147359144
 20
-170.500000000352
 30
0.0
 11
-62.499999999824013
 21
-170.500000000352
 31
0.0
  0
LINE
  8
DETAIL
  6
CONTINUOUS
 62
     5
 10
62.499999999823899
 20
-170.500000000352
 30
0.0
 11
91.814448147359144
 21
-170.500000000352
 31
0.0
  0
LINE
  8
DETAIL
  6
CONTINUOUS
 62
     5
 10
-32.000535326408567
 20
-181.000000000352
 30
0.0
 11
32.000535326936642
 21
-181.000000000352
 31
0.0
  0
LINE
  8
DETAIL
  6
CONTINUOUS
 62
     5
 10
-93.935768490845135
 20
-195.50000000017599
 30
0.0
 11
-62.499999999824013
 21
-195.50000000017599
 31
0.0
  0
LINE
  8
DETAIL
  6
CONTINUOUS
 62
     5
 10
62.499999999823899
 20
-195.50000000017599
 30
0.0
 11
93.935768490845021
 21
-195.50000000017599
 31
0.0
  0
LINE
  8
DETAIL
  6
CONTINUOUS
 62
     5
 10
-68.100000000000023
 20
-197.500000000352
 30
0.0
 11
-53.370719382042239
 21
-197.500000000352
 31
0.0
  0
LINE
  8
DETAIL
  6
CONTINUOUS
 62
     5
 10
53.370719371478799
 20
-197.500000000352
 30
0.0
 11
68.099999999999909
 21
-197.500000000352
 31
0.0
  0
LINE
  8
DETAIL
  6
CONTINUOUS
 62
     5
 10
39.999999999823899
 20
-209.6000000001759
 30
0.0
 11
36.999999999823899
 21
-209.6000000001759
 31
0.0
  0
LINE
  8
DETAIL
  6
CONTINUOUS
 62
     5
 10
-36.500000000176101
 20
-210.10000000035231
 30
0.0
 11
-33.500000000176101
 21
-210.10000000035231
 31
0.0
  0
LINE
  8
DETAIL
  6
CONTINUOUS
 62
     5
 10
33.500000000175987
 20
-210.10000000035231
 30
0.0
 11
36.500000000175987
 21
-210.10000000035231
 31
0.0
  0
LINE
  8
DETAIL
  6
CONTINUOUS
 62
     5
 10
-39.999999999824013
 20
-210.59999999999991
 30
0.0
 11
-36.093517065845049
 21
-210.59999999999991
 31
0.0
  0
LINE
  8
DETAIL
  6
CONTINUOUS
 62
     5
 10
-33.906482934507153
 20
-210.59999999999991
 30
0.0
 11
33.90648293397885
 21
-210.59999999999991
 31
0.0
  0
LINE
  8
DETAIL
  6
CONTINUOUS
 62
     5
 10
36.093517065845049
 20
-210.59999999999991
 30
0.0
 11
39.999999999823899
 21
-210.59999999999991
 31
0.0
  0
LINE
  8
DETAIL
  6
CONTINUOUS
 62
     5
 10
120.0987193943662
 20
-16.000000000352092
 30
0.0
 11
120.0987193943662
 21
-30.0
 31
0.0
  0
LINE
  8
DETAIL
  6
CONTINUOUS
 62
     5
 10
120.0987193943662
 20
-60.0
 30
0.0
 11
120.0987193943662
 21
-68.505301863908358
 31
0.0
  0
LINE
  8
DETAIL
  6
CONTINUOUS
 62
     5
 10
120.0987193943662
 20
-68.505301863908358
 30
0.0
 11
120.0987193943662
 21
-130.5
 31
0.0
  0
LINE
  8
DETAIL
  6
CONTINUOUS
 62
     5
 10
120.60761184454211
 20
-95.25
 30
0.0
 11
120.60761184454211
 21
-98.750000000175987
 31
0.0
  0
LINE
  8
DETAIL
  6
CONTINUOUS
 62
     5
 10
122.22003973838029
 20
-16.000000000352092
 30
0.0
 11
122.22003973838029
 21
-30.0
 31
0.0
  0
LINE
  8
DETAIL
  6
CONTINUOUS
 62
     5
 10
137.7763889244718
 20
-60.0
 30
0.0
 11
137.7763889244718
 21
-95.25
 31
0.0
  0
LINE
  8
DETAIL
  6
CONTINUOUS
 62
     5
 10
137.7763889244718
 20
-98.750000000175987
 30
0.0
 11
137.7763889244718
 21
-130.5
 31
0.0
  0
LINE
  8
DETAIL
  6
CONTINUOUS
 62
     5
 10
139.4939033455986
 20
-17.000000000175991
 30
0.0
 11
139.4939033455986
 21
-13.00000000035209
 31
0.0
  0
LINE
  8
DETAIL
  6
CONTINUOUS
 62
     5
 10
139.89770926795771
 20
-130.5
 30
0.0
 11
139.89770926795771
 21
-98.750000000175987
 31
0.0
  0
LINE
  8
DETAIL
  6
CONTINUOUS
 62
     5
 10
139.89770926795771
 20
-95.25
 30
0.0
 11
139.89770926795771
 21
-60.0
 31
0.0
  0
LINE
  8
DETAIL
  6
CONTINUOUS
 62
     5
 10
139.89770926795771
 20
-27.581542810563288
 30
0.0
 11
139.89770926795771
 21
-17.000000000175991
 31
0.0
  0
LINE
  8
DETAIL
  6
CONTINUOUS
 62
     5
 10
143.02842712447179
 20
-95.25
 30
0.0
 11
143.02842712447179
 21
-98.750000000175987
 31
0.0
  0
LINE
  8
DETAIL
  6
CONTINUOUS
 62
     5
 10
144.49390334577461
 20
-13.00000000035209
 30
0.0
 11
144.49390334577461
 21
-16.553418012676051
 31
0.0
  0
LINE
  8
DETAIL
  6
CONTINUOUS
 62
     5
 10
149.4939033454225
 20
-13.00000000035209
 30
0.0
 11
149.4939033454225
 21
-17.000000000175991
 31
0.0
  0
LINE
  8
DETAIL
  6
CONTINUOUS
 62
     5
 10
158.9895923598591
 20
-3.5000000001759868
 30
0.0
 11
158.9895923598591
 21
-3.0
 31
0.0
  0
LINE
  8
DETAIL
  6
CONTINUOUS
 62
     5
 10
170.30330085897879
 20
-3.5000000001759868
 30
0.0
 11
170.30330085897879
 21
-3.0
 31
0.0
  0
LINE
  8
DETAIL
  6
CONTINUOUS
 62
     5
 10
171.50000000017599
 20
-16.5
 30
0.0
 11
171.50000000017599
 21
-13.00000000035209
 31
0.0
  0
LINE
  8
DETAIL
  6
CONTINUOUS
 62
     5
 10
176.66726188943659
 20
-3.5000000001759868
 30
0.0
 11
176.66726188943659
 21
-3.0
 31
0.0
  0
LINE
  8
DETAIL
  6
CONTINUOUS
 62
     5
 10
182.00000000017599
 20
-7.0000000003519736
 30
0.0
 11
182.00000000017599
 21
-3.0
 31
0.0
  0
ARC
  8
DETAIL
  6
CONTINUOUS
 62
     5
 10
-168.0
 20
-16.5
 30
0.0
 40
3.5000000001761009
 50
180.0
 51
270.0
  0
ARC
  8
DETAIL
  6
CONTINUOUS
 62
     5
 10
-174.5000000001761
 20
-13.00000000035209
 30
0.0
 40
3.0000000000000568
 50
0.0
 51
90.0
  0
ARC
  8
DETAIL
  6
CONTINUOUS
 62
     5
 10
-179.0000000001761
 20
-7.0000000003519736
 30
0.0
 40
3.0000000000000568
 50
180.0
 51
270.0
  0
ARC
  8
DETAIL
  6
CONTINUOUS
 62
     5
 10
-183.5000000001761
 20
-1.5
 30
0.0
 40
1.5
 50
90.0
 51
270.0
  0
ARC
  8
DETAIL
  6
CONTINUOUS
 62
     5
 10
-139.2500000001761
 20
-107.500000000352
 30
0.0
 40
2.0000000001760769
 50
108.9007989140009
 51
251.09595400929729
  0
ARC
  8
DETAIL
  6
CONTINUOUS
 62
     5
 10
-41.499999999824013
 20
-126.90000000000001
 30
0.0
 40
6.6000000000000236
 50
90.0
 51
180.0
  0
ARC
  8
DETAIL
  6
CONTINUOUS
 62
     5
 10
-51.000000000000107
 20
-158.40000000000001
 30
0.0
 40
1.8999999998238759
 50
270.0
 51
0.0
  0
ARC
  8
DETAIL
  6
CONTINUOUS
 62
     5
 10
-7.5
 20
-114.3
 30
0.0
 40
0.999999999823916
 50
270.0
 51
0.0
  0
ARC
  8
DETAIL
  6
CONTINUOUS
 62
     5
 10
-18.11721778151411
 20
-116.3000000001759
 30
0.0
 40
0.999999999824013
 50
90.0
 51
172.8749835514993
  0
ARC
  8
DETAIL
  6
CONTINUOUS
 62
     5
 10
-53.384983955809837
 20
-195.50980037165479
 30
0.0
 40
1.990589947711408
 50
273.30879061909951
 51
276.52627190479859
  0
ARC
  8
DETAIL
  6
CONTINUOUS
 62
     5
 10
-53.371653874647897
 20
-195.73732818961281
 30
0.0
 40
1.7626720584506119
 50
270.03037697309958
 51
273.30308298869949
  0
ARC
  8
DETAIL
  6
CONTINUOUS
 62
     5
 10
-35.000000000176101
 20
-209.30000000017591
 30
0.0
 40
1.700000000175989
 50
208.07248693589889
 51
331.92751306410099
  0
ARC
  8
DETAIL
  6
CONTINUOUS
 62
     5
 10
-36.600000000000023
 20
-210.10000000035231
 30
0.0
 40
0.099999999823922
 50
0.0
 51
90.0
  0
ARC
  8
DETAIL
  6
CONTINUOUS
 62
     5
 10
-33.39999999982399
 20
-210.10000000035231
 30
0.0
 40
0.099999999824036
 50
90.0
 51
180.0
  0
ARC
  8
DETAIL
  6
CONTINUOUS
 62
     5
 10
41.499999999823899
 20
-126.90000000000001
 30
0.0
 40
6.6000000000000094
 50
0.0
 51
90.0
  0
CIRCLE
  8
DETAIL
  6
CONTINUOUS
 62
     5
 10
0.0
 20
-174.50000000017599
 30
0.0
 40
4.5
  0
ARC
  8
DETAIL
  6
CONTINUOUS
 62
     5
 10
51.0
 20
-158.40000000000001
 30
0.0
 40
1.8999999998239401
 50
180.0
 51
264.3750236270007
  0
CIRCLE
  8
DETAIL
  6
CONTINUOUS
 62
     5
 10
0.0
 20
-174.50000000017599
 30
0.0
 40
1.5
  0
ARC
  8
DETAIL
  6
CONTINUOUS
 62
     5
 10
7.5
 20
-114.3
 30
0.0
 40
0.9999999998239421
 50
180.0
 51
270.0
  0
ARC
  8
DETAIL
  6
CONTINUOUS
 62
     5
 10
18.117217781514
 20
-116.3000000001759
 30
0.0
 40
0.9999999998239579
 50
7.1250164485007277
 51
90.0
  0
ARC
  8
DETAIL
  6
CONTINUOUS
 62
     5
 10
53.999999999999893
 20
-162.30000000000001
 30
0.0
 40
0.500000000176058
 50
0.0
 51
90.0
  0
ARC
  8
DETAIL
  6
CONTINUOUS
 62
     5
 10
45.999999999823899
 20
-162.30000000000001
 30
0.0
 40
0.500000000175987
 50
90.0
 51
180.0
  0
ARC
  8
DETAIL
  6
CONTINUOUS
 62
     5
 10
167.99999999999989
 20
-16.5
 30
0.0
 40
3.5000000001761009
 50
270.0
 51
0.0
  0
CIRCLE
  8
DETAIL
  6
CONTINUOUS
 62
     5
 10
153.55346635030719
 20
-19.56159706218466
 30
0.0
 40
3.332051000176059
  0
ARC
  8
DETAIL
  6
CONTINUOUS
 62
     5
 10
179.00000000017599
 20
-7.0000000003519736
 30
0.0
 40
3.0000000000001141
 50
270.0
 51
0.0
  0
ARC
  8
DETAIL
  6
CONTINUOUS
 62
     5
 10
174.50000000017599
 20
-13.00000000035209
 30
0.0
 40
3.0
 50
90.0
 51
180.0
  0
CIRCLE
  8
DETAIL
  6
CONTINUOUS
 62
     5
 10
155.05346635030719
 20
-20.42762246623397
 30
0.0
 40
1.5
  0
CIRCLE
  8
DETAIL
  6
CONTINUOUS
 62
     5
 10
152.05346635030719
 20
-20.42762246623397
 30
0.0
 40
1.5
  0
CIRCLE
  8
DETAIL
  6
CONTINUOUS
 62
     5
 10
153.55346635030719
 20
-17.829546254614339
 30
0.0
 40
1.5
  0
ARC
  8
DETAIL
  6
CONTINUOUS
 62
     5
 10
183.50000000017599
 20
-1.5
 30
0.0
 40
1.5
 50
270.0
 51
90.0
  0
ARC
  8
DETAIL
  6
CONTINUOUS
 62
     5
 10
139.25000000017599
 20
-107.500000000352
 30
0.0
 40
2.0000000001760272
 50
288.90404599069598
 51
71.09920108599907
  0
CIRCLE
  8
DETAIL
  6
CONTINUOUS
 62
     5
 10
0.0
 20
-188.500000000352
 30
0.0
 40
2.7500000001760569
  0
ARC
  8
DETAIL
  6
CONTINUOUS
 62
     5
 10
35.000000000175987
 20
-209.30000000017591
 30
0.0
 40
1.700000000176014
 50
208.07248693589889
 51
331.92751306410099
  0
ARC
  8
DETAIL
  6
CONTINUOUS
 62
     5
 10
33.399999999823883
 20
-210.10000000035231
 30
0.0
 40
0.099999999823936
 50
0.0
 51
90.0
  0
ARC
  8
DETAIL
  6
CONTINUOUS
 62
     5
 10
36.599999999999909
 20
-210.10000000035231
 30
0.0
 40
0.099999999824036
 50
90.0
 51
180.0
  0
LINE
  8
DETAIL
  6
CONTINUOUS
 62
     5
 10
32.000535326936642
 20
-181.000000000352
 30
0.0
 11
32.095679955250027
 21
-181.00083571050209
 31
0.0
  0
LINE
  8
DETAIL
  6
CONTINUOUS
 62
     5
 10
32.095679955250027
 20
-181.00083571050209
 30
0.0
 11
32.190821128013447
 21
-181.0024470979242
 31
0.0
  0
LINE
  8
DETAIL
  6
CONTINUOUS
 62
     5
 10
32.190821128013447
 20
-181.0024470979242
 30
0.0
 11
32.190821128013447
 21
-181.0024470979242
 31
0.0
  0
LINE
  8
DETAIL
  6
CONTINUOUS
 62
     5
 10
32.190821128013447
 20
-181.0024470979242
 30
0.0
 11
32.285951622756777
 21
-181.0054457952931
 31
0.0
  0
LINE
  8
DETAIL
  6
CONTINUOUS
 62
     5
 10
32.285951622756777
 20
-181.0054457952931
 30
0.0
 11
32.381049149330693
 21
-181.00978725688611
 31
0.0
  0
LINE
  8
DETAIL
  6
CONTINUOUS
 62
     5
 10
32.381049149330693
 20
-181.00978725688611
 30
0.0
 11
32.381049149330693
 21
-181.00978725688611
 31
0.0
  0
LINE
  8
DETAIL
  6
CONTINUOUS
 62
     5
 10
32.381049149330693
 20
-181.00978725688611
 30
0.0
 11
32.476091265020607
 21
-181.01530722552519
 31
0.0
  0
LINE
  8
DETAIL
  6
CONTINUOUS
 62
     5
 10
32.476091265020607
 20
-181.01530722552519
 30
0.0
 11
32.571069984532301
 21
-181.02201877660579
 31
0.0
  0
LINE
  8
DETAIL
  6
CONTINUOUS
 62
     5
 10
32.571069984532301
 20
-181.02201877660579
 30
0.0
 11
32.571069984532301
 21
-181.02201877660579
 31
0.0
  0
LINE
  8
DETAIL
  6
CONTINUOUS
 62
     5
 10
32.571069984532301
 20
-181.02201877660579
 30
0.0
 11
32.665970246426582
 21
-181.0299660306932
 31
0.0
  0
LINE
  8
DETAIL
  6
CONTINUOUS
 62
     5
 10
32.665970246426582
 20
-181.0299660306932
 30
0.0
 11
32.760734227262112
 21
-181.03913995645229
 31
0.0
  0
LINE
  8
DETAIL
  6
CONTINUOUS
 62
     5
 10
32.760734227262112
 20
-181.03913995645229
 30
0.0
 11
32.760734227262112
 21
-181.03913995645229
 31
0.0
  0
LINE
  8
DETAIL
  6
CONTINUOUS
 62
     5
 10
32.760734227262112
 20
-181.03913995645229
 30
0.0
 11
32.855332560743818
 21
-181.04952705332931
 31
0.0
  0
LINE
  8
DETAIL
  6
CONTINUOUS
 62
     5
 10
32.855332560743818
 20
-181.04952705332931
 30
0.0
 11
32.949892471164283
 21
-181.0611490957931
 31
0.0
  0
LINE
  8
DETAIL
  6
CONTINUOUS
 62
     5
 10
32.949892471164283
 20
-181.0611490957931
 30
0.0
 11
32.949892471164283
 21
-181.0611490957931
 31
0.0
  0
LINE
  8
DETAIL
  6
CONTINUOUS
 62
     5
 10
32.949892471164283
 20
-181.0611490957931
 30
0.0
 11
33.044519005252603
 21
-181.07402734007661
 31
0.0
  0
LINE
  8
DETAIL
  6
CONTINUOUS
 62
     5
 10
33.044519005252603
 20
-181.07402734007661
 30
0.0
 11
33.139071908898131
 21
-181.08814569444101
 31
0.0
  0
LINE
  8
DETAIL
  6
CONTINUOUS
 62
     5
 10
33.139071908898131
 20
-181.08814569444101
 30
0.0
 11
33.139071908898131
 21
-181.08814569444101
 31
0.0
  0
LINE
  8
DETAIL
  6
CONTINUOUS
 62
     5
 10
33.139071908898131
 20
-181.08814569444101
 30
0.0
 11
33.233389560669139
 21
-181.10348364940819
 31
0.0
  0
LINE
  8
DETAIL
  6
CONTINUOUS
 62
     5
 10
33.233389560669139
 20
-181.10348364940819
 30
0.0
 11
33.327470170688912
 21
-181.12004037251239
 31
0.0
  0
LINE
  8
DETAIL
  6
CONTINUOUS
 62
     5
 10
33.327470170688912
 20
-181.12004037251239
 30
0.0
 11
33.327470170688912
 21
-181.12004037251239
 31
0.0
  0
LINE
  8
DETAIL
  6
CONTINUOUS
 62
     5
 10
33.327470170688912
 20
-181.12004037251239
 30
0.0
 11
33.421338561502132
 21
-181.13781789174939
 31
0.0
  0
LINE
  8
DETAIL
  6
CONTINUOUS
 62
     5
 10
33.421338561502132
 20
-181.13781789174939
 30
0.0
 11
33.514966173782341
 21
-181.15680999996451
 31
0.0
  0
LINE
  8
DETAIL
  6
CONTINUOUS
 62
     5
 10
33.514966173782341
 20
-181.15680999996451
 30
0.0
 11
33.514966173782341
 21
-181.15680999996451
 31
0.0
  0
LINE
  8
DETAIL
  6
CONTINUOUS
 62
     5
 10
33.514966173782341
 20
-181.15680999996451
 30
0.0
 11
33.608324526717517
 21
-181.17701174711331
 31
0.0
  0
LINE
  8
DETAIL
  6
CONTINUOUS
 62
     5
 10
33.608324526717517
 20
-181.17701174711331
 30
0.0
 11
33.701438835424369
 21
-181.1984314467538
 31
0.0
  0
LINE
  8
DETAIL
  6
CONTINUOUS
 62
     5
 10
33.701438835424369
 20
-181.1984314467538
 30
0.0
 11
33.701438835424369
 21
-181.1984314467538
 31
0.0
  0
LINE
  8
DETAIL
  6
CONTINUOUS
 62
     5
 10
33.701438835424369
 20
-181.1984314467538
 30
0.0
 11
33.794307388541029
 21
-181.2210695235303
 31
0.0
  0
LINE
  8
DETAIL
  6
CONTINUOUS
 62
     5
 10
33.794307388541029
 20
-181.2210695235303
 30
0.0
 11
33.886767072860827
 21
-181.24488158283731
 31
0.0
  0
LINE
  8
DETAIL
  6
CONTINUOUS
 62
     5
 10
33.886767072860827
 20
-181.24488158283731
 30
0.0
 11
33.886767072860827
 21
-181.24488158283731
 31
0.0
  0
LINE
  8
DETAIL
  6
CONTINUOUS
 62
     5
 10
33.886767072860827
 20
-181.24488158283731
 30
0.0
 11
33.978677388825638
 21
-181.26982823993649
 31
0.0
  0
LINE
  8
DETAIL
  6
CONTINUOUS
 62
     5
 10
33.978677388825638
 20
-181.26982823993649
 30
0.0
 11
34.070149693317028
 21
-181.29593496881211
 31
0.0
  0
LINE
  8
DETAIL
  6
CONTINUOUS
 62
     5
 10
34.070149693317028
 20
-181.29593496881211
 30
0.0
 11
34.070149693317028
 21
-181.29593496881211
 31
0.0
  0
LINE
  8
DETAIL
  6
CONTINUOUS
 62
     5
 10
34.070149693317028
 20
-181.29593496881211
 30
0.0
 11
34.161318017772032
 21
-181.32323339029949
 31
0.0
  0
LINE
  8
DETAIL
  6
CONTINUOUS
 62
     5
 10
34.161318017772032
 20
-181.32323339029949
 30
0.0
 11
34.252155235412943
 21
-181.35171485391669
 31
0.0
  0
LINE
  8
DETAIL
  6
CONTINUOUS
 62
     5
 10
34.252155235412943
 20
-181.35171485391669
 30
0.0
 11
34.252155235412943
 21
-181.35171485391669
 31
0.0
  0
LINE
  8
DETAIL
  6
CONTINUOUS
 62
     5
 10
34.252155235412943
 20
-181.35171485391669
 30
0.0
 11
34.342605939495797
 21
-181.38136385511191
 31
0.0
  0
LINE
  8
DETAIL
  6
CONTINUOUS
 62
     5
 10
34.342605939495797
 20
-181.38136385511191
 30
0.0
 11
34.432662761627967
 21
-181.41217774436521
 31
0.0
  0
LINE
  8
DETAIL
  6
CONTINUOUS
 62
     5
 10
34.432662761627967
 20
-181.41217774436521
 30
0.0
 11
34.432662761627967
 21
-181.41217774436521
 31
0.0
  0
LINE
  8
DETAIL
  6
CONTINUOUS
 62
     5
 10
34.432662761627967
 20
-181.41217774436521
 30
0.0
 11
34.522322594207033
 21
-181.44415429871199
 31
0.0
  0
LINE
  8
DETAIL
  6
CONTINUOUS
 62
     5
 10
34.522322594207033
 20
-181.44415429871199
 30
0.0
 11
34.611551334441629
 21
-181.47728014637161
 31
0.0
  0
LINE
  8
DETAIL
  6
CONTINUOUS
 62
     5
 10
34.611551334441629
 20
-181.47728014637161
 30
0.0
 11
34.611551334441629
 21
-181.47728014637161
 31
0.0
  0
LINE
  8
DETAIL
  6
CONTINUOUS
 62
     5
 10
34.611551334441629
 20
-181.47728014637161
 30
0.0
 11
34.700326116344513
 21
-181.51154706341731
 31
0.0
  0
LINE
  8
DETAIL
  6
CONTINUOUS
 62
     5
 10
34.700326116344513
 20
-181.51154706341731
 30
0.0
 11
34.788700016333223
 21
-181.5469785661501
 31
0.0
  0
LINE
  8
DETAIL
  6
CONTINUOUS
 62
     5
 10
34.788700016333223
 20
-181.5469785661501
 30
0.0
 11
34.788700016333223
 21
-181.5469785661501
 31
0.0
  0
LINE
  8
DETAIL
  6
CONTINUOUS
 62
     5
 10
34.788700016333223
 20
-181.5469785661501
 30
0.0
 11
34.876716403306773
 21
-181.5835939630974
 31
0.0
  0
LINE
  8
DETAIL
  6
CONTINUOUS
 62
     5
 10
34.876716403306773
 20
-181.5835939630974
 30
0.0
 11
34.964303873683548
 21
-181.62136399146769
 31
0.0
  0
LINE
  8
DETAIL
  6
CONTINUOUS
 62
     5
 10
34.964303873683548
 20
-181.62136399146769
 30
0.0
 11
34.964303873683548
 21
-181.62136399146769
 31
0.0
  0
LINE
  8
DETAIL
  6
CONTINUOUS
 62
     5
 10
34.964303873683548
 20
-181.62136399146769
 30
0.0
 11
35.051379579453062
 21
-181.6602537198487
 31
0.0
  0
LINE
  8
DETAIL
  6
CONTINUOUS
 62
     5
 10
35.051379579453062
 20
-181.6602537198487
 30
0.0
 11
35.13792966736662
 21
-181.7002541136726
 31
0.0
  0
LINE
  8
DETAIL
  6
CONTINUOUS
 62
     5
 10
35.13792966736662
 20
-181.7002541136726
 30
0.0
 11
35.13792966736662
 21
-181.7002541136726
 31
0.0
  0
LINE
  8
DETAIL
  6
CONTINUOUS
 62
     5
 10
35.13792966736662
 20
-181.7002541136726
 30
0.0
 11
35.223957570883947
 21
-181.74136361572479
 31
0.0
  0
LINE
  8
DETAIL
  6
CONTINUOUS
 62
     5
 10
35.223957570883947
 20
-181.74136361572479
 30
0.0
 11
35.30946687553535
 21
-181.78358468136031
 31
0.0
  0
LINE
  8
DETAIL
  6
CONTINUOUS
 62
     5
 10
35.30946687553535
 20
-181.78358468136031
 30
0.0
 11
35.30946687553535
 21
-181.78358468136031
 31
0.0
  0
LINE
  8
DETAIL
  6
CONTINUOUS
 62
     5
 10
35.30946687553535
 20
-181.78358468136031
 30
0.0
 11
35.394443804107823
 21
-181.8269102822953
 31
0.0
  0
LINE
  8
DETAIL
  6
CONTINUOUS
 62
     5
 10
35.394443804107823
 20
-181.8269102822953
 30
0.0
 11
35.478804976343213
 21
-181.87129144312669
 31
0.0
  0
LINE
  8
DETAIL
  6
CONTINUOUS
 62
     5
 10
35.478804976343213
 20
-181.87129144312669
 30
0.0
 11
35.478804976343213
 21
-181.87129144312669
 31
0.0
  0
LINE
  8
DETAIL
  6
CONTINUOUS
 62
     5
 10
35.478804976343213
 20
-181.87129144312669
 30
0.0
 11
35.562519176249218
 21
-181.91670964564921
 31
0.0
  0
LINE
  8
DETAIL
  6
CONTINUOUS
 62
     5
 10
35.562519176249218
 20
-181.91670964564921
 30
0.0
 11
35.645833447943119
 21
-181.96331014756791
 31
0.0
  0
LINE
  8
DETAIL
  6
CONTINUOUS
 62
     5
 10
35.645833447943119
 20
-181.96331014756791
 30
0.0
 11
35.645833447943119
 21
-181.96331014756791
 31
0.0
  0
LINE
  8
DETAIL
  6
CONTINUOUS
 62
     5
 10
35.645833447943119
 20
-181.96331014756791
 30
0.0
 11
35.728953601238914
 21
-182.01121576725379
 31
0.0
  0
LINE
  8
DETAIL
  6
CONTINUOUS
 62
     5
 10
35.728953601238914
 20
-182.01121576725379
 30
0.0
 11
35.811642248628118
 21
-182.0602957898345
 31
0.0
  0
LINE
  8
DETAIL
  6
CONTINUOUS
 62
     5
 10
35.811642248628118
 20
-182.0602957898345
 30
0.0
 11
35.811642248628118
 21
-182.0602957898345
 31
0.0
  0
LINE
  8
DETAIL
  6
CONTINUOUS
 62
     5
 10
35.811642248628118
 20
-182.0602957898345
 30
0.0
 11
35.893622327610608
 21
-182.11039511944679
 31
0.0
  0
LINE
  8
DETAIL
  6
CONTINUOUS
 62
     5
 10
35.893622327610608
 20
-182.11039511944679
 30
0.0
 11
35.9749012730407
 21
-182.16151466950191
 31
0.0
  0
LINE
  8
DETAIL
  6
CONTINUOUS
 62
     5
 10
35.9749012730407
 20
-182.16151466950191
 30
0.0
 11
35.9749012730407
 21
-182.16151466950191
 31
0.0
  0
LINE
  8
DETAIL
  6
CONTINUOUS
 62
     5
 10
35.9749012730407
 20
-182.16151466950191
 30
0.0
 11
36.055538457100063
 21
-182.2136838234901
 31
0.0
  0
LINE
  8
DETAIL
  6
CONTINUOUS
 62
     5
 10
36.055538457100063
 20
-182.2136838234901
 30
0.0
 11
36.135516503924457
 21
-182.26688983592749
 31
0.0
  0
LINE
  8
DETAIL
  6
CONTINUOUS
 62
     5
 10
36.135516503924457
 20
-182.26688983592749
 30
0.0
 11
36.135516503924457
 21
-182.26688983592749
 31
0.0
  0
LINE
  8
DETAIL
  6
CONTINUOUS
 62
     5
 10
36.135516503924457
 20
-182.26688983592749
 30
0.0
 11
36.21480447434601
 21
-182.32111255574051
 31
0.0
  0
LINE
  8
DETAIL
  6
CONTINUOUS
 62
     5
 10
36.21480447434601
 20
-182.32111255574051
 30
0.0
 11
36.293393924023583
 21
-182.37634433846921
 31
0.0
  0
LINE
  8
DETAIL
  6
CONTINUOUS
 62
     5
 10
36.293393924023583
 20
-182.37634433846921
 30
0.0
 11
36.293393924023583
 21
-182.37634433846921
 31
0.0
  0
LINE
  8
DETAIL
  6
CONTINUOUS
 62
     5
 10
36.293393924023583
 20
-182.37634433846921
 30
0.0
 11
36.371278724507192
 21
-182.4325786919369
 31
0.0
  0
LINE
  8
DETAIL
  6
CONTINUOUS
 62
     5
 10
36.371278724507192
 20
-182.4325786919369
 30
0.0
 11
36.448439516081628
 21
-182.4898012264857
 31
0.0
  0
LINE
  8
DETAIL
  6
CONTINUOUS
 62
     5
 10
36.448439516081628
 20
-182.4898012264857
 30
0.0
 11
36.448439516081628
 21
-182.4898012264857
 31
0.0
  0
LINE
  8
DETAIL
  6
CONTINUOUS
 62
     5
 10
36.448439516081628
 20
-182.4898012264857
 30
0.0
 11
36.524857365282401
 21
-182.54799668635519
 31
0.0
  0
LINE
  8
DETAIL
  6
CONTINUOUS
 62
     5
 10
36.524857365282401
 20
-182.54799668635519
 30
0.0
 11
36.600528274911987
 21
-182.6071542488562
 31
0.0
  0
LINE
  8
DETAIL
  6
CONTINUOUS
 62
     5
 10
36.600528274911987
 20
-182.6071542488562
 30
0.0
 11
36.600528274911987
 21
-182.6071542488562
 31
0.0
  0
LINE
  8
DETAIL
  6
CONTINUOUS
 62
     5
 10
36.600528274911987
 20
-182.6071542488562
 30
0.0
 11
36.675447864273558
 21
-182.66726499856441
 31
0.0
  0
LINE
  8
DETAIL
  6
CONTINUOUS
 62
     5
 10
36.675447864273558
 20
-182.66726499856441
 30
0.0
 11
36.749595282407427
 21
-182.72832321604031
 31
0.0
  0
LINE
  8
DETAIL
  6
CONTINUOUS
 62
     5
 10
36.749595282407427
 20
-182.72832321604031
 30
0.0
 11
36.749595282407427
 21
-182.72832321604031
 31
0.0
  0
LINE
  8
DETAIL
  6
CONTINUOUS
 62
     5
 10
36.749595282407427
 20
-182.72832321604031
 30
0.0
 11
36.822954275558693
 21
-182.7903162125024
 31
0.0
  0
LINE
  8
DETAIL
  6
CONTINUOUS
 62
     5
 10
36.822954275558693
 20
-182.7903162125024
 30
0.0
 11
36.895543449055481
 21
-182.85320022581621
 31
0.0
  0
LINE
  8
DETAIL
  6
CONTINUOUS
 62
     5
 10
36.895543449055481
 20
-182.85320022581621
 30
0.0
 11
36.895543449055481
 21
-182.85320022581621
 31
0.0
  0
LINE
  8
DETAIL
  6
CONTINUOUS
 62
     5
 10
36.895543449055481
 20
-182.85320022581621
 30
0.0
 11
36.967359381479348
 21
-182.91695399986719
 31
0.0
  0
LINE
  8
DETAIL
  6
CONTINUOUS
 62
     5
 10
36.967359381479348
 20
-182.91695399986719
 30
0.0
 11
37.038275685343933
 21
-182.9816773759635
 31
0.0
  0
LINE
  8
DETAIL
  6
CONTINUOUS
 62
     5
 10
37.038275685343933
 20
-182.9816773759635
 30
0.0
 11
37.038275685343933
 21
-182.9816773759635
 31
0.0
  0
LINE
  8
DETAIL
  6
CONTINUOUS
 62
     5
 10
37.038275685343933
 20
-182.9816773759635
 30
0.0
 11
37.108249482943052
 21
-183.04738714068441
 31
0.0
  0
LINE
  8
DETAIL
  6
CONTINUOUS
 62
     5
 10
37.108249482943052
 20
-183.04738714068441
 30
0.0
 11
37.177694901760447
 21
-183.11364676426049
 31
0.0
  0
LINE
  8
DETAIL
  6
CONTINUOUS
 62
     5
 10
-37.177694904929581
 20
-183.1136467674296
 30
0.0
 11
-37.108255454871603
 21
-183.0473927415776
 31
0.0
  0
LINE
  8
DETAIL
  6
CONTINUOUS
 62
     5
 10
-37.108255454871603
 20
-183.0473927415776
 30
0.0
 11
-37.038287715687488
 21
-182.98168848001609
 31
0.0
  0
LINE
  8
DETAIL
  6
CONTINUOUS
 62
     5
 10
-37.038287715687488
 20
-182.98168848001609
 30
0.0
 11
-37.038287715687488
 21
-182.98168848001609
 31
0.0
  0
LINE
  8
DETAIL
  6
CONTINUOUS
 62
     5
 10
-37.038287715687488
 20
-182.98168848001609
 30
0.0
 11
-36.96737763028375
 21
-182.91697043747811
 31
0.0
  0
LINE
  8
DETAIL
  6
CONTINUOUS
 62
     5
 10
-36.96737763028375
 20
-182.91697043747811
 30
0.0
 11
-36.895568069696537
 21
-182.85322183046361
 31
0.0
  0
LINE
  8
DETAIL
  6
CONTINUOUS
 62
     5
 10
-36.895568069696537
 20
-182.85322183046361
 30
0.0
 11
-36.895568069696537
 21
-182.85322183046361
 31
0.0
  0
LINE
  8
DETAIL
  6
CONTINUOUS
 62
     5
 10
-36.895568069696537
 20
-182.85322183046361
 30
0.0
 11
-36.822985398946678
 21
-182.79034283379701
 31
0.0
  0
LINE
  8
DETAIL
  6
CONTINUOUS
 62
     5
 10
-36.822985398946678
 20
-182.79034283379701
 30
0.0
 11
-36.749633030862697
 21
-182.72835469382491
 31
0.0
  0
LINE
  8
DETAIL
  6
CONTINUOUS
 62
     5
 10
-36.749633030862697
 20
-182.72835469382491
 30
0.0
 11
-36.749633030862697
 21
-182.72835469382491
 31
0.0
  0
LINE
  8
DETAIL
  6
CONTINUOUS
 62
     5
 10
-36.749633030862697
 20
-182.72835469382491
 30
0.0
 11
-36.675492360384958
 21
-182.66730116280911
 31
0.0
  0
LINE
  8
DETAIL
  6
CONTINUOUS
 62
     5
 10
-36.675492360384958
 20
-182.66730116280911
 30
0.0
 11
-36.600579663091928
 21
-182.60719494515249
 31
0.0
  0
LINE
  8
DETAIL
  6
CONTINUOUS
 62
     5
 10
-36.600579663091928
 20
-182.60719494515249
 30
0.0
 11
-36.600579663091928
 21
-182.60719494515249
 31
0.0
  0
LINE
  8
DETAIL
  6
CONTINUOUS
 62
     5
 10
-36.600579663091928
 20
-182.60719494515249
 30
0.0
 11
-36.524915792131992
 21
-182.5480417632707
 31
0.0
  0
LINE
  8
DETAIL
  6
CONTINUOUS
 62
     5
 10
-36.524915792131992
 20
-182.5480417632707
 30
0.0
 11
-36.448505030290328
 21
-182.48985045949831
 31
0.0
  0
LINE
  8
DETAIL
  6
CONTINUOUS
 62
     5
 10
-36.448505030290328
 20
-182.48985045949831
 30
0.0
 11
-36.448505030290328
 21
-182.48985045949831
 31
0.0
  0
LINE
  8
DETAIL
  6
CONTINUOUS
 62
     5
 10
-36.448505030290328
 20
-182.48985045949831
 30
0.0
 11
-36.371351290192592
 21
-182.43263179409129
 31
0.0
  0
LINE
  8
DETAIL
  6
CONTINUOUS
 62
     5
 10
-36.371351290192592
 20
-182.43263179409129
 30
0.0
 11
-36.293473574186578
 21
-182.3764010790878
 31
0.0
  0
LINE
  8
DETAIL
  6
CONTINUOUS
 62
     5
 10
-36.293473574186578
 20
-182.3764010790878
 30
0.0
 11
-36.293473574186578
 21
-182.3764010790878
 31
0.0
  0
LINE
  8
DETAIL
  6
CONTINUOUS
 62
     5
 10
-36.293473574186578
 20
-182.3764010790878
 30
0.0
 11
-36.214891331409149
 21
-182.32117277446901
 31
0.0
  0
LINE
  8
DETAIL
  6
CONTINUOUS
 62
     5
 10
-36.214891331409149
 20
-182.32117277446901
 30
0.0
 11
-36.135610708429908
 21
-182.26695338022199
 31
0.0
  0
LINE
  8
DETAIL
  6
CONTINUOUS
 62
     5
 10
-36.135610708429908
 20
-182.26695338022199
 30
0.0
 11
-36.135610708429908
 21
-182.26695338022199
 31
0.0
  0
LINE
  8
DETAIL
  6
CONTINUOUS
 62
     5
 10
-36.135610708429908
 20
-182.26695338022199
 30
0.0
 11
-36.055640128572691
 21
-182.2137505229982
 31
0.0
  0
LINE
  8
DETAIL
  6
CONTINUOUS
 62
     5
 10
-36.055640128572691
 20
-182.2137505229982
 30
0.0
 11
-35.975010424744028
 21
-182.16158429610499
 31
0.0
  0
LINE
  8
DETAIL
  6
CONTINUOUS
 62
     5
 10
-35.975010424744028
 20
-182.16158429610499
 30
0.0
 11
-35.975010424744028
 21
-182.16158429610499
 31
0.0
  0
LINE
  8
DETAIL
  6
CONTINUOUS
 62
     5
 10
-35.975010424744028
 20
-182.16158429610499
 30
0.0
 11
-35.893738948305213
 21
-182.1104674328565
 31
0.0
  0
LINE
  8
DETAIL
  6
CONTINUOUS
 62
     5
 10
-35.893738948305213
 20
-182.1104674328565
 30
0.0
 11
-35.811766714853214
 21
-182.06037075993979
 31
0.0
  0
LINE
  8
DETAIL
  6
CONTINUOUS
 62
     5
 10
-35.811766714853214
 20
-182.06037075993979
 30
0.0
 11
-35.811766714853214
 21
-182.06037075993979
 31
0.0
  0
LINE
  8
DETAIL
  6
CONTINUOUS
 62
     5
 10
-35.811766714853214
 20
-182.06037075993979
 30
0.0
 11
-35.729086389412601
 21
-182.0112934173483
 31
0.0
  0
LINE
  8
DETAIL
  6
CONTINUOUS
 62
     5
 10
-35.729086389412601
 20
-182.0112934173483
 30
0.0
 11
-35.645973570481146
 21
-181.9633897049298
 31
0.0
  0
LINE
  8
DETAIL
  6
CONTINUOUS
 62
     5
 10
-35.645973570481146
 20
-181.9633897049298
 30
0.0
 11
-35.645973570481146
 21
-181.9633897049298
 31
0.0
  0
LINE
  8
DETAIL
  6
CONTINUOUS
 62
     5
 10
-35.645973570481146
 20
-181.9633897049298
 30
0.0
 11
-35.56266440029583
 21
-181.91678967311509
 31
0.0
  0
LINE
  8
DETAIL
  6
CONTINUOUS
 62
     5
 10
-35.56266440029583
 20
-181.91678967311509
 30
0.0
 11
-35.478954262575833
 21
-181.87137121481851
 31
0.0
  0
LINE
  8
DETAIL
  6
CONTINUOUS
 62
     5
 10
-35.478954262575833
 20
-181.87137121481851
 30
0.0
 11
-35.478954262575833
 21
-181.87137121481851
 31
0.0
  0
LINE
  8
DETAIL
  6
CONTINUOUS
 62
     5
 10
-35.478954262575833
 20
-181.87137121481851
 30
0.0
 11
-35.394597547155293
 21
-181.82698990921861
 31
0.0
  0
LINE
  8
DETAIL
  6
CONTINUOUS
 62
     5
 10
-35.394597547155293
 20
-181.82698990921861
 30
0.0
 11
-35.309625426844597
 21
-181.78366423807441
 31
0.0
  0
LINE
  8
DETAIL
  6
CONTINUOUS
 62
     5
 10
-35.309625426844597
 20
-181.78366423807441
 30
0.0
 11
-35.309625426844597
 21
-181.78366423807441
 31
0.0
  0
LINE
  8
DETAIL
  6
CONTINUOUS
 62
     5
 10
-35.309625426844597
 20
-181.78366423807441
 30
0.0
 11
-35.224120910398597
 21
-181.7414429578632
 31
0.0
  0
LINE
  8
DETAIL
  6
CONTINUOUS
 62
     5
 10
-35.224120910398597
 20
-181.7414429578632
 30
0.0
 11
-35.138097567373393
 21
-181.7003330213586
 31
0.0
  0
LINE
  8
DETAIL
  6
CONTINUOUS
 62
     5
 10
-35.138097567373393
 20
-181.7003330213586
 30
0.0
 11
-35.138097567373393
 21
-181.7003330213586
 31
0.0
  0
LINE
  8
DETAIL
  6
CONTINUOUS
 62
     5
 10
-35.138097567373393
 20
-181.7003330213586
 30
0.0
 11
-35.051551850979763
 21
-181.66033200846729
 31
0.0
  0
LINE
  8
DETAIL
  6
CONTINUOUS
 62
     5
 10
-35.051551850979763
 20
-181.66033200846729
 30
0.0
 11
-34.964481188248101
 21
-181.6214418113332
 31
0.0
  0
LINE
  8
DETAIL
  6
CONTINUOUS
 62
     5
 10
-34.964481188248101
 20
-181.6214418113332
 30
0.0
 11
-34.964481188248101
 21
-181.6214418113332
 31
0.0
  0
LINE
  8
DETAIL
  6
CONTINUOUS
 62
     5
 10
-34.964481188248101
 20
-181.6214418113332
 30
0.0
 11
-34.876899635643781
 21
-181.5836715388468
 31
0.0
  0
LINE
  8
DETAIL
  6
CONTINUOUS
 62
     5
 10
-34.876899635643781
 20
-181.5836715388468
 30
0.0
 11
-34.788886793555093
 21
-181.54705485465871
 31
0.0
  0
LINE
  8
DETAIL
  6
CONTINUOUS
 62
     5
 10
-34.788886793555093
 20
-181.54705485465871
 30
0.0
 11
-34.788886793555093
 21
-181.54705485465871
 31
0.0
  0
LINE
  8
DETAIL
  6
CONTINUOUS
 62
     5
 10
-34.788886793555093
 20
-181.54705485465871
 30
0.0
 11
-34.700511316943327
 21
-181.51161997357349
 31
0.0
  0
LINE
  8
DETAIL
  6
CONTINUOUS
 62
     5
 10
-34.700511316943327
 20
-181.51161997357349
 30
0.0
 11
-34.611732535139822
 21
-181.47734876026149
 31
0.0
  0
LINE
  8
DETAIL
  6
CONTINUOUS
 62
     5
 10
-34.611732535139822
 20
-181.47734876026149
 30
0.0
 11
-34.611732535139822
 21
-181.47734876026149
 31
0.0
  0
LINE
  8
DETAIL
  6
CONTINUOUS
 62
     5
 10
-34.611732535139822
 20
-181.47734876026149
 30
0.0
 11
-34.522500579605207
 21
-181.44421906329691
 31
0.0
  0
LINE
  8
DETAIL
  6
CONTINUOUS
 62
     5
 10
-34.522500579605207
 20
-181.44421906329691
 30
0.0
 11
-34.432838115951881
 21
-181.41223901700451
 31
0.0
  0
LINE
  8
DETAIL
  6
CONTINUOUS
 62
     5
 10
-34.432838115951881
 20
-181.41223901700451
 30
0.0
 11
-34.432838115951881
 21
-181.41223901700451
 31
0.0
  0
LINE
  8
DETAIL
  6
CONTINUOUS
 62
     5
 10
-34.432838115951881
 20
-181.41223901700451
 30
0.0
 11
-34.342778396732569
 21
-181.38142163082469
 31
0.0
  0
LINE
  8
DETAIL
  6
CONTINUOUS
 62
     5
 10
-34.342778396732569
 20
-181.38142163082469
 30
0.0
 11
-34.252324488112322
 21
-181.35176912890461
 31
0.0
  0
LINE
  8
DETAIL
  6
CONTINUOUS
 62
     5
 10
-34.252324488112322
 20
-181.35176912890461
 30
0.0
 11
-34.252324488112322
 21
-181.35176912890461
 31
0.0
  0
LINE
  8
DETAIL
  6
CONTINUOUS
 62
     5
 10
-34.252324488112322
 20
-181.35176912890461
 30
0.0
 11
-34.161483962509116
 21
-181.3232842529242
 31
0.0
  0
LINE
  8
DETAIL
  6
CONTINUOUS
 62
     5
 10
-34.161483962509116
 20
-181.3232842529242
 30
0.0
 11
-34.070312603742309
 21
-181.29598259997829
 31
0.0
  0
LINE
  8
DETAIL
  6
CONTINUOUS
 62
     5
 10
-34.070312603742309
 20
-181.29598259997829
 30
0.0
 11
-34.070312603742309
 21
-181.29598259997829
 31
0.0
  0
LINE
  8
DETAIL
  6
CONTINUOUS
 62
     5
 10
-34.070312603742309
 20
-181.29598259997829
 30
0.0
 11
-33.978837583677091
 21
-181.26987282192289
 31
0.0
  0
LINE
  8
DETAIL
  6
CONTINUOUS
 62
     5
 10
-33.978837583677091
 20
-181.26987282192289
 30
0.0
 11
-33.88692341496278
 21
-181.24492293424171
 31
0.0
  0
LINE
  8
DETAIL
  6
CONTINUOUS
 62
     5
 10
-33.88692341496278
 20
-181.24492293424171
 30
0.0
 11
-33.88692341496278
 21
-181.24492293424171
 31
0.0
  0
LINE
  8
DETAIL
  6
CONTINUOUS
 62
     5
 10
-33.88692341496278
 20
-181.24492293424171
 30
0.0
 11
-33.794457520510953
 21
-181.22110717037339
 31
0.0
  0
LINE
  8
DETAIL
  6
CONTINUOUS
 62
     5
 10
-33.794457520510953
 20
-181.22110717037339
 30
0.0
 11
-33.701581623498669
 21
-181.1984652719525
 31
0.0
  0
LINE
  8
DETAIL
  6
CONTINUOUS
 62
     5
 10
-33.701581623498669
 20
-181.1984652719525
 30
0.0
 11
-33.701581623498669
 21
-181.1984652719525
 31
0.0
  0
LINE
  8
DETAIL
  6
CONTINUOUS
 62
     5
 10
-33.701581623498669
 20
-181.1984652719525
 30
0.0
 11
-33.60846028668368
 21
-181.17704204355189
 31
0.0
  0
LINE
  8
DETAIL
  6
CONTINUOUS
 62
     5
 10
-33.60846028668368
 20
-181.17704204355189
 30
0.0
 11
-33.515095130880468
 21
-181.15683703329839
 31
0.0
  0
LINE
  8
DETAIL
  6
CONTINUOUS
 62
     5
 10
-33.515095130880468
 20
-181.15683703329839
 30
0.0
 11
-33.515095130880468
 21
-181.15683703329839
 31
0.0
  0
LINE
  8
DETAIL
  6
CONTINUOUS
 62
     5
 10
-33.515095130880468
 20
-181.15683703329839
 30
0.0
 11
-33.421460559442487
 21
-181.13784181938129
 31
0.0
  0
LINE
  8
DETAIL
  6
CONTINUOUS
 62
     5
 10
-33.421460559442487
 20
-181.13784181938129
 30
0.0
 11
-33.327585047824869
 21
-181.12006135668889
 31
0.0
  0
LINE
  8
DETAIL
  6
CONTINUOUS
 62
     5
 10
-33.327585047824869
 20
-181.12006135668889
 30
0.0
 11
-33.327585047824869
 21
-181.12006135668889
 31
0.0
  0
LINE
  8
DETAIL
  6
CONTINUOUS
 62
     5
 10
-33.327585047824869
 20
-181.12006135668889
 30
0.0
 11
-33.233497252892327
 21
-181.10350188169721
 31
0.0
  0
LINE
  8
DETAIL
  6
CONTINUOUS
 62
     5
 10
-33.233497252892327
 20
-181.10350188169721
 30
0.0
 11
-33.139172485048682
 21
-181.0881613805368
 31
0.0
  0
LINE
  8
DETAIL
  6
CONTINUOUS
 62
     5
 10
-33.139172485048682
 20
-181.0881613805368
 30
0.0
 11
-33.139172485048682
 21
-181.0881613805368
 31
0.0
  0
LINE
  8
DETAIL
  6
CONTINUOUS
 62
     5
 10
-33.139172485048682
 20
-181.0881613805368
 30
0.0
 11
-33.044612546518351
 21
-181.07404068292271
 31
0.0
  0
LINE
  8
DETAIL
  6
CONTINUOUS
 62
     5
 10
-33.044612546518351
 20
-181.07404068292271
 30
0.0
 11
-32.949978553268693
 21
-181.06116024325229
 31
0.0
  0
LINE
  8
DETAIL
  6
CONTINUOUS
 62
     5
 10
-32.949978553268693
 20
-181.06116024325229
 30
0.0
 11
-32.949978553268693
 21
-181.06116024325229
 31
0.0
  0
LINE
  8
DETAIL
  6
CONTINUOUS
 62
     5
 10
-32.949978553268693
 20
-181.06116024325229
 30
0.0
 11
-32.855410338313959
 21
-181.0495361114113
 31
0.0
  0
LINE
  8
DETAIL
  6
CONTINUOUS
 62
     5
 10
-32.855410338313959
 20
-181.0495361114113
 30
0.0
 11
-32.760803289113483
 21
-181.0391470945558
 31
0.0
  0
LINE
  8
DETAIL
  6
CONTINUOUS
 62
     5
 10
-32.760803289113483
 20
-181.0391470945558
 30
0.0
 11
-32.760803289113483
 21
-181.0391470945558
 31
0.0
  0
LINE
  8
DETAIL
  6
CONTINUOUS
 62
     5
 10
-32.760803289113483
 20
-181.0391470945558
 30
0.0
 11
-32.666030693548691
 21
-181.0299714894218
 31
0.0
  0
LINE
  8
DETAIL
  6
CONTINUOUS
 62
     5
 10
-32.666030693548691
 20
-181.0299714894218
 30
0.0
 11
-32.571121886743299
 21
-181.0220227937921
 31
0.0
  0
LINE
  8
DETAIL
  6
CONTINUOUS
 62
     5
 10
-32.571121886743299
 20
-181.0220227937921
 30
0.0
 11
-32.571121886743299
 21
-181.0220227937921
 31
0.0
  0
LINE
  8
DETAIL
  6
CONTINUOUS
 62
     5
 10
-32.571121886743299
 20
-181.0220227937921
 30
0.0
 11
-32.476134561458707
 21
-181.0153100206949
 31
0.0
  0
LINE
  8
DETAIL
  6
CONTINUOUS
 62
     5
 10
-32.476134561458707
 20
-181.0153100206949
 30
0.0
 11
-32.38108379376456
 21
-181.00978904308661
 31
0.0
  0
LINE
  8
DETAIL
  6
CONTINUOUS
 62
     5
 10
-32.38108379376456
 20
-181.00978904308661
 30
0.0
 11
-32.38108379376456
 21
-181.00978904308661
 31
0.0
  0
LINE
  8
DETAIL
  6
CONTINUOUS
 62
     5
 10
-32.38108379376456
 20
-181.00978904308661
 30
0.0
 11
-32.285977610438643
 21
-181.0054467887162
 31
0.0
  0
LINE
  8
DETAIL
  6
CONTINUOUS
 62
     5
 10
-32.285977610438643
 20
-181.0054467887162
 30
0.0
 11
-32.190838457784032
 21
-181.0024475445648
 31
0.0
  0
LINE
  8
DETAIL
  6
CONTINUOUS
 62
     5
 10
-32.190838457784032
 20
-181.0024475445648
 30
0.0
 11
-32.190838457784032
 21
-181.0024475445648
 31
0.0
  0
LINE
  8
DETAIL
  6
CONTINUOUS
 62
     5
 10
-32.190838457784032
 20
-181.0024475445648
 30
0.0
 11
-32.095688621632462
 21
-181.00083586320611
 31
0.0
  0
LINE
  8
DETAIL
  6
CONTINUOUS
 62
     5
 10
-32.095688621632462
 20
-181.00083586320611
 30
0.0
 11
-32.000535326408567
 21
-181.000000000352
 31
0.0
  0
LINE
  8
DETAIL
  6
CONTINUOUS
 62
     5
 10
-53.158735919894411
 20
-197.4874909859154
 30
0.0
 11
-53.132825804406927
 21
-197.4843250030772
 31
0.0
  0
LINE
  8
DETAIL
  6
CONTINUOUS
 62
     5
 10
-53.132825804406927
 20
-197.4843250030772
 30
0.0
 11
-53.106930398202053
 21
-197.48096243527721
 31
0.0
  0
LINE
  8
DETAIL
  6
CONTINUOUS
 62
     5
 10
-53.106930398202053
 20
-197.48096243527721
 30
0.0
 11
-53.106930398202053
 21
-197.48096243527721
 31
0.0
  0
LINE
  8
DETAIL
  6
CONTINUOUS
 62
     5
 10
-53.106930398202053
 20
-197.48096243527721
 30
0.0
 11
-53.081071280080891
 21
-197.4772521621594
 31
0.0
  0
LINE
  8
DETAIL
  6
CONTINUOUS
 62
     5
 10
-53.081071280080891
 20
-197.4772521621594
 30
0.0
 11
-53.055297506918919
 21
-197.47322492178591
 31
0.0
  0
LINE
  8
DETAIL
  6
CONTINUOUS
 62
     5
 10
-53.055297506918919
 20
-197.47322492178591
 30
0.0
 11
-53.055297506918919
 21
-197.47322492178591
 31
0.0
  0
LINE
  8
DETAIL
  6
CONTINUOUS
 62
     5
 10
-53.055297506918919
 20
-197.47322492178591
 30
0.0
 11
-53.029617529637449
 21
-197.46893386289
 31
0.0
  0
LINE
  8
DETAIL
  6
CONTINUOUS
 62
     5
 10
-53.029617529637449
 20
-197.46893386289
 30
0.0
 11
-53.003849897263763
 21
-197.46433991846371
 31
0.0
  0
LINE
  8
DETAIL
  6
CONTINUOUS
 62
     5
 10
-53.003849897263763
 20
-197.46433991846371
 30
0.0
 11
-53.003849897263763
 21
-197.46433991846371
 31
0.0
  0
LINE
  8
DETAIL
  6
CONTINUOUS
 62
     5
 10
-53.003849897263763
 20
-197.46433991846371
 30
0.0
 11
-52.977948715726711
 21
-197.45942771869929
 31
0.0
  0
LINE
  8
DETAIL
  6
CONTINUOUS
 62
     5
 10
-52.977948715726711
 20
-197.45942771869929
 30
0.0
 11
-52.952600220454883
 21
-197.45436889833221
 31
0.0
  0
LINE
  8
DETAIL
  6
CONTINUOUS
 62
     5
 10
-52.952600220454883
 20
-197.45436889833221
 30
0.0
 11
-52.952600220454883
 21
-197.45436889833221
 31
0.0
  0
LINE
  8
DETAIL
  6
CONTINUOUS
 62
     5
 10
-52.952600220454883
 20
-197.45436889833221
 30
0.0
 11
-52.927989025225322
 21
-197.44921789262531
 31
0.0
  0
LINE
  8
DETAIL
  6
CONTINUOUS
 62
     5
 10
-52.927989025225322
 20
-197.44921789262531
 30
0.0
 11
-52.901561127711027
 21
-197.44337333441351
 31
0.0
  0
LINE
  8
DETAIL
  6
CONTINUOUS
 62
     5
 10
-52.901561127711027
 20
-197.44337333441351
 30
0.0
 11
-52.901561127711027
 21
-197.44337333441351
 31
0.0
  0
LINE
  8
DETAIL
  6
CONTINUOUS
 62
     5
 10
-52.901561127711027
 20
-197.44337333441351
 30
0.0
 11
-52.871158517987404
 21
-197.4363136394127
 31
0.0
  0
LINE
  8
DETAIL
  6
CONTINUOUS
 62
     5
 10
-52.871158517987404
 20
-197.4363136394127
 30
0.0
 11
-52.838945771842759
 21
-197.4284921572862
 31
0.0
  0
LINE
  8
DETAIL
  6
CONTINUOUS
 62
     5
 10
-52.838945771842759
 20
-197.4284921572862
 30
0.0
 11
-52.838945771842759
 21
-197.4284921572862
 31
0.0
  0
LINE
  8
DETAIL
  6
CONTINUOUS
 62
     5
 10
-52.838945771842759
 20
-197.4284921572862
 30
0.0
 11
-52.807493936573913
 21
-197.42046460784829
 31
0.0
  0
LINE
  8
DETAIL
  6
CONTINUOUS
 62
     5
 10
-52.807493936573913
 20
-197.42046460784829
 30
0.0
 11
-52.776677359801511
 21
-197.41222125756619
 31
0.0
  0
LINE
  8
DETAIL
  6
CONTINUOUS
 62
     5
 10
-52.776677359801511
 20
-197.41222125756619
 30
0.0
 11
-52.776677359801511
 21
-197.41222125756619
 31
0.0
  0
LINE
  8
DETAIL
  6
CONTINUOUS
 62
     5
 10
-52.776677359801511
 20
-197.41222125756619
 30
0.0
 11
-52.745822825198047
 21
-197.40362998828459
 31
0.0
  0
LINE
  8
DETAIL
  6
CONTINUOUS
 62
     5
 10
-52.745822825198047
 20
-197.40362998828459
 30
0.0
 11
-52.7147635603244
 21
-197.39463459669651
 31
0.0
  0
LINE
  8
DETAIL
  6
CONTINUOUS
 62
     5
 10
-52.7147635603244
 20
-197.39463459669651
 30
0.0
 11
-52.7147635603244
 21
-197.39463459669651
 31
0.0
  0
LINE
  8
DETAIL
  6
CONTINUOUS
 62
     5
 10
-52.7147635603244
 20
-197.39463459669651
 30
0.0
 11
-52.683627134744597
 21
-197.3852633066947
 31
0.0
  0
LINE
  8
DETAIL
  6
CONTINUOUS
 62
     5
 10
-52.683627134744597
 20
-197.3852633066947
 30
0.0
 11
-52.653212042148432
 21
-197.37580613611999
 31
0.0
  0
LINE
  8
DETAIL
  6
CONTINUOUS
 62
     5
 10
-52.653212042148432
 20
-197.37580613611999
 30
0.0
 11
-52.653212042148432
 21
-197.37580613611999
 31
0.0
  0
LINE
  8
DETAIL
  6
CONTINUOUS
 62
     5
 10
-52.653212042148432
 20
-197.37580613611999
 30
0.0
 11
-52.623686972159128
 21
-197.36633777863969
 31
0.0
  0
LINE
  8
DETAIL
  6
CONTINUOUS
 62
     5
 10
-52.623686972159128
 20
-197.36633777863969
 30
0.0
 11
-52.59203047401013
 21
-197.35580983727959
 31
0.0
  0
LINE
  8
DETAIL
  6
CONTINUOUS
 62
     5
 10
-52.59203047401013
 20
-197.35580983727959
 30
0.0
 11
-52.59203047401013
 21
-197.35580983727959
 31
0.0
  0
LINE
  8
DETAIL
  6
CONTINUOUS
 62
     5
 10
-52.59203047401013
 20
-197.35580983727959
 30
0.0
 11
-52.555701115012653
 21
-197.34332379990019
 31
0.0
  0
LINE
  8
DETAIL
  6
CONTINUOUS
 62
     5
 10
-52.555701115012653
 20
-197.34332379990019
 30
0.0
 11
-52.517267675179141
 21
-197.32970378434021
 31
0.0
  0
LINE
  8
DETAIL
  6
CONTINUOUS
 62
     5
 10
-52.517267675179141
 20
-197.32970378434021
 30
0.0
 11
-52.517267675179141
 21
-197.32970378434021
 31
0.0
  0
LINE
  8
DETAIL
  6
CONTINUOUS
 62
     5
 10
-52.517267675179141
 20
-197.32970378434021
 30
0.0
 11
-52.479776671144798
 21
-197.3159476668261
 31
0.0
  0
LINE
  8
DETAIL
  6
CONTINUOUS
 62
     5
 10
-52.479776671144798
 20
-197.3159476668261
 30
0.0
 11
-52.443075353334279
 21
-197.3020257271501
 31
0.0
  0
LINE
  8
DETAIL
  6
CONTINUOUS
 62
     5
 10
-52.443075353334279
 20
-197.3020257271501
 30
0.0
 11
-52.443075353334279
 21
-197.3020257271501
 31
0.0
  0
LINE
  8
DETAIL
  6
CONTINUOUS
 62
     5
 10
-52.443075353334279
 20
-197.3020257271501
 30
0.0
 11
-52.406363753306209
 21
-197.28769157363101
 31
0.0
  0
LINE
  8
DETAIL
  6
CONTINUOUS
 62
     5
 10
-52.406363753306209
 20
-197.28769157363101
 30
0.0
 11
-52.369452293365377
 21
-197.27285972512749
 31
0.0
  0
LINE
  8
DETAIL
  6
CONTINUOUS
 62
     5
 10
-52.369452293365377
 20
-197.27285972512749
 30
0.0
 11
-52.369452293365377
 21
-197.27285972512749
 31
0.0
  0
LINE
  8
DETAIL
  6
CONTINUOUS
 62
     5
 10
-52.369452293365377
 20
-197.27285972512749
 30
0.0
 11
-52.332493419309337
 21
-197.2575809167015
 31
0.0
  0
LINE
  8
DETAIL
  6
CONTINUOUS
 62
     5
 10
-52.332493419309337
 20
-197.2575809167015
 30
0.0
 11
-52.296397280161841
 21
-197.24228983769041
 31
0.0
  0
LINE
  8
DETAIL
  6
CONTINUOUS
 62
     5
 10
-52.296397280161841
 20
-197.24228983769041
 30
0.0
 11
-52.296397280161841
 21
-197.24228983769041
 31
0.0
  0
LINE
  8
DETAIL
  6
CONTINUOUS
 62
     5
 10
-52.296397280161841
 20
-197.24228983769041
 30
0.0
 11
-52.261353149840147
 21
-197.2270929840906
 31
0.0
  0
LINE
  8
DETAIL
  6
CONTINUOUS
 62
     5
 10
-52.261353149840147
 20
-197.2270929840906
 30
0.0
 11
-52.223909098613262
 21
-197.21040012425689
 31
0.0
  0
LINE
  8
DETAIL
  6
CONTINUOUS
 62
     5
 10
-52.223909098613262
 20
-197.21040012425689
 30
0.0
 11
-52.223909098613262
 21
-197.21040012425689
 31
0.0
  0
LINE
  8
DETAIL
  6
CONTINUOUS
 62
     5
 10
-52.223909098613262
 20
-197.21040012425689
 30
0.0
 11
-52.181164191243738
 21
-197.19085520121729
 31
0.0
  0
LINE
  8
DETAIL
  6
CONTINUOUS
 62
     5
 10
-52.181164191243738
 20
-197.19085520121729
 30
0.0
 11
-52.136062674119437
 21
-197.1697355843371
 31
0.0
  0
LINE
  8
DETAIL
  6
CONTINUOUS
 62
     5
 10
-52.136062674119437
 20
-197.1697355843371
 30
0.0
 11
-52.136062674119437
 21
-197.1697355843371
 31
0.0
  0
LINE
  8
DETAIL
  6
CONTINUOUS
 62
     5
 10
-52.136062674119437
 20
-197.1697355843371
 30
0.0
 11
-52.09209022785069
 21
-197.14857693737531
 31
0.0
  0
LINE
  8
DETAIL
  6
CONTINUOUS
 62
     5
 10
-52.09209022785069
 20
-197.14857693737531
 30
0.0
 11
-52.049053088317812
 21
-197.1273146753347
 31
0.0
  0
LINE
  8
DETAIL
  6
CONTINUOUS
 62
     5
 10
-52.049053088317812
 20
-197.1273146753347
 30
0.0
 11
-52.049053088317812
 21
-197.1273146753347
 31
0.0
  0
LINE
  8
DETAIL
  6
CONTINUOUS
 62
     5
 10
-52.049053088317812
 20
-197.1273146753347
 30
0.0
 11
-52.006030342084387
 21
-197.1055600309119
 31
0.0
  0
LINE
  8
DETAIL
  6
CONTINUOUS
 62
     5
 10
-52.006030342084387
 20
-197.1055600309119
 30
0.0
 11
-51.962871923179932
 21
-197.08322775633721
 31
0.0
  0
LINE
  8
DETAIL
  6
CONTINUOUS
 62
     5
 10
-51.962871923179932
 20
-197.08322775633721
 30
0.0
 11
-51.962871923179932
 21
-197.08322775633721
 31
0.0
  0
LINE
  8
DETAIL
  6
CONTINUOUS
 62
     5
 10
-51.962871923179932
 20
-197.08322775633721
 30
0.0
 11
-51.919769491217608
 21
-197.06040502637981
 31
0.0
  0
LINE
  8
DETAIL
  6
CONTINUOUS
 62
     5
 10
-51.919769491217608
 20
-197.06040502637981
 30
0.0
 11
-51.877510760677517
 21
-197.03756518643061
 31
0.0
  0
LINE
  8
DETAIL
  6
CONTINUOUS
 62
     5
 10
-51.877510760677517
 20
-197.03756518643061
 30
0.0
 11
-51.877510760677517
 21
-197.03756518643061
 31
0.0
  0
LINE
  8
DETAIL
  6
CONTINUOUS
 62
     5
 10
-51.877510760677517
 20
-197.03756518643061
 30
0.0
 11
-51.836243693023221
 21
-197.01481607403139
 31
0.0
  0
LINE
  8
DETAIL
  6
CONTINUOUS
 62
     5
 10
-51.836243693023221
 20
-197.01481607403139
 30
0.0
 11
-51.792961182781937
 21
-196.99041732470209
 31
0.0
  0
LINE
  8
DETAIL
  6
CONTINUOUS
 62
     5
 10
-51.792961182781937
 20
-196.99041732470209
 30
0.0
 11
-51.792961182781937
 21
-196.99041732470209
 31
0.0
  0
LINE
  8
DETAIL
  6
CONTINUOUS
 62
     5
 10
-51.792961182781937
 20
-196.99041732470209
 30
0.0
 11
-51.745140683904417
 21
-196.96289082110749
 31
0.0
  0
LINE
  8
DETAIL
  6
CONTINUOUS
 62
     5
 10
-51.745140683904417
 20
-196.96289082110749
 30
0.0
 11
-51.6953529549736
 21
-196.93365563651491
 31
0.0
  0
LINE
  8
DETAIL
  6
CONTINUOUS
 62
     5
 10
-51.6953529549736
 20
-196.93365563651491
 30
0.0
 11
-51.6953529549736
 21
-196.93365563651491
 31
0.0
  0
LINE
  8
DETAIL
  6
CONTINUOUS
 62
     5
 10
-51.6953529549736
 20
-196.93365563651491
 30
0.0
 11
-51.646638789930989
 21
-196.90441102952099
 31
0.0
  0
LINE
  8
DETAIL
  6
CONTINUOUS
 62
     5
 10
-51.646638789930989
 20
-196.90441102952099
 30
0.0
 11
-51.59882581952445
 21
-196.87507980944471
 31
0.0
  0
LINE
  8
DETAIL
  6
CONTINUOUS
 62
     5
 10
-51.59882581952445
 20
-196.87507980944471
 30
0.0
 11
-51.59882581952445
 21
-196.87507980944471
 31
0.0
  0
LINE
  8
DETAIL
  6
CONTINUOUS
 62
     5
 10
-51.59882581952445
 20
-196.87507980944471
 30
0.0
 11
-51.551109290711572
 21
-196.84522834019569
 31
0.0
  0
LINE
  8
DETAIL
  6
CONTINUOUS
 62
     5
 10
-51.551109290711572
 20
-196.84522834019569
 30
0.0
 11
-51.503368078486233
 21
-196.81477365332191
 31
0.0
  0
LINE
  8
DETAIL
  6
CONTINUOUS
 62
     5
 10
-51.503368078486233
 20
-196.81477365332191
 30
0.0
 11
-51.503368078486233
 21
-196.81477365332191
 31
0.0
  0
LINE
  8
DETAIL
  6
CONTINUOUS
 62
     5
 10
-51.503368078486233
 20
-196.81477365332191
 30
0.0
 11
-51.455771627613437
 21
-196.7838138919615
 31
0.0
  0
LINE
  8
DETAIL
  6
CONTINUOUS
 62
     5
 10
-51.455771627613437
 20
-196.7838138919615
 30
0.0
 11
-51.4089680339099
 21
-196.7528209779766
 31
0.0
  0
LINE
  8
DETAIL
  6
CONTINUOUS
 62
     5
 10
-51.4089680339099
 20
-196.7528209779766
 30
0.0
 11
-51.4089680339099
 21
-196.7528209779766
 31
0.0
  0
LINE
  8
DETAIL
  6
CONTINUOUS
 62
     5
 10
-51.4089680339099
 20
-196.7528209779766
 30
0.0
 11
-51.363075497894897
 21
-196.72189883227611
 31
0.0
  0
LINE
  8
DETAIL
  6
CONTINUOUS
 62
     5
 10
-51.363075497894897
 20
-196.72189883227611
 30
0.0
 11
-51.315613987846859
 21
-196.68930559323891
 31
0.0
  0
LINE
  8
DETAIL
  6
CONTINUOUS
 62
     5
 10
-51.315613987846859
 20
-196.68930559323891
 30
0.0
 11
-51.315613987846859
 21
-196.68930559323891
 31
0.0
  0
LINE
  8
DETAIL
  6
CONTINUOUS
 62
     5
 10
-51.315613987846859
 20
-196.68930559323891
 30
0.0
 11
-51.264504659034969
 21
-196.65356521627609
 31
0.0
  0
LINE
  8
DETAIL
  6
CONTINUOUS
 62
     5
 10
-51.264504659034969
 20
-196.65356521627609
 30
0.0
 11
-51.211871646932543
 21
-196.61611070745579
 31
0.0
  0
LINE
  8
DETAIL
  6
CONTINUOUS
 62
     5
 10
-51.211871646932543
 20
-196.61611070745579
 30
0.0
 11
-51.211871646932543
 21
-196.61611070745579
 31
0.0
  0
LINE
  8
DETAIL
  6
CONTINUOUS
 62
     5
 10
-51.211871646932543
 20
-196.61611070745579
 30
0.0
 11
-51.160226378408538
 21
-196.57865417109909
 31
0.0
  0
LINE
  8
DETAIL
  6
CONTINUOUS
 62
     5
 10
-51.160226378408538
 20
-196.57865417109909
 30
0.0
 11
-51.109426465714137
 21
-196.5411150538755
 31
0.0
  0
LINE
  8
DETAIL
  6
CONTINUOUS
 62
     5
 10
-51.109426465714137
 20
-196.5411150538755
 30
0.0
 11
-51.109426465714137
 21
-196.5411150538755
 31
0.0
  0
LINE
  8
DETAIL
  6
CONTINUOUS
 62
     5
 10
-51.109426465714137
 20
-196.5411150538755
 30
0.0
 11
-51.058807110953467
 21
-196.50305386120999
 31
0.0
  0
LINE
  8
DETAIL
  6
CONTINUOUS
 62
     5
 10
-51.058807110953467
 20
-196.50305386120999
 30
0.0
 11
-51.008267690261732
 21
-196.46438799119511
 31
0.0
  0
LINE
  8
DETAIL
  6
CONTINUOUS
 62
     5
 10
-51.008267690261732
 20
-196.46438799119511
 30
0.0
 11
-51.008267690261732
 21
-196.46438799119511
 31
0.0
  0
LINE
  8
DETAIL
  6
CONTINUOUS
 62
     5
 10
-51.008267690261732
 20
-196.46438799119511
 30
0.0
 11
-50.957947902905403
 21
-196.42521533683521
 31
0.0
  0
LINE
  8
DETAIL
  6
CONTINUOUS
 62
     5
 10
-50.957947902905403
 20
-196.42521533683521
 30
0.0
 11
-50.908384566644713
 21
-196.38599887811139
 31
0.0
  0
LINE
  8
DETAIL
  6
CONTINUOUS
 62
     5
 10
-50.908384566644713
 20
-196.38599887811139
 30
0.0
 11
-50.908384566644713
 21
-196.38599887811139
 31
0.0
  0
LINE
  8
DETAIL
  6
CONTINUOUS
 62
     5
 10
-50.908384566644713
 20
-196.38599887811139
 30
0.0
 11
-50.859675616861978
 21
-196.3468385566039
 31
0.0
  0
LINE
  8
DETAIL
  6
CONTINUOUS
 62
     5
 10
-50.859675616861978
 20
-196.3468385566039
 30
0.0
 11
-50.809766340933152
 21
-196.3060170733215
 31
0.0
  0
LINE
  8
DETAIL
  6
CONTINUOUS
 62
     5
 10
-50.809766340933152
 20
-196.3060170733215
 30
0.0
 11
-50.809766340933152
 21
-196.3060170733215
 31
0.0
  0
LINE
  8
DETAIL
  6
CONTINUOUS
 62
     5
 10
-50.809766340933152
 20
-196.3060170733215
 30
0.0
 11
-50.75693662039123
 21
-196.2620826912428
 31
0.0
  0
LINE
  8
DETAIL
  6
CONTINUOUS
 62
     5
 10
-50.75693662039123
 20
-196.2620826912428
 30
0.0
 11
-50.702957361402127
 21
-196.21646316180289
 31
0.0
  0
LINE
  8
DETAIL
  6
CONTINUOUS
 62
     5
 10
-50.702957361402127
 20
-196.21646316180289
 30
0.0
 11
-50.702957361402127
 21
-196.21646316180289
 31
0.0
  0
LINE
  8
DETAIL
  6
CONTINUOUS
 62
     5
 10
-50.702957361402127
 20
-196.21646316180289
 30
0.0
 11
-50.649914341227941
 21
-196.17085319493941
 31
0.0
  0
LINE
  8
DETAIL
  6
CONTINUOUS
 62
     5
 10
-50.649914341227941
 20
-196.17085319493941
 30
0.0
 11
-50.597661796878469
 21
-196.12513584614999
 31
0.0
  0
LINE
  8
DETAIL
  6
CONTINUOUS
 62
     5
 10
-50.597661796878469
 20
-196.12513584614999
 30
0.0
 11
-50.597661796878469
 21
-196.12513584614999
 31
0.0
  0
LINE
  8
DETAIL
  6
CONTINUOUS
 62
     5
 10
-50.597661796878469
 20
-196.12513584614999
 30
0.0
 11
-50.545642116151043
 21
-196.0788659766163
 31
0.0
  0
LINE
  8
DETAIL
  6
CONTINUOUS
 62
     5
 10
-50.545642116151043
 20
-196.0788659766163
 30
0.0
 11
-50.4938818302453
 21
-196.03209732469921
 31
0.0
  0
LINE
  8
DETAIL
  6
CONTINUOUS
 62
     5
 10
-50.4938818302453
 20
-196.03209732469921
 30
0.0
 11
-50.4938818302453
 21
-196.03209732469921
 31
0.0
  0
LINE
  8
DETAIL
  6
CONTINUOUS
 62
     5
 10
-50.4938818302453
 20
-196.03209732469921
 30
0.0
 11
-50.442527247871787
 21
-195.98496238448479
 31
0.0
  0
LINE
  8
DETAIL
  6
CONTINUOUS
 62
     5
 10
-50.442527247871787
 20
-195.98496238448479
 30
0.0
 11
-50.391619644385742
 21
-195.9374097957859
 31
0.0
  0
LINE
  8
DETAIL
  6
CONTINUOUS
 62
     5
 10
-50.391619644385742
 20
-195.9374097957859
 30
0.0
 11
-50.391619644385742
 21
-195.9374097957859
 31
0.0
  0
LINE
  8
DETAIL
  6
CONTINUOUS
 62
     5
 10
-50.391619644385742
 20
-195.9374097957859
 30
0.0
 11
-50.341133034308541
 21
-195.88940136982609
 31
0.0
  0
LINE
  8
DETAIL
  6
CONTINUOUS
 62
     5
 10
-50.341133034308541
 20
-195.88940136982609
 30
0.0
 11
-50.290877422183137
 21
-195.8411354577465
 31
0.0
  0
LINE
  8
DETAIL
  6
CONTINUOUS
 62
     5
 10
-139.89770926795779
 20
-60.0
 30
0.0
 11
-139.89770926795779
 21
-130.5
 31
0.0
  0
LINE
  8
DETAIL
  6
CONTINUOUS
 62
     5
 10
-137.7763889244718
 20
-130.5
 30
0.0
 11
-137.7763889244718
 21
-60.0
 31
0.0
  0
LINE
  8
DETAIL
  6
CONTINUOUS
 62
     5
 10
-120.0987193948944
 20
-130.5
 30
0.0
 11
-120.0987193948944
 21
-60.0
 31
0.0
  0
LINE
  8
DETAIL
  6
CONTINUOUS
 62
     5
 10
-59.273518287147908
 20
-202.9192568477113
 30
0.0
 11
-55.175526553521081
 21
-208.2151230887325
 31
0.0
  0
LINE
  8
DETAIL
  6
CONTINUOUS
 62
     5
 10
-62.499999999824013
 20
-168.50000000017599
 30
0.0
 11
-62.499999999824013
 21
-197.500000000352
 31
0.0
  0
LINE
  8
DETAIL
  6
CONTINUOUS
 62
     5
 10
-61.062088342077573
 20
-163.5
 30
0.0
 11
-61.062088342077573
 21
-160.3000000003519
 31
0.0
  0
LINE
  8
DETAIL
  6
CONTINUOUS
 62
     5
 10
-57.977599001408407
 20
-163.5
 30
0.0
 11
-57.977599001408407
 21
-160.3000000003519
 31
0.0
  0
LINE
  8
DETAIL
  6
CONTINUOUS
 62
     5
 10
-4.7000000001761464
 20
-159.80000000017591
 30
0.0
 11
-4.7000000001761464
 21
-160.3000000003519
 31
0.0
  0
LINE
  8
DETAIL
  6
CONTINUOUS
 62
     5
 10
4.7000000001760327
 20
-159.80000000017591
 30
0.0
 11
4.7000000001760327
 21
-160.3000000003519
 31
0.0
  0
LINE
  8
DETAIL
  6
CONTINUOUS
 62
     5
 10
51.998611009859133
 20
-197.10106583556311
 30
0.0
 11
51.998611009859133
 21
-193.37618530928361
 31
0.0
  0
LINE
  8
DETAIL
  6
CONTINUOUS
 62
     5
 10
53.157722001232401
 20
-197.4873465237674
 30
0.0
 11
53.157722001232401
 21
-193.40330873550161
 31
0.0
  0
LINE
  8
DETAIL
  6
CONTINUOUS
 62
     5
 10
-4.7000000001761464
 20
-159.80000000017591
 30
0.0
 11
4.7000000001760327
 21
-159.80000000017591
 31
0.0
  0
LINE
  8
DETAIL
  6
CONTINUOUS
 62
     5
 10
63.499955636091499
 20
-160.3000000003519
 30
0.0
 11
-63.499941636971812
 21
-160.3000000003519
 31
0.0
  0
LINE
  8
DETAIL
  6
CONTINUOUS
 62
     5
 10
59.545676169718263
 20
-163.5
 30
0.0
 11
59.545676169718263
 21
-160.3000000003519
 31
0.0
  0
LINE
  8
DETAIL
  6
CONTINUOUS
 62
     5
 10
62.069996041901391
 20
-163.5
 30
0.0
 11
62.069996041901391
 21
-160.3000000003519
 31
0.0
  0
LINE
  8
DETAIL
  6
CONTINUOUS
 62
     5
 10
62.499999999823899
 20
-197.500000000352
 30
0.0
 11
62.499999999823899
 21
-193.50877080190989
 31
0.0
  0
LINE
  8
DETAIL
  6
CONTINUOUS
 62
     5
 10
62.499999999823899
 20
-186.66991904704329
 30
0.0
 11
62.499999999823899
 21
-168.50000000017599
 31
0.0
  0
LINE
  8
DETAIL
  6
CONTINUOUS
 62
     5
 10
-61.062088342077573
 20
-163.5
 30
0.0
 11
63.499955636091499
 21
-163.5
 31
0.0
  0
LINE
  8
DETAIL
  6
CONTINUOUS
 62
     5
 10
-66.500000000176101
 20
-201.59999999999991
 30
0.0
 11
66.500000000175987
 21
-201.59999999999991
 31
0.0
  0
LINE
  8
DETAIL
  6
CONTINUOUS
 62
     5
 10
-51.537521331338098
 20
-210.0
 30
0.0
 11
51.537521330809803
 21
-210.0
 31
0.0
  0
LINE
  8
DETAIL
  6
CONTINUOUS
 62
     5
 10
59.273518287147908
 20
-202.9192568477113
 30
0.0
 11
55.175526552992892
 21
-208.2151230887325
 31
0.0
  0
ARC
  8
DETAIL
  6
CONTINUOUS
 62
     5
 10
-57.500000000176101
 20
-168.50000000017599
 30
0.0
 40
5.0000000001761009
 50
90.0
 51
180.0
  0
ARC
  8
DETAIL
  6
CONTINUOUS
 62
     5
 10
-51.537520186795753
 20
-205.40000000017611
 30
0.0
 40
4.5999999998240098
 50
217.73303687250319
 51
270.0
  0
ARC
  8
DETAIL
  6
CONTINUOUS
 62
     5
 10
-61.962478669014097
 20
-205.000000000352
 30
0.0
 40
3.9999999998239781
 50
44.843468194794362
 51
58.238506261397923
  0
ARC
  8
DETAIL
  6
CONTINUOUS
 62
     5
 10
-61.962476441197282
 20
-205.000000000352
 30
0.0
 40
3.399999313204245
 50
37.733068570303622
 51
90.0
  0
ARC
  8
DETAIL
  6
CONTINUOUS
 62
     5
 10
-66.500000000176101
 20
-200.00000000017599
 30
0.0
 40
1.599999999823922
 50
180.0
 51
270.0
  0
ARC
  8
DETAIL
  6
CONTINUOUS
 62
     5
 10
0.0
 20
-164.32250000017601
 30
0.0
 40
6.5225000001760014
 50
43.897398167097009
 51
136.10260183290299
  0
ARC
  8
DETAIL
  6
CONTINUOUS
 62
     5
 10
57.500000000175987
 20
-168.50000000017599
 30
0.0
 40
5.000000000176037
 50
0.0
 51
90.0
  0
ARC
  8
DETAIL
  6
CONTINUOUS
 62
     5
 10
51.537519453168898
 20
-205.40000000017611
 30
0.0
 40
4.5999999998239636
 50
270.0
 51
322.26696872109699
  0
ARC
  8
DETAIL
  6
CONTINUOUS
 62
     5
 10
61.962477233450727
 20
-205.000000000352
 30
0.0
 40
3.399999549295861
 50
90.0
 51
142.26693960339841
  0
ARC
  8
DETAIL
  6
CONTINUOUS
 62
     5
 10
66.500000000175987
 20
-200.00000000017599
 30
0.0
 40
1.599999999823922
 50
270.0
 51
0.0
  0
LINE
  8
DETAIL
  6
CONTINUOUS
 62
     5
 10
1.717926186443719
 20
-188.500000000352
 30
0.0
 11
1.7174751850899379
 21
-188.53323688537009
 31
0.0
  0
LINE
  8
DETAIL
  6
CONTINUOUS
 62
     5
 10
1.7174751850899379
 20
-188.53323688537009
 30
0.0
 11
1.7166066245516729
 21
-188.5664705302097
 31
0.0
  0
LINE
  8
DETAIL
  6
CONTINUOUS
 62
     5
 10
1.7166066245516729
 20
-188.5664705302097
 30
0.0
 11
1.7166066245516729
 21
-188.5664705302097
 31
0.0
  0
LINE
  8
DETAIL
  6
CONTINUOUS
 62
     5
 10
1.7166066245516729
 20
-188.5664705302097
 30
0.0
 11
1.7149915242986249
 21
-188.59969491873559
 31
0.0
  0
LINE
  8
DETAIL
  6
CONTINUOUS
 62
     5
 10
1.7149915242986249
 20
-188.59969491873559
 30
0.0
 11
1.712655218417467
 21
-188.63289293098731
 31
0.0
  0
LINE
  8
DETAIL
  6
CONTINUOUS
 62
     5
 10
1.712655218417467
 20
-188.63289293098731
 30
0.0
 11
1.712655218417467
 21
-188.63289293098731
 31
0.0
  0
LINE
  8
DETAIL
  6
CONTINUOUS
 62
     5
 10
1.712655218417467
 20
-188.63289293098731
 30
0.0
 11
1.709687650476553
 21
-188.6660464612869
 31
0.0
  0
LINE
  8
DETAIL
  6
CONTINUOUS
 62
     5
 10
1.709687650476553
 20
-188.6660464612869
 30
0.0
 11
1.7060828873538869
 21
-188.6991445649146
 31
0.0
  0
LINE
  8
DETAIL
  6
CONTINUOUS
 62
     5
 10
1.7060828873538869
 20
-188.6991445649146
 30
0.0
 11
1.7060828873538869
 21
-188.6991445649146
 31
0.0
  0
LINE
  8
DETAIL
  6
CONTINUOUS
 62
     5
 10
1.7060828873538869
 20
-188.6991445649146
 30
0.0
 11
1.7018183247905649
 21
-188.7321737023872
 31
0.0
  0
LINE
  8
DETAIL
  6
CONTINUOUS
 62
     5
 10
1.7018183247905649
 20
-188.7321737023872
 30
0.0
 11
1.696900550673377
 21
-188.76510279422061
 31
0.0
  0
LINE
  8
DETAIL
  6
CONTINUOUS
 62
     5
 10
1.696900550673377
 20
-188.76510279422061
 30
0.0
 11
1.696900550673377
 21
-188.76510279422061
 31
0.0
  0
LINE
  8
DETAIL
  6
CONTINUOUS
 62
     5
 10
1.696900550673377
 20
-188.76510279422061
 30
0.0
 11
1.6913382279526561
 21
-188.79791212569259
 31
0.0
  0
LINE
  8
DETAIL
  6
CONTINUOUS
 62
     5
 10
1.6913382279526561
 20
-188.79791212569259
 30
0.0
 11
1.6851191276886079
 21
-188.83064498113529
 31
0.0
  0
LINE
  8
DETAIL
  6
CONTINUOUS
 62
     5
 10
1.6851191276886079
 20
-188.83064498113529
 30
0.0
 11
1.6851191276886079
 21
-188.83064498113529
 31
0.0
  0
LINE
  8
DETAIL
  6
CONTINUOUS
 62
     5
 10
1.6851191276886079
 20
-188.83064498113529
 30
0.0
 11
1.678231679538271
 21
-188.8633360870804
 31
0.0
  0
LINE
  8
DETAIL
  6
CONTINUOUS
 62
     5
 10
1.678231679538271
 20
-188.8633360870804
 30
0.0
 11
1.670687839435232
 21
-188.89592293979919
 31
0.0
  0
LINE
  8
DETAIL
  6
CONTINUOUS
 62
     5
 10
1.670687839435232
 20
-188.89592293979919
 30
0.0
 11
1.670687839435232
 21
-188.89592293979919
 31
0.0
  0
LINE
  8
DETAIL
  6
CONTINUOUS
 62
     5
 10
1.670687839435232
 20
-188.89592293979919
 30
0.0
 11
1.662502568882815
 21
-188.9283344887979
 31
0.0
  0
LINE
  8
DETAIL
  6
CONTINUOUS
 62
     5
 10
1.662502568882815
 20
-188.9283344887979
 30
0.0
 11
1.653679325388453
 21
-188.9605627267733
 31
0.0
  0
LINE
  8
DETAIL
  6
CONTINUOUS
 62
     5
 10
1.653679325388453
 20
-188.9605627267733
 30
0.0
 11
1.653679325388453
 21
-188.9605627267733
 31
0.0
  0
LINE
  8
DETAIL
  6
CONTINUOUS
 62
     5
 10
1.653679325388453
 20
-188.9605627267733
 30
0.0
 11
1.6442193026102809
 21
-188.99261154045689
 31
0.0
  0
LINE
  8
DETAIL
  6
CONTINUOUS
 62
     5
 10
1.6442193026102809
 20
-188.99261154045689
 30
0.0
 11
1.6341261428043481
 21
-189.02446934952081
 31
0.0
  0
LINE
  8
DETAIL
  6
CONTINUOUS
 62
     5
 10
1.6341261428043481
 20
-189.02446934952081
 30
0.0
 11
1.6341261428043481
 21
-189.02446934952081
 31
0.0
  0
LINE
  8
DETAIL
  6
CONTINUOUS
 62
     5
 10
1.6341261428043481
 20
-189.02446934952081
 30
0.0
 11
1.623404527777097
 21
-189.05612041313319
 31
0.0
  0
LINE
  8
DETAIL
  6
CONTINUOUS
 62
     5
 10
1.623404527777097
 20
-189.05612041313319
 30
0.0
 11
1.6120608489384269
 21
-189.08754781550491
 31
0.0
  0
LINE
  8
DETAIL
  6
CONTINUOUS
 62
     5
 10
1.6120608489384269
 20
-189.08754781550491
 30
0.0
 11
1.6120608489384269
 21
-189.08754781550491
 31
0.0
  0
LINE
  8
DETAIL
  6
CONTINUOUS
 62
     5
 10
1.6120608489384269
 20
-189.08754781550491
 30
0.0
 11
1.6000996033460519
 21
-189.11873938883039
 31
0.0
  0
LINE
  8
DETAIL
  6
CONTINUOUS
 62
     5
 10
1.6000996033460519
 20
-189.11873938883039
 30
0.0
 11
1.5875160010460829
 21
-189.14970313218919
 31
0.0
  0
LINE
  8
DETAIL
  6
CONTINUOUS
 62
     5
 10
1.5875160010460829
 20
-189.14970313218919
 30
0.0
 11
1.5875160010460829
 21
-189.14970313218919
 31
0.0
  0
LINE
  8
DETAIL
  6
CONTINUOUS
 62
     5
 10
1.5875160010460829
 20
-189.14970313218919
 30
0.0
 11
1.574306866146344
 21
-189.18044373001109
 31
0.0
  0
LINE
  8
DETAIL
  6
CONTINUOUS
 62
     5
 10
1.574306866146344
 20
-189.18044373001109
 30
0.0
 11
1.5604847660127921
 21
-189.21093244123929
 31
0.0
  0
LINE
  8
DETAIL
  6
CONTINUOUS
 62
     5
 10
1.5604847660127921
 20
-189.21093244123929
 30
0.0
 11
1.5604847660127921
 21
-189.21093244123929
 31
0.0
  0
LINE
  8
DETAIL
  6
CONTINUOUS
 62
     5
 10
1.5604847660127921
 20
-189.21093244123929
 30
0.0
 11
1.546064156830766
 21
-189.24113748503811
 31
0.0
  0
LINE
  8
DETAIL
  6
CONTINUOUS
 62
     5
 10
1.546064156830766
 20
-189.24113748503811
 30
0.0
 11
1.5310513068072851
 21
-189.27104834694859
 31
0.0
  0
LINE
  8
DETAIL
  6
CONTINUOUS
 62
     5
 10
1.5310513068072851
 20
-189.27104834694859
 30
0.0
 11
1.5310513068072851
 21
-189.27104834694859
 31
0.0
  0
LINE
  8
DETAIL
  6
CONTINUOUS
 62
     5
 10
1.5310513068072851
 20
-189.27104834694859
 30
0.0
 11
1.515450690915372
 21
-189.30065882091321
 31
0.0
  0
LINE
  8
DETAIL
  6
CONTINUOUS
 62
     5
 10
1.515450690915372
 20
-189.30065882091321
 30
0.0
 11
1.4992677991733669
 21
-189.32995866809961
 31
0.0
  0
LINE
  8
DETAIL
  6
CONTINUOUS
 62
     5
 10
1.4992677991733669
 20
-189.32995866809961
 30
0.0
 11
1.4992677991733669
 21
-189.32995866809961
 31
0.0
  0
LINE
  8
DETAIL
  6
CONTINUOUS
 62
     5
 10
1.4992677991733669
 20
-189.32995866809961
 30
0.0
 11
1.4825094073107721
 21
-189.3589353576622
 31
0.0
  0
LINE
  8
DETAIL
  6
CONTINUOUS
 62
     5
 10
1.4825094073107721
 20
-189.3589353576622
 30
0.0
 11
1.465186418854501
 21
-189.38757122347491
 31
0.0
  0
LINE
  8
DETAIL
  6
CONTINUOUS
 62
     5
 10
1.465186418854501
 20
-189.38757122347491
 30
0.0
 11
1.465186418854501
 21
-189.38757122347491
 31
0.0
  0
LINE
  8
DETAIL
  6
CONTINUOUS
 62
     5
 10
1.465186418854501
 20
-189.38757122347491
 30
0.0
 11
1.447306387721824
 21
-189.41585345906509
 31
0.0
  0
LINE
  8
DETAIL
  6
CONTINUOUS
 62
     5
 10
1.447306387721824
 20
-189.41585345906509
 30
0.0
 11
1.4288593415939199
 21
-189.4437938318556
 31
0.0
  0
LINE
  8
DETAIL
  6
CONTINUOUS
 62
     5
 10
1.4288593415939199
 20
-189.4437938318556
 30
0.0
 11
1.4288593415939199
 21
-189.4437938318556
 31
0.0
  0
LINE
  8
DETAIL
  6
CONTINUOUS
 62
     5
 10
1.4288593415939199
 20
-189.4437938318556
 30
0.0
 11
1.4098379941175381
 21
-189.47140058912171
 31
0.0
  0
LINE
  8
DETAIL
  6
CONTINUOUS
 62
     5
 10
1.4098379941175381
 20
-189.47140058912171
 30
0.0
 11
1.3902633290371109
 21
-189.49864332365809
 31
0.0
  0
LINE
  8
DETAIL
  6
CONTINUOUS
 62
     5
 10
1.3902633290371109
 20
-189.49864332365809
 30
0.0
 11
1.3902633290371109
 21
-189.49864332365809
 31
0.0
  0
LINE
  8
DETAIL
  6
CONTINUOUS
 62
     5
 10
1.3902633290371109
 20
-189.49864332365809
 30
0.0
 11
1.37015937627018
 21
-189.52548829909301
 31
0.0
  0
LINE
  8
DETAIL
  6
CONTINUOUS
 62
     5
 10
1.37015937627018
 20
-189.52548829909301
 30
0.0
 11
1.349534080328453
 21
-189.5519271168564
 31
0.0
  0
LINE
  8
DETAIL
  6
CONTINUOUS
 62
     5
 10
1.349534080328453
 20
-189.5519271168564
 30
0.0
 11
1.349534080328453
 21
-189.5519271168564
 31
0.0
  0
LINE
  8
DETAIL
  6
CONTINUOUS
 62
     5
 10
1.349534080328453
 20
-189.5519271168564
 30
0.0
 11
1.3283920388402071
 21
-189.57795639710389
 31
0.0
  0
LINE
  8
DETAIL
  6
CONTINUOUS
 62
     5
 10
1.3283920388402071
 20
-189.57795639710389
 30
0.0
 11
1.306740547308664
 21
-189.60356749707671
 31
0.0
  0
LINE
  8
DETAIL
  6
CONTINUOUS
 62
     5
 10
1.306740547308664
 20
-189.60356749707671
 30
0.0
 11
1.306740547308664
 21
-189.60356749707671
 31
0.0
  0
LINE
  8
DETAIL
  6
CONTINUOUS
 62
     5
 10
1.306740547308664
 20
-189.60356749707671
 30
0.0
 11
1.2845888991826091
 21
-189.62874938675029
 31
0.0
  0
LINE
  8
DETAIL
  6
CONTINUOUS
 62
     5
 10
1.2845888991826091
 20
-189.62874938675029
 30
0.0
 11
1.261951681819482
 21
-189.6534867499449
 31
0.0
  0
LINE
  8
DETAIL
  6
CONTINUOUS
 62
     5
 10
1.261951681819482
 20
-189.6534867499449
 30
0.0
 11
1.261951681819482
 21
-189.6534867499449
 31
0.0
  0
LINE
  8
DETAIL
  6
CONTINUOUS
 62
     5
 10
1.261951681819482
 20
-189.6534867499449
 30
0.0
 11
1.238838837676894
 21
-189.67776880082559
 31
0.0
  0
LINE
  8
DETAIL
  6
CONTINUOUS
 62
     5
 10
1.238838837676894
 20
-189.67776880082559
 30
0.0
 11
1.215236435702082
 21
-189.70160716108779
 31
0.0
  0
LINE
  8
DETAIL
  6
CONTINUOUS
 62
     5
 10
1.215236435702082
 20
-189.70160716108779
 30
0.0
 11
1.215236435702082
 21
-189.70160716108779
 31
0.0
  0
LINE
  8
DETAIL
  6
CONTINUOUS
 62
     5
 10
1.215236435702082
 20
-189.70160716108779
 30
0.0
 11
1.191134144142779
 21
-189.72501016561321
 31
0.0
  0
LINE
  8
DETAIL
  6
CONTINUOUS
 62
     5
 10
1.191134144142779
 20
-189.72501016561321
 30
0.0
 11
1.1665599019563619
 21
-189.7479505944971
 31
0.0
  0
LINE
  8
DETAIL
  6
CONTINUOUS
 62
     5
 10
1.1665599019563619
 20
-189.7479505944971
 30
0.0
 11
1.1665599019563619
 21
-189.7479505944971
 31
0.0
  0
LINE
  8
DETAIL
  6
CONTINUOUS
 62
     5
 10
1.1665599019563619
 20
-189.7479505944971
 30
0.0
 11
1.141545557996096
 21
-189.7703982516673
 31
0.0
  0
LINE
  8
DETAIL
  6
CONTINUOUS
 62
     5
 10
1.141545557996096
 20
-189.7703982516673
 30
0.0
 11
1.1161003299881711
 21
-189.79234659116949
 31
0.0
  0
LINE
  8
DETAIL
  6
CONTINUOUS
 62
     5
 10
1.1161003299881711
 20
-189.79234659116949
 30
0.0
 11
1.1161003299881711
 21
-189.79234659116949
 31
0.0
  0
LINE
  8
DETAIL
  6
CONTINUOUS
 62
     5
 10
1.1161003299881711
 20
-189.79234659116949
 30
0.0
 11
1.090228854995303
 21
-189.81379367173261
 31
0.0
  0
LINE
  8
DETAIL
  6
CONTINUOUS
 62
     5
 10
1.090228854995303
 20
-189.81379367173261
 30
0.0
 11
1.0639400785505591
 21
-189.8347323207104
 31
0.0
  0
LINE
  8
DETAIL
  6
CONTINUOUS
 62
     5
 10
1.0639400785505591
 20
-189.8347323207104
 30
0.0
 11
1.0639400785505591
 21
-189.8347323207104
 31
0.0
  0
LINE
  8
DETAIL
  6
CONTINUOUS
 62
     5
 10
1.0639400785505591
 20
-189.8347323207104
 30
0.0
 11
1.0372453726162121
 21
-189.85515337645921
 31
0.0
  0
LINE
  8
DETAIL
  6
CONTINUOUS
 62
     5
 10
1.0372453726162121
 20
-189.85515337645921
 30
0.0
 11
1.0101615063967979
 21
-189.87504495272469
 31
0.0
  0
LINE
  8
DETAIL
  6
CONTINUOUS
 62
     5
 10
1.0101615063967979
 20
-189.87504495272469
 30
0.0
 11
1.0101615063967979
 21
-189.87504495272469
 31
0.0
  0
LINE
  8
DETAIL
  6
CONTINUOUS
 62
     5
 10
1.0101615063967979
 20
-189.87504495272469
 30
0.0
 11
0.9827001240471418
 21
-189.89439851455609
 31
0.0
  0
LINE
  8
DETAIL
  6
CONTINUOUS
 62
     5
 10
0.9827001240471418
 20
-189.89439851455609
 30
0.0
 11
0.9548469722795971
 21
-189.91322165681871
 31
0.0
  0
LINE
  8
DETAIL
  6
CONTINUOUS
 62
     5
 10
0.9548469722795971
 20
-189.91322165681871
 30
0.0
 11
0.9548469722795971
 21
-189.91322165681871
 31
0.0
  0
LINE
  8
DETAIL
  6
CONTINUOUS
 62
     5
 10
0.9548469722795971
 20
-189.91322165681871
 30
0.0
 11
0.926591717158658
 21
-189.93151962667071
 31
0.0
  0
LINE
  8
DETAIL
  6
CONTINUOUS
 62
     5
 10
0.926591717158658
 20
-189.93151962667071
 30
0.0
 11
0.8979655995999565
 21
-189.94927215061489
 31
0.0
  0
LINE
  8
DETAIL
  6
CONTINUOUS
 62
     5
 10
0.8979655995999565
 20
-189.94927215061489
 30
0.0
 11
0.8979655995999565
 21
-189.94927215061489
 31
0.0
  0
LINE
  8
DETAIL
  6
CONTINUOUS
 62
     5
 10
0.8979655995999565
 20
-189.94927215061489
 30
0.0
 11
0.8690039708021686
 21
-189.96645697074149
 31
0.0
  0
LINE
  8
DETAIL
  6
CONTINUOUS
 62
     5
 10
0.8690039708021686
 20
-189.96645697074149
 30
0.0
 11
0.8397170482427327
 21
-189.98306941214969
 31
0.0
  0
LINE
  8
DETAIL
  6
CONTINUOUS
 62
     5
 10
0.8397170482427327
 20
-189.98306941214969
 30
0.0
 11
0.8397170482427327
 21
-189.98306941214969
 31
0.0
  0
LINE
  8
DETAIL
  6
CONTINUOUS
 62
     5
 10
0.8397170482427327
 20
-189.98306941214969
 30
0.0
 11
0.810110078210414
 21
-189.99910816050121
 31
0.0
  0
LINE
  8
DETAIL
  6
CONTINUOUS
 62
     5
 10
0.810110078210414
 20
-189.99910816050121
 30
0.0
 11
0.7801935559574531
 21
-190.01456776070339
 31
0.0
  0
LINE
  8
DETAIL
  6
CONTINUOUS
 62
     5
 10
0.7801935559574531
 20
-190.01456776070339
 30
0.0
 11
0.7801935559574531
 21
-190.01456776070339
 31
0.0
  0
LINE
  8
DETAIL
  6
CONTINUOUS
 62
     5
 10
0.7801935559574531
 20
-190.01456776070339
 30
0.0
 11
0.7499803234434239
 21
-190.02944146747839
 31
0.0
  0
LINE
  8
DETAIL
  6
CONTINUOUS
 62
     5
 10
0.7499803234434239
 20
-190.02944146747839
 30
0.0
 11
0.7194873604945542
 21
-190.04372151555569
 31
0.0
  0
LINE
  8
DETAIL
  6
CONTINUOUS
 62
     5
 10
0.7194873604945542
 20
-190.04372151555569
 30
0.0
 11
0.7194873604945542
 21
-190.04372151555569
 31
0.0
  0
LINE
  8
DETAIL
  6
CONTINUOUS
 62
     5
 10
0.7194873604945542
 20
-190.04372151555569
 30
0.0
 11
0.6887272312962978
 21
-190.05740193984741
 31
0.0
  0
LINE
  8
DETAIL
  6
CONTINUOUS
 62
     5
 10
0.6887272312962978
 20
-190.05740193984741
 30
0.0
 11
0.6576906996042453
 21
-190.07048499598679
 31
0.0
  0
LINE
  8
DETAIL
  6
CONTINUOUS
 62
     5
 10
0.6576906996042453
 20
-190.07048499598679
 30
0.0
 11
0.6576906996042453
 21
-190.07048499598679
 31
0.0
  0
LINE
  8
DETAIL
  6
CONTINUOUS
 62
     5
 10
0.6576906996042453
 20
-190.07048499598679
 30
0.0
 11
0.6263718821185194
 21
-190.0829718198147
 31
0.0
  0
LINE
  8
DETAIL
  6
CONTINUOUS
 62
     5
 10
0.6263718821185194
 20
-190.0829718198147
 30
0.0
 11
0.5948001077451863
 21
-190.094850847282
 31
0.0
  0
LINE
  8
DETAIL
  6
CONTINUOUS
 62
     5
 10
0.5948001077451863
 20
-190.094850847282
 30
0.0
 11
0.5948001077451863
 21
-190.094850847282
 31
0.0
  0
LINE
  8
DETAIL
  6
CONTINUOUS
 62
     5
 10
0.5948001077451863
 20
-190.094850847282
 30
0.0
 11
0.5630080944553129
 21
-190.10610971508001
 31
0.0
  0
LINE
  8
DETAIL
  6
CONTINUOUS
 62
     5
 10
0.5630080944553129
 20
-190.10610971508001
 30
0.0
 11
0.5310069042706118
 21
-190.1167455627519
 31
0.0
  0
LINE
  8
DETAIL
  6
CONTINUOUS
 62
     5
 10
0.5310069042706118
 20
-190.1167455627519
 30
0.0
 11
0.5310069042706118
 21
-190.1167455627519
 31
0.0
  0
LINE
  8
DETAIL
  6
CONTINUOUS
 62
     5
 10
0.5310069042706118
 20
-190.1167455627519
 30
0.0
 11
0.4988034569739739
 21
-190.12675730003181
 31
0.0
  0
LINE
  8
DETAIL
  6
CONTINUOUS
 62
     5
 10
0.4988034569739739
 20
-190.12675730003181
 30
0.0
 11
0.46640975933974
 21
-190.13614141456611
 31
0.0
  0
LINE
  8
DETAIL
  6
CONTINUOUS
 62
     5
 10
0.46640975933974
 20
-190.13614141456611
 30
0.0
 11
0.46640975933974
 21
-190.13614141456611
 31
0.0
  0
LINE
  8
DETAIL
  6
CONTINUOUS
 62
     5
 10
0.46640975933974
 20
-190.13614141456611
 30
0.0
 11
0.4338394168858031
 21
-190.14489383485309
 31
0.0
  0
LINE
  8
DETAIL
  6
CONTINUOUS
 62
     5
 10
0.4338394168858031
 20
-190.14489383485309
 30
0.0
 11
0.4011073431122441
 21
-190.15301067489489
 31
0.0
  0
LINE
  8
DETAIL
  6
CONTINUOUS
 62
     5
 10
0.4011073431122441
 20
-190.15301067489489
 30
0.0
 11
0.4011073431122441
 21
-190.15301067489489
 31
0.0
  0
LINE
  8
DETAIL
  6
CONTINUOUS
 62
     5
 10
0.4011073431122441
 20
-190.15301067489489
 30
0.0
 11
0.3682261987846687
 21
-190.16048851508799
 31
0.0
  0
LINE
  8
DETAIL
  6
CONTINUOUS
 62
     5
 10
0.3682261987846687
 20
-190.16048851508799
 30
0.0
 11
0.3351983257474558
 21
-190.16732561590791
 31
0.0
  0
LINE
  8
DETAIL
  6
CONTINUOUS
 62
     5
 10
0.3351983257474558
 20
-190.16732561590791
 30
0.0
 11
0.3351983257474558
 21
-190.16732561590791
 31
0.0
  0
LINE
  8
DETAIL
  6
CONTINUOUS
 62
     5
 10
0.3351983257474558
 20
-190.16732561590791
 30
0.0
 11
0.3020277401510612
 21
-190.17352022483169
 31
0.0
  0
LINE
  8
DETAIL
  6
CONTINUOUS
 62
     5
 10
0.3020277401510612
 20
-190.17352022483169
 30
0.0
 11
0.2687354742895423
 21
-190.17906885727231
 31
0.0
  0
LINE
  8
DETAIL
  6
CONTINUOUS
 62
     5
 10
0.2687354742895423
 20
-190.17906885727231
 30
0.0
 11
0.2687354742895423
 21
-190.17906885727231
 31
0.0
  0
LINE
  8
DETAIL
  6
CONTINUOUS
 62
     5
 10
0.2687354742895423
 20
-190.17906885727231
 30
0.0
 11
0.2353441540386711
 21
-190.18396817853181
 31
0.0
  0
LINE
  8
DETAIL
  6
CONTINUOUS
 62
     5
 10
0.2353441540386711
 20
-190.18396817853181
 30
0.0
 11
0.2018657634596366
 21
-190.1882171855386
 31
0.0
  0
LINE
  8
DETAIL
  6
CONTINUOUS
 62
     5
 10
0.2018657634596366
 20
-190.1882171855386
 30
0.0
 11
0.2018657634596366
 21
-190.1882171855386
 31
0.0
  0
LINE
  8
DETAIL
  6
CONTINUOUS
 62
     5
 10
0.2018657634596366
 20
-190.1882171855386
 30
0.0
 11
0.1683103644733137
 21
-190.1918153024526
 31
0.0
  0
LINE
  8
DETAIL
  6
CONTINUOUS
 62
     5
 10
0.1683103644733137
 20
-190.1918153024526
 30
0.0
 11
0.1346909722528835
 21
-190.19476133073681
 31
0.0
  0
LINE
  8
DETAIL
  6
CONTINUOUS
 62
     5
 10
0.1346909722528835
 20
-190.19476133073681
 30
0.0
 11
0.1346909722528835
 21
-190.19476133073681
 31
0.0
  0
LINE
  8
DETAIL
  6
CONTINUOUS
 62
     5
 10
0.1346909722528835
 20
-190.19476133073681
 30
0.0
 11
0.1010210474862561
 21
-190.1970539559704
 31
0.0
  0
LINE
  8
DETAIL
  6
CONTINUOUS
 62
     5
 10
0.1010210474862561
 20
-190.1970539559704
 30
0.0
 11
0.0673128796635183
 21
-190.19869202289649
 31
0.0
  0
LINE
  8
DETAIL
  6
CONTINUOUS
 62
     5
 10
0.0673128796635183
 20
-190.19869202289649
 30
0.0
 11
0.0673128796635183
 21
-190.19869202289649
 31
0.0
  0
LINE
  8
DETAIL
  6
CONTINUOUS
 62
     5
 10
0.0673128796635183
 20
-190.19869202289649
 30
0.0
 11
0.0335788983596785
 21
-190.1996744125604
 31
0.0
  0
LINE
  8
DETAIL
  6
CONTINUOUS
 62
     5
 10
0.0335788983596785
 20
-190.1996744125604
 30
0.0
 11
-0.0001667353137691
 21
-190.19999999204811
 31
0.0
  0
LINE
  8
DETAIL
  6
CONTINUOUS
 62
     5
 10
-0.0001667353137691
 20
-190.19999999204811
 30
0.0
 11
-0.0001667353137691
 21
-190.19999999204811
 31
0.0
  0
LINE
  8
DETAIL
  6
CONTINUOUS
 62
     5
 10
-0.0001667353137691
 20
-190.19999999204811
 30
0.0
 11
-0.0339100341099083
 21
-190.19966801826081
 31
0.0
  0
LINE
  8
DETAIL
  6
CONTINUOUS
 62
     5
 10
-0.0339100341099083
 20
-190.19966801826081
 30
0.0
 11
-0.0676394377795759
 21
-190.19867932132269
 31
0.0
  0
LINE
  8
DETAIL
  6
CONTINUOUS
 62
     5
 10
-0.0676394377795759
 20
-190.19867932132269
 30
0.0
 11
-0.0676394377795759
 21
-190.19867932132269
 31
0.0
  0
LINE
  8
DETAIL
  6
CONTINUOUS
 62
     5
 10
-0.0676394377795759
 20
-190.19867932132269
 30
0.0
 11
-0.1013436666169127
 21
-190.19703510113391
 31
0.0
  0
LINE
  8
DETAIL
  6
CONTINUOUS
 62
     5
 10
-0.1013436666169127
 20
-190.19703510113391
 30
0.0
 11
-0.1350101360912959
 21
-190.194736463483
 31
0.0
  0
LINE
  8
DETAIL
  6
CONTINUOUS
 62
     5
 10
-0.1350101360912959
 20
-190.194736463483
 30
0.0
 11
-0.1350101360912959
 21
-190.194736463483
 31
0.0
  0
LINE
  8
DETAIL
  6
CONTINUOUS
 62
     5
 10
-0.1350101360912959
 20
-190.194736463483
 30
0.0
 11
-0.168625801547023
 21
-190.19178454564101
 31
0.0
  0
LINE
  8
DETAIL
  6
CONTINUOUS
 62
     5
 10
-0.168625801547023
 20
-190.19178454564101
 30
0.0
 11
-0.2021770826507918
 21
-190.18818070491989
 31
0.0
  0
LINE
  8
DETAIL
  6
CONTINUOUS
 62
     5
 10
-0.2021770826507918
 20
-190.18818070491989
 30
0.0
 11
-0.2021770826507918
 21
-190.18818070491989
 31
0.0
  0
LINE
  8
DETAIL
  6
CONTINUOUS
 62
     5
 10
-0.2021770826507918
 20
-190.18818070491989
 30
0.0
 11
-0.2356511270335204
 21
-190.18392615712921
 31
0.0
  0
LINE
  8
DETAIL
  6
CONTINUOUS
 62
     5
 10
-0.2356511270335204
 20
-190.18392615712921
 30
0.0
 11
-0.2690385298601541
 21
-190.17902133202571
 31
0.0
  0
LINE
  8
DETAIL
  6
CONTINUOUS
 62
     5
 10
-0.2690385298601541
 20
-190.17902133202571
 30
0.0
 11
-0.2690385298601541
 21
-190.17902133202571
 31
0.0
  0
LINE
  8
DETAIL
  6
CONTINUOUS
 62
     5
 10
-0.2690385298601541
 20
-190.17902133202571
 30
0.0
 11
-0.302327434564404
 21
-190.17346719389519
 31
0.0
  0
LINE
  8
DETAIL
  6
CONTINUOUS
 62
     5
 10
-0.302327434564404
 20
-190.17346719389519
 30
0.0
 11
-0.3354927301212456
 21
-190.16726763119229
 31
0.0
  0
LINE
  8
DETAIL
  6
CONTINUOUS
 62
     5
 10
-0.3354927301212456
 20
-190.16726763119229
 30
0.0
 11
-0.3354927301212456
 21
-190.16726763119229
 31
0.0
  0
LINE
  8
DETAIL
  6
CONTINUOUS
 62
     5
 10
-0.3354927301212456
 20
-190.16726763119229
 30
0.0
 11
-0.3685113015268371
 21
-190.16042662046041
 31
0.0
  0
LINE
  8
DETAIL
  6
CONTINUOUS
 62
     5
 10
-0.3685113015268371
 20
-190.16042662046041
 30
0.0
 11
-0.4013812723220553
 21
-190.15294556642451
 31
0.0
  0
LINE
  8
DETAIL
  6
CONTINUOUS
 62
     5
 10
-0.4013812723220553
 20
-190.15294556642451
 30
0.0
 11
-0.4013812723220553
 21
-190.15294556642451
 31
0.0
  0
LINE
  8
DETAIL
  6
CONTINUOUS
 62
     5
 10
-0.4013812723220553
 20
-190.15294556642451
 30
0.0
 11
-0.434102822900968
 21
-190.14482576853791
 31
0.0
  0
LINE
  8
DETAIL
  6
CONTINUOUS
 62
     5
 10
-0.434102822900968
 20
-190.14482576853791
 30
0.0
 11
-0.4666631225259152
 21
-190.1360706769841
 31
0.0
  0
LINE
  8
DETAIL
  6
CONTINUOUS
 62
     5
 10
-0.4666631225259152
 20
-190.1360706769841
 30
0.0
 11
-0.4666631225259152
 21
-190.1360706769841
 31
0.0
  0
LINE
  8
DETAIL
  6
CONTINUOUS
 62
     5
 10
-0.4666631225259152
 20
-190.1360706769841
 30
0.0
 11
-0.4990465955257832
 21
-190.12668429430781
 31
0.0
  0
LINE
  8
DETAIL
  6
CONTINUOUS
 62
     5
 10
-0.4990465955257832
 20
-190.12668429430781
 30
0.0
 11
-0.5312396976285072
 21
-190.11667068176141
 31
0.0
  0
LINE
  8
DETAIL
  6
CONTINUOUS
 62
     5
 10
-0.5312396976285072
 20
-190.11667068176141
 30
0.0
 11
-0.5312396976285072
 21
-190.11667068176141
 31
0.0
  0
LINE
  8
DETAIL
  6
CONTINUOUS
 62
     5
 10
-0.5312396976285072
 20
-190.11667068176141
 30
0.0
 11
-0.5632306137956675
 21
-190.10603331888299
 31
0.0
  0
LINE
  8
DETAIL
  6
CONTINUOUS
 62
     5
 10
-0.5632306137956675
 20
-190.10603331888299
 30
0.0
 11
-0.5950124145260816
 21
-190.0947732996444
 31
0.0
  0
LINE
  8
DETAIL
  6
CONTINUOUS
 62
     5
 10
-0.5950124145260816
 20
-190.0947732996444
 30
0.0
 11
-0.5950124145260816
 21
-190.0947732996444
 31
0.0
  0
LINE
  8
DETAIL
  6
CONTINUOUS
 62
     5
 10
-0.5950124145260816
 20
-190.0947732996444
 30
0.0
 11
-0.6265739983156209
 21
-190.0828934925155
 31
0.0
  0
LINE
  8
DETAIL
  6
CONTINUOUS
 62
     5
 10
-0.6265739983156209
 20
-190.0828934925155
 30
0.0
 11
-0.6578826901143202
 21
-190.07040624952259
 31
0.0
  0
LINE
  8
DETAIL
  6
CONTINUOUS
 62
     5
 10
-0.6578826901143202
 20
-190.07040624952259
 30
0.0
 11
-0.6578826901143202
 21
-190.07040624952259
 31
0.0
  0
LINE
  8
DETAIL
  6
CONTINUOUS
 62
     5
 10
-0.6578826901143202
 20
-190.07040624952259
 30
0.0
 11
-0.6889092090566464
 21
-190.0573231222597
 31
0.0
  0
LINE
  8
DETAIL
  6
CONTINUOUS
 62
     5
 10
-0.6889092090566464
 20
-190.0573231222597
 30
0.0
 11
-0.7196594245622237
 21
-190.0436429770364
 31
0.0
  0
LINE
  8
DETAIL
  6
CONTINUOUS
 62
     5
 10
-0.7196594245622237
 20
-190.0436429770364
 30
0.0
 11
-0.7196594245622237
 21
-190.0436429770364
 31
0.0
  0
LINE
  8
DETAIL
  6
CONTINUOUS
 62
     5
 10
-0.7196594245622237
 20
-190.0436429770364
 30
0.0
 11
-0.7501425501740187
 21
-190.02936356314399
 31
0.0
  0
LINE
  8
DETAIL
  6
CONTINUOUS
 62
     5
 10
-0.7501425501740187
 20
-190.02936356314399
 30
0.0
 11
-0.7803460256461676
 21
-190.0144908470879
 31
0.0
  0
LINE
  8
DETAIL
  6
CONTINUOUS
 62
     5
 10
-0.7803460256461676
 20
-190.0144908470879
 30
0.0
 11
-0.7803460256461676
 21
-190.0144908470879
 31
0.0
  0
LINE
  8
DETAIL
  6
CONTINUOUS
 62
     5
 10
-0.7803460256461676
 20
-190.0144908470879
 30
0.0
 11
-0.8102528876692077
 21
-189.99903258960489
 31
0.0
  0
LINE
  8
DETAIL
  6
CONTINUOUS
 62
     5
 10
-0.8102528876692077
 20
-189.99903258960489
 30
0.0
 11
-0.8398503344697019
 21
-189.98299551114039
 31
0.0
  0
LINE
  8
DETAIL
  6
CONTINUOUS
 62
     5
 10
-0.8398503344697019
 20
-189.98299551114039
 30
0.0
 11
-0.8398503344697019
 21
-189.98299551114039
 31
0.0
  0
LINE
  8
DETAIL
  6
CONTINUOUS
 62
     5
 10
-0.8398503344697019
 20
-189.98299551114039
 30
0.0
 11
-0.8691278865693448
 21
-189.96638505805589
 31
0.0
  0
LINE
  8
DETAIL
  6
CONTINUOUS
 62
     5
 10
-0.8691278865693448
 20
-189.96638505805589
 30
0.0
 11
-0.8980801921362627
 21
-189.94920262065671
 31
0.0
  0
LINE
  8
DETAIL
  6
CONTINUOUS
 62
     5
 10
-0.8980801921362627
 20
-189.94920262065671
 30
0.0
 11
-0.8980801921362627
 21
-189.94920262065671
 31
0.0
  0
LINE
  8
DETAIL
  6
CONTINUOUS
 62
     5
 10
-0.8980801921362627
 20
-189.94920262065671
 30
0.0
 11
-0.9266970132198367
 21
-189.93145289136169
 31
0.0
  0
LINE
  8
DETAIL
  6
CONTINUOUS
 62
     5
 10
-0.9266970132198367
 20
-189.93145289136169
 30
0.0
 11
-0.954943439749286
 21
-189.91315782709989
 31
0.0
  0
LINE
  8
DETAIL
  6
CONTINUOUS
 62
     5
 10
-0.954943439749286
 20
-189.91315782709989
 30
0.0
 11
-0.954943439749286
 21
-189.91315782709989
 31
0.0
  0
LINE
  8
DETAIL
  6
CONTINUOUS
 62
     5
 10
-0.954943439749286
 20
-189.91315782709989
 30
0.0
 11
-0.9827886022053463
 21
-189.8943374416267
 31
0.0
  0
LINE
  8
DETAIL
  6
CONTINUOUS
 62
     5
 10
-0.9827886022053463
 20
-189.8943374416267
 30
0.0
 11
-1.010242465397255
 21
-189.8749867114968
 31
0.0
  0
LINE
  8
DETAIL
  6
CONTINUOUS
 62
     5
 10
-1.010242465397255
 20
-189.8749867114968
 30
0.0
 11
-1.010242465397255
 21
-189.8749867114968
 31
0.0
  0
LINE
  8
DETAIL
  6
CONTINUOUS
 62
     5
 10
-1.010242465397255
 20
-189.8749867114968
 30
0.0
 11
-1.037318845754498
 21
-189.85509831390979
 31
0.0
  0
LINE
  8
DETAIL
  6
CONTINUOUS
 62
     5
 10
-1.037318845754498
 20
-189.85509831390979
 30
0.0
 11
-1.0640061318604239
 21
-189.8346807658472
 31
0.0
  0
LINE
  8
DETAIL
  6
CONTINUOUS
 62
     5
 10
-1.0640061318604239
 20
-189.8346807658472
 30
0.0
 11
-1.0640061318604239
 21
-189.8346807658472
 31
0.0
  0
LINE
  8
DETAIL
  6
CONTINUOUS
 62
     5
 10
-1.0640061318604239
 20
-189.8346807658472
 30
0.0
 11
-1.090287679540324
 21
-189.81374587594931
 31
0.0
  0
LINE
  8
DETAIL
  6
CONTINUOUS
 62
     5
 10
-1.090287679540324
 20
-189.81374587594931
 30
0.0
 11
-1.116152141433417
 21
-189.79230277969941
 31
0.0
  0
LINE
  8
DETAIL
  6
CONTINUOUS
 62
     5
 10
-1.116152141433417
 20
-189.79230277969941
 30
0.0
 11
-1.116152141433417
 21
-189.79230277969941
 31
0.0
  0
LINE
  8
DETAIL
  6
CONTINUOUS
 62
     5
 10
-1.116152141433417
 20
-189.79230277969941
 30
0.0
 11
-1.141590554529671
 21
-189.77035865750261
 31
0.0
  0
LINE
  8
DETAIL
  6
CONTINUOUS
 62
     5
 10
-1.141590554529671
 20
-189.77035865750261
 30
0.0
 11
-1.1665981964109731
 21
-189.74791554260199
 31
0.0
  0
LINE
  8
DETAIL
  6
CONTINUOUS
 62
     5
 10
-1.1665981964109731
 20
-189.74791554260199
 30
0.0
 11
-1.1665981964109731
 21
-189.74791554260199
 31
0.0
  0
LINE
  8
DETAIL
  6
CONTINUOUS
 62
     5
 10
-1.1665981964109731
 20
-189.74791554260199
 30
0.0
 11
-1.191165840012445
 21
-189.72497999689989
 31
0.0
  0
LINE
  8
DETAIL
  6
CONTINUOUS
 62
     5
 10
-1.191165840012445
 20
-189.72497999689989
 30
0.0
 11
-1.2152619990880571
 21
-189.70158184410269
 31
0.0
  0
LINE
  8
DETAIL
  6
CONTINUOUS
 62
     5
 10
-1.2152619990880571
 20
-189.70158184410269
 30
0.0
 11
-1.2152619990880571
 21
-189.70158184410269
 31
0.0
  0
LINE
  8
DETAIL
  6
CONTINUOUS
 62
     5
 10
-1.2152619990880571
 20
-189.70158184410269
 30
0.0
 11
-1.238859036911208
 21
-189.67774798561871
 31
0.0
  0
LINE
  8
DETAIL
  6
CONTINUOUS
 62
     5
 10
-1.238859036911208
 20
-189.67774798561871
 30
0.0
 11
-1.2619669740133761
 21
-189.65347037187331
 31
0.0
  0
LINE
  8
DETAIL
  6
CONTINUOUS
 62
     5
 10
-1.2619669740133761
 20
-189.65347037187331
 30
0.0
 11
-1.2619669740133761
 21
-189.65347037187331
 31
0.0
  0
LINE
  8
DETAIL
  6
CONTINUOUS
 62
     5
 10
-1.2619669740133761
 20
-189.65347037187331
 30
0.0
 11
-1.28459937510172
 21
-189.62873772558439
 31
0.0
  0
LINE
  8
DETAIL
  6
CONTINUOUS
 62
     5
 10
-1.28459937510172
 20
-189.62873772558439
 30
0.0
 11
-1.306746324327491
 21
-189.60356080963169
 31
0.0
  0
LINE
  8
DETAIL
  6
CONTINUOUS
 62
     5
 10
-1.306746324327491
 20
-189.60356080963169
 30
0.0
 11
-1.306746324327491
 21
-189.60356080963169
 31
0.0
  0
LINE
  8
DETAIL
  6
CONTINUOUS
 62
     5
 10
-1.306746324327491
 20
-189.60356080963169
 30
0.0
 11
-1.328393337789521
 21
-189.57795484230519
 31
0.0
  0
LINE
  8
DETAIL
  6
CONTINUOUS
 62
     5
 10
-1.328393337789521
 20
-189.57795484230519
 30
0.0
 11
-1.349531139931059
 21
-189.55193082336791
 31
0.0
  0
LINE
  8
DETAIL
  6
CONTINUOUS
 62
     5
 10
-1.349531139931059
 20
-189.55193082336791
 30
0.0
 11
-1.349531139931059
 21
-189.55193082336791
 31
0.0
  0
LINE
  8
DETAIL
  6
CONTINUOUS
 62
     5
 10
-1.349531139931059
 20
-189.55193082336791
 30
0.0
 11
-1.370152419075453
 21
-189.52549740643869
 31
0.0
  0
LINE
  8
DETAIL
  6
CONTINUOUS
 62
     5
 10
-1.370152419075453
 20
-189.52549740643869
 30
0.0
 11
-1.3902525107245081
 21
-189.49865807907281
 31
0.0
  0
LINE
  8
DETAIL
  6
CONTINUOUS
 62
     5
 10
-1.3902525107245081
 20
-189.49865807907281
 30
0.0
 11
-1.3902525107245081
 21
-189.49865807907281
 31
0.0
  0
LINE
  8
DETAIL
  6
CONTINUOUS
 62
     5
 10
-1.3902525107245081
 20
-189.49865807907281
 30
0.0
 11
-1.4098234629100259
 21
-189.4714212580034
 31
0.0
  0
LINE
  8
DETAIL
  6
CONTINUOUS
 62
     5
 10
-1.4098234629100259
 20
-189.4714212580034
 30
0.0
 11
-1.428841526608835
 21
-189.44382024273591
 31
0.0
  0
LINE
  8
DETAIL
  6
CONTINUOUS
 62
     5
 10
-1.428841526608835
 20
-189.44382024273591
 30
0.0
 11
-1.428841526608835
 21
-189.44382024273591
 31
0.0
  0
LINE
  8
DETAIL
  6
CONTINUOUS
 62
     5
 10
-1.428841526608835
 20
-189.44382024273591
 30
0.0
 11
-1.4472859504494411
 21
-189.4158850685503
 31
0.0
  0
LINE
  8
DETAIL
  6
CONTINUOUS
 62
     5
 10
-1.4472859504494411
 20
-189.4158850685503
 30
0.0
 11
-1.4651637707206651
 21
-189.38760783104999
 31
0.0
  0
LINE
  8
DETAIL
  6
CONTINUOUS
 62
     5
 10
-1.4651637707206651
 20
-189.38760783104999
 30
0.0
 11
-1.4651637707206651
 21
-189.38760783104999
 31
0.0
  0
LINE
  8
DETAIL
  6
CONTINUOUS
 62
     5
 10
-1.4651637707206651
 20
-189.38760783104999
 30
0.0
 11
-1.48248466727955
 21
-189.35897717482661
 31
0.0
  0
LINE
  8
DETAIL
  6
CONTINUOUS
 62
     5
 10
-1.48248466727955
 20
-189.35897717482661
 30
0.0
 11
-1.4992411065977651
 21
-189.3300058801062
 31
0.0
  0
LINE
  8
DETAIL
  6
CONTINUOUS
 62
     5
 10
-1.4992411065977651
 20
-189.3300058801062
 30
0.0
 11
-1.4992411065977651
 21
-189.3300058801062
 31
0.0
  0
LINE
  8
DETAIL
  6
CONTINUOUS
 62
     5
 10
-1.4992411065977651
 20
-189.3300058801062
 30
0.0
 11
-1.5154222662074519
 21
-189.30071149787639
 31
0.0
  0
LINE
  8
DETAIL
  6
CONTINUOUS
 62
     5
 10
-1.5154222662074519
 20
-189.30071149787639
 30
0.0
 11
-1.5310213812698521
 21
-189.27110652654349
 31
0.0
  0
LINE
  8
DETAIL
  6
CONTINUOUS
 62
     5
 10
-1.5310213812698521
 20
-189.27110652654349
 30
0.0
 11
-1.5310213812698521
 21
-189.27110652654349
 31
0.0
  0
LINE
  8
DETAIL
  6
CONTINUOUS
 62
     5
 10
-1.5310213812698521
 20
-189.27110652654349
 30
0.0
 11
-1.546032947070898
 21
-189.2412012200414
 31
0.0
  0
LINE
  8
DETAIL
  6
CONTINUOUS
 62
     5
 10
-1.546032947070898
 20
-189.2412012200414
 30
0.0
 11
-1.560452441766188
 21
-189.2110019069996
 31
0.0
  0
LINE
  8
DETAIL
  6
CONTINUOUS
 62
     5
 10
-1.560452441766188
 20
-189.2110019069996
 30
0.0
 11
-1.560452441766188
 21
-189.2110019069996
 31
0.0
  0
LINE
  8
DETAIL
  6
CONTINUOUS
 62
     5
 10
-1.560452441766188
 20
-189.2110019069996
 30
0.0
 11
-1.574273591951624
 21
-189.18051912317111
 31
0.0
  0
LINE
  8
DETAIL
  6
CONTINUOUS
 62
     5
 10
-1.574273591951624
 20
-189.18051912317111
 30
0.0
 11
-1.587482135115692
 21
-189.14978415811271
 31
0.0
  0
LINE
  8
DETAIL
  6
CONTINUOUS
 62
     5
 10
-1.587482135115692
 20
-189.14978415811271
 30
0.0
 11
-1.587482135115692
 21
-189.14978415811271
 31
0.0
  0
LINE
  8
DETAIL
  6
CONTINUOUS
 62
     5
 10
-1.587482135115692
 20
-189.14978415811271
 30
0.0
 11
-1.600065662758311
 21
-189.11882533028279
 31
0.0
  0
LINE
  8
DETAIL
  6
CONTINUOUS
 62
     5
 10
-1.600065662758311
 20
-189.11882533028279
 30
0.0
 11
-1.612027171534578
 21
-189.08763831995199
 31
0.0
  0
LINE
  8
DETAIL
  6
CONTINUOUS
 62
     5
 10
-1.612027171534578
 20
-189.08763831995199
 30
0.0
 11
-1.612027171534578
 21
-189.08763831995199
 31
0.0
  0
LINE
  8
DETAIL
  6
CONTINUOUS
 62
     5
 10
-1.612027171534578
 20
-189.08763831995199
 30
0.0
 11
-1.6233712385788981
 21
-189.05621559756921
 31
0.0
  0
LINE
  8
DETAIL
  6
CONTINUOUS
 62
     5
 10
-1.6233712385788981
 20
-189.05621559756921
 30
0.0
 11
-1.6340933577888559
 21
-189.02456943249041
 31
0.0
  0
LINE
  8
DETAIL
  6
CONTINUOUS
 62
     5
 10
-1.6340933577888559
 20
-189.02456943249041
 30
0.0
 11
-1.6340933577888559
 21
-189.02456943249041
 31
0.0
  0
LINE
  8
DETAIL
  6
CONTINUOUS
 62
     5
 10
-1.6340933577888559
 20
-189.02456943249041
 30
0.0
 11
-1.644187189399076
 21
-188.99271664172281
 31
0.0
  0
LINE
  8
DETAIL
  6
CONTINUOUS
 62
     5
 10
-1.644187189399076
 20
-188.99271664172281
 30
0.0
 11
-1.6536481422281211
 21
-188.9606724339769
 31
0.0
  0
LINE
  8
DETAIL
  6
CONTINUOUS
 62
     5
 10
-1.6536481422281211
 20
-188.9606724339769
 30
0.0
 11
-1.6536481422281211
 21
-188.9606724339769
 31
0.0
  0
LINE
  8
DETAIL
  6
CONTINUOUS
 62
     5
 10
-1.6536481422281211
 20
-188.9606724339769
 30
0.0
 11
-1.6624725844659449
 21
-188.9284482744599
 31
0.0
  0
LINE
  8
DETAIL
  6
CONTINUOUS
 62
     5
 10
-1.6624725844659449
 20
-188.9284482744599
 30
0.0
 11
-1.670658973201512
 21
-188.8960422626628
 31
0.0
  0
LINE
  8
DETAIL
  6
CONTINUOUS
 62
     5
 10
-1.670658973201512
 20
-188.8960422626628
 30
0.0
 11
-1.670658973201512
 21
-188.8960422626628
 31
0.0
  0
LINE
  8
DETAIL
  6
CONTINUOUS
 62
     5
 10
-1.670658973201512
 20
-188.8960422626628
 30
0.0
 11
-1.6782037617033441
 21
-188.86346292443801
 31
0.0
  0
LINE
  8
DETAIL
  6
CONTINUOUS
 62
     5
 10
-1.6782037617033441
 20
-188.86346292443801
 30
0.0
 11
-1.6850932990585079
 21
-188.83077385679741
 31
0.0
  0
LINE
  8
DETAIL
  6
CONTINUOUS
 62
     5
 10
-1.6850932990585079
 20
-188.83077385679741
 30
0.0
 11
-1.6850932990585079
 21
-188.83077385679741
 31
0.0
  0
LINE
  8
DETAIL
  6
CONTINUOUS
 62
     5
 10
-1.6850932990585079
 20
-188.83077385679741
 30
0.0
 11
-1.691316664268925
 21
-188.7980312534514
 31
0.0
  0
LINE
  8
DETAIL
  6
CONTINUOUS
 62
     5
 10
-1.691316664268925
 20
-188.7980312534514
 30
0.0
 11
-1.696883960177388
 21
-188.76520662375009
 31
0.0
  0
LINE
  8
DETAIL
  6
CONTINUOUS
 62
     5
 10
-1.696883960177388
 20
-188.76520662375009
 30
0.0
 11
-1.696883960177388
 21
-188.76520662375009
 31
0.0
  0
LINE
  8
DETAIL
  6
CONTINUOUS
 62
     5
 10
-1.696883960177388
 20
-188.76520662375009
 30
0.0
 11
-1.7018057633435999
 21
-188.7322640793723
 31
0.0
  0
LINE
  8
DETAIL
  6
CONTINUOUS
 62
     5
 10
-1.7018057633435999
 20
-188.7322640793723
 30
0.0
 11
-1.7060735213526641
 21
-188.69922282567501
 31
0.0
  0
LINE
  8
DETAIL
  6
CONTINUOUS
 62
     5
 10
-1.7060735213526641
 20
-188.69922282567501
 30
0.0
 11
-1.7060735213526641
 21
-188.69922282567501
 31
0.0
  0
LINE
  8
DETAIL
  6
CONTINUOUS
 62
     5
 10
-1.7060735213526641
 20
-188.69922282567501
 30
0.0
 11
-1.7096810842265311
 21
-188.66611198556529
 31
0.0
  0
LINE
  8
DETAIL
  6
CONTINUOUS
 62
     5
 10
-1.7096810842265311
 20
-188.66611198556529
 30
0.0
 11
-1.7126510407072151
 21
-188.63294525847871
 31
0.0
  0
LINE
  8
DETAIL
  6
CONTINUOUS
 62
     5
 10
-1.7126510407072151
 20
-188.63294525847871
 30
0.0
 11
-1.7126510407072151
 21
-188.63294525847871
 31
0.0
  0
LINE
  8
DETAIL
  6
CONTINUOUS
 62
     5
 10
-1.7126510407072151
 20
-188.63294525847871
 30
0.0
 11
-1.714989207740018
 21
-188.5997341380357
 31
0.0
  0
LINE
  8
DETAIL
  6
CONTINUOUS
 62
     5
 10
-1.714989207740018
 20
-188.5997341380357
 30
0.0
 11
-1.716605576363349
 21
-188.56649671806869
 31
0.0
  0
LINE
  8
DETAIL
  6
CONTINUOUS
 62
     5
 10
-1.716605576363349
 20
-188.56649671806869
 30
0.0
 11
-1.716605576363349
 21
-188.56649671806869
 31
0.0
  0
LINE
  8
DETAIL
  6
CONTINUOUS
 62
     5
 10
-1.716605576363349
 20
-188.56649671806869
 30
0.0
 11
-1.717474822365602
 21
-188.53324999812
 31
0.0
  0
LINE
  8
DETAIL
  6
CONTINUOUS
 62
     5
 10
-1.717474822365602
 20
-188.53324999812
 30
0.0
 11
-1.717926186443719
 21
-188.500000000352
 31
0.0
  0
LINE
  8
DETAIL
  6
CONTINUOUS
 62
     5
 10
-1.717926186443719
 20
-188.500000000352
 30
0.0
 11
-1.717475185090052
 21
-188.4667631151965
 31
0.0
  0
LINE
  8
DETAIL
  6
CONTINUOUS
 62
     5
 10
-1.717475185090052
 20
-188.4667631151965
 30
0.0
 11
-1.716606624551787
 21
-188.43352947023641
 31
0.0
  0
LINE
  8
DETAIL
  6
CONTINUOUS
 62
     5
 10
-1.716606624551787
 20
-188.43352947023641
 30
0.0
 11
-1.716606624551787
 21
-188.43352947023641
 31
0.0
  0
LINE
  8
DETAIL
  6
CONTINUOUS
 62
     5
 10
-1.716606624551787
 20
-188.43352947023641
 30
0.0
 11
-1.714991524298739
 21
-188.40030508161999
 31
0.0
  0
LINE
  8
DETAIL
  6
CONTINUOUS
 62
     5
 10
-1.714991524298739
 20
-188.40030508161999
 30
0.0
 11
-1.7126552184175809
 21
-188.36710706930259
 31
0.0
  0
LINE
  8
DETAIL
  6
CONTINUOUS
 62
     5
 10
-1.7126552184175809
 20
-188.36710706930259
 30
0.0
 11
-1.7126552184175809
 21
-188.36710706930259
 31
0.0
  0
LINE
  8
DETAIL
  6
CONTINUOUS
 62
     5
 10
-1.7126552184175809
 20
-188.36710706930259
 30
0.0
 11
-1.7096876504767811
 21
-188.33395353895531
 31
0.0
  0
LINE
  8
DETAIL
  6
CONTINUOUS
 62
     5
 10
-1.7096876504767811
 20
-188.33395353895531
 30
0.0
 11
-1.7060828873538869
 21
-188.30085543529529
 31
0.0
  0
LINE
  8
DETAIL
  6
CONTINUOUS
 62
     5
 10
-1.7060828873538869
 20
-188.30085543529529
 30
0.0
 11
-1.7060828873538869
 21
-188.30085543529529
 31
0.0
  0
LINE
  8
DETAIL
  6
CONTINUOUS
 62
     5
 10
-1.7060828873538869
 20
-188.30085543529529
 30
0.0
 11
-1.7018183247905649
 21
-188.26782629780291
 31
0.0
  0
LINE
  8
DETAIL
  6
CONTINUOUS
 62
     5
 10
-1.7018183247905649
 20
-188.26782629780291
 30
0.0
 11
-1.696900550673377
 21
-188.2348972059597
 31
0.0
  0
LINE
  8
DETAIL
  6
CONTINUOUS
 62
     5
 10
-1.696900550673377
 20
-188.2348972059597
 30
0.0
 11
-1.696900550673377
 21
-188.2348972059597
 31
0.0
  0
LINE
  8
DETAIL
  6
CONTINUOUS
 62
     5
 10
-1.696900550673377
 20
-188.2348972059597
 30
0.0
 11
-1.6913382279526561
 21
-188.20208787448379
 31
0.0
  0
LINE
  8
DETAIL
  6
CONTINUOUS
 62
     5
 10
-1.6913382279526561
 20
-188.20208787448379
 30
0.0
 11
-1.6851191276887221
 21
-188.16935501904069
 31
0.0
  0
LINE
  8
DETAIL
  6
CONTINUOUS
 62
     5
 10
-1.6851191276887221
 20
-188.16935501904069
 30
0.0
 11
-1.6851191276887221
 21
-188.16935501904069
 31
0.0
  0
LINE
  8
DETAIL
  6
CONTINUOUS
 62
     5
 10
-1.6851191276887221
 20
-188.16935501904069
 30
0.0
 11
-1.6782316795384991
 21
-188.13666391309559
 31
0.0
  0
LINE
  8
DETAIL
  6
CONTINUOUS
 62
     5
 10
-1.6782316795384991
 20
-188.13666391309559
 30
0.0
 11
-1.6706878394359139
 21
-188.10407706037651
 31
0.0
  0
LINE
  8
DETAIL
  6
CONTINUOUS
 62
     5
 10
-1.6706878394359139
 20
-188.10407706037651
 30
0.0
 11
-1.6706878394359139
 21
-188.10407706037651
 31
0.0
  0
LINE
  8
DETAIL
  6
CONTINUOUS
 62
     5
 10
-1.6706878394359139
 20
-188.10407706037651
 30
0.0
 11
-1.6625025688853159
 21
-188.07166551137809
 31
0.0
  0
LINE
  8
DETAIL
  6
CONTINUOUS
 62
     5
 10
-1.6625025688853159
 20
-188.07166551137809
 30
0.0
 11
-1.653679325394251
 21
-188.03943727340291
 31
0.0
  0
LINE
  8
DETAIL
  6
CONTINUOUS
 62
     5
 10
-1.653679325394251
 20
-188.03943727340291
 30
0.0
 11
-1.653679325394251
 21
-188.03943727340291
 31
0.0
  0
LINE
  8
DETAIL
  6
CONTINUOUS
 62
     5
 10
-1.653679325394251
 20
-188.03943727340291
 30
0.0
 11
-1.6442193026215359
 21
-188.0073884597191
 31
0.0
  0
LINE
  8
DETAIL
  6
CONTINUOUS
 62
     5
 10
-1.6442193026215359
 20
-188.0073884597191
 30
0.0
 11
-1.634126142823447
 21
-187.9755306506552
 31
0.0
  0
LINE
  8
DETAIL
  6
CONTINUOUS
 62
     5
 10
-1.634126142823447
 20
-187.9755306506552
 30
0.0
 11
-1.634126142823447
 21
-187.9755306506552
 31
0.0
  0
LINE
  8
DETAIL
  6
CONTINUOUS
 62
     5
 10
-1.634126142823447
 20
-187.9755306506552
 30
0.0
 11
-1.623404527807224
 21
-187.9438795870428
 31
0.0
  0
LINE
  8
DETAIL
  6
CONTINUOUS
 62
     5
 10
-1.623404527807224
 20
-187.9438795870428
 30
0.0
 11
-1.612060848983333
 21
-187.91245218467111
 31
0.0
  0
LINE
  8
DETAIL
  6
CONTINUOUS
 62
     5
 10
-1.612060848983333
 20
-187.91245218467111
 30
0.0
 11
-1.612060848983333
 21
-187.91245218467111
 31
0.0
  0
LINE
  8
DETAIL
  6
CONTINUOUS
 62
     5
 10
-1.612060848983333
 20
-187.91245218467111
 30
0.0
 11
-1.6000996034100581
 21
-187.88126061134591
 31
0.0
  0
LINE
  8
DETAIL
  6
CONTINUOUS
 62
     5
 10
-1.6000996034100581
 20
-187.88126061134591
 30
0.0
 11
-1.5875160011339631
 21
-187.8502968679868
 31
0.0
  0
LINE
  8
DETAIL
  6
CONTINUOUS
 62
     5
 10
-1.5875160011339631
 20
-187.8502968679868
 30
0.0
 11
-1.5875160011339631
 21
-187.8502968679868
 31
0.0
  0
LINE
  8
DETAIL
  6
CONTINUOUS
 62
     5
 10
-1.5875160011339631
 20
-187.8502968679868
 30
0.0
 11
-1.5743068662629871
 21
-187.81955627016441
 31
0.0
  0
LINE
  8
DETAIL
  6
CONTINUOUS
 62
     5
 10
-1.5743068662629871
 20
-187.81955627016441
 30
0.0
 11
-1.5604847661617209
 21
-187.78906755893669
 31
0.0
  0
LINE
  8
DETAIL
  6
CONTINUOUS
 62
     5
 10
-1.5604847661617209
 20
-187.78906755893669
 30
0.0
 11
-1.5604847661617209
 21
-187.78906755893669
 31
0.0
  0
LINE
  8
DETAIL
  6
CONTINUOUS
 62
     5
 10
-1.5604847661617209
 20
-187.78906755893669
 30
0.0
 11
-1.546064157014484
 21
-187.75886251513791
 31
0.0
  0
LINE
  8
DETAIL
  6
CONTINUOUS
 62
     5
 10
-1.546064157014484
 20
-187.75886251513791
 30
0.0
 11
-1.531051307026132
 21
-187.72895165322731
 31
0.0
  0
LINE
  8
DETAIL
  6
CONTINUOUS
 62
     5
 10
-1.531051307026132
 20
-187.72895165322731
 30
0.0
 11
-1.531051307026132
 21
-187.72895165322731
 31
0.0
  0
LINE
  8
DETAIL
  6
CONTINUOUS
 62
     5
 10
-1.531051307026132
 20
-187.72895165322731
 30
0.0
 11
-1.5154506911683261
 21
-187.6993411792628
 31
0.0
  0
LINE
  8
DETAIL
  6
CONTINUOUS
 62
     5
 10
-1.5154506911683261
 20
-187.6993411792628
 30
0.0
 11
-1.4992677994578121
 21
-187.67004133207641
 31
0.0
  0
LINE
  8
DETAIL
  6
CONTINUOUS
 62
     5
 10
-1.4992677994578121
 20
-187.67004133207641
 30
0.0
 11
-1.4992677994578121
 21
-187.67004133207641
 31
0.0
  0
LINE
  8
DETAIL
  6
CONTINUOUS
 62
     5
 10
-1.4992677994578121
 20
-187.67004133207641
 30
0.0
 11
-1.4825094076223879
 21
-187.64106464251381
 31
0.0
  0
LINE
  8
DETAIL
  6
CONTINUOUS
 62
     5
 10
-1.4825094076223879
 20
-187.64106464251381
 30
0.0
 11
-1.465186419187376
 21
-187.61242877670131
 31
0.0
  0
LINE
  8
DETAIL
  6
CONTINUOUS
 62
     5
 10
-1.465186419187376
 20
-187.61242877670131
 30
0.0
 11
-1.465186419187376
 21
-187.61242877670131
 31
0.0
  0
LINE
  8
DETAIL
  6
CONTINUOUS
 62
     5
 10
-1.465186419187376
 20
-187.61242877670131
 30
0.0
 11
-1.4473063880686821
 21
-187.58414654111081
 31
0.0
  0
LINE
  8
DETAIL
  6
CONTINUOUS
 62
     5
 10
-1.4473063880686821
 20
-187.58414654111081
 30
0.0
 11
-1.4288593419460081
 21
-187.5562061683199
 31
0.0
  0
LINE
  8
DETAIL
  6
CONTINUOUS
 62
     5
 10
-1.4288593419460081
 20
-187.5562061683199
 30
0.0
 11
-1.4288593419460081
 21
-187.5562061683199
 31
0.0
  0
LINE
  8
DETAIL
  6
CONTINUOUS
 62
     5
 10
-1.4288593419460081
 20
-187.5562061683199
 30
0.0
 11
-1.4098379944648509
 21
-187.5285994110545
 31
0.0
  0
LINE
  8
DETAIL
  6
CONTINUOUS
 62
     5
 10
-1.4098379944648509
 20
-187.5285994110545
 30
0.0
 11
-1.3902633293713511
 21
-187.50135667651779
 31
0.0
  0
LINE
  8
DETAIL
  6
CONTINUOUS
 62
     5
 10
-1.3902633293713511
 20
-187.50135667651779
 30
0.0
 11
-1.3902633293713511
 21
-187.50135667651779
 31
0.0
  0
LINE
  8
DETAIL
  6
CONTINUOUS
 62
     5
 10
-1.3902633293713511
 20
-187.50135667651779
 30
0.0
 11
-1.370159376584525
 21
-187.4745117010832
 31
0.0
  0
LINE
  8
DETAIL
  6
CONTINUOUS
 62
     5
 10
-1.370159376584525
 20
-187.4745117010832
 30
0.0
 11
-1.349534080618696
 21
-187.44807288331961
 31
0.0
  0
LINE
  8
DETAIL
  6
CONTINUOUS
 62
     5
 10
-1.349534080618696
 20
-187.44807288331961
 30
0.0
 11
-1.349534080618696
 21
-187.44807288331961
 31
0.0
  0
LINE
  8
DETAIL
  6
CONTINUOUS
 62
     5
 10
-1.349534080618696
 20
-187.44807288331961
 30
0.0
 11
-1.328392039104529
 21
-187.4220436030719
 31
0.0
  0
LINE
  8
DETAIL
  6
CONTINUOUS
 62
     5
 10
-1.328392039104529
 20
-187.4220436030719
 30
0.0
 11
-1.3067405475469509
 21
-187.39643250309931
 31
0.0
  0
LINE
  8
DETAIL
  6
CONTINUOUS
 62
     5
 10
-1.3067405475469509
 20
-187.39643250309931
 30
0.0
 11
-1.3067405475469509
 21
-187.39643250309931
 31
0.0
  0
LINE
  8
DETAIL
  6
CONTINUOUS
 62
     5
 10
-1.3067405475469509
 20
-187.39643250309931
 30
0.0
 11
-1.2845888993969079
 21
-187.3712506134257
 31
0.0
  0
LINE
  8
DETAIL
  6
CONTINUOUS
 62
     5
 10
-1.2845888993969079
 20
-187.3712506134257
 30
0.0
 11
-1.2619516820140011
 21
-187.34651325023111
 31
0.0
  0
LINE
  8
DETAIL
  6
CONTINUOUS
 62
     5
 10
-1.2619516820140011
 20
-187.34651325023111
 30
0.0
 11
-1.2619516820140011
 21
-187.34651325023111
 31
0.0
  0
LINE
  8
DETAIL
  6
CONTINUOUS
 62
     5
 10
-1.2619516820140011
 20
-187.34651325023111
 30
0.0
 11
-1.238838837857998
 21
-187.3222311993504
 31
0.0
  0
LINE
  8
DETAIL
  6
CONTINUOUS
 62
     5
 10
-1.238838837857998
 20
-187.3222311993504
 30
0.0
 11
-1.2152364358782961
 21
-187.29839283908839
 31
0.0
  0
LINE
  8
DETAIL
  6
CONTINUOUS
 62
     5
 10
-1.2152364358782961
 20
-187.29839283908839
 30
0.0
 11
-1.2152364358782961
 21
-187.29839283908839
 31
0.0
  0
LINE
  8
DETAIL
  6
CONTINUOUS
 62
     5
 10
-1.2152364358782961
 20
-187.29839283908839
 30
0.0
 11
-1.191134144323883
 21
-187.2749898345628
 31
0.0
  0
LINE
  8
DETAIL
  6
CONTINUOUS
 62
     5
 10
-1.191134144323883
 20
-187.2749898345628
 30
0.0
 11
-1.1665599021506521
 21
-187.25204940567889
 31
0.0
  0
LINE
  8
DETAIL
  6
CONTINUOUS
 62
     5
 10
-1.1665599021506521
 20
-187.25204940567889
 30
0.0
 11
-1.1665599021506521
 21
-187.25204940567889
 31
0.0
  0
LINE
  8
DETAIL
  6
CONTINUOUS
 62
     5
 10
-1.1665599021506521
 20
-187.25204940567889
 30
0.0
 11
-1.1415455582100551
 21
-187.22960174850849
 31
0.0
  0
LINE
  8
DETAIL
  6
CONTINUOUS
 62
     5
 10
-1.1415455582100551
 20
-187.22960174850849
 30
0.0
 11
-1.116100330226004
 21
-187.2076534090065
 31
0.0
  0
LINE
  8
DETAIL
  6
CONTINUOUS
 62
     5
 10
-1.116100330226004
 20
-187.2076534090065
 30
0.0
 11
-1.116100330226004
 21
-187.2076534090065
 31
0.0
  0
LINE
  8
DETAIL
  6
CONTINUOUS
 62
     5
 10
-1.116100330226004
 20
-187.2076534090065
 30
0.0
 11
-1.0902288552591699
 21
-187.1862063284434
 31
0.0
  0
LINE
  8
DETAIL
  6
CONTINUOUS
 62
     5
 10
-1.0902288552591699
 20
-187.1862063284434
 30
0.0
 11
-1.063940078840574
 21
-187.16526767946559
 31
0.0
  0
LINE
  8
DETAIL
  6
CONTINUOUS
 62
     5
 10
-1.063940078840574
 20
-187.16526767946559
 30
0.0
 11
-1.063940078840574
 21
-187.16526767946559
 31
0.0
  0
LINE
  8
DETAIL
  6
CONTINUOUS
 62
     5
 10
-1.063940078840574
 20
-187.16526767946559
 30
0.0
 11
-1.037245372930101
 21
-187.1448466237168
 31
0.0
  0
LINE
  8
DETAIL
  6
CONTINUOUS
 62
     5
 10
-1.037245372930101
 20
-187.1448466237168
 30
0.0
 11
-1.010161506730469
 21
-187.12495504745081
 31
0.0
  0
LINE
  8
DETAIL
  6
CONTINUOUS
 62
     5
 10
-1.010161506730469
 20
-187.12495504745081
 30
0.0
 11
-1.010161506730469
 21
-187.12495504745081
 31
0.0
  0
LINE
  8
DETAIL
  6
CONTINUOUS
 62
     5
 10
-1.010161506730469
 20
-187.12495504745081
 30
0.0
 11
-0.982700124394114
 21
-187.1056014856199
 31
0.0
  0
LINE
  8
DETAIL
  6
CONTINUOUS
 62
     5
 10
-0.982700124394114
 20
-187.1056014856199
 30
0.0
 11
-0.9548469726316853
 21
-187.08677834335711
 31
0.0
  0
LINE
  8
DETAIL
  6
CONTINUOUS
 62
     5
 10
-0.9548469726316853
 20
-187.08677834335711
 30
0.0
 11
-0.9548469726316853
 21
-187.08677834335711
 31
0.0
  0
LINE
  8
DETAIL
  6
CONTINUOUS
 62
     5
 10
-0.9548469726316853
 20
-187.08677834335711
 30
0.0
 11
-0.9265917175058576
 21
-187.06848037350531
 31
0.0
  0
LINE
  8
DETAIL
  6
CONTINUOUS
 62
     5
 10
-0.9265917175058576
 20
-187.06848037350531
 30
0.0
 11
-0.8979655999334
 21
-187.0507278495611
 31
0.0
  0
LINE
  8
DETAIL
  6
CONTINUOUS
 62
     5
 10
-0.8979655999334
 20
-187.0507278495611
 30
0.0
 11
-0.8979655999334
 21
-187.0507278495611
 31
0.0
  0
LINE
  8
DETAIL
  6
CONTINUOUS
 62
     5
 10
-0.8979655999334
 20
-187.0507278495611
 30
0.0
 11
-0.8690039711141253
 21
-187.03354302943421
 31
0.0
  0
LINE
  8
DETAIL
  6
CONTINUOUS
 62
     5
 10
-0.8690039711141253
 20
-187.03354302943421
 30
0.0
 11
-0.8397170485275183
 21
-187.0169305880263
 31
0.0
  0
LINE
  8
DETAIL
  6
CONTINUOUS
 62
     5
 10
-0.8397170485275183
 20
-187.0169305880263
 30
0.0
 11
-0.8397170485275183
 21
-187.0169305880263
 31
0.0
  0
LINE
  8
DETAIL
  6
CONTINUOUS
 62
     5
 10
-0.8397170485275183
 20
-187.0169305880263
 30
0.0
 11
-0.810110078463822
 21
-187.00089183967481
 31
0.0
  0
LINE
  8
DETAIL
  6
CONTINUOUS
 62
     5
 10
-0.810110078463822
 20
-187.00089183967481
 30
0.0
 11
-0.780193556176755
 21
-186.9854322394722
 31
0.0
  0
LINE
  8
DETAIL
  6
CONTINUOUS
 62
     5
 10
-0.780193556176755
 20
-186.9854322394722
 30
0.0
 11
-0.780193556176755
 21
-186.9854322394722
 31
0.0
  0
LINE
  8
DETAIL
  6
CONTINUOUS
 62
     5
 10
-0.780193556176755
 20
-186.9854322394722
 30
0.0
 11
-0.7499803236277103
 21
-186.9705585326974
 31
0.0
  0
LINE
  8
DETAIL
  6
CONTINUOUS
 62
     5
 10
-0.7499803236277103
 20
-186.9705585326974
 30
0.0
 11
-0.7194873606441661
 21
-186.95627848461979
 31
0.0
  0
LINE
  8
DETAIL
  6
CONTINUOUS
 62
     5
 10
-0.7194873606441661
 20
-186.95627848461979
 30
0.0
 11
-0.7194873606441661
 21
-186.95627848461979
 31
0.0
  0
LINE
  8
DETAIL
  6
CONTINUOUS
 62
     5
 10
-0.7194873606441661
 20
-186.95627848461979
 30
0.0
 11
-0.6887272314132815
 21
-186.94259806032849
 31
0.0
  0
LINE
  8
DETAIL
  6
CONTINUOUS
 62
     5
 10
-0.6887272314132815
 20
-186.94259806032849
 30
0.0
 11
-0.6576906996924663
 21
-186.9295150041892
 31
0.0
  0
LINE
  8
DETAIL
  6
CONTINUOUS
 62
     5
 10
-0.6576906996924663
 20
-186.9295150041892
 30
0.0
 11
-0.6576906996924663
 21
-186.9295150041892
 31
0.0
  0
LINE
  8
DETAIL
  6
CONTINUOUS
 62
     5
 10
-0.6576906996924663
 20
-186.9295150041892
 30
0.0
 11
-0.6263718821827524
 21
-186.91702818036131
 31
0.0
  0
LINE
  8
DETAIL
  6
CONTINUOUS
 62
     5
 10
-0.6263718821827524
 20
-186.91702818036131
 30
0.0
 11
-0.5948001077904337
 21
-186.90514915289401
 31
0.0
  0
LINE
  8
DETAIL
  6
CONTINUOUS
 62
     5
 10
-0.5948001077904337
 20
-186.90514915289401
 30
0.0
 11
-0.5948001077904337
 21
-186.90514915289401
 31
0.0
  0
LINE
  8
DETAIL
  6
CONTINUOUS
 62
     5
 10
-0.5948001077904337
 20
-186.90514915289401
 30
0.0
 11
-0.5630080944854399
 21
-186.89389028509589
 31
0.0
  0
LINE
  8
DETAIL
  6
CONTINUOUS
 62
     5
 10
-0.5630080944854399
 20
-186.89389028509589
 30
0.0
 11
-0.5310069042895975
 21
-186.88325443742411
 31
0.0
  0
LINE
  8
DETAIL
  6
CONTINUOUS
 62
     5
 10
-0.5310069042895975
 20
-186.88325443742411
 30
0.0
 11
-0.5310069042895975
 21
-186.88325443742411
 31
0.0
  0
LINE
  8
DETAIL
  6
CONTINUOUS
 62
     5
 10
-0.5310069042895975
 20
-186.88325443742411
 30
0.0
 11
-0.4988034569850015
 21
-186.87324270014389
 31
0.0
  0
LINE
  8
DETAIL
  6
CONTINUOUS
 62
     5
 10
-0.4988034569850015
 20
-186.87324270014389
 30
0.0
 11
-0.4664097593454244
 21
-186.8638585856099
 31
0.0
  0
LINE
  8
DETAIL
  6
CONTINUOUS
 62
     5
 10
-0.4664097593454244
 20
-186.8638585856099
 30
0.0
 11
-0.4664097593454244
 21
-186.8638585856099
 31
0.0
  0
LINE
  8
DETAIL
  6
CONTINUOUS
 62
     5
 10
-0.4664097593454244
 20
-186.8638585856099
 30
0.0
 11
-0.4338394168881905
 21
-186.85510616532289
 31
0.0
  0
LINE
  8
DETAIL
  6
CONTINUOUS
 62
     5
 10
-0.4338394168881905
 20
-186.85510616532289
 30
0.0
 11
-0.4011073431130399
 21
-186.84698932528141
 31
0.0
  0
LINE
  8
DETAIL
  6
CONTINUOUS
 62
     5
 10
-0.4011073431130399
 20
-186.84698932528141
 30
0.0
 11
-0.4011073431130399
 21
-186.84698932528141
 31
0.0
  0
LINE
  8
DETAIL
  6
CONTINUOUS
 62
     5
 10
-0.4011073431130399
 20
-186.84698932528141
 30
0.0
 11
-0.3682261987846687
 21
-186.8395114850878
 31
0.0
  0
LINE
  8
DETAIL
  6
CONTINUOUS
 62
     5
 10
-0.3682261987846687
 20
-186.8395114850878
 30
0.0
 11
-0.3351983257475695
 21
-186.8326743842681
 31
0.0
  0
LINE
  8
DETAIL
  6
CONTINUOUS
 62
     5
 10
-0.3351983257475695
 20
-186.8326743842681
 30
0.0
 11
-0.3351983257475695
 21
-186.8326743842681
 31
0.0
  0
LINE
  8
DETAIL
  6
CONTINUOUS
 62
     5
 10
-0.3351983257475695
 20
-186.8326743842681
 30
0.0
 11
-0.3020277401510612
 21
-186.8264797753443
 31
0.0
  0
LINE
  8
DETAIL
  6
CONTINUOUS
 62
     5
 10
-0.3020277401510612
 20
-186.8264797753443
 30
0.0
 11
-0.2687354742895423
 21
-186.8209311429041
 31
0.0
  0
LINE
  8
DETAIL
  6
CONTINUOUS
 62
     5
 10
-0.2687354742895423
 20
-186.8209311429041
 30
0.0
 11
-0.2687354742895423
 21
-186.8209311429041
 31
0.0
  0
LINE
  8
DETAIL
  6
CONTINUOUS
 62
     5
 10
-0.2687354742895423
 20
-186.8209311429041
 30
0.0
 11
-0.2353441540386711
 21
-186.8160318216442
 31
0.0
  0
LINE
  8
DETAIL
  6
CONTINUOUS
 62
     5
 10
-0.2353441540386711
 20
-186.8160318216442
 30
0.0
 11
-0.2018657634597503
 21
-186.81178281463741
 31
0.0
  0
LINE
  8
DETAIL
  6
CONTINUOUS
 62
     5
 10
-0.2018657634597503
 20
-186.81178281463741
 30
0.0
 11
-0.2018657634597503
 21
-186.81178281463741
 31
0.0
  0
LINE
  8
DETAIL
  6
CONTINUOUS
 62
     5
 10
-0.2018657634597503
 20
-186.81178281463741
 30
0.0
 11
-0.1683103644733137
 21
-186.80818469772339
 31
0.0
  0
LINE
  8
DETAIL
  6
CONTINUOUS
 62
     5
 10
-0.1683103644733137
 20
-186.80818469772339
 30
0.0
 11
-0.1346909722529972
 21
-186.80523866943889
 31
0.0
  0
LINE
  8
DETAIL
  6
CONTINUOUS
 62
     5
 10
-0.1346909722529972
 20
-186.80523866943889
 30
0.0
 11
-0.1346909722529972
 21
-186.80523866943889
 31
0.0
  0
LINE
  8
DETAIL
  6
CONTINUOUS
 62
     5
 10
-0.1346909722529972
 20
-186.80523866943889
 30
0.0
 11
-0.1010210474862561
 21
-186.8029460442053
 31
0.0
  0
LINE
  8
DETAIL
  6
CONTINUOUS
 62
     5
 10
-0.1010210474862561
 20
-186.8029460442053
 30
0.0
 11
-0.0673128796635183
 21
-186.80130797727909
 31
0.0
  0
LINE
  8
DETAIL
  6
CONTINUOUS
 62
     5
 10
-0.0673128796635183
 20
-186.80130797727909
 30
0.0
 11
-0.0673128796635183
 21
-186.80130797727909
 31
0.0
  0
LINE
  8
DETAIL
  6
CONTINUOUS
 62
     5
 10
-0.0673128796635183
 20
-186.80130797727909
 30
0.0
 11
-0.0335788983596785
 21
-186.80032558761559
 31
0.0
  0
LINE
  8
DETAIL
  6
CONTINUOUS
 62
     5
 10
-0.0335788983596785
 20
-186.80032558761559
 30
0.0
 11
0.0001667353136554
 21
-186.80000000812831
 31
0.0
  0
LINE
  8
DETAIL
  6
CONTINUOUS
 62
     5
 10
0.0001667353136554
 20
-186.80000000812831
 30
0.0
 11
0.0001667353136554
 21
-186.80000000812831
 31
0.0
  0
LINE
  8
DETAIL
  6
CONTINUOUS
 62
     5
 10
0.0001667353136554
 20
-186.80000000812831
 30
0.0
 11
0.0339100341099083
 21
-186.80033198191521
 31
0.0
  0
LINE
  8
DETAIL
  6
CONTINUOUS
 62
     5
 10
0.0339100341099083
 20
-186.80033198191521
 30
0.0
 11
0.0676394377795759
 21
-186.80132067885299
 31
0.0
  0
LINE
  8
DETAIL
  6
CONTINUOUS
 62
     5
 10
0.0676394377795759
 20
-186.80132067885299
 30
0.0
 11
0.0676394377795759
 21
-186.80132067885299
 31
0.0
  0
LINE
  8
DETAIL
  6
CONTINUOUS
 62
     5
 10
0.0676394377795759
 20
-186.80132067885299
 30
0.0
 11
0.1013436666169127
 21
-186.80296489904231
 31
0.0
  0
LINE
  8
DETAIL
  6
CONTINUOUS
 62
     5
 10
0.1013436666169127
 20
-186.80296489904231
 30
0.0
 11
0.1350101360912959
 21
-186.80526353669299
 31
0.0
  0
LINE
  8
DETAIL
  6
CONTINUOUS
 62
     5
 10
0.1350101360912959
 20
-186.80526353669299
 30
0.0
 11
0.1350101360912959
 21
-186.80526353669299
 31
0.0
  0
LINE
  8
DETAIL
  6
CONTINUOUS
 62
     5
 10
0.1350101360912959
 20
-186.80526353669299
 30
0.0
 11
0.168625801547023
 21
-186.8082154545352
 31
0.0
  0
LINE
  8
DETAIL
  6
CONTINUOUS
 62
     5
 10
0.168625801547023
 20
-186.8082154545352
 30
0.0
 11
0.2021770826507918
 21
-186.8118192952561
 31
0.0
  0
LINE
  8
DETAIL
  6
CONTINUOUS
 62
     5
 10
0.2021770826507918
 20
-186.8118192952561
 30
0.0
 11
0.2021770826507918
 21
-186.8118192952561
 31
0.0
  0
LINE
  8
DETAIL
  6
CONTINUOUS
 62
     5
 10
0.2021770826507918
 20
-186.8118192952561
 30
0.0
 11
0.2356511270335204
 21
-186.81607384304681
 31
0.0
  0
LINE
  8
DETAIL
  6
CONTINUOUS
 62
     5
 10
0.2356511270335204
 20
-186.81607384304681
 30
0.0
 11
0.2690385298600404
 21
-186.8209786681501
 31
0.0
  0
LINE
  8
DETAIL
  6
CONTINUOUS
 62
     5
 10
0.2690385298600404
 20
-186.8209786681501
 30
0.0
 11
0.2690385298600404
 21
-186.8209786681501
 31
0.0
  0
LINE
  8
DETAIL
  6
CONTINUOUS
 62
     5
 10
0.2690385298600404
 20
-186.8209786681501
 30
0.0
 11
0.302327434564404
 21
-186.82653280628099
 31
0.0
  0
LINE
  8
DETAIL
  6
CONTINUOUS
 62
     5
 10
0.302327434564404
 20
-186.82653280628099
 30
0.0
 11
0.3354927301211319
 21
-186.8327323689837
 31
0.0
  0
LINE
  8
DETAIL
  6
CONTINUOUS
 62
     5
 10
0.3354927301211319
 20
-186.8327323689837
 30
0.0
 11
0.3354927301211319
 21
-186.8327323689837
 31
0.0
  0
LINE
  8
DETAIL
  6
CONTINUOUS
 62
     5
 10
0.3354927301211319
 20
-186.8327323689837
 30
0.0
 11
0.3685113015268371
 21
-186.8395733797156
 31
0.0
  0
LINE
  8
DETAIL
  6
CONTINUOUS
 62
     5
 10
0.3685113015268371
 20
-186.8395733797156
 30
0.0
 11
0.4013812723220553
 21
-186.84705443375151
 31
0.0
  0
LINE
  8
DETAIL
  6
CONTINUOUS
 62
     5
 10
0.4013812723220553
 20
-186.84705443375151
 30
0.0
 11
0.4013812723220553
 21
-186.84705443375151
 31
0.0
  0
LINE
  8
DETAIL
  6
CONTINUOUS
 62
     5
 10
0.4013812723220553
 20
-186.84705443375151
 30
0.0
 11
0.434102822900968
 21
-186.8551742316381
 31
0.0
  0
LINE
  8
DETAIL
  6
CONTINUOUS
 62
     5
 10
0.434102822900968
 20
-186.8551742316381
 30
0.0
 11
0.4666631225258016
 21
-186.86392932319129
 31
0.0
  0
LINE
  8
DETAIL
  6
CONTINUOUS
 62
     5
 10
0.4666631225258016
 20
-186.86392932319129
 30
0.0
 11
0.4666631225258016
 21
-186.86392932319129
 31
0.0
  0
LINE
  8
DETAIL
  6
CONTINUOUS
 62
     5
 10
0.4666631225258016
 20
-186.86392932319129
 30
0.0
 11
0.4990465955256695
 21
-186.87331570586801
 31
0.0
  0
LINE
  8
DETAIL
  6
CONTINUOUS
 62
     5
 10
0.4990465955256695
 20
-186.87331570586801
 30
0.0
 11
0.5312396976283935
 21
-186.8833293184143
 31
0.0
  0
LINE
  8
DETAIL
  6
CONTINUOUS
 62
     5
 10
0.5312396976283935
 20
-186.8833293184143
 30
0.0
 11
0.5312396976283935
 21
-186.8833293184143
 31
0.0
  0
LINE
  8
DETAIL
  6
CONTINUOUS
 62
     5
 10
0.5312396976283935
 20
-186.8833293184143
 30
0.0
 11
0.5632306137956675
 21
-186.89396668129299
 31
0.0
  0
LINE
  8
DETAIL
  6
CONTINUOUS
 62
     5
 10
0.5632306137956675
 20
-186.89396668129299
 30
0.0
 11
0.5950124145259679
 21
-186.90522670053161
 31
0.0
  0
LINE
  8
DETAIL
  6
CONTINUOUS
 62
     5
 10
0.5950124145259679
 20
-186.90522670053161
 30
0.0
 11
0.5950124145259679
 21
-186.90522670053161
 31
0.0
  0
LINE
  8
DETAIL
  6
CONTINUOUS
 62
     5
 10
0.5950124145259679
 20
-186.90522670053161
 30
0.0
 11
0.6265739983156209
 21
-186.91710650766029
 31
0.0
  0
LINE
  8
DETAIL
  6
CONTINUOUS
 62
     5
 10
0.6265739983156209
 20
-186.91710650766029
 30
0.0
 11
0.6578826901143202
 21
-186.92959375065331
 31
0.0
  0
LINE
  8
DETAIL
  6
CONTINUOUS
 62
     5
 10
0.6578826901143202
 20
-186.92959375065331
 30
0.0
 11
0.6578826901143202
 21
-186.92959375065331
 31
0.0
  0
LINE
  8
DETAIL
  6
CONTINUOUS
 62
     5
 10
0.6578826901143202
 20
-186.92959375065331
 30
0.0
 11
0.6889092090567601
 21
-186.94267687791631
 31
0.0
  0
LINE
  8
DETAIL
  6
CONTINUOUS
 62
     5
 10
0.6889092090567601
 20
-186.94267687791631
 30
0.0
 11
0.7196594245622237
 21
-186.95635702313939
 31
0.0
  0
LINE
  8
DETAIL
  6
CONTINUOUS
 62
     5
 10
0.7196594245622237
 20
-186.95635702313939
 30
0.0
 11
0.7196594245622237
 21
-186.95635702313939
 31
0.0
  0
LINE
  8
DETAIL
  6
CONTINUOUS
 62
     5
 10
0.7196594245622237
 20
-186.95635702313939
 30
0.0
 11
0.750142550173905
 21
-186.970636437032
 31
0.0
  0
LINE
  8
DETAIL
  6
CONTINUOUS
 62
     5
 10
0.750142550173905
 20
-186.970636437032
 30
0.0
 11
0.7803460256460539
 21
-186.98550915308809
 31
0.0
  0
LINE
  8
DETAIL
  6
CONTINUOUS
 62
     5
 10
0.7803460256460539
 20
-186.98550915308809
 30
0.0
 11
0.7803460256460539
 21
-186.98550915308809
 31
0.0
  0
LINE
  8
DETAIL
  6
CONTINUOUS
 62
     5
 10
0.7803460256460539
 20
-186.98550915308809
 30
0.0
 11
0.8102528876692077
 21
-187.00096741057129
 31
0.0
  0
LINE
  8
DETAIL
  6
CONTINUOUS
 62
     5
 10
0.8102528876692077
 20
-187.00096741057129
 30
0.0
 11
0.8398503344697019
 21
-187.0170044890356
 31
0.0
  0
LINE
  8
DETAIL
  6
CONTINUOUS
 62
     5
 10
0.8398503344697019
 20
-187.0170044890356
 30
0.0
 11
0.8398503344697019
 21
-187.0170044890356
 31
0.0
  0
LINE
  8
DETAIL
  6
CONTINUOUS
 62
     5
 10
0.8398503344697019
 20
-187.0170044890356
 30
0.0
 11
0.8691278865693448
 21
-187.03361494212001
 31
0.0
  0
LINE
  8
DETAIL
  6
CONTINUOUS
 62
     5
 10
0.8691278865693448
 20
-187.03361494212001
 30
0.0
 11
0.8980801921362627
 21
-187.05079737951931
 31
0.0
  0
LINE
  8
DETAIL
  6
CONTINUOUS
 62
     5
 10
0.8980801921362627
 20
-187.05079737951931
 30
0.0
 11
0.8980801921362627
 21
-187.05079737951931
 31
0.0
  0
LINE
  8
DETAIL
  6
CONTINUOUS
 62
     5
 10
0.8980801921362627
 20
-187.05079737951931
 30
0.0
 11
0.9266970132199504
 21
-187.0685471088141
 31
0.0
  0
LINE
  8
DETAIL
  6
CONTINUOUS
 62
     5
 10
0.9266970132199504
 20
-187.0685471088141
 30
0.0
 11
0.954943439749286
 21
-187.08684217307629
 31
0.0
  0
LINE
  8
DETAIL
  6
CONTINUOUS
 62
     5
 10
0.954943439749286
 20
-187.08684217307629
 30
0.0
 11
0.954943439749286
 21
-187.08684217307629
 31
0.0
  0
LINE
  8
DETAIL
  6
CONTINUOUS
 62
     5
 10
0.954943439749286
 20
-187.08684217307629
 30
0.0
 11
0.9827886022053463
 21
-187.10566255854951
 31
0.0
  0
LINE
  8
DETAIL
  6
CONTINUOUS
 62
     5
 10
0.9827886022053463
 20
-187.10566255854951
 30
0.0
 11
1.010242465396459
 21
-187.12501328867921
 31
0.0
  0
LINE
  8
DETAIL
  6
CONTINUOUS
 62
     5
 10
1.010242465396459
 20
-187.12501328867921
 30
0.0
 11
1.010242465396459
 21
-187.12501328867921
 31
0.0
  0
LINE
  8
DETAIL
  6
CONTINUOUS
 62
     5
 10
1.010242465396459
 20
-187.12501328867921
 30
0.0
 11
1.0373188457519971
 21
-187.14490168626619
 31
0.0
  0
LINE
  8
DETAIL
  6
CONTINUOUS
 62
     5
 10
1.0373188457519971
 20
-187.14490168626619
 30
0.0
 11
1.06400613185474
 21
-187.16531923432831
 31
0.0
  0
LINE
  8
DETAIL
  6
CONTINUOUS
 62
     5
 10
1.06400613185474
 20
-187.16531923432831
 30
0.0
 11
1.06400613185474
 21
-187.16531923432831
 31
0.0
  0
LINE
  8
DETAIL
  6
CONTINUOUS
 62
     5
 10
1.06400613185474
 20
-187.16531923432831
 30
0.0
 11
1.0902876795292971
 21
-187.18625412422651
 31
0.0
  0
LINE
  8
DETAIL
  6
CONTINUOUS
 62
     5
 10
1.0902876795292971
 20
-187.18625412422651
 30
0.0
 11
1.1161521414142039
 21
-187.20769722047629
 31
0.0
  0
LINE
  8
DETAIL
  6
CONTINUOUS
 62
     5
 10
1.1161521414142039
 20
-187.20769722047629
 30
0.0
 11
1.1161521414142039
 21
-187.20769722047629
 31
0.0
  0
LINE
  8
DETAIL
  6
CONTINUOUS
 62
     5
 10
1.1161521414142039
 20
-187.20769722047629
 30
0.0
 11
1.141590554499317
 21
-187.2296413426734
 31
0.0
  0
LINE
  8
DETAIL
  6
CONTINUOUS
 62
     5
 10
1.141590554499317
 20
-187.2296413426734
 30
0.0
 11
1.1665981963658401
 21
-187.252084457574
 31
0.0
  0
LINE
  8
DETAIL
  6
CONTINUOUS
 62
     5
 10
1.1665981963658401
 20
-187.252084457574
 30
0.0
 11
1.1665981963658401
 21
-187.252084457574
 31
0.0
  0
LINE
  8
DETAIL
  6
CONTINUOUS
 62
     5
 10
1.1665981963658401
 20
-187.252084457574
 30
0.0
 11
1.191165839948098
 21
-187.27502000327581
 31
0.0
  0
LINE
  8
DETAIL
  6
CONTINUOUS
 62
     5
 10
1.191165839948098
 20
-187.27502000327581
 30
0.0
 11
1.215261998999722
 21
-187.2984181560735
 31
0.0
  0
LINE
  8
DETAIL
  6
CONTINUOUS
 62
     5
 10
1.215261998999722
 20
-187.2984181560735
 30
0.0
 11
1.215261998999722
 21
-187.2984181560735
 31
0.0
  0
LINE
  8
DETAIL
  6
CONTINUOUS
 62
     5
 10
1.215261998999722
 20
-187.2984181560735
 30
0.0
 11
1.238859036794111
 21
-187.32225201455711
 31
0.0
  0
LINE
  8
DETAIL
  6
CONTINUOUS
 62
     5
 10
1.238859036794111
 20
-187.32225201455711
 30
0.0
 11
1.261966973863764
 21
-187.34652962830239
 31
0.0
  0
LINE
  8
DETAIL
  6
CONTINUOUS
 62
     5
 10
1.261966973863764
 20
-187.34652962830239
 30
0.0
 11
1.261966973863764
 21
-187.34652962830239
 31
0.0
  0
LINE
  8
DETAIL
  6
CONTINUOUS
 62
     5
 10
1.261966973863764
 20
-187.34652962830239
 30
0.0
 11
1.2845993749175479
 21
-187.3712622745916
 31
0.0
  0
LINE
  8
DETAIL
  6
CONTINUOUS
 62
     5
 10
1.2845993749175479
 20
-187.3712622745916
 30
0.0
 11
1.30674632410819
 21
-187.39643919054421
 31
0.0
  0
LINE
  8
DETAIL
  6
CONTINUOUS
 62
     5
 10
1.30674632410819
 20
-187.39643919054421
 30
0.0
 11
1.30674632410819
 21
-187.39643919054421
 31
0.0
  0
LINE
  8
DETAIL
  6
CONTINUOUS
 62
     5
 10
1.30674632410819
 20
-187.39643919054421
 30
0.0
 11
1.3283933375362269
 21
-187.422045157871
 31
0.0
  0
LINE
  8
DETAIL
  6
CONTINUOUS
 62
     5
 10
1.3283933375362269
 20
-187.422045157871
 30
0.0
 11
1.34953113964616
 21
-187.44806917680771
 31
0.0
  0
LINE
  8
DETAIL
  6
CONTINUOUS
 62
     5
 10
1.34953113964616
 20
-187.44806917680771
 30
0.0
 11
1.34953113964616
 21
-187.44806917680771
 31
0.0
  0
LINE
  8
DETAIL
  6
CONTINUOUS
 62
     5
 10
1.34953113964616
 20
-187.44806917680771
 30
0.0
 11
1.37015241876361
 21
-187.47450259373679
 31
0.0
  0
LINE
  8
DETAIL
  6
CONTINUOUS
 62
     5
 10
1.37015241876361
 20
-187.47450259373679
 30
0.0
 11
1.390252510391178
 21
-187.5013419211032
 31
0.0
  0
LINE
  8
DETAIL
  6
CONTINUOUS
 62
     5
 10
1.390252510391178
 20
-187.5013419211032
 30
0.0
 11
1.390252510391178
 21
-187.5013419211032
 31
0.0
  0
LINE
  8
DETAIL
  6
CONTINUOUS
 62
     5
 10
1.390252510391178
 20
-187.5013419211032
 30
0.0
 11
1.409823462562827
 21
-187.52857874217261
 31
0.0
  0
LINE
  8
DETAIL
  6
CONTINUOUS
 62
     5
 10
1.409823462562827
 20
-187.52857874217261
 30
0.0
 11
1.428841526256633
 21
-187.55617975744011
 31
0.0
  0
LINE
  8
DETAIL
  6
CONTINUOUS
 62
     5
 10
1.428841526256633
 20
-187.55617975744011
 30
0.0
 11
1.428841526256633
 21
-187.55617975744011
 31
0.0
  0
LINE
  8
DETAIL
  6
CONTINUOUS
 62
     5
 10
1.428841526256633
 20
-187.55617975744011
 30
0.0
 11
1.4472859501023549
 21
-187.58411493162569
 31
0.0
  0
LINE
  8
DETAIL
  6
CONTINUOUS
 62
     5
 10
1.4472859501023549
 20
-187.58411493162569
 30
0.0
 11
1.4651637703874481
 21
-187.612392169126
 31
0.0
  0
LINE
  8
DETAIL
  6
CONTINUOUS
 62
     5
 10
1.4651637703874481
 20
-187.612392169126
 30
0.0
 11
1.4651637703874481
 21
-187.612392169126
 31
0.0
  0
LINE
  8
DETAIL
  6
CONTINUOUS
 62
     5
 10
1.4651637703874481
 20
-187.612392169126
 30
0.0
 11
1.482484666967935
 21
-187.64102282534901
 31
0.0
  0
LINE
  8
DETAIL
  6
CONTINUOUS
 62
     5
 10
1.482484666967935
 20
-187.64102282534901
 30
0.0
 11
1.49924110631332
 21
-187.6699941200697
 31
0.0
  0
LINE
  8
DETAIL
  6
CONTINUOUS
 62
     5
 10
1.49924110631332
 20
-187.6699941200697
 30
0.0
 11
1.49924110631332
 21
-187.6699941200697
 31
0.0
  0
LINE
  8
DETAIL
  6
CONTINUOUS
 62
     5
 10
1.49924110631332
 20
-187.6699941200697
 30
0.0
 11
1.5154222659546119
 21
-187.69928850229959
 31
0.0
  0
LINE
  8
DETAIL
  6
CONTINUOUS
 62
     5
 10
1.5154222659546119
 20
-187.69928850229959
 30
0.0
 11
1.5310213810510049
 21
-187.7288934736323
 31
0.0
  0
LINE
  8
DETAIL
  6
CONTINUOUS
 62
     5
 10
1.5310213810510049
 20
-187.7288934736323
 30
0.0
 11
1.5310213810510049
 21
-187.7288934736323
 31
0.0
  0
LINE
  8
DETAIL
  6
CONTINUOUS
 62
     5
 10
1.5310213810510049
 20
-187.7288934736323
 30
0.0
 11
1.546032946887294
 21
-187.75879878013481
 31
0.0
  0
LINE
  8
DETAIL
  6
CONTINUOUS
 62
     5
 10
1.546032946887294
 20
-187.75879878013481
 30
0.0
 11
1.5604524416170309
 21
-187.78899809317639
 31
0.0
  0
LINE
  8
DETAIL
  6
CONTINUOUS
 62
     5
 10
1.5604524416170309
 20
-187.78899809317639
 30
0.0
 11
1.5604524416170309
 21
-187.78899809317639
 31
0.0
  0
LINE
  8
DETAIL
  6
CONTINUOUS
 62
     5
 10
1.5604524416170309
 20
-187.78899809317639
 30
0.0
 11
1.574273591835095
 21
-187.81948087700471
 31
0.0
  0
LINE
  8
DETAIL
  6
CONTINUOUS
 62
     5
 10
1.574273591835095
 20
-187.81948087700471
 30
0.0
 11
1.587482135027813
 21
-187.85021584206331
 31
0.0
  0
LINE
  8
DETAIL
  6
CONTINUOUS
 62
     5
 10
1.587482135027813
 20
-187.85021584206331
 30
0.0
 11
1.587482135027813
 21
-187.85021584206331
 31
0.0
  0
LINE
  8
DETAIL
  6
CONTINUOUS
 62
     5
 10
1.587482135027813
 20
-187.85021584206331
 30
0.0
 11
1.600065662694419
 21
-187.881174669893
 31
0.0
  0
LINE
  8
DETAIL
  6
CONTINUOUS
 62
     5
 10
1.600065662694419
 20
-187.881174669893
 30
0.0
 11
1.6120271714896719
 21
-187.912361680224
 31
0.0
  0
LINE
  8
DETAIL
  6
CONTINUOUS
 62
     5
 10
1.6120271714896719
 20
-187.912361680224
 30
0.0
 11
1.6120271714896719
 21
-187.912361680224
 31
0.0
  0
LINE
  8
DETAIL
  6
CONTINUOUS
 62
     5
 10
1.6120271714896719
 20
-187.912361680224
 30
0.0
 11
1.6233712385487711
 21
-187.94378440260701
 31
0.0
  0
LINE
  8
DETAIL
  6
CONTINUOUS
 62
     5
 10
1.6233712385487711
 20
-187.94378440260701
 30
0.0
 11
1.6340933577699841
 21
-187.97543056768609
 31
0.0
  0
LINE
  8
DETAIL
  6
CONTINUOUS
 62
     5
 10
1.6340933577699841
 20
-187.97543056768609
 30
0.0
 11
1.6340933577699841
 21
-187.97543056768609
 31
0.0
  0
LINE
  8
DETAIL
  6
CONTINUOUS
 62
     5
 10
1.6340933577699841
 20
-187.97543056768609
 30
0.0
 11
1.6441871893880491
 21
-188.00728335845321
 31
0.0
  0
LINE
  8
DETAIL
  6
CONTINUOUS
 62
     5
 10
1.6441871893880491
 20
-188.00728335845321
 30
0.0
 11
1.6536481422225511
 21
-188.03932756619881
 31
0.0
  0
LINE
  8
DETAIL
  6
CONTINUOUS
 62
     5
 10
1.6536481422225511
 20
-188.03932756619881
 30
0.0
 11
1.6536481422225511
 21
-188.03932756619881
 31
0.0
  0
LINE
  8
DETAIL
  6
CONTINUOUS
 62
     5
 10
1.6536481422225511
 20
-188.03932756619881
 30
0.0
 11
1.662472584463671
 21
-188.07155172571629
 31
0.0
  0
LINE
  8
DETAIL
  6
CONTINUOUS
 62
     5
 10
1.662472584463671
 20
-188.07155172571629
 30
0.0
 11
1.6706589732009429
 21
-188.10395773751321
 31
0.0
  0
LINE
  8
DETAIL
  6
CONTINUOUS
 62
     5
 10
1.6706589732009429
 20
-188.10395773751321
 30
0.0
 11
1.6706589732009429
 21
-188.10395773751321
 31
0.0
  0
LINE
  8
DETAIL
  6
CONTINUOUS
 62
     5
 10
1.6706589732009429
 20
-188.10395773751321
 30
0.0
 11
1.6782037617033441
 21
-188.136537075738
 31
0.0
  0
LINE
  8
DETAIL
  6
CONTINUOUS
 62
     5
 10
1.6782037617033441
 20
-188.136537075738
 30
0.0
 11
1.6850932990585079
 21
-188.16922614337861
 31
0.0
  0
LINE
  8
DETAIL
  6
CONTINUOUS
 62
     5
 10
1.6850932990585079
 20
-188.16922614337861
 30
0.0
 11
1.6850932990585079
 21
-188.16922614337861
 31
0.0
  0
LINE
  8
DETAIL
  6
CONTINUOUS
 62
     5
 10
1.6850932990585079
 20
-188.16922614337861
 30
0.0
 11
1.691316664268697
 21
-188.20196874672499
 31
0.0
  0
LINE
  8
DETAIL
  6
CONTINUOUS
 62
     5
 10
1.691316664268697
 20
-188.20196874672499
 30
0.0
 11
1.696883960177161
 21
-188.23479337643019
 31
0.0
  0
LINE
  8
DETAIL
  6
CONTINUOUS
 62
     5
 10
1.696883960177161
 20
-188.23479337643019
 30
0.0
 11
1.696883960177161
 21
-188.23479337643019
 31
0.0
  0
LINE
  8
DETAIL
  6
CONTINUOUS
 62
     5
 10
1.696883960177161
 20
-188.23479337643019
 30
0.0
 11
1.701805763343486
 21
-188.26773592081781
 31
0.0
  0
LINE
  8
DETAIL
  6
CONTINUOUS
 62
     5
 10
1.701805763343486
 20
-188.26773592081781
 30
0.0
 11
1.7060735213526641
 21
-188.30077717453469
 31
0.0
  0
LINE
  8
DETAIL
  6
CONTINUOUS
 62
     5
 10
1.7060735213526641
 20
-188.30077717453469
 30
0.0
 11
1.7060735213526641
 21
-188.30077717453469
 31
0.0
  0
LINE
  8
DETAIL
  6
CONTINUOUS
 62
     5
 10
1.7060735213526641
 20
-188.30077717453469
 30
0.0
 11
1.7096810842265311
 21
-188.33388801467709
 31
0.0
  0
LINE
  8
DETAIL
  6
CONTINUOUS
 62
     5
 10
1.7096810842265311
 20
-188.33388801467709
 30
0.0
 11
1.7126510407071009
 21
-188.36705474181119
 31
0.0
  0
LINE
  8
DETAIL
  6
CONTINUOUS
 62
     5
 10
1.7126510407071009
 20
-188.36705474181119
 30
0.0
 11
1.7126510407071009
 21
-188.36705474181119
 31
0.0
  0
LINE
  8
DETAIL
  6
CONTINUOUS
 62
     5
 10
1.7126510407071009
 20
-188.36705474181119
 30
0.0
 11
1.714989207740018
 21
-188.40026586231971
 31
0.0
  0
LINE
  8
DETAIL
  6
CONTINUOUS
 62
     5
 10
1.714989207740018
 20
-188.40026586231971
 30
0.0
 11
1.716605576363349
 21
-188.43350328237739
 31
0.0
  0
LINE
  8
DETAIL
  6
CONTINUOUS
 62
     5
 10
1.716605576363349
 20
-188.43350328237739
 30
0.0
 11
1.716605576363349
 21
-188.43350328237739
 31
0.0
  0
LINE
  8
DETAIL
  6
CONTINUOUS
 62
     5
 10
1.716605576363349
 20
-188.43350328237739
 30
0.0
 11
1.717474822365489
 21
-188.46675000244659
 31
0.0
  0
LINE
  8
DETAIL
  6
CONTINUOUS
 62
     5
 10
1.717474822365489
 20
-188.46675000244659
 30
0.0
 11
1.717926186443719
 21
-188.500000000352
 31
0.0
  0
LINE
  8
DETAIL
  6
CONTINUOUS
 62
     5
 10
-63.500000000176101
 20
-161.90000000017599
 30
0.0
 11
-63.500000000176101
 21
-160.3000000003519
 31
0.0
  0
LINE
  8
DETAIL
  6
CONTINUOUS
 62
     5
 10
63.500000000175987
 20
-163.5
 30
0.0
 11
63.500000000175987
 21
-160.3000000003519
 31
0.0
  0
LINE
  8
BASIS
  6
DASHDOT
 62
     6
 10
0.0
 20
-226.8287296976869
 30
0.0
 11
0.0
 21
62.782903235553931
 31
0.0
  0
LINE
  8
DETAIL
  6
CONTINUOUS
 62
     4
 10
131.954806609548
 20
-105.39997352082651
 30
0.0
 11
131.22148481672531
 21
-99.231753482746512
 31
0.0
  0
LINE
  8
DETAIL
  6
CONTINUOUS
 62
     4
 10
131.22148481672531
 20
-99.231753482746512
 30
0.0
 11
134.94067763480211
 21
-104.206922230836
 31
0.0
  0
LINE
  8
DETAIL
  6
CONTINUOUS
 62
     4
 10
131.22148481672531
 20
-99.231753482746512
 30
0.0
 11
135.67399942762469
 21
-110.37514226891599
 31
0.0
  0
LINE
  8
NOTE
  6
CONTINUOUS
 62
     4
 10
135.67399942762469
 20
-110.37514226891599
 30
0.0
 11
241.11965031677661
 21
-372.67968338088968
 31
0.0
  0
LINE
  8
NOTE
  6
CONTINUOUS
 62
     4
 10
241.11965031677661
 20
-372.67968338088968
 30
0.0
 11
366.93792725767571
 21
-372.14931184317942
 31
0.0
  0
TEXT
  8
NOTE
  6
CONTINUOUS
 62
     4
 10
257.22034223791462
 20
-352.50202202553908
 30
0.0
 40
64.0
  1
EL
 41
0.9
 72
     2
 11
342.24891366648598
 21
-352.50202202553908
 31
0.0
  0
ARC
  8
DETAIL
  6
CONTINUOUS
 62
     5
 10
72.5926083150257
 20
-131.6581067072361
 30
0.0
 40
67.315063881940389
 50
288.48543979255942
 51
0.9857808417735342
  0
ARC
  8
DETAIL
  6
CONTINUOUS
 62
     5
 10
68.412916710968034
 20
-131.00095911825059
 30
0.0
 40
69.36528121170636
 50
291.58915201962151
 51
0.4137962425620875
  0
ARC
  8
DETAIL
  6
CONTINUOUS
 62
     5
 10
78.391728081460087
 20
-131.00870361916361
 30
0.0
 40
41.710093548149217
 50
288.77241393004618
 51
0.698806705336891
  0
ARC
  8
DETAIL
  6
CONTINUOUS
 62
     5
 10
114.787753519072
 20
-63.358348982868051
 30
0.0
 40
25.333542697554758
 50
7.6178571254652692
 51
30.091746816956132
  0
ARC
  8
DETAIL
  6
CONTINUOUS
 62
     5
 10
143.35872190982121
 20
-26.461811707610309
 30
0.0
 40
21.432747381668751
 50
189.5020725552545
 51
236.34143306232079
  0
ARC
  8
DETAIL
  6
CONTINUOUS
 62
     5
 10
114.5415081755186
 20
-64.511562513902618
 30
0.0
 40
23.668837735556821
 50
10.98849707135046
 51
26.665663052649389
  0
ARC
  8
DETAIL
  6
CONTINUOUS
 62
     5
 10
141.08242429936419
 20
-28.595186476075241
 30
0.0
 40
21.03067694000541
 50
183.83011276742911
 51
230.94156118543489
  0
ARC
  8
DETAIL
  6
CONTINUOUS
 62
     5
 10
142.61865272279951
 20
-62.030813756555062
 30
0.0
 40
22.61131578672757
 50
130.84428614634851
 51
174.8470906115781
  0
ARC
  8
DETAIL
  6
CONTINUOUS
 62
     5
 10
142.0590775962996
 20
-6.9885584583287246
 30
0.0
 40
3.1796901411376548
 50
288.72211101656529
 51
8.8384920782743066
  0
ARC
  8
DETAIL
  6
CONTINUOUS
 62
     5
 10
152.93994489606331
 20
-6.4208045040617208
 30
0.0
 40
7.7393399775779779
 50
153.75937836964169
 51
180.58630928342299
  0
ARC
  8
DETAIL
  6
CONTINUOUS
 62
     5
 10
141.57171517267901
 20
-7.4489384495200284
 30
0.0
 40
5.7522405861437012
 50
285.1979292289152
 51
2.911042030879432
  0
ARC
  8
DETAIL
  6
CONTINUOUS
 62
     5
 10
151.15200851720661
 20
-6.9407919938473697
 30
0.0
 40
3.8415537984206169
 50
116.4044583277574
 51
183.22353114278951
  0
ARC
  8
DETAIL
  6
CONTINUOUS
 62
     5
 10
159.78533880425769
 20
-7.9384109516222452
 30
0.0
 40
5.1540767904975686
 50
280.87065868471927
 51
359.14757912060662
  0
ARC
  8
DETAIL
  6
CONTINUOUS
 62
     5
 10
169.73597818429519
 20
-7.5488766827947984
 30
0.0
 40
4.8197342267403496
 50
122.853308459396
 51
185.5508832973569
  0
ARC
  8
DETAIL
  6
CONTINUOUS
 62
     5
 10
167.27004117319129
 20
-46.649879248756179
 30
0.0
 40
27.030479761994481
 50
99.626232484633974
 51
160.98713292211571
  0
ARC
  8
DETAIL
  6
CONTINUOUS
 62
     5
 10
255.42187990027239
 20
-89.66650272375
 30
0.0
 40
124.96008023630731
 50
155.49872750089361
 51
163.36292424001539
  0
ARC
  8
DETAIL
  6
CONTINUOUS
 62
     5
 10
102.59013279337221
 20
-45.788782553435112
 30
0.0
 40
39.922599661483439
 50
339.14714146853947
 51
11.47894001073894
  0
ARC
  8
DETAIL
  6
CONTINUOUS
 62
     5
 10
125.2802789351535
 20
-15.913915887890539
 30
0.0
 40
3.0614497245245071
 50
107.8599230710504
 51
181.61129756532051
  0
ARC
  8
DETAIL
  6
CONTINUOUS
 62
     5
 10
126.283821010159
 20
-15.87352729425629
 30
0.0
 40
6.1863945344924334
 50
108.2998021196474
 51
181.17141851672031
  0
ARC
  8
DETAIL
  6
CONTINUOUS
 62
     5
 10
-72.592608315025643
 20
-131.6581067072361
 30
0.0
 40
67.315063881940389
 50
179.0142191582265
 51
251.51456020744001
  0
ARC
  8
DETAIL
  6
CONTINUOUS
 62
     5
 10
-68.412916710968034
 20
-131.00095911825059
 30
0.0
 40
69.36528121170636
 50
179.58620375743789
 51
248.41084798037849
  0
ARC
  8
DETAIL
  6
CONTINUOUS
 62
     5
 10
-78.391728081460087
 20
-131.00870361916361
 30
0.0
 40
41.710093548149217
 50
179.30119329466311
 51
251.22758606995379
  0
ARC
  8
DETAIL
  6
CONTINUOUS
 62
     5
 10
-114.7877535190717
 20
-63.358348982868158
 30
0.0
 40
25.33354269755516
 50
129.98805295324189
 51
172.38214287453471
  0
ARC
  8
DETAIL
  6
CONTINUOUS
 62
     5
 10
-143.0028986529874
 20
-26.59728294777619
 30
0.0
 40
21.05957520917697
 50
304.52255051611758
 51
350.70162869043492
  0
ARC
  8
DETAIL
  6
CONTINUOUS
 62
     5
 10
-114.5415081755186
 20
-64.511562513902618
 30
0.0
 40
23.668837735556821
 50
124.15715897491749
 51
169.01150292864949
  0
ARC
  8
DETAIL
  6
CONTINUOUS
 62
     5
 10
-141.08242429936419
 20
-28.595186476075241
 30
0.0
 40
21.03067694000541
 50
309.05843881456508
 51
356.16988723257089
  0
ARC
  8
DETAIL
  6
CONTINUOUS
 62
     5
 10
-119.50785987173469
 20
-28.922267172364631
 30
0.0
 40
20.41831203733998
 50
183.02562968111599
 51
231.65029082180521
  0
ARC
  8
DETAIL
  6
CONTINUOUS
 62
     5
 10
-142.61865272279951
 20
-62.030813756555062
 30
0.0
 40
22.61131578672757
 50
5.1529093884218948
 51
49.155713853651513
  0
ARC
  8
DETAIL
  6
CONTINUOUS
 62
     5
 10
-142.05907759629969
 20
-6.9885584583287246
 30
0.0
 40
3.1796901411376548
 50
171.1615079217257
 51
251.27788898343471
  0
ARC
  8
DETAIL
  6
CONTINUOUS
 62
     5
 10
-152.93994489606331
 20
-6.4208045040617208
 30
0.0
 40
7.7393399775779779
 50
359.41369071657698
 51
26.240621630358291
  0
ARC
  8
DETAIL
  6
CONTINUOUS
 62
     5
 10
-141.57171517267901
 20
-7.4489384495200284
 30
0.0
 40
5.7522405861437012
 50
177.0889579691206
 51
254.8020707710848
  0
ARC
  8
DETAIL
  6
CONTINUOUS
 62
     5
 10
-151.15200851720661
 20
-6.9407919938473697
 30
0.0
 40
3.8415537984206169
 50
356.77646885721038
 51
63.595541672242547
  0
ARC
  8
DETAIL
  6
CONTINUOUS
 62
     5
 10
-159.78533880425761
 20
-7.9384109516222452
 30
0.0
 40
5.1540767904975686
 50
180.85242087939341
 51
259.12934131528073
  0
ARC
  8
DETAIL
  6
CONTINUOUS
 62
     5
 10
-169.73597818429511
 20
-7.5488766827947984
 30
0.0
 40
4.8197342267403496
 50
354.4491167026431
 51
57.146691540604017
  0
ARC
  8
DETAIL
  6
CONTINUOUS
 62
     5
 10
-167.27004117319129
 20
-46.649879248756179
 30
0.0
 40
27.030479761994481
 50
19.012867077884351
 51
80.373767515366026
  0
ARC
  8
DETAIL
  6
CONTINUOUS
 62
     5
 10
-209.55536903333169
 20
-70.294613084726734
 30
0.0
 40
75.202891408330842
 50
14.897654404334951
 51
25.563373509814259
  0
ARC
  8
DETAIL
  6
CONTINUOUS
 62
     5
 10
-102.59013279337221
 20
-45.788782553435112
 30
0.0
 40
39.922599661483439
 50
168.52105998926109
 51
200.8528585314605
  0
ARC
  8
DETAIL
  6
CONTINUOUS
 62
     5
 10
-125.2802789351536
 20
-15.913915887890539
 30
0.0
 40
3.0614497245245071
 50
358.38870243467937
 51
72.14007692894964
  0
ARC
  8
DETAIL
  6
CONTINUOUS
 62
     5
 10
-126.2838210101591
 20
-15.87352729425629
 30
0.0
 40
6.1863945344924334
 50
358.82858148327972
 51
71.700197880352647
  0
ARC
  8
DETAIL
  6
CONTINUOUS
 62
     5
 10
70.480417472794329
 20
-193.23033296477419
 30
0.0
 40
20.566543737193701
 50
161.26865140671401
 51
186.64156957392601
  0
ARC
  8
DETAIL
  6
CONTINUOUS
 62
     5
 10
79.483413783633637
 20
-146.94221212699529
 30
0.0
 40
39.047071944958297
 50
273.12177297760081
 51
319.70038323793898
  0
ARC
  8
DETAIL
  6
CONTINUOUS
 62
     5
 10
76.212377828991066
 20
-143.27426761798341
 30
0.0
 40
50.526082189105452
 50
280.83763423614772
 51
321.65623327569813
  0
ARC
  8
DETAIL
  6
CONTINUOUS
 62
     5
 10
52.432253187109843
 20
-131.9882689437072
 30
0.0
 40
69.617232161637091
 50
324.72002211830488
 51
354.93194348336402
  0
ARC
  8
DETAIL
  6
CONTINUOUS
 62
     5
 10
286.14242863915268
 20
-91.200905418619527
 30
0.0
 40
161.52299484231639
 50
164.20461891880211
 51
181.43629088042979
  0
ARC
  8
DETAIL
  6
CONTINUOUS
 62
     5
 10
304.59194543066292
 20
-92.588317807915701
 30
0.0
 40
173.27573952338719
 50
167.0948739935549
 51
180.8797388947709
  0
ARC
  8
DETAIL
  6
CONTINUOUS
 62
     5
 10
58.135778209992402
 20
173.84067936930819
 30
0.0
 40
360.53701335971971
 50
268.86642966986551
 51
273.73309044113893
  0
ARC
  8
DETAIL
  6
CONTINUOUS
 62
     5
 10
62.724284527655527
 20
240.20137913890619
 30
0.0
 40
433.71020793294059
 50
268.30744557343451
 51
273.03832384969093
  0
ARC
  8
DETAIL
  6
CONTINUOUS
 62
     5
 10
-209.27953983805261
 20
-94.831784259060839
 30
0.0
 40
333.87735052867362
 50
352.54730930226572
 51
359.32759027175939
  0
ARC
  8
DETAIL
  6
CONTINUOUS
 62
     5
 10
-187.43766298506731
 20
-96.132655918235059
 30
0.0
 40
318.67421747527521
 50
351.74458026412589
 51
359.44279141518001
  0
ARC
  8
DETAIL
  6
CONTINUOUS
 62
     5
 10
54.273112936936847
 20
-192.13617530355421
 30
0.0
 40
5.4392030229582646
 50
222.93424933299491
 51
260.45016057184699
  0
ARC
  8
DETAIL
  6
CONTINUOUS
 62
     5
 10
53.775120692630139
 20
-133.08451111606249
 30
0.0
 40
74.68019869245262
 50
326.20290321893629
 51
353.22863055529831
  0
ARC
  8
DETAIL
  6
CONTINUOUS
 62
     5
 10
179.13721932940749
 20
-58.237790353935168
 30
0.0
 40
49.6533248731672
 50
123.9570434587454
 51
167.19614595947709
  0
ARC
  8
OUTLINE
  6
CONTINUOUS
 62
     3
 10
72.5926083150257
 20
-131.6581067072361
 30
0.0
 40
67.315063881940389
 50
288.48543979255942
 51
0.9857808417735342
  0
ARC
  8
OUTLINE
  6
CONTINUOUS
 62
     3
 10
167.27004117319129
 20
-46.649879248756179
 30
0.0
 40
27.030479761994481
 50
99.626232484633974
 51
160.98713292211571
  0
ARC
  8
OUTLINE
  6
CONTINUOUS
 62
     3
 10
102.59013279337221
 20
-45.788782553435063
 30
0.0
 40
39.922599661483439
 50
339.14714146853947
 51
11.47894001073894
  0
ARC
  8
OUTLINE
  6
CONTINUOUS
 62
     3
 10
-72.592608315025643
 20
-131.6581067072361
 30
0.0
 40
67.315063881940389
 50
179.0142191582265
 51
251.51456020744001
  0
ARC
  8
OUTLINE
  6
CONTINUOUS
 62
     3
 10
-167.27004117319129
 20
-46.649879248756179
 30
0.0
 40
27.030479761994481
 50
19.012867077884351
 51
80.373767515366026
  0
ARC
  8
OUTLINE
  6
CONTINUOUS
 62
     3
 10
-102.59013279337221
 20
-45.788782553435063
 30
0.0
 40
39.922599661483439
 50
168.52105998926109
 51
200.8528585314605
  0
ARC
  8
DETAIL
  6
CONTINUOUS
 62
     5
 10
114.541508175641
 20
-64.511562513744764
 30
0.0
 40
23.668837735357489
 50
46.884258594963057
 51
55.842841025114147
  0
ENDSEC
  0
EOF
