  0
SECTION
  2
HEADER
  9
$ACADVER
  1
AC1009
  9
$DWGCODEPAGE
  3
dos932
  9
$INSBASE
 10
0.0
 20
0.0
 30
0.0
  9
$EXTMIN
 10
-623.58396781327247
 20
-297.68370394325387
 30
-0.0015257624927045
  9
$EXTMAX
 10
1173.298656758034
 20
711.04431968536664
 30
0.0022888765696933
  9
$LIMMIN
 10
-2970.0
 20
-2100.0
  9
$LIMMAX
 10
2970.0
 20
2100.0
  9
$ORTHOMODE
 70
     1
  9
$REGENMODE
 70
     1
  9
$FILLMODE
 70
     1
  9
$QTEXTMODE
 70
     0
  9
$MIRRTEXT
 70
     0
  9
$LTSCALE
 40
20.0
  9
$ATTMODE
 70
     1
  9
$TEXTSIZE
 40
64.0
  9
$TRACEWID
 40
0.05
  9
$TEXTSTYLE
  7
STANDARD
  9
$CLAYER
  8
SIZE
  9
$CELTYPE
  6
CONTINUOUS
  9
$CECOLOR
 62
     7
  9
$DIMSCALE
 40
1.0
  9
$DIMASZ
 40
12.0
  9
$DIMEXO
 40
20.0
  9
$DIMDLI
 40
200.0
  9
$DIMRND
 40
0.0
  9
$DIMDLE
 40
0.0
  9
$DIMEXE
 40
20.0
  9
$DIMTP
 40
0.0
  9
$DIMTM
 40
0.0
  9
$DIMTXT
 40
64.0
  9
$DIMCEN
 40
0.09
  9
$DIMTSZ
 40
0.0
  9
$DIMTOL
 70
     0
  9
$DIMLIM
 70
     0
  9
$DIMTIH
 70
     0
  9
$DIMTOH
 70
     0
  9
$DIMSE1
 70
     0
  9
$DIMSE2
 70
     0
  9
$DIMTAD
 70
     1
  9
$DIMZIN
 70
     8
  9
$DIMBLK
  1

  9
$DIMASO
 70
     1
  9
$DIMSHO
 70
     0
  9
$DIMPOST
  1

  9
$DIMAPOST
  1

  9
$DIMALT
 70
     0
  9
$DIMALTD
 70
     2
  9
$DIMALTF
 40
25.399999999999999
  9
$DIMLFAC
 40
1.0
  9
$DIMTOFL
 70
     1
  9
$DIMTVP
 40
0.0
  9
$DIMTIX
 70
     1
  9
$DIMSOXD
 70
     0
  9
$DIMSAH
 70
     0
  9
$DIMBLK1
  1

  9
$DIMBLK2
  1

  9
$DIMSTYLE
  2
STANDARD
  9
$DIMCLRD
 70
     7
  9
$DIMCLRE
 70
     7
  9
$DIMCLRT
 70
     7
  9
$DIMTFAC
 40
1.0
  9
$DIMGAP
 40
25.0
  9
$LUNITS
 70
     2
  9
$LUPREC
 70
     4
  9
$SKETCHINC
 40
0.1
  9
$FILLETRAD
 40
3.0
  9
$AUNITS
 70
     1
  9
$AUPREC
 70
     3
  9
$MENU
  1
ACAD
  9
$ELEVATION
 40
0.0
  9
$PELEVATION
 40
0.0
  9
$THICKNESS
 40
50.0
  9
$LIMCHECK
 70
     0
  9
$CHAMFERA
 40
0.0
  9
$CHAMFERB
 40
0.0
  9
$SKPOLY
 70
     0
  9
$TDCREATE
 40
2453019.62301037
  9
$TDUPDATE
 40
2458949.441057581
  9
$TDINDWG
 40
1.7129789468
  9
$TDUSRTIMER
 40
1.7129789468
  9
$USRTIMER
 70
     1
  9
$ANGBASE
 50
0.0
  9
$ANGDIR
 70
     0
  9
$PDMODE
 70
     3
  9
$PDSIZE
 40
-2.0
  9
$PLINEWID
 40
0.0
  9
$SPLFRAME
 70
     0
  9
$SPLINETYPE
 70
     6
  9
$SPLINESEGS
 70
     8
  9
$SURFTAB1
 70
     6
  9
$SURFTAB2
 70
     6
  9
$SURFTYPE
 70
     6
  9
$SURFU
 70
     6
  9
$SURFV
 70
     6
  9
$UCSNAME
  2

  9
$UCSORG
 10
0.0
 20
0.0
 30
0.0
  9
$UCSXDIR
 10
1.0
 20
0.0
 30
0.0
  9
$UCSYDIR
 10
0.0
 20
1.0
 30
0.0
  9
$PUCSNAME
  2

  9
$PUCSORG
 10
0.0
 20
0.0
 30
0.0
  9
$PUCSXDIR
 10
1.0
 20
0.0
 30
0.0
  9
$PUCSYDIR
 10
0.0
 20
1.0
 30
0.0
  9
$USERI1
 70
     0
  9
$USERI2
 70
     0
  9
$USERI3
 70
     0
  9
$USERI4
 70
     0
  9
$USERI5
 70
     0
  9
$USERR1
 40
20.0
  9
$USERR2
 40
0.0
  9
$USERR3
 40
0.0
  9
$USERR4
 40
0.0
  9
$USERR5
 40
0.0
  9
$WORLDVIEW
 70
     1
  9
$SHADEDGE
 70
     3
  9
$SHADEDIF
 70
    70
  9
$TILEMODE
 70
     1
  9
$MAXACTVP
 70
    48
  9
$PINSBASE
 10
0.0
 20
0.0
 30
0.0
  9
$PLIMCHECK
 70
     0
  9
$PEXTMIN
 10
-100000000000000000000.0
 20
-100000000000000000000.0
 30
-100000000000000000000.0
  9
$PEXTMAX
 10
100000000000000000000.0
 20
100000000000000000000.0
 30
100000000000000000000.0
  9
$PLIMMIN
 10
0.0
 20
0.0
  9
$PLIMMAX
 10
12.0
 20
9.0
  9
$UNITMODE
 70
     0
  9
$VISRETAIN
 70
     0
  9
$PLINEGEN
 70
     0
  9
$PSLTSCALE
 70
     0
  9
$TREEDEPTH
 70
  3020
  9
$ATTDIA
 70
     0
  9
$ATTREQ
 70
     1
  9
$BLIPMODE
 70
     1
  9
$COORDS
 70
     1
  9
$DRAGMODE
 70
     2
  9
$OSMODE
 70
     0
  9
$HANDLING
 70
     0
  9
$HANDSEED
  5
FF87
  0
ENDSEC
  0
SECTION
  2
TABLES
  0
TABLE
  2
LTYPE
 70
     2
  0
LTYPE
  2
CONTINUOUS
 70
     0
  3
実線
 72
    65
 73
     0
 40
0.0
  0
LTYPE
  2
DASHDOT
 70
     0
  3
____ _ ____ _ ____ _ ____ _ ____ _ ____ _ ____
 72
    65
 73
     4
 40
5.5
 49
4.0
 49
-0.6
 49
0.3
 49
-0.6
  0
ENDTAB
  0
TABLE
  2
LAYER
 70
    12
  0
LAYER
  2
0
 70
     0
 62
     7
  6
CONTINUOUS
  0
LAYER
  2
BASIS
 70
     0
 62
     6
  6
DASHDOT
  0
LAYER
  2
OUTLINE
 70
     0
 62
     3
  6
CONTINUOUS
  0
LAYER
  2
DETAIL
 70
     0
 62
     5
  6
CONTINUOUS
  0
LAYER
  2
SIZE
 70
     0
 62
    30
  6
CONTINUOUS
  0
LAYER
  2
ARRANGE
 70
     0
 62
     1
  6
CONTINUOUS
  0
LAYER
  2
DEFPOINTS
 70
     0
 62
     7
  6
CONTINUOUS
  0
LAYER
  2
ETC
 70
     0
 62
    61
  6
CONTINUOUS
  0
LAYER
  2
FIX
 70
     0
 62
    11
  6
CONTINUOUS
  0
LAYER
  2
NOTE
 70
     0
 62
     4
  6
CONTINUOUS
  0
LAYER
  2
SERVICESPACE
 70
    64
 62
     2
  6
DASHDOT
  0
LAYER
  2
SYMBOLLINE
 70
    64
 62
    15
  6
CONTINUOUS
  0
ENDTAB
  0
TABLE
  2
STYLE
 70
     1
  0
STYLE
  2
STANDARD
 70
     0
 40
64.0
 41
0.9
 50
0.0
 71
     0
 42
64.0
  3
SIMPLEX.shx
  4
BIGFONT.shx
  0
ENDTAB
  0
TABLE
  2
APPID
 70
    19
  0
APPID
  2
ACAD
 70
     0
  0
APPID
  2
AUTOCAD_POSTSCRIPT_FIGURE
 70
     0
  0
APPID
  2
ACAD_EXEMPT_FROM_CAD_STANDARDS
 70
     0
  0
APPID
  2
ACAD_PSEXT
 70
     0
  0
APPID
  2
ACAUTHENVIRON
 70
     0
  0
APPID
  2
GENIUS_GENOENT_13
 70
     0
  0
APPID
  2
GENIUS_GENCFG_13
 70
     0
  0
APPID
  2
GENIUS_GENCFG0_13
 70
     0
  0
APPID
  2
GENIUS_GENCFG1_13
 70
     0
  0
APPID
  2
GENIUS_GENCFG2_13
 70
     0
  0
APPID
  2
GENIUS_GENCFG3_13
 70
     0
  0
APPID
  2
GENIUS_GENCFG4_13
 70
     0
  0
APPID
  2
GENIUS_GEVCFG0_13
 70
     0
  0
APPID
  2
CONTENTBLOCKICON
 70
     0
  0
APPID
  2
CONTENTBLOCKDESCRIPTION
 70
     0
  0
APPID
  2
ACAD_NAV_VCDISPLAY
 70
     0
  0
APPID
  2
ACAD_MLEADERVER
 70
     0
  0
APPID
  2
ACDBDYNAMICBLOCKTRUENAME
 70
     0
  0
APPID
  2
ACDBDYNAMICBLOCKGUID
 70
     0
  0
ENDTAB
  0
TABLE
  2
DIMSTYLE
 70
     1
  0
DIMSTYLE
  2
STANDARD
 70
     0
  3

  4

  5
_ORIGIN
  6

  7

 40
1.0
 41
12.0
 42
20.0
 43
200.0
 44
20.0
 45
0.0
 46
0.0
 47
0.0
 48
0.0
140
64.0
141
0.09
142
0.0
143
25.399999999999999
144
1.0
145
0.0
146
1.0
147
25.0
 71
     0
 72
     0
 73
     0
 74
     0
 75
     0
 76
     0
 77
     1
 78
     8
170
     0
171
     2
172
     1
173
     0
174
     1
175
     0
176
     7
177
     7
178
     7
  0
ENDTAB
  0
TABLE
  2
VIEW
 70
     1
  0
VIEW
  2
ALL
 70
     0
 40
4282.6198079999986
 10
0.0
 20
41.309904000000003
 41
5940.0
 11
0.0
 21
0.0
 31
1.0
 12
0.0
 22
0.0
 32
0.0
 42
50.0
 43
0.0
 44
0.0
 50
0.0
 71
     0
  0
ENDTAB
  0
TABLE
  2
UCS
 70
     0
  0
ENDTAB
  0
TABLE
  2
VPORT
 70
     1
  0
VPORT
  2
*ACTIVE
 70
     0
 10
0.0
 20
0.0
 11
1.0
 21
1.0
 12
274.85734447238042
 22
206.68030787105641
 13
0.0
 23
0.0
 14
1.0
 24
1.0
 15
0.0
 25
0.0
 16
0.0
 26
0.0
 36
1.0
 17
0.0
 27
0.0
 37
0.0
 40
1031.989629987442
 41
1.747787610619469
 42
50.0
 43
0.0
 44
0.0
 50
0.0
 51
0.0
 71
     0
 72
  1000
 73
     1
 74
     3
 75
     0
 76
     0
 77
     0
 78
     0
  0
ENDTAB
  0
ENDSEC
  0
SECTION
  2
BLOCKS
  0
BLOCK
  8
0
  2
_ORIGIN
 70
     0
 10
0.0
 20
0.0
 30
0.0
  3
_ORIGIN
  1
_ORIGIN
  0
CIRCLE
  8
0
  6
CONTINUOUS
 62
     7
 10
0.0
 20
0.0
 30
0.0
 40
0.5
  0
LINE
  8
0
  6
CONTINUOUS
 62
     7
 10
0.0
 20
0.0
 30
0.0
 11
-1.0
 21
0.0
 31
0.0
  0
ENDBLK
  8
0
  0
ENDSEC
  0
SECTION
  2
ENTITIES
  0
TEXT
  8
ETC
  6
CONTINUOUS
 62
    61
 10
251.39115709096771
 20
646.74347996498363
 30
0.0
 40
64.0
  1
EWF-30BTA40A2-Q_2
 41
0.9
  0
TEXT
  8
ETC
  6
CONTINUOUS
 62
    61
 10
247.20516309096729
 20
528.78816995015268
 30
0.0
 40
64.0
  1
産業扇
 41
0.9
  0
CIRCLE
  8
ARRANGE
  6
CONTINUOUS
 62
     1
 10
0.0
 20
0.0
 30
0.0
 40
40.0
  0
POINT
  8
ARRANGE
  6
CONTINUOUS
 62
     1
 10
0.0
 20
0.0
 30
0.0
  0
TEXT
  8
ETC
  6
CONTINUOUS
 62
    61
 10
297.90656133952331
 20
420.63939706392739
 30
0.0
 40
40.0
  1
EWF-30BTA40A2-Q
 41
0.9
  0
TEXT
  8
ETC
  6
CONTINUOUS
 62
    61
 10
297.90656133952331
 20
354.63939706392739
 30
0.0
 40
40.0
  1
EWF-30BTA2-Q
 41
0.9
  0
CIRCLE
  8
FIX
  6
CONTINUOUS
 62
    11
 10
-189.99999999982489
 20
189.99999999982489
 30
0.0
 40
7.0
  0
CIRCLE
  8
FIX
  6
CONTINUOUS
 62
    11
 10
-189.99999999982489
 20
-190.00000000035041
 30
0.0
 40
7.0
  0
CIRCLE
  8
FIX
  6
CONTINUOUS
 62
    11
 10
190.0000000003499
 20
-190.00000000035041
 30
0.0
 40
7.0
  0
CIRCLE
  8
FIX
  6
CONTINUOUS
 62
    11
 10
190.0000000003499
 20
189.99999999982489
 30
0.0
 40
7.0
  0
LINE
  8
SIZE
  6
CONTINUOUS
 62
    30
 10
-210.0
 20
204.99999999964959
 30
0.0
 11
-210.0
 21
410.79974088317982
 31
0.0
  0
LINE
  8
SIZE
  6
CONTINUOUS
 62
    30
 10
210.0
 20
204.99999999964959
 30
0.0
 11
210.0
 21
410.79974088317982
 31
0.0
  0
LINE
  8
SIZE
  6
CONTINUOUS
 62
    30
 10
-198.0
 20
390.79974088317982
 30
0.0
 11
198.0
 21
390.79974088317982
 31
0.0
  0
CIRCLE
  8
SIZE
  6
CONTINUOUS
 62
    30
 10
-210.0
 20
390.79974088317982
 30
0.0
 40
6.0
  0
LINE
  8
SIZE
  6
CONTINUOUS
 62
    30
 10
-210.0
 20
390.79974088317982
 30
0.0
 11
-198.0
 21
390.79974088317982
 31
0.0
  0
CIRCLE
  8
SIZE
  6
CONTINUOUS
 62
    30
 10
210.0
 20
390.79974088317982
 30
0.0
 40
6.0
  0
LINE
  8
SIZE
  6
CONTINUOUS
 62
    30
 10
210.0
 20
390.79974088317982
 30
0.0
 11
198.0
 21
390.79974088317982
 31
0.0
  0
TEXT
  8
SIZE
  6
CONTINUOUS
 62
    30
 10
-74.05714285714285
 20
415.79974088317982
 30
0.0
 40
64.0
  1
420
 41
0.9
 72
     1
 11
0.0
 21
415.79974088317982
 31
0.0
  0
POINT
  8
DEFPOINTS
  6
CONTINUOUS
 62
    30
 10
-210.0
 20
184.99999999964959
 30
0.0
  0
POINT
  8
DEFPOINTS
  6
CONTINUOUS
 62
    30
 10
210.0
 20
184.99999999964959
 30
0.0
  0
POINT
  8
DEFPOINTS
  6
CONTINUOUS
 62
    30
 10
210.0
 20
390.79974088317982
 30
0.0
  0
LINE
  8
SIZE
  6
CONTINUOUS
 62
    30
 10
-189.99999999982489
 20
231.01576182119081
 30
0.0
 11
-189.99999999982489
 21
290.96749696448342
 31
0.0
  0
LINE
  8
SIZE
  6
CONTINUOUS
 62
    30
 10
190.0000000003499
 20
231.01576182119081
 30
0.0
 11
190.0000000003499
 21
290.96749696448342
 31
0.0
  0
LINE
  8
SIZE
  6
CONTINUOUS
 62
    30
 10
-177.99999999982489
 20
270.96749696448342
 30
0.0
 11
178.00000000035021
 21
270.96749696448342
 31
0.0
  0
CIRCLE
  8
SIZE
  6
CONTINUOUS
 62
    30
 10
-189.99999999982489
 20
270.96749696448342
 30
0.0
 40
6.0
  0
LINE
  8
SIZE
  6
CONTINUOUS
 62
    30
 10
-189.99999999982489
 20
270.96749696448342
 30
0.0
 11
-177.99999999982489
 21
270.96749696448342
 31
0.0
  0
CIRCLE
  8
SIZE
  6
CONTINUOUS
 62
    30
 10
190.0000000003499
 20
270.96749696448342
 30
0.0
 40
6.0
  0
LINE
  8
SIZE
  6
CONTINUOUS
 62
    30
 10
190.0000000003499
 20
270.96749696448342
 30
0.0
 11
178.00000000035021
 21
270.96749696448342
 31
0.0
  0
TEXT
  8
SIZE
  6
CONTINUOUS
 62
    30
 10
-74.057142856880219
 20
295.96749696448342
 30
0.0
 40
64.0
  1
380
 41
0.9
 72
     1
 11
0.0000000002626166
 21
295.96749696448342
 31
0.0
  0
POINT
  8
DEFPOINTS
  6
CONTINUOUS
 62
    30
 10
-189.99999999982489
 20
211.01576182119081
 30
0.0
  0
POINT
  8
DEFPOINTS
  6
CONTINUOUS
 62
    30
 10
190.0000000003499
 20
211.01576182119081
 30
0.0
  0
POINT
  8
DEFPOINTS
  6
CONTINUOUS
 62
    30
 10
190.0000000003499
 20
270.96749696448342
 30
0.0
  0
LINE
  8
SIZE
  6
CONTINUOUS
 62
    30
 10
-204.99999999964959
 20
210.0
 30
0.0
 11
-554.56878677102532
 21
210.0
 31
0.0
  0
LINE
  8
SIZE
  6
CONTINUOUS
 62
    30
 10
-204.99999999964959
 20
-210.0
 30
0.0
 11
-554.56878677102532
 21
-210.0
 31
0.0
  0
LINE
  8
SIZE
  6
CONTINUOUS
 62
    30
 10
-534.56878677102509
 20
198.0
 30
0.0
 11
-534.56878677102509
 21
-198.0
 31
0.0
  0
CIRCLE
  8
SIZE
  6
CONTINUOUS
 62
    30
 10
-534.56878677102509
 20
210.0
 30
0.0
 40
6.0
  0
LINE
  8
SIZE
  6
CONTINUOUS
 62
    30
 10
-534.56878677102509
 20
210.0
 30
0.0
 11
-534.56878677102509
 21
198.0
 31
0.0
  0
CIRCLE
  8
SIZE
  6
CONTINUOUS
 62
    30
 10
-534.56878677102509
 20
-210.0
 30
0.0
 40
6.0
  0
LINE
  8
SIZE
  6
CONTINUOUS
 62
    30
 10
-534.56878677102509
 20
-210.0
 30
0.0
 11
-534.56878677102509
 21
-198.0
 31
0.0
  0
TEXT
  8
SIZE
  6
CONTINUOUS
 62
    30
 10
-559.56878677102509
 20
-80.859766315696021
 30
0.0
 40
64.0
  1
420
 50
90.0
 41
0.9
 72
     1
 11
-559.56878677102509
 21
-6.8026234585531711
 31
0.0
  0
POINT
  8
DEFPOINTS
  6
CONTINUOUS
 62
    30
 10
-184.99999999964959
 20
210.0
 30
0.0
  0
POINT
  8
DEFPOINTS
  6
CONTINUOUS
 62
    30
 10
-184.99999999964959
 20
-210.0
 30
0.0
  0
POINT
  8
DEFPOINTS
  6
CONTINUOUS
 62
    30
 10
-534.56878677102509
 20
-210.0
 30
0.0
  0
LINE
  8
SIZE
  6
CONTINUOUS
 62
    30
 10
-231.01576182119081
 20
189.99999999982489
 30
0.0
 11
-422.91995383703562
 21
189.99999999982489
 31
0.0
  0
LINE
  8
SIZE
  6
CONTINUOUS
 62
    30
 10
-231.01576182119081
 20
-190.00000000035041
 30
0.0
 11
-422.91995383703579
 21
-190.00000000035021
 31
0.0
  0
LINE
  8
SIZE
  6
CONTINUOUS
 62
    30
 10
-402.91995383703562
 20
177.99999999982489
 30
0.0
 11
-402.91995383703579
 21
-178.00000000035021
 31
0.0
  0
CIRCLE
  8
SIZE
  6
CONTINUOUS
 62
    30
 10
-402.91995383703562
 20
189.99999999982489
 30
0.0
 40
6.0
  0
LINE
  8
SIZE
  6
CONTINUOUS
 62
    30
 10
-402.91995383703562
 20
189.99999999982489
 30
0.0
 11
-402.91995383703562
 21
177.99999999982489
 31
0.0
  0
CIRCLE
  8
SIZE
  6
CONTINUOUS
 62
    30
 10
-402.91995383703579
 20
-190.00000000035021
 30
0.0
 40
6.0
  0
LINE
  8
SIZE
  6
CONTINUOUS
 62
    30
 10
-402.91995383703579
 20
-190.00000000035021
 30
0.0
 11
-402.91995383703579
 21
-178.00000000035021
 31
0.0
  0
TEXT
  8
SIZE
  6
CONTINUOUS
 62
    30
 10
-427.91995383703579
 20
-74.057142857142836
 30
0.0
 40
64.0
  1
380
 50
90.0
 41
0.9
 72
     1
 11
-427.91995383703579
 21
0.0
 31
0.0
  0
POINT
  8
DEFPOINTS
  6
CONTINUOUS
 62
    30
 10
-211.01576182119081
 20
189.99999999982489
 30
0.0
  0
POINT
  8
DEFPOINTS
  6
CONTINUOUS
 62
    30
 10
-211.01576182119081
 20
-190.00000000035041
 30
0.0
  0
POINT
  8
DEFPOINTS
  6
CONTINUOUS
 62
    30
 10
-402.91995383703579
 20
-190.00000000035021
 30
0.0
  0
LINE
  8
SIZE
  6
CONTINUOUS
 62
    30
 10
-20.0
 20
60.294362262147843
 30
0.0
 11
-297.16584804100648
 21
60.29436226214807
 31
0.0
  0
LINE
  8
SIZE
  6
CONTINUOUS
 62
    30
 10
-20.0
 20
-93.294367969014047
 30
0.0
 11
-297.16584804100648
 21
-93.294367969014047
 31
0.0
  0
LINE
  8
SIZE
  6
CONTINUOUS
 62
    30
 10
-277.16584804100648
 20
48.294362262147843
 30
0.0
 11
-277.16584804100648
 21
-81.294367969014047
 31
0.0
  0
CIRCLE
  8
SIZE
  6
CONTINUOUS
 62
    30
 10
-277.16584804100648
 20
60.294362262147843
 30
0.0
 40
6.0
  0
LINE
  8
SIZE
  6
CONTINUOUS
 62
    30
 10
-277.16584804100648
 20
60.294362262147843
 30
0.0
 11
-277.16584804100648
 21
48.294362262147843
 31
0.0
  0
CIRCLE
  8
SIZE
  6
CONTINUOUS
 62
    30
 10
-277.16584804100648
 20
-93.294367969014047
 30
0.0
 40
6.0
  0
LINE
  8
SIZE
  6
CONTINUOUS
 62
    30
 10
-277.16584804100648
 20
-93.294367969014047
 30
0.0
 11
-277.16584804100648
 21
-81.294367969014047
 31
0.0
  0
TEXT
  8
SIZE
  6
CONTINUOUS
 62
    30
 10
-302.16584804100648
 20
-85.071431424861544
 30
0.0
 40
64.0
  1
153
 50
90.0
 41
0.9
 72
     1
 11
-302.16584804100648
 21
-16.500002853432989
 31
0.0
  0
POINT
  8
DEFPOINTS
  6
CONTINUOUS
 62
    30
 10
0.0
 20
60.294362262147843
 30
0.0
  0
POINT
  8
DEFPOINTS
  6
CONTINUOUS
 62
    30
 10
0.0
 20
-93.294367969014047
 30
0.0
  0
POINT
  8
DEFPOINTS
  6
CONTINUOUS
 62
    30
 10
-277.16584804100648
 20
-93.294367969014047
 30
0.0
  0
TEXT
  8
NOTE
  6
CONTINUOUS
 62
     4
 10
-536.63530407792268
 20
279.39073999650151
 30
0.0
 40
64.0
  1
4-φ10
 41
0.9
  0
TEXT
  8
NOTE
  6
CONTINUOUS
 62
     4
 10
255.7404655019545
 20
-262.95231243021158
 30
0.0
 40
64.0
  1
EL
 41
0.9
  0
LINE
  8
NOTE
  6
CONTINUOUS
 62
     4
 10
168.98423817898421
 20
-190.00000000035041
 30
0.0
 11
211.0157618217163
 21
-190.00000000035041
 31
0.0
  0
LINE
  8
NOTE
  6
CONTINUOUS
 62
     4
 10
190.0000000003499
 20
-168.98423817898421
 30
0.0
 11
190.0000000003499
 21
-211.0157618217163
 31
0.0
  0
LINE
  8
NOTE
  6
CONTINUOUS
 62
     4
 10
-189.99999999982489
 20
-168.98423817898421
 30
0.0
 11
-189.99999999982489
 21
-211.0157618217163
 31
0.0
  0
LINE
  8
NOTE
  6
CONTINUOUS
 62
     4
 10
-168.98423817845881
 20
-190.00000000035041
 30
0.0
 11
-211.01576182119081
 21
-190.00000000035041
 31
0.0
  0
LINE
  8
NOTE
  6
CONTINUOUS
 62
     4
 10
168.98423817898421
 20
189.99999999982489
 30
0.0
 11
211.0157618217163
 21
189.99999999982489
 31
0.0
  0
LINE
  8
NOTE
  6
CONTINUOUS
 62
     4
 10
190.0000000003499
 20
168.98423817845881
 30
0.0
 11
190.0000000003499
 21
211.01576182119081
 31
0.0
  0
LINE
  8
NOTE
  6
CONTINUOUS
 62
     4
 10
-168.98423817845881
 20
189.99999999982489
 30
0.0
 11
-211.01576182119081
 21
189.99999999982489
 31
0.0
  0
LINE
  8
NOTE
  6
CONTINUOUS
 62
     4
 10
-189.99999999982489
 20
168.98423817845881
 30
0.0
 11
-189.99999999982489
 21
211.01576182119081
 31
0.0
  0
LINE
  8
SIZE
  6
CONTINUOUS
 62
    30
 10
515.88142878310373
 20
-49.590063649065769
 30
0.0
 11
163.74520617222541
 21
-15.740313070513819
 31
0.0
  0
LINE
  8
SIZE
  6
CONTINUOUS
 62
    30
 10
-163.74520617222541
 20
15.740313070513819
 30
0.0
 11
-175.6901452243153
 21
16.888542595415629
 31
0.0
  0
TEXT
  8
SIZE
  6
CONTINUOUS
 62
    30
 10
282.61130226134532
 20
-2.0512989828253532
 30
0.0
 40
64.0
  1
φ306
 50
354.50920728052489
 41
0.9
 72
     1
 11
395.09849973474093
 21
-12.864340451615821
 31
0.0
  0
LINE
  8
SIZE
  6
CONTINUOUS
 62
    30
 10
-151.80026712013549
 20
14.592083545612009
 30
0.0
 11
151.80026712013549
 21
-14.592083545612009
 31
0.0
  0
CIRCLE
  8
SIZE
  6
CONTINUOUS
 62
    30
 10
-151.80026712013549
 20
14.592083545612009
 30
0.0
 40
6.0
  0
LINE
  8
SIZE
  6
CONTINUOUS
 62
    30
 10
-151.80026712013549
 20
14.592083545612009
 30
0.0
 11
-163.74520617222541
 21
15.740313070513819
 31
0.0
  0
CIRCLE
  8
SIZE
  6
CONTINUOUS
 62
    30
 10
151.80026712013549
 20
-14.592083545612009
 30
0.0
 40
6.0
  0
LINE
  8
SIZE
  6
CONTINUOUS
 62
    30
 10
151.80026712013549
 20
-14.592083545612009
 30
0.0
 11
163.74520617222541
 21
-15.740313070513819
 31
0.0
  0
POINT
  8
DEFPOINTS
  6
CONTINUOUS
 62
    30
 10
151.80026712013549
 20
-14.592083545612009
 30
0.0
  0
POINT
  8
DEFPOINTS
  6
CONTINUOUS
 62
    30
 10
-151.80026712013549
 20
14.592083545612009
 30
0.0
  0
LINE
  8
SIZE
  6
CONTINUOUS
 62
    30
 10
497.00318627266603
 20
-221.0917558229398
 30
0.0
 11
148.0151961572999
 21
-65.844526777220153
 31
0.0
  0
LINE
  8
SIZE
  6
CONTINUOUS
 62
    30
 10
-148.0151961572999
 20
65.844526777220153
 30
0.0
 11
-158.97928476154419
 21
70.721899131088321
 31
0.0
  0
TEXT
  8
SIZE
  6
CONTINUOUS
 62
    30
 10
288.34727510870641
 20
-100.90916517220759
 30
0.0
 40
64.0
  1
φ300
 50
336.01812090864382
 41
0.9
 72
     1
 11
392.8507024908763
 21
-147.39749137936221
 31
0.0
  0
LINE
  8
SIZE
  6
CONTINUOUS
 62
    30
 10
-137.05110755305529
 20
60.967154423351992
 30
0.0
 11
137.05110755305529
 21
-60.967154423351992
 31
0.0
  0
CIRCLE
  8
SIZE
  6
CONTINUOUS
 62
    30
 10
-137.05110755305529
 20
60.967154423351992
 30
0.0
 40
6.0
  0
LINE
  8
SIZE
  6
CONTINUOUS
 62
    30
 10
-137.05110755305529
 20
60.967154423351992
 30
0.0
 11
-148.0151961572999
 21
65.844526777220153
 31
0.0
  0
CIRCLE
  8
SIZE
  6
CONTINUOUS
 62
    30
 10
137.05110755305529
 20
-60.967154423351992
 30
0.0
 40
6.0
  0
LINE
  8
SIZE
  6
CONTINUOUS
 62
    30
 10
137.05110755305529
 20
-60.967154423351992
 30
0.0
 11
148.0151961572999
 21
-65.844526777220153
 31
0.0
  0
POINT
  8
DEFPOINTS
  6
CONTINUOUS
 62
    30
 10
137.05110755305529
 20
-60.967154423351992
 30
0.0
  0
POINT
  8
DEFPOINTS
  6
CONTINUOUS
 62
    30
 10
-137.05110755305529
 20
60.967154423351992
 30
0.0
  0
LINE
  8
NOTE
  6
CONTINUOUS
 62
     4
 10
-192.54999819690511
 20
195.32119664541099
 30
0.0
 11
-189.78659955727289
 21
189.7580745679729
 31
0.0
  0
LINE
  8
NOTE
  6
CONTINUOUS
 62
     4
 10
-189.78659955727289
 20
189.7580745679729
 30
0.0
 11
-194.96133919670891
 21
193.19417249353461
 31
0.0
  0
LINE
  8
NOTE
  6
CONTINUOUS
 62
     4
 10
-189.78659955727289
 20
189.7580745679729
 30
0.0
 11
-197.72473783634109
 21
198.75729457097259
 31
0.0
  0
LINE
  8
NOTE
  6
CONTINUOUS
 62
     4
 10
-197.72473783634109
 20
198.75729457097259
 30
0.0
 11
-245.89019243677441
 21
253.3609695455884
 31
0.0
  0
LINE
  8
NOTE
  6
CONTINUOUS
 62
     4
 10
-245.89019243677441
 20
253.3609695455884
 30
0.0
 11
-543.75875468180834
 21
253.5224243947689
 31
0.0
  0
LINE
  8
NOTE
  6
CONTINUOUS
 62
     4
 10
153.20830684306321
 20
-164.27903926573589
 30
0.0
 11
150.82806649928651
 21
-158.54151757114869
 31
0.0
  0
LINE
  8
NOTE
  6
CONTINUOUS
 62
     4
 10
150.82806649928651
 20
-158.54151757114869
 30
0.0
 11
155.75818164571501
 21
-162.32022951213551
 31
0.0
  0
LINE
  8
NOTE
  6
CONTINUOUS
 62
     4
 10
150.82806649928651
 20
-158.54151757114869
 30
0.0
 11
158.13842198949169
 21
-168.05775120672249
 31
0.0
  0
LINE
  8
NOTE
  6
CONTINUOUS
 62
     4
 10
158.13842198949169
 20
-168.05775120672249
 30
0.0
 11
242.78510039331971
 21
-278.2463144367016
 31
0.0
  0
LINE
  8
NOTE
  6
CONTINUOUS
 62
     4
 10
242.78510039331971
 20
-278.2463144367016
 30
0.0
 11
342.63180838501881
 21
-278.15893802506929
 31
0.0
  0
LINE
  8
OUTLINE
  6
CONTINUOUS
 62
     3
 10
210.0000000000002
 20
184.99999999964959
 30
0.0
 11
210.0000000000002
 21
-185.00000000017511
 31
0.0
  0
ARC
  8
OUTLINE
  6
CONTINUOUS
 62
     3
 10
184.99999999964939
 20
184.99999999964959
 30
0.0
 40
24.999999999824919
 50
0.0
 51
90.0
  0
LINE
  8
OUTLINE
  6
CONTINUOUS
 62
     3
 10
-185.00000000017511
 20
210.0
 30
0.0
 11
184.99999999964939
 21
210.0
 31
0.0
  0
ARC
  8
OUTLINE
  6
CONTINUOUS
 62
     3
 10
-185.00000000017511
 20
184.99999999964959
 30
0.0
 40
24.99999999982489
 50
90.0
 51
180.0
  0
LINE
  8
OUTLINE
  6
CONTINUOUS
 62
     3
 10
-210.0
 20
-185.00000000017511
 30
0.0
 11
-210.0
 21
184.99999999964959
 31
0.0
  0
ARC
  8
OUTLINE
  6
CONTINUOUS
 62
     3
 10
-185.00000000017511
 20
-185.00000000017511
 30
0.0
 40
24.999999999824919
 50
180.0
 51
270.0
  0
LINE
  8
OUTLINE
  6
CONTINUOUS
 62
     3
 10
184.99999999964939
 20
-210.0
 30
0.0
 11
-185.00000000017511
 21
-210.0
 31
0.0
  0
ARC
  8
OUTLINE
  6
CONTINUOUS
 62
     3
 10
184.99999999964939
 20
-185.00000000017511
 30
0.0
 40
24.99999999982489
 50
270.0
 51
0.0
  0
LINE
  8
DETAIL
  6
CONTINUOUS
 62
     5
 10
-48.886929253239941
 20
-72.20593193432569
 30
0.0
 11
-46.493269585639148
 21
-81.13919142872146
 31
0.0
  0
LINE
  8
DETAIL
  6
CONTINUOUS
 62
     5
 10
-43.059188684238279
 20
-68.841284347985948
 30
0.0
 11
-41.037895633450027
 21
-76.384852709632241
 31
0.0
  0
LINE
  8
DETAIL
  6
CONTINUOUS
 62
     5
 10
-60.294371800350291
 20
43.235194865674202
 30
0.0
 11
-60.294371800350291
 21
-57.180830601226027
 31
0.0
  0
LINE
  8
DETAIL
  6
CONTINUOUS
 62
     5
 10
-53.794371800175213
 20
39.057910610332783
 30
0.0
 11
-53.794371800175213
 21
-54.48844244605948
 31
0.0
  0
LINE
  8
DETAIL
  6
CONTINUOUS
 62
     5
 10
-58.997184075656612
 20
-60.312518799299603
 30
0.0
 11
-51.322768806830247
 21
-67.986934067600714
 31
0.0
  0
LINE
  8
DETAIL
  6
CONTINUOUS
 62
     5
 10
-52.497184075481528
 20
-57.620130643607808
 30
0.0
 11
-45.495028237828357
 21
-64.622286481260971
 31
0.0
  0
LINE
  8
DETAIL
  6
CONTINUOUS
 62
     5
 10
53.794371800700453
 20
-54.48844244605948
 30
0.0
 11
53.794371800700453
 21
39.057910610858023
 31
0.0
  0
LINE
  8
DETAIL
  6
CONTINUOUS
 62
     5
 10
60.294371800350291
 20
-57.180830601226027
 30
0.0
 11
60.294371800350291
 21
43.235194865674202
 31
0.0
  0
LINE
  8
DETAIL
  6
CONTINUOUS
 62
     5
 10
41.037895633975268
 20
-76.384852709107008
 30
0.0
 11
43.059188684238279
 21
-68.841284347985948
 31
0.0
  0
LINE
  8
DETAIL
  6
CONTINUOUS
 62
     5
 10
46.493269586164622
 20
-81.13919142872146
 30
0.0
 11
48.886929253239941
 21
-72.20593193432569
 31
0.0
  0
LINE
  8
DETAIL
  6
CONTINUOUS
 62
     5
 10
45.495028238353832
 20
-64.622286481260971
 30
0.0
 11
52.497184076006988
 21
-57.620130643607808
 31
0.0
  0
LINE
  8
DETAIL
  6
CONTINUOUS
 62
     5
 10
51.322768807355487
 20
-67.986934067600714
 30
0.0
 11
58.997184075656612
 21
-60.312518799299603
 31
0.0
  0
LINE
  8
DETAIL
  6
CONTINUOUS
 62
     5
 10
-195.30330085849391
 20
201.6672618893169
 30
0.0
 11
-201.6672618893169
 21
195.30330085849391
 31
0.0
  0
LINE
  8
DETAIL
  6
CONTINUOUS
 62
     5
 10
-189.99999999982489
 20
172.32233046987719
 30
0.0
 11
-172.3223304704029
 21
189.99999999982489
 31
0.0
  0
LINE
  8
DETAIL
  6
CONTINUOUS
 62
     5
 10
-201.6672618893169
 20
-195.3033008590194
 30
0.0
 11
-195.30330085849391
 21
-201.66726188984239
 31
0.0
  0
LINE
  8
DETAIL
  6
CONTINUOUS
 62
     5
 10
-167.26095603099819
 20
186.15182899597201
 30
0.0
 11
-167.86755774851139
 21
185.5452272784587
 31
0.0
  0
LINE
  8
DETAIL
  6
CONTINUOUS
 62
     5
 10
-185.5452272784589
 20
167.86755774851119
 30
0.0
 11
-186.15182899597201
 21
167.26095603099819
 31
0.0
  0
LINE
  8
DETAIL
  6
CONTINUOUS
 62
     5
 10
-169.49390334535909
 20
175.2674060374782
 30
0.0
 11
-174.49390334553411
 21
172.38065469141841
 31
0.0
  0
LINE
  8
DETAIL
  6
CONTINUOUS
 62
     5
 10
-172.3223304704029
 20
-190.00000000035041
 30
0.0
 11
-189.99999999982489
 21
-172.3223304704029
 31
0.0
  0
LINE
  8
DETAIL
  6
CONTINUOUS
 62
     5
 10
-164.89770926795109
 20
162.776388924168
 30
0.0
 11
-164.88744912609471
 21
162.7890538124343
 31
0.0
  0
LINE
  8
DETAIL
  6
CONTINUOUS
 62
     5
 10
-164.88744912609471
 20
162.7890538124343
 30
0.0
 11
-164.8554930304729
 21
162.82806249036781
 31
0.0
  0
LINE
  8
DETAIL
  6
CONTINUOUS
 62
     5
 10
-164.8554930304729
 20
162.82806249036781
 30
0.0
 11
-164.8002614479858
 21
162.89459560823121
 31
0.0
  0
LINE
  8
DETAIL
  6
CONTINUOUS
 62
     5
 10
-164.8002614479858
 20
162.89459560823121
 30
0.0
 11
-164.71976386129609
 21
162.9901520238177
 31
0.0
  0
LINE
  8
DETAIL
  6
CONTINUOUS
 62
     5
 10
-164.71976386129609
 20
162.9901520238177
 30
0.0
 11
-164.61174845253939
 21
163.1160010350261
 31
0.0
  0
LINE
  8
DETAIL
  6
CONTINUOUS
 62
     5
 10
-164.61174845253939
 20
163.1160010350261
 30
0.0
 11
-164.4728348774081
 21
163.27344239001741
 31
0.0
  0
LINE
  8
DETAIL
  6
CONTINUOUS
 62
     5
 10
-164.4728348774081
 20
163.27344239001741
 30
0.0
 11
-164.29888843975479
 21
163.46370128196119
 31
0.0
  0
LINE
  8
DETAIL
  6
CONTINUOUS
 62
     5
 10
-164.29888843975479
 20
163.46370128196119
 30
0.0
 11
-164.08592542434329
 21
163.68684667880891
 31
0.0
  0
LINE
  8
DETAIL
  6
CONTINUOUS
 62
     5
 10
-162.776388924168
 20
164.8977092674256
 30
0.0
 11
-164.89770926795109
 21
162.776388924168
 31
0.0
  0
LINE
  8
DETAIL
  6
CONTINUOUS
 62
     5
 10
-164.89770926795109
 20
147.22003973800341
 30
0.0
 11
-157.119534674606
 21
154.998214330823
 31
0.0
  0
LINE
  8
DETAIL
  6
CONTINUOUS
 62
     5
 10
-145.09871939474601
 20
162.776388924168
 30
0.0
 11
-152.87689398756561
 21
154.998214330823
 31
0.0
  0
LINE
  8
DETAIL
  6
CONTINUOUS
 62
     5
 10
-142.47070774728559
 20
162.57597344658481
 30
0.0
 11
-151.4626804250438
 21
153.5840007688266
 31
0.0
  0
LINE
  8
DETAIL
  6
CONTINUOUS
 62
     5
 10
-161.0541391954466
 20
143.9925419984238
 30
0.0
 11
-162.5759734465851
 21
142.47070774728539
 31
0.0
  0
LINE
  8
DETAIL
  6
CONTINUOUS
 62
     5
 10
-164.08592542434329
 20
163.68684667880891
 30
0.0
 11
-163.82889424203151
 21
163.94286564430811
 31
0.0
  0
LINE
  8
DETAIL
  6
CONTINUOUS
 62
     5
 10
-163.82889424203151
 20
163.94286564430811
 30
0.0
 11
-163.52359271663749
 21
164.229552420315
 31
0.0
  0
LINE
  8
DETAIL
  6
CONTINUOUS
 62
     5
 10
-163.52359271663749
 20
164.229552420315
 30
0.0
 11
-163.1646313276708
 21
164.54439304991229
 31
0.0
  0
LINE
  8
DETAIL
  6
CONTINUOUS
 62
     5
 10
-163.1646313276708
 20
164.54439304991229
 30
0.0
 11
-162.9801847166375
 21
164.69391347548159
 31
0.0
  0
LINE
  8
DETAIL
  6
CONTINUOUS
 62
     5
 10
-162.776388924168
 20
164.8977092674256
 30
0.0
 11
-162.73289235656739
 21
164.92998222661981
 31
0.0
  0
LINE
  8
DETAIL
  6
CONTINUOUS
 62
     5
 10
-162.73289235656739
 20
164.92998222661981
 30
0.0
 11
-162.5868332768828
 21
165.03680208966719
 31
0.0
  0
LINE
  8
DETAIL
  6
CONTINUOUS
 62
     5
 10
-162.5868332768828
 20
165.03680208966719
 30
0.0
 11
-162.4694210837126
 21
165.12111693204881
 31
0.0
  0
LINE
  8
DETAIL
  6
CONTINUOUS
 62
     5
 10
-162.4694210837126
 20
165.12111693204881
 30
0.0
 11
-162.3192566884413
 21
165.22639218704009
 31
0.0
  0
LINE
  8
DETAIL
  6
CONTINUOUS
 62
     5
 10
-162.3192566884413
 20
165.22639218704009
 30
0.0
 11
-162.13432186024511
 21
165.3521965949212
 31
0.0
  0
LINE
  8
DETAIL
  6
CONTINUOUS
 62
     5
 10
-162.13432186024511
 20
165.3521965949212
 30
0.0
 11
-161.9120500229424
 21
165.49793592977221
 31
0.0
  0
LINE
  8
DETAIL
  6
CONTINUOUS
 62
     5
 10
-161.9120500229424
 20
165.49793592977221
 30
0.0
 11
-161.6503930019264
 21
165.66173166514889
 31
0.0
  0
LINE
  8
DETAIL
  6
CONTINUOUS
 62
     5
 10
-161.6503930019264
 20
165.66173166514889
 30
0.0
 11
-161.3467804245183
 21
165.84154170210149
 31
0.0
  0
LINE
  8
DETAIL
  6
CONTINUOUS
 62
     5
 10
-161.3467804245183
 20
165.84154170210149
 30
0.0
 11
-160.99855216970221
 21
166.03472399159341
 31
0.0
  0
LINE
  8
DETAIL
  6
CONTINUOUS
 62
     5
 10
-160.99855216970221
 20
166.03472399159341
 30
0.0
 11
-160.6041234430825
 21
166.23720694781079
 31
0.0
  0
LINE
  8
DETAIL
  6
CONTINUOUS
 62
     5
 10
-160.6041234430825
 20
166.23720694781079
 30
0.0
 11
-160.16194681366031
 21
166.44433516760071
 31
0.0
  0
LINE
  8
DETAIL
  6
CONTINUOUS
 62
     5
 10
-160.16194681366031
 20
166.44433516760071
 30
0.0
 11
-159.67098855919451
 21
166.65091481611191
 31
0.0
  0
LINE
  8
DETAIL
  6
CONTINUOUS
 62
     5
 10
-159.67098855919451
 20
166.65091481611191
 30
0.0
 11
-159.13153967758311
 21
166.8508912728546
 31
0.0
  0
LINE
  8
DETAIL
  6
CONTINUOUS
 62
     5
 10
-159.13153967758311
 20
166.8508912728546
 30
0.0
 11
-158.5425126856392
 21
167.03823580928179
 31
0.0
  0
LINE
  8
DETAIL
  6
CONTINUOUS
 62
     5
 10
-158.5425126856392
 20
167.03823580928179
 30
0.0
 11
-157.9031765138354
 21
167.2067423322242
 31
0.0
  0
LINE
  8
DETAIL
  6
CONTINUOUS
 62
     5
 10
-157.9031765138354
 20
167.2067423322242
 30
0.0
 11
-157.2178691028021
 21
167.34846707127849
 31
0.0
  0
LINE
  8
DETAIL
  6
CONTINUOUS
 62
     5
 10
-157.2178691028021
 20
167.34846707127849
 30
0.0
 11
-156.4910546611209
 21
167.45617152662001
 31
0.0
  0
LINE
  8
DETAIL
  6
CONTINUOUS
 62
     5
 10
-156.4910546611209
 20
167.45617152662001
 30
0.0
 11
-155.72984946830141
 21
167.52329501348501
 31
0.0
  0
LINE
  8
DETAIL
  6
CONTINUOUS
 62
     5
 10
-155.72984946830141
 20
167.52329501348501
 30
0.0
 11
-154.9427555747811
 21
167.54394341243409
 31
0.0
  0
LINE
  8
DETAIL
  6
CONTINUOUS
 62
     5
 10
-154.9427555747811
 20
167.54394341243409
 30
0.0
 11
-154.13727434238169
 21
167.51437556006999
 31
0.0
  0
LINE
  8
DETAIL
  6
CONTINUOUS
 62
     5
 10
-154.13727434238169
 20
167.51437556006999
 30
0.0
 11
-153.32141427110329
 21
167.4314030842381
 31
0.0
  0
LINE
  8
DETAIL
  6
CONTINUOUS
 62
     5
 10
-153.32141427110329
 20
167.4314030842381
 30
0.0
 11
-152.50666092556909
 21
167.29445537390529
 31
0.0
  0
LINE
  8
DETAIL
  6
CONTINUOUS
 62
     5
 10
-152.50666092556909
 20
167.29445537390529
 30
0.0
 11
-151.70277935884431
 21
167.1044532740805
 31
0.0
  0
LINE
  8
DETAIL
  6
CONTINUOUS
 62
     5
 10
-151.70277935884431
 20
167.1044532740805
 30
0.0
 11
-150.9237388555166
 21
166.86590576269691
 31
0.0
  0
LINE
  8
DETAIL
  6
CONTINUOUS
 62
     5
 10
-150.9237388555166
 20
166.86590576269691
 30
0.0
 11
-150.18159514360789
 21
166.58606201401039
 31
0.0
  0
LINE
  8
DETAIL
  6
CONTINUOUS
 62
     5
 10
-150.18159514360789
 20
166.58606201401039
 30
0.0
 11
-149.48494316007009
 21
166.2730102723292
 31
0.0
  0
LINE
  8
DETAIL
  6
CONTINUOUS
 62
     5
 10
-149.48494316007009
 20
166.2730102723292
 30
0.0
 11
-148.8408361218915
 21
165.93673620945719
 31
0.0
  0
LINE
  8
DETAIL
  6
CONTINUOUS
 62
     5
 10
-148.8408361218915
 20
165.93673620945719
 30
0.0
 11
-148.25193165183899
 21
165.58603070070029
 31
0.0
  0
LINE
  8
DETAIL
  6
CONTINUOUS
 62
     5
 10
-148.25193165183899
 20
165.58603070070029
 30
0.0
 11
-147.7198753591945
 21
165.23078515376531
 31
0.0
  0
LINE
  8
DETAIL
  6
CONTINUOUS
 62
     5
 10
-147.7198753591945
 20
165.23078515376531
 30
0.0
 11
-147.2469763528895
 21
164.8814957274956
 31
0.0
  0
LINE
  8
DETAIL
  6
CONTINUOUS
 62
     5
 10
-169.49390334535909
 20
163.72040065323969
 30
0.0
 11
-164.49390334518401
 21
166.6071519992995
 31
0.0
  0
LINE
  8
DETAIL
  6
CONTINUOUS
 62
     5
 10
-186.15182899597201
 20
-167.26095603152359
 30
0.0
 11
-185.5452272784589
 21
-167.86755774903691
 31
0.0
  0
LINE
  8
DETAIL
  6
CONTINUOUS
 62
     5
 10
-167.86755774851139
 20
-185.54522727898441
 30
0.0
 11
-167.26095603099819
 21
-186.15182899649739
 31
0.0
  0
LINE
  8
DETAIL
  6
CONTINUOUS
 62
     5
 10
-210.0
 20
184.99999999964959
 30
0.0
 11
-210.0
 21
-185.00000000017511
 31
0.0
  0
LINE
  8
DETAIL
  6
CONTINUOUS
 62
     5
 10
-207.0
 20
184.99999999964959
 30
0.0
 11
-207.0
 21
149.3619512879159
 31
0.0
  0
LINE
  8
DETAIL
  6
CONTINUOUS
 62
     5
 10
-207.0
 20
149.3619512879159
 30
0.0
 11
-207.0
 21
-149.3619512884413
 31
0.0
  0
LINE
  8
DETAIL
  6
CONTINUOUS
 62
     5
 10
-207.0
 20
-149.3619512884413
 30
0.0
 11
-207.0
 21
-185.00000000017511
 31
0.0
  0
LINE
  8
DETAIL
  6
CONTINUOUS
 62
     5
 10
-147.22003973800341
 20
145.09871939422061
 30
0.0
 11
-147.26359414518399
 21
145.06638936935201
 31
0.0
  0
LINE
  8
DETAIL
  6
CONTINUOUS
 62
     5
 10
-147.26359414518399
 20
145.06638936935201
 30
0.0
 11
-147.4100857570929
 21
144.9592928248685
 31
0.0
  0
LINE
  8
DETAIL
  6
CONTINUOUS
 62
     5
 10
-147.4100857570929
 20
144.9592928248685
 30
0.0
 11
-147.52781357180379
 21
144.87481034028019
 31
0.0
  0
LINE
  8
DETAIL
  6
CONTINUOUS
 62
     5
 10
-147.52781357180379
 20
144.87481034028019
 30
0.0
 11
-147.67841445656771
 21
144.76925240017499
 31
0.0
  0
LINE
  8
DETAIL
  6
CONTINUOUS
 62
     5
 10
-147.67841445656771
 20
144.76925240017499
 30
0.0
 11
-147.86396611733809
 21
144.64293902732041
 31
0.0
  0
LINE
  8
DETAIL
  6
CONTINUOUS
 62
     5
 10
-147.86396611733809
 20
144.64293902732041
 30
0.0
 11
-148.08703747092821
 21
144.4964623092819
 31
0.0
  0
LINE
  8
DETAIL
  6
CONTINUOUS
 62
     5
 10
-148.08703747092821
 20
144.4964623092819
 30
0.0
 11
-148.34951095323979
 21
144.33196473835369
 31
0.0
  0
LINE
  8
DETAIL
  6
CONTINUOUS
 62
     5
 10
-148.34951095323979
 20
144.33196473835369
 30
0.0
 11
-148.6536611500874
 21
144.15187206777571
 31
0.0
  0
LINE
  8
DETAIL
  6
CONTINUOUS
 62
     5
 10
-148.6536611500874
 20
144.15187206777571
 30
0.0
 11
-149.00201442819619
 21
143.9589898980735
 31
0.0
  0
LINE
  8
DETAIL
  6
CONTINUOUS
 62
     5
 10
-149.00201442819619
 20
143.9589898980735
 30
0.0
 11
-149.39637768336249
 21
143.75707090928199
 31
0.0
  0
LINE
  8
DETAIL
  6
CONTINUOUS
 62
     5
 10
-149.39637768336249
 20
143.75707090928199
 30
0.0
 11
-149.8385639768828
 21
143.55036697828359
 31
0.0
  0
LINE
  8
DETAIL
  6
CONTINUOUS
 62
     5
 10
-149.8385639768828
 20
143.55036697828359
 30
0.0
 11
-150.32967679439591
 21
143.34393896584919
 31
0.0
  0
LINE
  8
DETAIL
  6
CONTINUOUS
 62
     5
 10
-150.32967679439591
 20
143.34393896584919
 30
0.0
 11
-150.86923247127831
 21
143.14404916602439
 31
0.0
  0
LINE
  8
DETAIL
  6
CONTINUOUS
 62
     5
 10
-150.86923247127831
 20
143.14404916602439
 30
0.0
 11
-151.45813421085811
 21
142.95692608896661
 31
0.0
  0
LINE
  8
DETAIL
  6
CONTINUOUS
 62
     5
 10
-151.45813421085811
 20
142.95692608896661
 30
0.0
 11
-152.09709898739061
 21
142.78875910035029
 31
0.0
  0
LINE
  8
DETAIL
  6
CONTINUOUS
 62
     5
 10
-152.09709898739061
 20
142.78875910035029
 30
0.0
 11
-152.7818922635727
 21
142.64737800840609
 31
0.0
  0
LINE
  8
DETAIL
  6
CONTINUOUS
 62
     5
 10
-152.7818922635727
 20
142.64737800840609
 30
0.0
 11
-153.50810878213659
 21
142.53994464851121
 31
0.0
  0
LINE
  8
DETAIL
  6
CONTINUOUS
 62
     5
 10
-153.50810878213659
 20
142.53994464851121
 30
0.0
 11
-154.26865975271451
 21
142.47301352994739
 31
0.0
  0
LINE
  8
DETAIL
  6
CONTINUOUS
 62
     5
 10
-154.26865975271451
 20
142.47301352994739
 30
0.0
 11
-155.05508217583181
 21
142.4524835947459
 31
0.0
  0
LINE
  8
DETAIL
  6
CONTINUOUS
 62
     5
 10
-155.05508217583181
 20
142.4524835947459
 30
0.0
 11
-155.85994644430821
 21
142.48210401225899
 31
0.0
  0
LINE
  8
DETAIL
  6
CONTINUOUS
 62
     5
 10
-155.85994644430821
 20
142.48210401225899
 30
0.0
 11
-156.67533821453571
 21
142.5650811898422
 31
0.0
  0
LINE
  8
DETAIL
  6
CONTINUOUS
 62
     5
 10
-156.67533821453571
 20
142.5650811898422
 30
0.0
 11
-157.48973923345011
 21
142.70198027127839
 31
0.0
  0
LINE
  8
DETAIL
  6
CONTINUOUS
 62
     5
 10
-157.48973923345011
 20
142.70198027127839
 30
0.0
 11
-158.29333788231179
 21
142.89186987057789
 31
0.0
  0
LINE
  8
DETAIL
  6
CONTINUOUS
 62
     5
 10
-158.29333788231179
 20
142.89186987057789
 30
0.0
 11
-159.07220417075291
 21
143.1303173390543
 31
0.0
  0
LINE
  8
DETAIL
  6
CONTINUOUS
 62
     5
 10
-159.07220417075291
 20
143.1303173390543
 30
0.0
 11
-159.81441830647989
 21
143.41022438406301
 31
0.0
  0
LINE
  8
DETAIL
  6
CONTINUOUS
 62
     5
 10
-159.81441830647989
 20
143.41022438406301
 30
0.0
 11
-160.5114076901925
 21
143.7234914091068
 31
0.0
  0
LINE
  8
DETAIL
  6
CONTINUOUS
 62
     5
 10
-160.5114076901925
 20
143.7234914091068
 30
0.0
 11
-161.15578860367779
 21
144.05980207460581
 31
0.0
  0
LINE
  8
DETAIL
  6
CONTINUOUS
 62
     5
 10
-161.15578860367779
 20
144.05980207460581
 30
0.0
 11
-161.74457492521901
 21
144.41017357092801
 31
0.0
  0
LINE
  8
DETAIL
  6
CONTINUOUS
 62
     5
 10
-161.74457492521901
 20
144.41017357092801
 30
0.0
 11
-162.27654946812621
 21
144.7654323919439
 31
0.0
  0
LINE
  8
DETAIL
  6
CONTINUOUS
 62
     5
 10
-162.27654946812621
 20
144.7654323919439
 30
0.0
 11
-162.74974267985999
 21
145.11570887390531
 31
0.0
  0
LINE
  8
DETAIL
  6
CONTINUOUS
 62
     5
 10
-174.49390334553411
 20
-172.3806546919441
 30
0.0
 11
-169.49390334535909
 21
-175.2674060374782
 31
0.0
  0
LINE
  8
DETAIL
  6
CONTINUOUS
 62
     5
 10
-164.49390334518401
 20
-166.60715199982499
 30
0.0
 11
-169.49390334535909
 21
-163.72040065376541
 31
0.0
  0
LINE
  8
DETAIL
  6
CONTINUOUS
 62
     5
 10
-162.5868332768828
 20
-165.03680208966739
 30
0.0
 11
-162.4694210837126
 21
-165.12111693204909
 31
0.0
  0
LINE
  8
DETAIL
  6
CONTINUOUS
 62
     5
 10
-162.4694210837126
 20
-165.12111693204909
 30
0.0
 11
-162.3192566884413
 21
-165.22639218756561
 31
0.0
  0
LINE
  8
DETAIL
  6
CONTINUOUS
 62
     5
 10
-162.3192566884413
 20
-165.22639218756561
 30
0.0
 11
-162.13432186024511
 21
-165.35219659544671
 31
0.0
  0
LINE
  8
DETAIL
  6
CONTINUOUS
 62
     5
 10
-162.13432186024511
 20
-165.35219659544671
 30
0.0
 11
-161.9120500229424
 21
-165.49793592977241
 31
0.0
  0
LINE
  8
DETAIL
  6
CONTINUOUS
 62
     5
 10
-161.9120500229424
 20
-165.49793592977241
 30
0.0
 11
-161.6503930019264
 21
-165.6617316656743
 31
0.0
  0
LINE
  8
DETAIL
  6
CONTINUOUS
 62
     5
 10
-161.6503930019264
 20
-165.6617316656743
 30
0.0
 11
-161.3467804245183
 21
-165.84154170262721
 31
0.0
  0
LINE
  8
DETAIL
  6
CONTINUOUS
 62
     5
 10
-161.3467804245183
 20
-165.84154170262721
 30
0.0
 11
-160.99855216970221
 21
-166.0347239921191
 31
0.0
  0
LINE
  8
DETAIL
  6
CONTINUOUS
 62
     5
 10
-160.99855216970221
 20
-166.0347239921191
 30
0.0
 11
-160.6041234430825
 21
-166.23720694781079
 31
0.0
  0
LINE
  8
DETAIL
  6
CONTINUOUS
 62
     5
 10
-160.6041234430825
 20
-166.23720694781079
 30
0.0
 11
-160.16194681366031
 21
-166.44433516812609
 31
0.0
  0
LINE
  8
DETAIL
  6
CONTINUOUS
 62
     5
 10
-160.16194681366031
 20
-166.44433516812609
 30
0.0
 11
-159.67098855919451
 21
-166.6509148166376
 31
0.0
  0
LINE
  8
DETAIL
  6
CONTINUOUS
 62
     5
 10
-159.67098855919451
 20
-166.6509148166376
 30
0.0
 11
-159.13153967758311
 21
-166.85089127338011
 31
0.0
  0
LINE
  8
DETAIL
  6
CONTINUOUS
 62
     5
 10
-159.13153967758311
 20
-166.85089127338011
 30
0.0
 11
-158.5425126856392
 21
-167.0382358098075
 31
0.0
  0
LINE
  8
DETAIL
  6
CONTINUOUS
 62
     5
 10
-158.5425126856392
 20
-167.0382358098075
 30
0.0
 11
-157.9031765138354
 21
-167.2067423327496
 31
0.0
  0
LINE
  8
DETAIL
  6
CONTINUOUS
 62
     5
 10
-157.9031765138354
 20
-167.2067423327496
 30
0.0
 11
-157.2178691028021
 21
-167.34846707180401
 31
0.0
  0
LINE
  8
DETAIL
  6
CONTINUOUS
 62
     5
 10
-157.2178691028021
 20
-167.34846707180401
 30
0.0
 11
-156.4910546611209
 21
-167.45617152714539
 31
0.0
  0
LINE
  8
DETAIL
  6
CONTINUOUS
 62
     5
 10
-156.4910546611209
 20
-167.45617152714539
 30
0.0
 11
-155.72984946830141
 21
-167.5232950140105
 31
0.0
  0
LINE
  8
DETAIL
  6
CONTINUOUS
 62
     5
 10
-155.72984946830141
 20
-167.5232950140105
 30
0.0
 11
-154.9427555747811
 21
-167.54394341295961
 31
0.0
  0
LINE
  8
DETAIL
  6
CONTINUOUS
 62
     5
 10
-154.9427555747811
 20
-167.54394341295961
 30
0.0
 11
-154.13727434238169
 21
-167.51437556059551
 31
0.0
  0
LINE
  8
DETAIL
  6
CONTINUOUS
 62
     5
 10
-154.13727434238169
 20
-167.51437556059551
 30
0.0
 11
-153.32141427110329
 21
-167.43140308423841
 31
0.0
  0
LINE
  8
DETAIL
  6
CONTINUOUS
 62
     5
 10
-153.32141427110329
 20
-167.43140308423841
 30
0.0
 11
-152.50666092556909
 21
-167.29445537443101
 31
0.0
  0
LINE
  8
DETAIL
  6
CONTINUOUS
 62
     5
 10
-152.50666092556909
 20
-167.29445537443101
 30
0.0
 11
-151.70277935884431
 21
-167.1044532746059
 31
0.0
  0
LINE
  8
DETAIL
  6
CONTINUOUS
 62
     5
 10
-151.70277935884431
 20
-167.1044532746059
 30
0.0
 11
-150.9237388555166
 21
-166.8659057632224
 31
0.0
  0
LINE
  8
DETAIL
  6
CONTINUOUS
 62
     5
 10
-150.9237388555166
 20
-166.8659057632224
 30
0.0
 11
-150.18159514360789
 21
-166.58606201453611
 31
0.0
  0
LINE
  8
DETAIL
  6
CONTINUOUS
 62
     5
 10
-150.18159514360789
 20
-166.58606201453611
 30
0.0
 11
-149.48494316007009
 21
-166.27301027285489
 31
0.0
  0
LINE
  8
DETAIL
  6
CONTINUOUS
 62
     5
 10
-149.48494316007009
 20
-166.27301027285489
 30
0.0
 11
-148.8408361218915
 21
-165.9367362099824
 31
0.0
  0
LINE
  8
DETAIL
  6
CONTINUOUS
 62
     5
 10
-148.8408361218915
 20
-165.9367362099824
 30
0.0
 11
-148.25193165183899
 21
-165.58603070122601
 31
0.0
  0
LINE
  8
DETAIL
  6
CONTINUOUS
 62
     5
 10
-148.25193165183899
 20
-165.58603070122601
 30
0.0
 11
-147.7198753591945
 21
-165.23078515376531
 31
0.0
  0
LINE
  8
DETAIL
  6
CONTINUOUS
 62
     5
 10
-147.7198753591945
 20
-165.23078515376531
 30
0.0
 11
-147.2469763528895
 21
-164.88149572802081
 31
0.0
  0
LINE
  8
DETAIL
  6
CONTINUOUS
 62
     5
 10
-162.73289235656739
 20
-164.92998222662001
 30
0.0
 11
-162.5868332768828
 21
-165.03680208966739
 31
0.0
  0
LINE
  8
DETAIL
  6
CONTINUOUS
 62
     5
 10
-162.776388924168
 20
-164.89770926795109
 30
0.0
 11
-162.73289235656739
 21
-164.92998222662001
 31
0.0
  0
LINE
  8
DETAIL
  6
CONTINUOUS
 62
     5
 10
-163.82889424203151
 20
-163.9428656448338
 30
0.0
 11
-163.52359271663749
 21
-164.22955242031551
 31
0.0
  0
LINE
  8
DETAIL
  6
CONTINUOUS
 62
     5
 10
-163.52359271663749
 20
-164.22955242031551
 30
0.0
 11
-163.1646313276708
 21
-164.54439305043769
 31
0.0
  0
LINE
  8
DETAIL
  6
CONTINUOUS
 62
     5
 10
-163.1646313276708
 20
-164.54439305043769
 30
0.0
 11
-162.9801847166375
 21
-164.69391347548159
 31
0.0
  0
LINE
  8
DETAIL
  6
CONTINUOUS
 62
     5
 10
-164.08592542434329
 20
-163.68684667933459
 30
0.0
 11
-163.82889424203151
 21
-163.9428656448338
 31
0.0
  0
LINE
  8
DETAIL
  6
CONTINUOUS
 62
     5
 10
-162.776388924168
 20
-164.89770926795109
 30
0.0
 11
-164.89770926795109
 21
-162.77638892469349
 31
0.0
  0
LINE
  8
DETAIL
  6
CONTINUOUS
 62
     5
 10
-157.119534674606
 20
-154.99821433134841
 30
0.0
 11
-164.89770926795109
 21
-147.22003973852881
 31
0.0
  0
LINE
  8
DETAIL
  6
CONTINUOUS
 62
     5
 10
-145.09871939474601
 20
-162.77638892469349
 30
0.0
 11
-152.87689398756561
 21
-154.99821433134841
 31
0.0
  0
LINE
  8
DETAIL
  6
CONTINUOUS
 62
     5
 10
-162.5759734465851
 20
-142.47070774781079
 30
0.0
 11
-161.0541391954466
 21
-143.99254199894929
 31
0.0
  0
LINE
  8
DETAIL
  6
CONTINUOUS
 62
     5
 10
-151.4626804250438
 20
-153.58400076935209
 30
0.0
 11
-142.47070774728559
 21
-162.5759734465851
 31
0.0
  0
LINE
  8
DETAIL
  6
CONTINUOUS
 62
     5
 10
-164.89770926795109
 20
-162.77638892469349
 30
0.0
 11
-164.88744912609471
 21
-162.78905381295979
 31
0.0
  0
LINE
  8
DETAIL
  6
CONTINUOUS
 62
     5
 10
-164.88744912609471
 20
-162.78905381295979
 30
0.0
 11
-164.8554930304729
 21
-162.82806249089319
 31
0.0
  0
LINE
  8
DETAIL
  6
CONTINUOUS
 62
     5
 10
-164.8554930304729
 20
-162.82806249089319
 30
0.0
 11
-164.8002614479858
 21
-162.89459560875659
 31
0.0
  0
LINE
  8
DETAIL
  6
CONTINUOUS
 62
     5
 10
-164.8002614479858
 20
-162.89459560875659
 30
0.0
 11
-164.71976386129609
 21
-162.99015202434339
 31
0.0
  0
LINE
  8
DETAIL
  6
CONTINUOUS
 62
     5
 10
-164.71976386129609
 20
-162.99015202434339
 30
0.0
 11
-164.61174845253939
 21
-163.11600103555179
 31
0.0
  0
LINE
  8
DETAIL
  6
CONTINUOUS
 62
     5
 10
-164.61174845253939
 20
-163.11600103555179
 30
0.0
 11
-164.4728348774081
 21
-163.2734423905431
 31
0.0
  0
LINE
  8
DETAIL
  6
CONTINUOUS
 62
     5
 10
-164.4728348774081
 20
-163.2734423905431
 30
0.0
 11
-164.29888843975479
 21
-163.46370128248691
 31
0.0
  0
LINE
  8
DETAIL
  6
CONTINUOUS
 62
     5
 10
-164.29888843975479
 20
-163.46370128248691
 30
0.0
 11
-164.08592542434329
 21
-163.68684667933459
 31
0.0
  0
LINE
  8
DETAIL
  6
CONTINUOUS
 62
     5
 10
-201.6672618893169
 20
195.30330085849391
 30
0.0
 11
-201.6672618893169
 21
183.98959235989491
 31
0.0
  0
LINE
  8
DETAIL
  6
CONTINUOUS
 62
     5
 10
-201.6672618893169
 20
-183.98959235989491
 30
0.0
 11
-201.6672618893169
 21
-195.3033008590194
 31
0.0
  0
LINE
  8
DETAIL
  6
CONTINUOUS
 62
     5
 10
-196.5
 20
116.6134380199649
 30
0.0
 11
-196.5
 21
-116.61343802049031
 31
0.0
  0
LINE
  8
DETAIL
  6
CONTINUOUS
 62
     5
 10
-184.99999999964959
 20
-210.0
 30
0.0
 11
153.75183089684771
 21
-210.0
 31
0.0
  0
LINE
  8
DETAIL
  6
CONTINUOUS
 62
     5
 10
161.98763402889679
 20
-210.0
 30
0.0
 11
185.00000000017511
 21
-210.0
 31
0.0
  0
LINE
  8
DETAIL
  6
CONTINUOUS
 62
     5
 10
-184.99999999964959
 20
-207.0
 30
0.0
 11
-149.3619512879159
 21
-207.0
 31
0.0
  0
LINE
  8
DETAIL
  6
CONTINUOUS
 62
     5
 10
-149.3619512879159
 20
-207.0
 30
0.0
 11
149.3619512884413
 21
-207.0
 31
0.0
  0
LINE
  8
DETAIL
  6
CONTINUOUS
 62
     5
 10
149.3619512884413
 20
-207.0
 30
0.0
 11
153.46391991173391
 21
-207.0
 31
0.0
  0
LINE
  8
DETAIL
  6
CONTINUOUS
 62
     5
 10
161.70376282171631
 20
-207.0
 30
0.0
 11
185.00000000017511
 21
-207.0
 31
0.0
  0
LINE
  8
DETAIL
  6
CONTINUOUS
 62
     5
 10
-195.30330085849391
 20
-201.66726188984239
 30
0.0
 11
-183.98959235989491
 21
-201.66726188984239
 31
0.0
  0
LINE
  8
DETAIL
  6
CONTINUOUS
 62
     5
 10
183.98959235989491
 20
-201.66726188984239
 30
0.0
 11
195.3033008590194
 21
-201.66726188984239
 31
0.0
  0
LINE
  8
DETAIL
  6
CONTINUOUS
 62
     5
 10
-147.4100857570929
 20
-144.95929282539419
 30
0.0
 11
-147.52781357180379
 21
-144.87481034080571
 31
0.0
  0
LINE
  8
DETAIL
  6
CONTINUOUS
 62
     5
 10
-147.52781357180379
 20
-144.87481034080571
 30
0.0
 11
-147.67841445656771
 21
-144.76925240070071
 31
0.0
  0
LINE
  8
DETAIL
  6
CONTINUOUS
 62
     5
 10
-147.67841445656771
 20
-144.76925240070071
 30
0.0
 11
-147.86396611733809
 21
-144.6429390278461
 31
0.0
  0
LINE
  8
DETAIL
  6
CONTINUOUS
 62
     5
 10
-147.86396611733809
 20
-144.6429390278461
 30
0.0
 11
-148.08703747092821
 21
-144.4964623092819
 31
0.0
  0
LINE
  8
DETAIL
  6
CONTINUOUS
 62
     5
 10
-148.08703747092821
 20
-144.4964623092819
 30
0.0
 11
-148.34951095323979
 21
-144.33196473887921
 31
0.0
  0
LINE
  8
DETAIL
  6
CONTINUOUS
 62
     5
 10
-148.34951095323979
 20
-144.33196473887921
 30
0.0
 11
-148.6536611500874
 21
-144.1518720683014
 31
0.0
  0
LINE
  8
DETAIL
  6
CONTINUOUS
 62
     5
 10
-148.6536611500874
 20
-144.1518720683014
 30
0.0
 11
-149.00201442819619
 21
-143.9589898985989
 31
0.0
  0
LINE
  8
DETAIL
  6
CONTINUOUS
 62
     5
 10
-149.00201442819619
 20
-143.9589898985989
 30
0.0
 11
-149.39637768336249
 21
-143.75707090980751
 31
0.0
  0
LINE
  8
DETAIL
  6
CONTINUOUS
 62
     5
 10
-149.39637768336249
 20
-143.75707090980751
 30
0.0
 11
-149.8385639768828
 21
-143.55036697880931
 31
0.0
  0
LINE
  8
DETAIL
  6
CONTINUOUS
 62
     5
 10
-149.8385639768828
 20
-143.55036697880931
 30
0.0
 11
-150.32967679439591
 21
-143.34393896637491
 31
0.0
  0
LINE
  8
DETAIL
  6
CONTINUOUS
 62
     5
 10
-150.32967679439591
 20
-143.34393896637491
 30
0.0
 11
-150.86923247127831
 21
-143.1440491665501
 31
0.0
  0
LINE
  8
DETAIL
  6
CONTINUOUS
 62
     5
 10
-150.86923247127831
 20
-143.1440491665501
 30
0.0
 11
-151.45813421085811
 21
-142.95692608896681
 31
0.0
  0
LINE
  8
DETAIL
  6
CONTINUOUS
 62
     5
 10
-151.45813421085811
 20
-142.95692608896681
 30
0.0
 11
-152.09709898739061
 21
-142.78875910087569
 31
0.0
  0
LINE
  8
DETAIL
  6
CONTINUOUS
 62
     5
 10
-152.09709898739061
 20
-142.78875910087569
 30
0.0
 11
-152.7818922635727
 21
-142.64737800893181
 31
0.0
  0
LINE
  8
DETAIL
  6
CONTINUOUS
 62
     5
 10
-152.7818922635727
 20
-142.64737800893181
 30
0.0
 11
-153.50810878213659
 21
-142.5399446490369
 31
0.0
  0
LINE
  8
DETAIL
  6
CONTINUOUS
 62
     5
 10
-153.50810878213659
 20
-142.5399446490369
 30
0.0
 11
-154.26865975271451
 21
-142.4730135304728
 31
0.0
  0
LINE
  8
DETAIL
  6
CONTINUOUS
 62
     5
 10
-154.26865975271451
 20
-142.4730135304728
 30
0.0
 11
-155.05508217583181
 21
-142.4524835947461
 31
0.0
  0
LINE
  8
DETAIL
  6
CONTINUOUS
 62
     5
 10
-155.05508217583181
 20
-142.4524835947461
 30
0.0
 11
-155.85994644430821
 21
-142.4821040127847
 31
0.0
  0
LINE
  8
DETAIL
  6
CONTINUOUS
 62
     5
 10
-155.85994644430821
 20
-142.4821040127847
 30
0.0
 11
-156.67533821453571
 21
-142.56508119036789
 31
0.0
  0
LINE
  8
DETAIL
  6
CONTINUOUS
 62
     5
 10
-156.67533821453571
 20
-142.56508119036789
 30
0.0
 11
-157.48973923345011
 21
-142.7019802718039
 31
0.0
  0
LINE
  8
DETAIL
  6
CONTINUOUS
 62
     5
 10
-157.48973923345011
 20
-142.7019802718039
 30
0.0
 11
-158.29333788231179
 21
-142.89186987110341
 31
0.0
  0
LINE
  8
DETAIL
  6
CONTINUOUS
 62
     5
 10
-158.29333788231179
 20
-142.89186987110341
 30
0.0
 11
-159.07220417075291
 21
-143.1303173395797
 31
0.0
  0
LINE
  8
DETAIL
  6
CONTINUOUS
 62
     5
 10
-159.07220417075291
 20
-143.1303173395797
 30
0.0
 11
-159.81441830647989
 21
-143.41022438458839
 31
0.0
  0
LINE
  8
DETAIL
  6
CONTINUOUS
 62
     5
 10
-159.81441830647989
 20
-143.41022438458839
 30
0.0
 11
-160.5114076901925
 21
-143.72349140963229
 31
0.0
  0
LINE
  8
DETAIL
  6
CONTINUOUS
 62
     5
 10
-160.5114076901925
 20
-143.72349140963229
 30
0.0
 11
-161.15578860367779
 21
-144.0598020751315
 31
0.0
  0
LINE
  8
DETAIL
  6
CONTINUOUS
 62
     5
 10
-161.15578860367779
 20
-144.0598020751315
 30
0.0
 11
-161.74457492521901
 21
-144.41017357092801
 31
0.0
  0
LINE
  8
DETAIL
  6
CONTINUOUS
 62
     5
 10
-161.74457492521901
 20
-144.41017357092801
 30
0.0
 11
-162.27654946812621
 21
-144.76543239246939
 31
0.0
  0
LINE
  8
DETAIL
  6
CONTINUOUS
 62
     5
 10
-162.27654946812621
 20
-144.76543239246939
 30
0.0
 11
-162.74974267985999
 21
-145.11570887443099
 31
0.0
  0
LINE
  8
DETAIL
  6
CONTINUOUS
 62
     5
 10
-147.26359414518399
 20
-145.0663893698775
 30
0.0
 11
-147.4100857570929
 21
-144.95929282539419
 31
0.0
  0
LINE
  8
DETAIL
  6
CONTINUOUS
 62
     5
 10
-147.22003973800341
 20
-145.09871939474601
 30
0.0
 11
-147.26359414518399
 21
-145.0663893698775
 31
0.0
  0
LINE
  8
DETAIL
  6
CONTINUOUS
 62
     5
 10
-174.49390334553411
 20
172.38065469141841
 30
0.0
 11
-174.49390334553411
 21
166.6071519992995
 31
0.0
  0
LINE
  8
DETAIL
  6
CONTINUOUS
 62
     5
 10
-174.49390334553411
 20
-166.60715199982499
 30
0.0
 11
-174.49390334553411
 21
-172.3806546919441
 31
0.0
  0
LINE
  8
DETAIL
  6
CONTINUOUS
 62
     5
 10
-164.49390334518401
 20
-172.3806546919441
 30
0.0
 11
-164.49390334518401
 21
-166.60715199982499
 31
0.0
  0
LINE
  8
DETAIL
  6
CONTINUOUS
 62
     5
 10
-164.49390334518401
 20
166.6071519992995
 30
0.0
 11
-164.49390334518401
 21
172.38065469141841
 31
0.0
  0
LINE
  8
DETAIL
  6
CONTINUOUS
 62
     5
 10
152.47657913485111
 20
-171.35619240000011
 30
0.0
 11
164.28159851506121
 21
-170.07497523152369
 31
0.0
  0
LINE
  8
DETAIL
  6
CONTINUOUS
 62
     5
 10
164.15212097495601
 20
-168.88198086147119
 30
0.0
 11
152.34710159474619
 21
-170.16319803047281
 31
0.0
  0
LINE
  8
DETAIL
  6
CONTINUOUS
 62
     5
 10
-116.61343802049031
 20
-196.5
 30
0.0
 11
116.61343802049031
 21
-196.5
 31
0.0
  0
LINE
  8
DETAIL
  6
CONTINUOUS
 62
     5
 10
149.58884745551629
 20
-152.13443186742549
 30
0.0
 11
150.01311152416821
 21
-152.13443186742549
 31
0.0
  0
LINE
  8
DETAIL
  6
CONTINUOUS
 62
     5
 10
-151.68968392171629
 20
-167.10044336269721
 30
0.0
 11
-151.45813421085811
 21
-167.03950257373049
 31
0.0
  0
LINE
  8
DETAIL
  6
CONTINUOUS
 62
     5
 10
-151.45813421085811
 20
-167.03950257373049
 30
0.0
 11
-150.86923247127831
 21
-166.85237949614699
 31
0.0
  0
LINE
  8
DETAIL
  6
CONTINUOUS
 62
     5
 10
-150.86923247127831
 20
-166.85237949614699
 30
0.0
 11
-150.32967679439591
 21
-166.65248969632239
 31
0.0
  0
LINE
  8
DETAIL
  6
CONTINUOUS
 62
     5
 10
-150.32967679439591
 20
-166.65248969632239
 30
0.0
 11
-149.8385639768828
 21
-166.44606168441331
 31
0.0
  0
LINE
  8
DETAIL
  6
CONTINUOUS
 62
     5
 10
-149.8385639768828
 20
-166.44606168441331
 30
0.0
 11
-149.39637768336249
 21
-166.23935775341511
 31
0.0
  0
LINE
  8
DETAIL
  6
CONTINUOUS
 62
     5
 10
-149.39637768336249
 20
-166.23935775341511
 30
0.0
 11
-149.00201442819619
 21
-166.0374387646234
 31
0.0
  0
LINE
  8
DETAIL
  6
CONTINUOUS
 62
     5
 10
-149.00201442819619
 20
-166.0374387646234
 30
0.0
 11
-148.6536611500874
 21
-165.8445565943957
 31
0.0
  0
LINE
  8
DETAIL
  6
CONTINUOUS
 62
     5
 10
-148.6536611500874
 20
-165.8445565943957
 30
0.0
 11
-148.34951095323979
 21
-165.66446392434321
 31
0.0
  0
LINE
  8
DETAIL
  6
CONTINUOUS
 62
     5
 10
-148.34951095323979
 20
-165.66446392434321
 30
0.0
 11
-148.08703747092821
 21
-165.4999663534152
 31
0.0
  0
LINE
  8
DETAIL
  6
CONTINUOUS
 62
     5
 10
-148.08703747092821
 20
-165.4999663534152
 30
0.0
 11
-147.86396611733809
 21
-165.35348963537649
 31
0.0
  0
LINE
  8
DETAIL
  6
CONTINUOUS
 62
     5
 10
-147.86396611733809
 20
-165.35348963537649
 30
0.0
 11
-147.67841445656771
 21
-165.22717626252191
 31
0.0
  0
LINE
  8
DETAIL
  6
CONTINUOUS
 62
     5
 10
-147.67841445656771
 20
-165.22717626252191
 30
0.0
 11
-147.52781357180379
 21
-165.12161832241691
 31
0.0
  0
LINE
  8
DETAIL
  6
CONTINUOUS
 62
     5
 10
-147.52781357180379
 20
-165.12161832241691
 30
0.0
 11
-147.4100857570929
 21
-165.0371358378284
 31
0.0
  0
LINE
  8
DETAIL
  6
CONTINUOUS
 62
     5
 10
-147.4100857570929
 20
-165.0371358378284
 30
0.0
 11
-147.26359414518399
 21
-164.93003929334509
 31
0.0
  0
LINE
  8
DETAIL
  6
CONTINUOUS
 62
     5
 10
136.41226639912429
 20
-134.2909460558669
 30
0.0
 11
136.71277640805599
 21
-134.29059814833639
 31
0.0
  0
LINE
  8
DETAIL
  6
CONTINUOUS
 62
     5
 10
136.71277640805599
 20
-134.29059814833639
 30
0.0
 11
137.56104753362521
 21
-134.3940604838881
 31
0.0
  0
LINE
  8
DETAIL
  6
CONTINUOUS
 62
     5
 10
137.56104753362521
 20
-134.3940604838881
 30
0.0
 11
138.35758942276701
 21
-134.6026735591945
 31
0.0
  0
LINE
  8
DETAIL
  6
CONTINUOUS
 62
     5
 10
138.35758942276701
 20
-134.6026735591945
 30
0.0
 11
139.09343747337991
 21
-134.91188975411569
 31
0.0
  0
LINE
  8
DETAIL
  6
CONTINUOUS
 62
     5
 10
139.09343747337991
 20
-134.91188975411569
 30
0.0
 11
139.75418410455339
 21
-135.31684042171631
 31
0.0
  0
LINE
  8
DETAIL
  6
CONTINUOUS
 62
     5
 10
139.75418410455339
 20
-135.31684042171631
 30
0.0
 11
140.34463184343261
 21
-135.81914844378301
 31
0.0
  0
LINE
  8
DETAIL
  6
CONTINUOUS
 62
     5
 10
169.49390334588429
 20
175.2674060374782
 30
0.0
 11
164.49390334570921
 21
172.38065469141841
 31
0.0
  0
LINE
  8
DETAIL
  6
CONTINUOUS
 62
     5
 10
-158.3085853917687
 20
-142.8965378485116
 30
0.0
 11
-158.5425126856392
 21
-142.95819285341511
 31
0.0
  0
LINE
  8
DETAIL
  6
CONTINUOUS
 62
     5
 10
-158.5425126856392
 20
-142.95819285341511
 30
0.0
 11
-159.13153967758311
 21
-143.1455373898425
 31
0.0
  0
LINE
  8
DETAIL
  6
CONTINUOUS
 62
     5
 10
-159.13153967758311
 20
-143.1455373898425
 30
0.0
 11
-159.67098855919451
 21
-143.34551384658491
 31
0.0
  0
LINE
  8
DETAIL
  6
CONTINUOUS
 62
     5
 10
-159.67098855919451
 20
-143.34551384658491
 30
0.0
 11
-160.16194681366031
 21
-143.55209349457101
 31
0.0
  0
LINE
  8
DETAIL
  6
CONTINUOUS
 62
     5
 10
-160.16194681366031
 20
-143.55209349457101
 30
0.0
 11
-160.6041234430825
 21
-143.75922171488631
 31
0.0
  0
LINE
  8
DETAIL
  6
CONTINUOUS
 62
     5
 10
-160.6041234430825
 20
-143.75922171488631
 30
0.0
 11
-160.99855216970221
 21
-143.961704670578
 31
0.0
  0
LINE
  8
DETAIL
  6
CONTINUOUS
 62
     5
 10
-160.99855216970221
 20
-143.961704670578
 30
0.0
 11
-161.3467804245183
 21
-144.15488696059541
 31
0.0
  0
LINE
  8
DETAIL
  6
CONTINUOUS
 62
     5
 10
-161.3467804245183
 20
-144.15488696059541
 30
0.0
 11
-161.6503930019264
 21
-144.3346969970228
 31
0.0
  0
LINE
  8
DETAIL
  6
CONTINUOUS
 62
     5
 10
-161.6503930019264
 20
-144.3346969970228
 30
0.0
 11
-161.9120500229424
 21
-144.49849273292489
 31
0.0
  0
LINE
  8
DETAIL
  6
CONTINUOUS
 62
     5
 10
-161.9120500229424
 20
-144.49849273292489
 30
0.0
 11
-162.13432186024511
 21
-144.64423206725041
 31
0.0
  0
LINE
  8
DETAIL
  6
CONTINUOUS
 62
     5
 10
-162.13432186024511
 20
-144.64423206725041
 30
0.0
 11
-162.3192566884413
 21
-144.77003647565681
 31
0.0
  0
LINE
  8
DETAIL
  6
CONTINUOUS
 62
     5
 10
-162.3192566884413
 20
-144.77003647565681
 30
0.0
 11
-162.4694210837126
 21
-144.87531173064801
 31
0.0
  0
LINE
  8
DETAIL
  6
CONTINUOUS
 62
     5
 10
-162.4694210837126
 20
-144.87531173064801
 30
0.0
 11
-162.5868332768828
 21
-144.95962657302971
 31
0.0
  0
LINE
  8
DETAIL
  6
CONTINUOUS
 62
     5
 10
-162.5868332768828
 20
-144.95962657302971
 30
0.0
 11
-162.73289235656739
 21
-145.06644643607731
 31
0.0
  0
LINE
  8
DETAIL
  6
CONTINUOUS
 62
     5
 10
-4.6999999996496626
 20
-101.6000000001752
 30
0.0
 11
4.7000000001751232
 21
-101.6000000001752
 31
0.0
  0
LINE
  8
DETAIL
  6
CONTINUOUS
 62
     5
 10
-4.6999999996496626
 20
-101.09999999999989
 30
0.0
 11
4.7000000001751232
 21
-101.09999999999989
 31
0.0
  0
LINE
  8
DETAIL
  6
CONTINUOUS
 62
     5
 10
158.30858539229419
 20
-142.8965378485116
 30
0.0
 11
158.5425126861646
 21
-142.95819285341511
 31
0.0
  0
LINE
  8
DETAIL
  6
CONTINUOUS
 62
     5
 10
158.5425126861646
 20
-142.95819285341511
 30
0.0
 11
159.13153967810851
 21
-143.1455373898425
 31
0.0
  0
LINE
  8
DETAIL
  6
CONTINUOUS
 62
     5
 10
159.13153967810851
 20
-143.1455373898425
 30
0.0
 11
159.67098855971969
 21
-143.34551384658491
 31
0.0
  0
LINE
  8
DETAIL
  6
CONTINUOUS
 62
     5
 10
159.67098855971969
 20
-143.34551384658491
 30
0.0
 11
160.16194681418551
 21
-143.55209349457101
 31
0.0
  0
LINE
  8
DETAIL
  6
CONTINUOUS
 62
     5
 10
160.16194681418551
 20
-143.55209349457101
 30
0.0
 11
160.60412344308219
 21
-143.75922171488631
 31
0.0
  0
LINE
  8
DETAIL
  6
CONTINUOUS
 62
     5
 10
160.60412344308219
 20
-143.75922171488631
 30
0.0
 11
160.99855216970221
 21
-143.961704670578
 31
0.0
  0
LINE
  8
DETAIL
  6
CONTINUOUS
 62
     5
 10
160.99855216970221
 20
-143.961704670578
 30
0.0
 11
161.34678042504379
 21
-144.15488696059541
 31
0.0
  0
LINE
  8
DETAIL
  6
CONTINUOUS
 62
     5
 10
161.34678042504379
 20
-144.15488696059541
 30
0.0
 11
161.6503930019264
 21
-144.3346969970228
 31
0.0
  0
LINE
  8
DETAIL
  6
CONTINUOUS
 62
     5
 10
161.6503930019264
 20
-144.3346969970228
 30
0.0
 11
161.9120500234674
 21
-144.49849273292489
 31
0.0
  0
LINE
  8
DETAIL
  6
CONTINUOUS
 62
     5
 10
161.9120500234674
 20
-144.49849273292489
 30
0.0
 11
162.13432186024511
 21
-144.64423206725041
 31
0.0
  0
LINE
  8
DETAIL
  6
CONTINUOUS
 62
     5
 10
162.13432186024511
 20
-144.64423206725041
 30
0.0
 11
162.31925668896679
 21
-144.77003647565681
 31
0.0
  0
LINE
  8
DETAIL
  6
CONTINUOUS
 62
     5
 10
162.31925668896679
 20
-144.77003647565681
 30
0.0
 11
162.46942108371289
 21
-144.87531173064801
 31
0.0
  0
LINE
  8
DETAIL
  6
CONTINUOUS
 62
     5
 10
162.46942108371289
 20
-144.87531173064801
 30
0.0
 11
162.586833277408
 21
-144.95962657302971
 31
0.0
  0
LINE
  8
DETAIL
  6
CONTINUOUS
 62
     5
 10
-65.499999999824922
 20
52.076773668125952
 30
0.0
 11
-65.499999999824922
 21
60.893398281961247
 31
0.0
  0
LINE
  8
DETAIL
  6
CONTINUOUS
 62
     5
 10
-62.499999999824922
 20
60.893398281961247
 30
0.0
 11
-62.499999999824922
 21
53.598807644658343
 31
0.0
  0
LINE
  8
DETAIL
  6
CONTINUOUS
 62
     5
 10
169.49390334588429
 20
163.72040065323969
 30
0.0
 11
174.49390334553411
 21
166.6071519992995
 31
0.0
  0
LINE
  8
DETAIL
  6
CONTINUOUS
 62
     5
 10
-39.999999999824922
 20
27.0
 30
0.0
 11
-39.999999999824922
 21
-37.000000000350383
 31
0.0
  0
LINE
  8
DETAIL
  6
CONTINUOUS
 62
     5
 10
147.24697635341499
 20
164.8814957274956
 30
0.0
 11
146.83257016549919
 21
164.54656846602441
 31
0.0
  0
LINE
  8
DETAIL
  6
CONTINUOUS
 62
     5
 10
146.83257016549919
 20
164.54656846602441
 30
0.0
 11
146.4739736795095
 21
164.23249463222419
 31
0.0
  0
LINE
  8
DETAIL
  6
CONTINUOUS
 62
     5
 10
147.26359414570919
 20
164.9300392928194
 30
0.0
 11
147.22003973852881
 21
164.8977092674256
 31
0.0
  0
LINE
  8
DETAIL
  6
CONTINUOUS
 62
     5
 10
164.49390334570921
 20
-172.3806546919441
 30
0.0
 11
169.49390334588429
 21
-175.2674060374782
 31
0.0
  0
LINE
  8
DETAIL
  6
CONTINUOUS
 62
     5
 10
174.49390334553411
 20
-166.60715199982499
 30
0.0
 11
169.49390334588429
 21
-163.72040065376541
 31
0.0
  0
LINE
  8
DETAIL
  6
CONTINUOUS
 62
     5
 10
183.98959235989491
 20
201.6672618893169
 30
0.0
 11
147.22003973852881
 21
164.8977092674256
 31
0.0
  0
LINE
  8
DETAIL
  6
CONTINUOUS
 62
     5
 10
147.22003973852881
 20
164.8977092674256
 30
0.0
 11
147.02198978091059
 21
164.69965931033269
 31
0.0
  0
LINE
  8
DETAIL
  6
CONTINUOUS
 62
     5
 10
-201.6672618893169
 20
-183.98959235989491
 30
0.0
 11
-164.89770926795109
 21
-147.22003973852881
 31
0.0
  0
LINE
  8
DETAIL
  6
CONTINUOUS
 62
     5
 10
-162.9801847166375
 20
-145.3025151872155
 30
0.0
 11
-162.776388924168
 21
-145.09871939474601
 31
0.0
  0
LINE
  8
DETAIL
  6
CONTINUOUS
 62
     5
 10
146.16864305464111
 20
163.94534140455329
 30
0.0
 11
145.91140872977229
 21
163.68832815709291
 31
0.0
  0
LINE
  8
DETAIL
  6
CONTINUOUS
 62
     5
 10
145.91140872977229
 20
163.68832815709291
 30
0.0
 11
145.69824880560421
 21
163.4643870472853
 31
0.0
  0
LINE
  8
DETAIL
  6
CONTINUOUS
 62
     5
 10
145.69824880560421
 20
163.4643870472853
 30
0.0
 11
145.52407605551659
 21
163.27372992031519
 31
0.0
  0
LINE
  8
DETAIL
  6
CONTINUOUS
 62
     5
 10
145.52407605551659
 20
163.27372992031519
 30
0.0
 11
145.3849750229422
 21
163.1161769663747
 31
0.0
  0
LINE
  8
DETAIL
  6
CONTINUOUS
 62
     5
 10
145.3849750229422
 20
163.1161769663747
 30
0.0
 11
145.2768120640981
 21
162.9903104091068
 31
0.0
  0
LINE
  8
DETAIL
  6
CONTINUOUS
 62
     5
 10
145.2768120640981
 20
162.9903104091068
 30
0.0
 11
145.19621596602451
 21
162.89470818073551
 31
0.0
  0
LINE
  8
DETAIL
  6
CONTINUOUS
 62
     5
 10
145.19621596602451
 20
162.89470818073551
 30
0.0
 11
145.14094398546399
 21
162.8281223264448
 31
0.0
  0
LINE
  8
DETAIL
  6
CONTINUOUS
 62
     5
 10
145.14094398546399
 20
162.8281223264448
 30
0.0
 11
145.10897902697019
 21
162.7890714367775
 31
0.0
  0
LINE
  8
DETAIL
  6
CONTINUOUS
 62
     5
 10
145.10897902697019
 20
162.7890714367775
 30
0.0
 11
145.09871939474601
 21
162.776388924168
 31
0.0
  0
LINE
  8
DETAIL
  6
CONTINUOUS
 62
     5
 10
-163.82889424203151
 20
-146.05356301838879
 30
0.0
 11
-164.08592542434329
 21
-146.30958198336251
 31
0.0
  0
LINE
  8
DETAIL
  6
CONTINUOUS
 62
     5
 10
-164.08592542434329
 20
-146.30958198336251
 30
0.0
 11
-164.29888843975479
 21
-146.53272738021019
 31
0.0
  0
LINE
  8
DETAIL
  6
CONTINUOUS
 62
     5
 10
-164.29888843975479
 20
-146.53272738021019
 30
0.0
 11
-164.4728348774081
 21
-146.722986272154
 31
0.0
  0
LINE
  8
DETAIL
  6
CONTINUOUS
 62
     5
 10
-164.4728348774081
 20
-146.722986272154
 30
0.0
 11
-164.61174845253939
 21
-146.8804276276708
 31
0.0
  0
LINE
  8
DETAIL
  6
CONTINUOUS
 62
     5
 10
-164.61174845253939
 20
-146.8804276276708
 30
0.0
 11
-164.71976386129609
 21
-147.0062766388792
 31
0.0
  0
LINE
  8
DETAIL
  6
CONTINUOUS
 62
     5
 10
-164.71976386129609
 20
-147.0062766388792
 30
0.0
 11
-164.8002614479858
 21
-147.10183305446591
 31
0.0
  0
LINE
  8
DETAIL
  6
CONTINUOUS
 62
     5
 10
-164.8002614479858
 20
-147.10183305446591
 30
0.0
 11
-164.8554930304729
 21
-147.16836617232931
 31
0.0
  0
LINE
  8
DETAIL
  6
CONTINUOUS
 62
     5
 10
-164.8554930304729
 20
-147.16836617232931
 30
0.0
 11
-164.88744912609471
 21
-147.2073748502628
 31
0.0
  0
LINE
  8
DETAIL
  6
CONTINUOUS
 62
     5
 10
-164.88744912609471
 20
-147.2073748502628
 30
0.0
 11
-164.89770926795109
 21
-147.22003973852881
 31
0.0
  0
LINE
  8
DETAIL
  6
CONTINUOUS
 62
     5
 10
146.4739736795095
 20
164.23249463222419
 30
0.0
 11
146.16864305464111
 21
163.94534140455329
 31
0.0
  0
LINE
  8
DETAIL
  6
CONTINUOUS
 62
     5
 10
162.7497426803852
 20
145.11570887390531
 30
0.0
 11
163.16463132819629
 21
145.4520356122591
 31
0.0
  0
LINE
  8
DETAIL
  6
CONTINUOUS
 62
     5
 10
163.16463132819629
 20
145.4520356122591
 30
0.0
 11
163.52359271663749
 21
145.76687624185641
 31
0.0
  0
LINE
  8
DETAIL
  6
CONTINUOUS
 62
     5
 10
162.73289235656739
 20
145.0664464355516
 30
0.0
 11
162.77638892469349
 21
145.09871939422061
 31
0.0
  0
LINE
  8
DETAIL
  6
CONTINUOUS
 62
     5
 10
-36.999999999824922
 20
-40.000000000350383
 30
0.0
 11
37.000000000350163
 21
-40.000000000350383
 31
0.0
  0
LINE
  8
DETAIL
  6
CONTINUOUS
 62
     5
 10
148.27466533239931
 20
-163.39828478826621
 30
0.0
 11
148.27377409702291
 21
-163.39555377110329
 31
0.0
  0
LINE
  8
DETAIL
  6
CONTINUOUS
 62
     5
 10
137.22528842574431
 20
-158.43849186147119
 30
0.0
 11
137.8035619838879
 21
-158.93044301716279
 31
0.0
  0
LINE
  8
DETAIL
  6
CONTINUOUS
 62
     5
 10
137.8035619838879
 20
-158.93044301716279
 30
0.0
 11
138.4506849735553
 21
-159.32704418616461
 31
0.0
  0
LINE
  8
DETAIL
  6
CONTINUOUS
 62
     5
 10
138.4506849735553
 20
-159.32704418616461
 30
0.0
 11
139.17136089929929
 21
-159.62988478949231
 31
0.0
  0
LINE
  8
DETAIL
  6
CONTINUOUS
 62
     5
 10
139.17136089929929
 20
-159.62988478949231
 30
0.0
 11
139.9514792443083
 21
-159.83419656409819
 31
0.0
  0
LINE
  8
DETAIL
  6
CONTINUOUS
 62
     5
 10
139.9514792443083
 20
-159.83419656409819
 30
0.0
 11
140.7822602437827
 21
-159.93552565534151
 31
0.0
  0
LINE
  8
DETAIL
  6
CONTINUOUS
 62
     5
 10
140.7822602437827
 20
-159.93552565534151
 30
0.0
 11
141.65241514728541
 21
-159.93451825744319
 31
0.0
  0
LINE
  8
DETAIL
  6
CONTINUOUS
 62
     5
 10
141.65241514728541
 20
-159.93451825744319
 30
0.0
 11
142.55164239141871
 21
-159.82925477285471
 31
0.0
  0
LINE
  8
DETAIL
  6
CONTINUOUS
 62
     5
 10
142.55164239141871
 20
-159.82925477285471
 30
0.0
 11
143.46820065288969
 21
-159.62297871698769
 31
0.0
  0
LINE
  8
DETAIL
  6
CONTINUOUS
 62
     5
 10
143.46820065288969
 20
-159.62297871698769
 30
0.0
 11
144.39078313344999
 21
-159.31640100788101
 31
0.0
  0
LINE
  8
DETAIL
  6
CONTINUOUS
 62
     5
 10
144.39078313344999
 20
-159.31640100788101
 30
0.0
 11
145.3077846945707
 21
-158.91519983695281
 31
0.0
  0
LINE
  8
DETAIL
  6
CONTINUOUS
 62
     5
 10
145.3077846945707
 20
-158.91519983695281
 30
0.0
 11
146.20746027320499
 21
-158.42268098931709
 31
0.0
  0
LINE
  8
DETAIL
  6
CONTINUOUS
 62
     5
 10
146.20746027320499
 20
-158.42268098931709
 30
0.0
 11
147.07892284676021
 21
-157.8466726056042
 31
0.0
  0
LINE
  8
DETAIL
  6
CONTINUOUS
 62
     5
 10
147.07892284676021
 20
-157.8466726056042
 30
0.0
 11
147.91057803362509
 21
-157.19290957092809
 31
0.0
  0
LINE
  8
DETAIL
  6
CONTINUOUS
 62
     5
 10
147.91057803362509
 20
-157.19290957092809
 30
0.0
 11
148.69280284676009
 21
-156.47097744010509
 31
0.0
  0
LINE
  8
DETAIL
  6
CONTINUOUS
 62
     5
 10
148.69280284676009
 20
-156.47097744010509
 30
0.0
 11
149.41473497758309
 21
-155.68875262644499
 31
0.0
  0
LINE
  8
DETAIL
  6
CONTINUOUS
 62
     5
 10
149.41473497758309
 20
-155.68875262644499
 30
0.0
 11
150.0684980127844
 21
-154.85709744010501
 31
0.0
  0
LINE
  8
DETAIL
  6
CONTINUOUS
 62
     5
 10
150.0684980127844
 20
-154.85709744010501
 30
0.0
 11
150.6445063959718
 21
-153.9856348665501
 31
0.0
  0
LINE
  8
DETAIL
  6
CONTINUOUS
 62
     5
 10
150.6445063959718
 20
-153.9856348665501
 30
0.0
 11
151.13702524413321
 21
-153.08595928791601
 31
0.0
  0
LINE
  8
DETAIL
  6
CONTINUOUS
 62
     5
 10
151.13702524413321
 20
-153.08595928791601
 30
0.0
 11
151.53822641506119
 21
-152.1689577267953
 31
0.0
  0
LINE
  8
DETAIL
  6
CONTINUOUS
 62
     5
 10
151.53822641506119
 20
-152.1689577267953
 30
0.0
 11
151.84480412416809
 21
-151.24637524623469
 31
0.0
  0
LINE
  8
DETAIL
  6
CONTINUOUS
 62
     5
 10
151.84480412416809
 20
-151.24637524623469
 30
0.0
 11
152.05108018003509
 21
-150.32981698476351
 31
0.0
  0
LINE
  8
DETAIL
  6
CONTINUOUS
 62
     5
 10
152.05108018003509
 20
-150.32981698476351
 30
0.0
 11
152.1563436640979
 21
-149.43058974010521
 31
0.0
  0
LINE
  8
DETAIL
  6
CONTINUOUS
 62
     5
 10
152.1563436640979
 20
-149.43058974010521
 30
0.0
 11
152.15735106252191
 21
-148.56043483660261
 31
0.0
  0
LINE
  8
DETAIL
  6
CONTINUOUS
 62
     5
 10
152.15735106252191
 20
-148.56043483660261
 30
0.0
 11
152.05602197075291
 21
-147.7296538376531
 31
0.0
  0
LINE
  8
DETAIL
  6
CONTINUOUS
 62
     5
 10
152.05602197075291
 20
-147.7296538376531
 30
0.0
 11
151.85171019667271
 21
-146.94953549211911
 31
0.0
  0
LINE
  8
DETAIL
  6
CONTINUOUS
 62
     5
 10
151.85171019667271
 20
-146.94953549211911
 30
0.0
 11
151.5488695928195
 21
-146.22885956637489
 31
0.0
  0
LINE
  8
DETAIL
  6
CONTINUOUS
 62
     5
 10
151.5488695928195
 20
-146.22885956637489
 30
0.0
 11
151.15226842381779
 21
-145.58173657723299
 31
0.0
  0
LINE
  8
DETAIL
  6
CONTINUOUS
 62
     5
 10
151.15226842381779
 20
-145.58173657723299
 30
0.0
 11
150.66031726812619
 21
-145.00346301856391
 31
0.0
  0
LINE
  8
DETAIL
  6
CONTINUOUS
 62
     5
 10
-4.6999999996496626
 20
68.599999999649754
 30
0.0
 11
-4.6999999996496626
 21
68.099999999999909
 31
0.0
  0
LINE
  8
DETAIL
  6
CONTINUOUS
 62
     5
 10
-4.6999999996496626
 20
-101.6000000001752
 30
0.0
 11
-4.6999999996496626
 21
-101.09999999999989
 31
0.0
  0
LINE
  8
DETAIL
  6
CONTINUOUS
 62
     5
 10
-4.5
 20
-101.0079115155868
 30
0.0
 11
-4.5
 21
-101.09999999999989
 31
0.0
  0
LINE
  8
DETAIL
  6
CONTINUOUS
 62
     5
 10
-164.89770926795109
 20
-162.77638892469349
 30
0.0
 11
-67.257359312784502
 21
-65.136038969527135
 31
0.0
  0
LINE
  8
DETAIL
  6
CONTINUOUS
 62
     5
 10
65.136038969527135
 20
67.257359312784502
 30
0.0
 11
162.77638892469349
 21
164.8977092674256
 31
0.0
  0
LINE
  8
DETAIL
  6
CONTINUOUS
 62
     5
 10
164.89770926795089
 20
162.776388924168
 30
0.0
 11
67.257359312784502
 21
65.136038969001675
 31
0.0
  0
LINE
  8
DETAIL
  6
CONTINUOUS
 62
     5
 10
-65.136038969001675
 20
-67.257359313309962
 30
0.0
 11
-162.776388924168
 21
-164.89770926795109
 31
0.0
  0
LINE
  8
DETAIL
  6
CONTINUOUS
 62
     5
 10
162.9801847171627
 20
145.30251518668999
 30
0.0
 11
162.77638892469349
 21
145.09871939422061
 31
0.0
  0
LINE
  8
DETAIL
  6
CONTINUOUS
 62
     5
 10
-147.22003973800341
 20
-164.89770926795109
 30
0.0
 11
-147.02198978038541
 21
-164.69965931033289
 31
0.0
  0
LINE
  8
DETAIL
  6
CONTINUOUS
 62
     5
 10
-183.98959235989491
 20
-201.66726188984239
 30
0.0
 11
-147.22003973800341
 21
-164.89770926795109
 31
0.0
  0
LINE
  8
DETAIL
  6
CONTINUOUS
 62
     5
 10
164.89770926795089
 20
147.22003973800341
 30
0.0
 11
201.66726188984239
 21
183.98959235989491
 31
0.0
  0
LINE
  8
DETAIL
  6
CONTINUOUS
 62
     5
 10
-146.16864305411559
 20
-163.94534140507881
 30
0.0
 11
-145.91140872924689
 21
-163.68832815761829
 31
0.0
  0
LINE
  8
DETAIL
  6
CONTINUOUS
 62
     5
 10
-145.91140872924689
 20
-163.68832815761829
 30
0.0
 11
-145.69824880560421
 21
-163.4643870472855
 31
0.0
  0
LINE
  8
DETAIL
  6
CONTINUOUS
 62
     5
 10
-145.69824880560421
 20
-163.4643870472855
 30
0.0
 11
-145.52407605551659
 21
-163.27372992084091
 31
0.0
  0
LINE
  8
DETAIL
  6
CONTINUOUS
 62
     5
 10
-145.52407605551659
 20
-163.27372992084091
 30
0.0
 11
-145.3849750229422
 21
-163.11617696690021
 31
0.0
  0
LINE
  8
DETAIL
  6
CONTINUOUS
 62
     5
 10
-145.3849750229422
 20
-163.11617696690021
 30
0.0
 11
-145.27681206357261
 21
-162.990310409107
 31
0.0
  0
LINE
  8
DETAIL
  6
CONTINUOUS
 62
     5
 10
-145.27681206357261
 20
-162.990310409107
 30
0.0
 11
-145.19621596549931
 21
-162.894708181261
 31
0.0
  0
LINE
  8
DETAIL
  6
CONTINUOUS
 62
     5
 10
-145.19621596549931
 20
-162.894708181261
 30
0.0
 11
-145.1409439849385
 21
-162.82812232697029
 31
0.0
  0
LINE
  8
DETAIL
  6
CONTINUOUS
 62
     5
 10
-145.1409439849385
 20
-162.82812232697029
 30
0.0
 11
-145.10897902644481
 21
-162.78907143730319
 31
0.0
  0
LINE
  8
DETAIL
  6
CONTINUOUS
 62
     5
 10
-145.10897902644481
 20
-162.78907143730319
 30
0.0
 11
-145.09871939474601
 21
-162.77638892469349
 31
0.0
  0
LINE
  8
DETAIL
  6
CONTINUOUS
 62
     5
 10
163.828894242557
 20
146.0535630178633
 30
0.0
 11
164.08592542486869
 21
146.30958198336251
 31
0.0
  0
LINE
  8
DETAIL
  6
CONTINUOUS
 62
     5
 10
164.08592542486869
 20
146.30958198336251
 30
0.0
 11
164.29888844028031
 21
146.53272738021019
 31
0.0
  0
LINE
  8
DETAIL
  6
CONTINUOUS
 62
     5
 10
164.29888844028031
 20
146.53272738021019
 30
0.0
 11
164.47283487793359
 21
146.722986272154
 31
0.0
  0
LINE
  8
DETAIL
  6
CONTINUOUS
 62
     5
 10
164.47283487793359
 20
146.722986272154
 30
0.0
 11
164.61174845306479
 21
146.88042762714531
 31
0.0
  0
LINE
  8
DETAIL
  6
CONTINUOUS
 62
     5
 10
164.61174845306479
 20
146.88042762714531
 30
0.0
 11
164.71976386129609
 21
147.00627663835371
 31
0.0
  0
LINE
  8
DETAIL
  6
CONTINUOUS
 62
     5
 10
164.71976386129609
 20
147.00627663835371
 30
0.0
 11
164.80026144851149
 21
147.10183305394051
 31
0.0
  0
LINE
  8
DETAIL
  6
CONTINUOUS
 62
     5
 10
164.80026144851149
 20
147.10183305394051
 30
0.0
 11
164.8554930304729
 21
147.16836617180391
 31
0.0
  0
LINE
  8
DETAIL
  6
CONTINUOUS
 62
     5
 10
164.8554930304729
 20
147.16836617180391
 30
0.0
 11
164.88744912661991
 21
147.20737484973711
 31
0.0
  0
LINE
  8
DETAIL
  6
CONTINUOUS
 62
     5
 10
164.88744912661991
 20
147.20737484973711
 30
0.0
 11
164.89770926795089
 21
147.22003973800341
 31
0.0
  0
LINE
  8
DETAIL
  6
CONTINUOUS
 62
     5
 10
-163.52359271663749
 20
-145.76687624238181
 30
0.0
 11
-163.82889424203151
 21
-146.05356301838879
 31
0.0
  0
LINE
  8
DETAIL
  6
CONTINUOUS
 62
     5
 10
163.52359271663749
 20
145.76687624185641
 30
0.0
 11
163.828894242557
 21
146.0535630178633
 31
0.0
  0
LINE
  8
DETAIL
  6
CONTINUOUS
 62
     5
 10
-162.74974267985999
 20
-145.11570887443099
 30
0.0
 11
-163.1646313276708
 21
-145.45203561278461
 31
0.0
  0
LINE
  8
DETAIL
  6
CONTINUOUS
 62
     5
 10
-163.1646313276708
 20
-145.45203561278461
 30
0.0
 11
-163.52359271663749
 21
-145.76687624238181
 31
0.0
  0
LINE
  8
DETAIL
  6
CONTINUOUS
 62
     5
 10
162.586833277408
 20
-144.95962657302971
 30
0.0
 11
162.73289235656739
 21
-145.06644643607731
 31
0.0
  0
LINE
  8
DETAIL
  6
CONTINUOUS
 62
     5
 10
162.73289235656739
 20
-145.06644643607731
 30
0.0
 11
162.77638892469349
 21
-145.09871939474601
 31
0.0
  0
LINE
  8
DETAIL
  6
CONTINUOUS
 62
     5
 10
162.7497426803852
 20
-145.11570887443099
 30
0.0
 11
163.16463132819629
 21
-145.45203561278461
 31
0.0
  0
LINE
  8
DETAIL
  6
CONTINUOUS
 62
     5
 10
163.16463132819629
 20
-145.45203561278461
 30
0.0
 11
163.52359271663749
 21
-145.76687624238181
 31
0.0
  0
LINE
  8
DETAIL
  6
CONTINUOUS
 62
     5
 10
141.24610370595451
 20
-138.41767658091069
 30
0.0
 11
140.72870104833621
 21
-137.97750975761821
 31
0.0
  0
LINE
  8
DETAIL
  6
CONTINUOUS
 62
     5
 10
140.72870104833621
 20
-137.97750975761821
 30
0.0
 11
140.14969626830111
 21
-137.62265608003511
 31
0.0
  0
LINE
  8
DETAIL
  6
CONTINUOUS
 62
     5
 10
140.14969626830111
 20
-137.62265608003511
 30
0.0
 11
139.50488096637491
 21
-137.35169343467601
 31
0.0
  0
LINE
  8
DETAIL
  6
CONTINUOUS
 62
     5
 10
139.50488096637491
 20
-137.35169343467601
 30
0.0
 11
139.46170643642719
 21
-137.34038609264459
 31
0.0
  0
LINE
  8
DETAIL
  6
CONTINUOUS
 62
     5
 10
139.4961037056041
 20
-136.667676581086
 30
0.0
 11
138.97870104798611
 21
-136.22750975726811
 31
0.0
  0
LINE
  8
DETAIL
  6
CONTINUOUS
 62
     5
 10
138.97870104798611
 20
-136.22750975726811
 30
0.0
 11
138.39969626847639
 21
-135.8726560796847
 31
0.0
  0
LINE
  8
DETAIL
  6
CONTINUOUS
 62
     5
 10
138.39969626847639
 20
-135.8726560796847
 30
0.0
 11
137.7548809660245
 21
-135.60169343485131
 31
0.0
  0
LINE
  8
DETAIL
  6
CONTINUOUS
 62
     5
 10
137.7548809660245
 20
-135.60169343485131
 30
0.0
 11
137.7117064366025
 21
-135.5903860928197
 31
0.0
  0
LINE
  8
DETAIL
  6
CONTINUOUS
 62
     5
 10
-163.82889424203151
 20
146.0535630178633
 30
0.0
 11
-164.08592542434329
 21
146.30958198336251
 31
0.0
  0
LINE
  8
DETAIL
  6
CONTINUOUS
 62
     5
 10
-164.08592542434329
 20
146.30958198336251
 30
0.0
 11
-164.29888843975479
 21
146.53272738021019
 31
0.0
  0
LINE
  8
DETAIL
  6
CONTINUOUS
 62
     5
 10
-164.29888843975479
 20
146.53272738021019
 30
0.0
 11
-164.4728348774081
 21
146.722986272154
 31
0.0
  0
LINE
  8
DETAIL
  6
CONTINUOUS
 62
     5
 10
-164.4728348774081
 20
146.722986272154
 30
0.0
 11
-164.61174845253939
 21
146.88042762714531
 31
0.0
  0
LINE
  8
DETAIL
  6
CONTINUOUS
 62
     5
 10
-164.61174845253939
 20
146.88042762714531
 30
0.0
 11
-164.71976386129609
 21
147.00627663835371
 31
0.0
  0
LINE
  8
DETAIL
  6
CONTINUOUS
 62
     5
 10
-164.71976386129609
 20
147.00627663835371
 30
0.0
 11
-164.8002614479858
 21
147.10183305394051
 31
0.0
  0
LINE
  8
DETAIL
  6
CONTINUOUS
 62
     5
 10
-164.8002614479858
 20
147.10183305394051
 30
0.0
 11
-164.8554930304729
 21
147.16836617180391
 31
0.0
  0
LINE
  8
DETAIL
  6
CONTINUOUS
 62
     5
 10
-164.8554930304729
 20
147.16836617180391
 30
0.0
 11
-164.88744912609471
 21
147.20737484973711
 31
0.0
  0
LINE
  8
DETAIL
  6
CONTINUOUS
 62
     5
 10
-164.88744912609471
 20
147.20737484973711
 30
0.0
 11
-164.89770926795109
 21
147.22003973800341
 31
0.0
  0
LINE
  8
DETAIL
  6
CONTINUOUS
 62
     5
 10
126.6267602884413
 20
-149.53701999877421
 30
0.0
 11
138.1267602882663
 21
-161.03701999859891
 31
0.0
  0
LINE
  8
DETAIL
  6
CONTINUOUS
 62
     5
 10
127.4752884257443
 20
-148.68849186147119
 30
0.0
 11
137.22528842574431
 21
-158.43849186147119
 31
0.0
  0
LINE
  8
DETAIL
  6
CONTINUOUS
 62
     5
 10
74.469848480910514
 20
-93.278888860770621
 30
0.0
 11
81.54091629299478
 21
-100.3499566728547
 31
0.0
  0
LINE
  8
DETAIL
  6
CONTINUOUS
 62
     5
 10
-201.6672618893169
 20
183.98959235989491
 30
0.0
 11
-164.89770926795109
 21
147.22003973800341
 31
0.0
  0
LINE
  8
DETAIL
  6
CONTINUOUS
 62
     5
 10
-162.9801847166375
 20
145.30251518668999
 30
0.0
 11
-162.776388924168
 21
145.09871939422061
 31
0.0
  0
LINE
  8
DETAIL
  6
CONTINUOUS
 62
     5
 10
158.1167851733799
 20
-175.79445470280211
 30
0.0
 11
183.98959235989491
 21
-201.66726188984239
 31
0.0
  0
LINE
  8
DETAIL
  6
CONTINUOUS
 62
     5
 10
83.090427175481636
 20
-98.800243610858161
 30
0.0
 11
83.888067055166402
 21
-99.609962123642845
 31
0.0
  0
LINE
  8
DETAIL
  6
CONTINUOUS
 62
     5
 10
91.613064431348675
 20
-107.50227215306499
 30
0.0
 11
93.170251134851242
 21
-109.0791369089318
 31
0.0
  0
LINE
  8
DETAIL
  6
CONTINUOUS
 62
     5
 10
93.170251134851242
 20
-109.0791369089318
 30
0.0
 11
94.743863858669101
 21
-110.6676025917689
 31
0.0
  0
LINE
  8
DETAIL
  6
CONTINUOUS
 62
     5
 10
94.743863858669101
 20
-110.6676025917689
 30
0.0
 11
96.331588576707418
 21
-112.26569948826641
 31
0.0
  0
LINE
  8
DETAIL
  6
CONTINUOUS
 62
     5
 10
96.331588576707418
 20
-112.26569948826641
 30
0.0
 11
97.931111263397497
 21
-113.8714578840631
 31
0.0
  0
LINE
  8
DETAIL
  6
CONTINUOUS
 62
     5
 10
83.888067055166402
 20
-99.609962123642845
 30
0.0
 11
85.47825619964965
 21
-101.2346859520139
 31
0.0
  0
LINE
  8
DETAIL
  6
CONTINUOUS
 62
     5
 10
4.5
 20
-101.0079115155868
 30
0.0
 11
4.5
 21
-101.09999999999989
 31
0.0
  0
LINE
  8
DETAIL
  6
CONTINUOUS
 62
     5
 10
4.7000000001751232
 20
68.599999999649754
 30
0.0
 11
4.7000000001751232
 21
68.099999999999909
 31
0.0
  0
LINE
  8
DETAIL
  6
CONTINUOUS
 62
     5
 10
4.7000000001751232
 20
-101.6000000001752
 30
0.0
 11
4.7000000001751232
 21
-101.09999999999989
 31
0.0
  0
LINE
  8
DETAIL
  6
CONTINUOUS
 62
     5
 10
-146.4739736795095
 20
-164.23249463274959
 30
0.0
 11
-146.16864305411559
 21
-163.94534140507881
 31
0.0
  0
LINE
  8
DETAIL
  6
CONTINUOUS
 62
     5
 10
-147.2469763528895
 20
-164.88149572802081
 30
0.0
 11
-146.8325701649737
 21
-164.5465684665501
 31
0.0
  0
LINE
  8
DETAIL
  6
CONTINUOUS
 62
     5
 10
-146.8325701649737
 20
-164.5465684665501
 30
0.0
 11
-146.4739736795095
 21
-164.23249463274959
 31
0.0
  0
LINE
  8
DETAIL
  6
CONTINUOUS
 62
     5
 10
-162.73289235656739
 20
-145.06644643607731
 30
0.0
 11
-162.776388924168
 21
-145.09871939474601
 31
0.0
  0
LINE
  8
DETAIL
  6
CONTINUOUS
 62
     5
 10
-162.74974267985999
 20
145.11570887390531
 30
0.0
 11
-163.1646313276708
 21
145.4520356122591
 31
0.0
  0
LINE
  8
DETAIL
  6
CONTINUOUS
 62
     5
 10
-163.1646313276708
 20
145.4520356122591
 30
0.0
 11
-163.52359271663749
 21
145.76687624185641
 31
0.0
  0
LINE
  8
DETAIL
  6
CONTINUOUS
 62
     5
 10
-163.52359271663749
 20
145.76687624185641
 30
0.0
 11
-163.82889424203151
 21
146.0535630178633
 31
0.0
  0
LINE
  8
DETAIL
  6
CONTINUOUS
 62
     5
 10
163.52359271663749
 20
-145.76687624238181
 30
0.0
 11
163.828894242557
 21
-146.05356301838879
 31
0.0
  0
LINE
  8
DETAIL
  6
CONTINUOUS
 62
     5
 10
147.25539507740791
 20
-149.80097948984229
 30
0.0
 11
147.69811915323999
 21
-150.24370356567439
 31
0.0
  0
LINE
  8
DETAIL
  6
CONTINUOUS
 62
     5
 10
148.74309344973739
 20
-151.28867786217171
 30
0.0
 11
149.58884745551629
 21
-152.13443186742549
 31
0.0
  0
LINE
  8
DETAIL
  6
CONTINUOUS
 62
     5
 10
162.77638892469349
 20
-164.89770926795109
 30
0.0
 11
153.4761034103326
 21
-155.59742375359019
 31
0.0
  0
LINE
  8
DETAIL
  6
CONTINUOUS
 62
     5
 10
151.0760398670752
 20
-153.19736021085831
 30
0.0
 11
65.136038969527135
 21
-67.257359313309962
 31
0.0
  0
LINE
  8
DETAIL
  6
CONTINUOUS
 62
     5
 10
-67.257359312784502
 20
65.136038969001675
 30
0.0
 11
-164.89770926795109
 21
162.776388924168
 31
0.0
  0
LINE
  8
DETAIL
  6
CONTINUOUS
 62
     5
 10
-162.776388924168
 20
164.8977092674256
 30
0.0
 11
-65.136038969001675
 21
67.257359312784502
 31
0.0
  0
LINE
  8
DETAIL
  6
CONTINUOUS
 62
     5
 10
67.257359312784502
 20
-65.136038969527135
 30
0.0
 11
152.09300332381781
 21
-149.97168298003501
 31
0.0
  0
LINE
  8
DETAIL
  6
CONTINUOUS
 62
     5
 10
154.68297871260941
 20
-152.56165836882681
 30
0.0
 11
164.89770926795089
 21
-162.77638892469349
 31
0.0
  0
LINE
  8
DETAIL
  6
CONTINUOUS
 62
     5
 10
157.64124278931689
 20
-155.46966991418569
 30
0.0
 11
165.94974746847629
 21
-163.77817459334511
 31
0.0
  0
LINE
  8
DETAIL
  6
CONTINUOUS
 62
     5
 10
152.15646239369539
 20
-149.32803526917701
 30
0.0
 11
150.99856326725029
 21
-148.1701361422067
 31
0.0
  0
LINE
  8
DETAIL
  6
CONTINUOUS
 62
     5
 10
150.06864673397541
 20
-147.2402196094572
 30
0.0
 11
139.4961037056041
 21
-136.667676581086
 31
0.0
  0
LINE
  8
DETAIL
  6
CONTINUOUS
 62
     5
 10
166.79827560577931
 20
-162.92964645604209
 30
0.0
 11
162.37885822329261
 21
-158.51022907355511
 31
0.0
  0
LINE
  8
DETAIL
  6
CONTINUOUS
 62
     5
 10
140.34463184343261
 20
-135.81914844378301
 30
0.0
 11
144.29463184308219
 21
-139.76914844343261
 31
0.0
  0
LINE
  8
DETAIL
  6
CONTINUOUS
 62
     5
 10
154.9344226633975
 20
-149.93442266322239
 30
0.0
 11
159.05545635183901
 21
-154.05545635218911
 31
0.0
  0
LINE
  8
DETAIL
  6
CONTINUOUS
 62
     5
 10
162.9445436485114
 20
-157.94454364833609
 30
0.0
 11
166.65685424973731
 21
-161.6568542495622
 31
0.0
  0
LINE
  8
DETAIL
  6
CONTINUOUS
 62
     5
 10
150.63960659001759
 20
-145.1241736970228
 30
0.0
 11
151.23949559369521
 21
-145.72406270070061
 31
0.0
  0
LINE
  8
DETAIL
  6
CONTINUOUS
 62
     5
 10
150.66031726812619
 20
-145.00346301856391
 30
0.0
 11
148.28531726795109
 21
-142.62846301891429
 31
0.0
  0
LINE
  8
DETAIL
  6
CONTINUOUS
 62
     5
 10
144.86031726830109
 20
-139.20346301873931
 30
0.0
 11
143.41031726795109
 21
-137.75346301891429
 31
0.0
  0
LINE
  8
DETAIL
  6
CONTINUOUS
 62
     5
 10
159.903984489142
 20
-153.20692821436069
 30
0.0
 11
154.77746032591949
 21
-148.0804040511384
 31
0.0
  0
LINE
  8
DETAIL
  6
CONTINUOUS
 62
     5
 10
163.79307178581439
 20
-157.0960155110333
 30
0.0
 11
167.5053823870403
 21
-160.80832611225921
 31
0.0
  0
LINE
  8
DETAIL
  6
CONTINUOUS
 62
     5
 10
144.25884540577931
 20
-136.90493488108589
 30
0.0
 11
145.70884540560431
 21
-138.35493488143609
 31
0.0
  0
LINE
  8
DETAIL
  6
CONTINUOUS
 62
     5
 10
149.13384540577931
 20
-141.77993488108589
 30
0.0
 11
153.25884540577931
 21
-145.90493488108589
 31
0.0
  0
LINE
  8
DETAIL
  6
CONTINUOUS
 62
     5
 10
160.46966991436079
 20
-152.6412427896673
 30
0.0
 11
164.35875721103321
 21
-156.53033008633969
 31
0.0
  0
LINE
  8
DETAIL
  6
CONTINUOUS
 62
     5
 10
146.27453083029761
 20
-137.78924945621719
 30
0.0
 11
152.1245308302978
 21
-143.63924945621741
 31
0.0
  0
LINE
  8
DETAIL
  6
CONTINUOUS
 62
     5
 10
90.804015126620016
 20
-81.894469683888019
 30
0.0
 11
92.925335469877382
 21
-84.015790027145385
 31
0.0
  0
LINE
  8
DETAIL
  6
CONTINUOUS
 62
     5
 10
149.56633968336249
 20
-153.91104538056041
 30
0.0
 11
150.24585162819611
 21
-154.59094207513141
 31
0.0
  0
LINE
  8
DETAIL
  6
CONTINUOUS
 62
     5
 10
145.77935129999989
 20
-163.5495915367776
 30
0.0
 11
145.69824880560421
 21
-163.4643870472855
 31
0.0
  0
LINE
  8
DETAIL
  6
CONTINUOUS
 62
     5
 10
145.69824880560421
 20
-163.4643870472855
 30
0.0
 11
145.52407605551659
 21
-163.27372992084091
 31
0.0
  0
LINE
  8
DETAIL
  6
CONTINUOUS
 62
     5
 10
145.52407605551659
 20
-163.27372992084091
 30
0.0
 11
145.3849750229422
 21
-163.11617696690021
 31
0.0
  0
LINE
  8
DETAIL
  6
CONTINUOUS
 62
     5
 10
145.3849750229422
 20
-163.11617696690021
 30
0.0
 11
145.2768120640981
 21
-162.990310409107
 31
0.0
  0
LINE
  8
DETAIL
  6
CONTINUOUS
 62
     5
 10
145.2768120640981
 20
-162.990310409107
 30
0.0
 11
145.19621596602451
 21
-162.894708181261
 31
0.0
  0
LINE
  8
DETAIL
  6
CONTINUOUS
 62
     5
 10
145.19621596602451
 20
-162.894708181261
 30
0.0
 11
145.14094398546399
 21
-162.82812232697029
 31
0.0
  0
LINE
  8
DETAIL
  6
CONTINUOUS
 62
     5
 10
145.14094398546399
 20
-162.82812232697029
 30
0.0
 11
145.10897902697019
 21
-162.78907143730319
 31
0.0
  0
LINE
  8
DETAIL
  6
CONTINUOUS
 62
     5
 10
145.10897902697019
 20
-162.78907143730319
 30
0.0
 11
145.09871939474601
 21
-162.77638892469349
 31
0.0
  0
LINE
  8
DETAIL
  6
CONTINUOUS
 62
     5
 10
126.6267602884413
 20
-149.53701999877421
 30
0.0
 11
126.1244522658494
 21
-148.94657225989499
 31
0.0
  0
LINE
  8
DETAIL
  6
CONTINUOUS
 62
     5
 10
126.1244522658494
 20
-148.94657225989499
 30
0.0
 11
125.7195015987741
 21
-148.2858256287216
 31
0.0
  0
LINE
  8
DETAIL
  6
CONTINUOUS
 62
     5
 10
125.7195015987741
 20
-148.2858256287216
 30
0.0
 11
125.41028540332761
 21
-147.54997757810861
 31
0.0
  0
LINE
  8
DETAIL
  6
CONTINUOUS
 62
     5
 10
125.41028540332761
 20
-147.54997757810861
 30
0.0
 11
125.20167232854649
 21
-146.7534356889669
 31
0.0
  0
LINE
  8
DETAIL
  6
CONTINUOUS
 62
     5
 10
125.20167232854649
 20
-146.7534356889669
 30
0.0
 11
125.0982099929947
 21
-145.90516456339759
 31
0.0
  0
LINE
  8
DETAIL
  6
CONTINUOUS
 62
     5
 10
125.0982099929947
 20
-145.90516456339759
 30
0.0
 11
125.0992385994746
 21
-145.01669060910669
 31
0.0
  0
LINE
  8
DETAIL
  6
CONTINUOUS
 62
     5
 10
125.0992385994746
 20
-145.01669060910669
 30
0.0
 11
125.2067181572679
 21
-144.09853226532391
 31
0.0
  0
LINE
  8
DETAIL
  6
CONTINUOUS
 62
     5
 10
125.2067181572679
 20
-144.09853226532391
 30
0.0
 11
125.41733686707541
 21
-143.16267804010519
 31
0.0
  0
LINE
  8
DETAIL
  6
CONTINUOUS
 62
     5
 10
125.41733686707541
 20
-143.16267804010519
 30
0.0
 11
125.7303688439579
 21
-142.2206727704029
 31
0.0
  0
LINE
  8
DETAIL
  6
CONTINUOUS
 62
     5
 10
125.7303688439579
 20
-142.2206727704029
 30
0.0
 11
125.95929462241681
 21
-141.69743078669009
 31
0.0
  0
LINE
  8
DETAIL
  6
CONTINUOUS
 62
     5
 10
40.000000000350163
 20
-37.000000000350383
 30
0.0
 11
40.000000000350163
 21
27.0
 31
0.0
  0
LINE
  8
DETAIL
  6
CONTINUOUS
 62
     5
 10
-147.26359414518399
 20
-164.93003929334509
 30
0.0
 11
-147.22003973800341
 21
-164.89770926795109
 31
0.0
  0
LINE
  8
DETAIL
  6
CONTINUOUS
 62
     5
 10
-169.49390334535909
 20
-163.72040065376541
 30
0.0
 11
-174.49390334553411
 21
-166.60715199982499
 31
0.0
  0
LINE
  8
DETAIL
  6
CONTINUOUS
 62
     5
 10
-162.5868332768828
 20
144.95962657250419
 30
0.0
 11
-162.73289235656739
 21
145.0664464355516
 31
0.0
  0
LINE
  8
DETAIL
  6
CONTINUOUS
 62
     5
 10
-162.73289235656739
 20
145.0664464355516
 30
0.0
 11
-162.776388924168
 21
145.09871939422061
 31
0.0
  0
LINE
  8
DETAIL
  6
CONTINUOUS
 62
     5
 10
-146.4739736795095
 20
164.23249463222419
 30
0.0
 11
-146.16864305411559
 21
163.94534140455329
 31
0.0
  0
LINE
  8
DETAIL
  6
CONTINUOUS
 62
     5
 10
-146.16864305411559
 20
163.94534140455329
 30
0.0
 11
-145.91140872924689
 21
163.68832815709291
 31
0.0
  0
LINE
  8
DETAIL
  6
CONTINUOUS
 62
     5
 10
-145.91140872924689
 20
163.68832815709291
 30
0.0
 11
-145.69824880560421
 21
163.4643870472853
 31
0.0
  0
LINE
  8
DETAIL
  6
CONTINUOUS
 62
     5
 10
-145.69824880560421
 20
163.4643870472853
 30
0.0
 11
-145.52407605551659
 21
163.27372992031519
 31
0.0
  0
LINE
  8
DETAIL
  6
CONTINUOUS
 62
     5
 10
-145.52407605551659
 20
163.27372992031519
 30
0.0
 11
-145.3849750229422
 21
163.1161769663747
 31
0.0
  0
LINE
  8
DETAIL
  6
CONTINUOUS
 62
     5
 10
-145.3849750229422
 20
163.1161769663747
 30
0.0
 11
-145.27681206357261
 21
162.9903104091068
 31
0.0
  0
LINE
  8
DETAIL
  6
CONTINUOUS
 62
     5
 10
-145.27681206357261
 20
162.9903104091068
 30
0.0
 11
-145.19621596549931
 21
162.89470818073551
 31
0.0
  0
LINE
  8
DETAIL
  6
CONTINUOUS
 62
     5
 10
-145.19621596549931
 20
162.89470818073551
 30
0.0
 11
-145.1409439849385
 21
162.8281223264448
 31
0.0
  0
LINE
  8
DETAIL
  6
CONTINUOUS
 62
     5
 10
-145.1409439849385
 20
162.8281223264448
 30
0.0
 11
-145.10897902644481
 21
162.7890714367775
 31
0.0
  0
LINE
  8
DETAIL
  6
CONTINUOUS
 62
     5
 10
-145.10897902644481
 20
162.7890714367775
 30
0.0
 11
-145.09871939474601
 21
162.776388924168
 31
0.0
  0
LINE
  8
DETAIL
  6
CONTINUOUS
 62
     5
 10
163.828894242557
 20
-146.05356301838879
 30
0.0
 11
164.08592542486869
 21
-146.30958198336251
 31
0.0
  0
LINE
  8
DETAIL
  6
CONTINUOUS
 62
     5
 10
164.08592542486869
 20
-146.30958198336251
 30
0.0
 11
164.29888844028031
 21
-146.53272738021019
 31
0.0
  0
LINE
  8
DETAIL
  6
CONTINUOUS
 62
     5
 10
164.29888844028031
 20
-146.53272738021019
 30
0.0
 11
164.47283487793359
 21
-146.722986272154
 31
0.0
  0
LINE
  8
DETAIL
  6
CONTINUOUS
 62
     5
 10
164.47283487793359
 20
-146.722986272154
 30
0.0
 11
164.61174845306479
 21
-146.8804276276708
 31
0.0
  0
LINE
  8
DETAIL
  6
CONTINUOUS
 62
     5
 10
164.61174845306479
 20
-146.8804276276708
 30
0.0
 11
164.71976386129609
 21
-147.0062766388792
 31
0.0
  0
LINE
  8
DETAIL
  6
CONTINUOUS
 62
     5
 10
164.71976386129609
 20
-147.0062766388792
 30
0.0
 11
164.80026144851149
 21
-147.10183305446591
 31
0.0
  0
LINE
  8
DETAIL
  6
CONTINUOUS
 62
     5
 10
164.80026144851149
 20
-147.10183305446591
 30
0.0
 11
164.8554930304729
 21
-147.16836617232931
 31
0.0
  0
LINE
  8
DETAIL
  6
CONTINUOUS
 62
     5
 10
164.8554930304729
 20
-147.16836617232931
 30
0.0
 11
164.88744912661991
 21
-147.2073748502628
 31
0.0
  0
LINE
  8
DETAIL
  6
CONTINUOUS
 62
     5
 10
164.88744912661991
 20
-147.2073748502628
 30
0.0
 11
164.89770926795089
 21
-147.22003973852881
 31
0.0
  0
LINE
  8
DETAIL
  6
CONTINUOUS
 62
     5
 10
-147.22003973800341
 20
164.8977092674256
 30
0.0
 11
-147.02198978038541
 21
164.69965931033269
 31
0.0
  0
LINE
  8
DETAIL
  6
CONTINUOUS
 62
     5
 10
201.66726188984239
 20
-183.98959235989491
 30
0.0
 11
164.89770926795089
 21
-147.22003973852881
 31
0.0
  0
LINE
  8
DETAIL
  6
CONTINUOUS
 62
     5
 10
162.9801847171627
 20
-145.3025151872155
 30
0.0
 11
162.77638892469349
 21
-145.09871939474601
 31
0.0
  0
LINE
  8
DETAIL
  6
CONTINUOUS
 62
     5
 10
-147.22003973800341
 20
164.8977092674256
 30
0.0
 11
-183.98959235989491
 21
201.6672618893169
 31
0.0
  0
LINE
  8
DETAIL
  6
CONTINUOUS
 62
     5
 10
88.484220522241685
 20
-84.111874773730278
 30
0.0
 11
88.490790763397399
 21
-84.207694047110408
 31
0.0
  0
LINE
  8
DETAIL
  6
CONTINUOUS
 62
     5
 10
151.5088454054289
 20
-144.15493488126091
 30
0.0
 11
152.02884864115569
 21
-144.75941270437849
 31
0.0
  0
LINE
  8
DETAIL
  6
CONTINUOUS
 62
     5
 10
152.02884864115569
 20
-144.75941270437849
 30
0.0
 11
152.45583676865141
 21
-145.43259861015761
 31
0.0
  0
LINE
  8
DETAIL
  6
CONTINUOUS
 62
     5
 10
152.45583676865141
 20
-145.43259861015761
 30
0.0
 11
152.79138024063059
 21
-146.17873331873901
 31
0.0
  0
LINE
  8
DETAIL
  6
CONTINUOUS
 62
     5
 10
152.79138024063059
 20
-146.17873331873901
 30
0.0
 11
153.03076769894909
 21
-146.9850946686515
 31
0.0
  0
LINE
  8
DETAIL
  6
CONTINUOUS
 62
     5
 10
153.03076769894909
 20
-146.9850946686515
 30
0.0
 11
153.16977330157621
 21
-147.84376659772329
 31
0.0
  0
LINE
  8
DETAIL
  6
CONTINUOUS
 62
     5
 10
153.16977330157621
 20
-147.84376659772329
 30
0.0
 11
153.20851095656741
 21
-148.7445715297724
 31
0.0
  0
LINE
  8
DETAIL
  6
CONTINUOUS
 62
     5
 10
153.20851095656741
 20
-148.7445715297724
 30
0.0
 11
153.14490347810849
 21
-149.67825259544679
 31
0.0
  0
LINE
  8
DETAIL
  6
CONTINUOUS
 62
     5
 10
153.14490347810849
 20
-149.67825259544679
 30
0.0
 11
152.98129830840639
 21
-150.63413161103341
 31
0.0
  0
LINE
  8
DETAIL
  6
CONTINUOUS
 62
     5
 10
152.98129830840639
 20
-150.63413161103341
 30
0.0
 11
152.7178577001753
 21
-151.60201547127849
 31
0.0
  0
LINE
  8
DETAIL
  6
CONTINUOUS
 62
     5
 10
152.7178577001753
 20
-151.60201547127849
 30
0.0
 11
152.35906003660239
 21
-152.57119207092819
 31
0.0
  0
LINE
  8
DETAIL
  6
CONTINUOUS
 62
     5
 10
152.35906003660239
 20
-152.57119207092819
 30
0.0
 11
151.90729991821379
 21
-153.53097755569181
 31
0.0
  0
LINE
  8
DETAIL
  6
CONTINUOUS
 62
     5
 10
151.90729991821379
 20
-153.53097755569181
 30
0.0
 11
151.36899093993
 21
-154.47109407110341
 31
0.0
  0
LINE
  8
DETAIL
  6
CONTINUOUS
 62
     5
 10
151.36899093993
 20
-154.47109407110341
 30
0.0
 11
150.7486553957967
 21
-155.38083394991261
 31
0.0
  0
LINE
  8
DETAIL
  6
CONTINUOUS
 62
     5
 10
150.7486553957967
 20
-155.38083394991261
 30
0.0
 11
150.05436178896659
 21
-156.25080277828371
 31
0.0
  0
LINE
  8
DETAIL
  6
CONTINUOUS
 62
     5
 10
150.05436178896659
 20
-156.25080277828371
 30
0.0
 11
149.2925624595448
 21
-157.07073705236439
 31
0.0
  0
LINE
  8
DETAIL
  6
CONTINUOUS
 62
     5
 10
149.2925624595448
 20
-157.07073705236439
 30
0.0
 11
148.47262818546389
 21
-157.83253638178641
 31
0.0
  0
LINE
  8
DETAIL
  6
CONTINUOUS
 62
     5
 10
148.47262818546389
 20
-157.83253638178641
 30
0.0
 11
147.6026593565675
 21
-158.52682998914179
 31
0.0
  0
LINE
  8
DETAIL
  6
CONTINUOUS
 62
     5
 10
147.6026593565675
 20
-158.52682998914179
 30
0.0
 11
146.69291947828381
 21
-159.1471655327498
 31
0.0
  0
LINE
  8
DETAIL
  6
CONTINUOUS
 62
     5
 10
146.69291947828381
 20
-159.1471655327498
 30
0.0
 11
145.75280296234681
 21
-159.68547451103339
 31
0.0
  0
LINE
  8
DETAIL
  6
CONTINUOUS
 62
     5
 10
145.75280296234681
 20
-159.68547451103339
 30
0.0
 11
144.79301747758311
 21
-160.13723462942201
 31
0.0
  0
LINE
  8
DETAIL
  6
CONTINUOUS
 62
     5
 10
144.79301747758311
 20
-160.13723462942201
 30
0.0
 11
143.82384087793341
 21
-160.4960322935201
 31
0.0
  0
LINE
  8
DETAIL
  6
CONTINUOUS
 62
     5
 10
143.82384087793341
 20
-160.4960322935201
 30
0.0
 11
142.8559570182135
 21
-160.75947290122599
 31
0.0
  0
LINE
  8
DETAIL
  6
CONTINUOUS
 62
     5
 10
142.8559570182135
 20
-160.75947290122599
 30
0.0
 11
141.900078002627
 21
-160.92307807092831
 31
0.0
  0
LINE
  8
DETAIL
  6
CONTINUOUS
 62
     5
 10
141.900078002627
 20
-160.92307807092831
 30
0.0
 11
140.9663969364274
 21
-160.98668554991241
 31
0.0
  0
LINE
  8
DETAIL
  6
CONTINUOUS
 62
     5
 10
140.9663969364274
 20
-160.98668554991241
 30
0.0
 11
140.0655920043782
 21
-160.9479478949213
 31
0.0
  0
LINE
  8
DETAIL
  6
CONTINUOUS
 62
     5
 10
140.0655920043782
 20
-160.9479478949213
 30
0.0
 11
139.2069200753065
 21
-160.8089422922942
 31
0.0
  0
LINE
  8
DETAIL
  6
CONTINUOUS
 62
     5
 10
139.2069200753065
 20
-160.8089422922942
 30
0.0
 11
138.40055872539389
 21
-160.56955483345021
 31
0.0
  0
LINE
  8
DETAIL
  6
CONTINUOUS
 62
     5
 10
138.40055872539389
 20
-160.56955483345021
 30
0.0
 11
137.6544240168125
 21
-160.2340113614712
 31
0.0
  0
LINE
  8
DETAIL
  6
CONTINUOUS
 62
     5
 10
137.6544240168125
 20
-160.2340113614712
 30
0.0
 11
136.9812381115585
 21
-159.80702323397551
 31
0.0
  0
LINE
  8
DETAIL
  6
CONTINUOUS
 62
     5
 10
136.9812381115585
 20
-159.80702323397551
 30
0.0
 11
136.37676028844129
 21
-159.28701999877421
 31
0.0
  0
LINE
  8
DETAIL
  6
CONTINUOUS
 62
     5
 10
153.25884540577931
 20
-145.90493488108589
 30
0.0
 11
153.77884864098061
 21
-146.50941270420321
 31
0.0
  0
LINE
  8
DETAIL
  6
CONTINUOUS
 62
     5
 10
153.77884864098061
 20
-146.50941270420321
 30
0.0
 11
154.2058367684765
 21
-147.18259860998251
 31
0.0
  0
LINE
  8
DETAIL
  6
CONTINUOUS
 62
     5
 10
154.2058367684765
 20
-147.18259860998251
 30
0.0
 11
154.54138024045531
 21
-147.9287333185639
 31
0.0
  0
LINE
  8
DETAIL
  6
CONTINUOUS
 62
     5
 10
154.54138024045531
 20
-147.9287333185639
 30
0.0
 11
154.7807676992993
 21
-148.73509466847639
 31
0.0
  0
LINE
  8
DETAIL
  6
CONTINUOUS
 62
     5
 10
154.7807676992993
 20
-148.73509466847639
 30
0.0
 11
154.9197733019264
 21
-149.59376659754821
 31
0.0
  0
LINE
  8
DETAIL
  6
CONTINUOUS
 62
     5
 10
154.9197733019264
 20
-149.59376659754821
 30
0.0
 11
154.95851095691771
 21
-150.4945715295971
 31
0.0
  0
LINE
  8
DETAIL
  6
CONTINUOUS
 62
     5
 10
154.95851095691771
 20
-150.4945715295971
 30
0.0
 11
154.89490347793341
 21
-151.42825259527149
 31
0.0
  0
LINE
  8
DETAIL
  6
CONTINUOUS
 62
     5
 10
154.89490347793341
 20
-151.42825259527149
 30
0.0
 11
154.73129830823109
 21
-152.38413161138351
 31
0.0
  0
LINE
  8
DETAIL
  6
CONTINUOUS
 62
     5
 10
154.73129830823109
 20
-152.38413161138351
 30
0.0
 11
154.4678577005254
 21
-153.35201547110341
 31
0.0
  0
LINE
  8
DETAIL
  6
CONTINUOUS
 62
     5
 10
154.4678577005254
 20
-153.35201547110341
 30
0.0
 11
154.10906003642731
 21
-154.32119207075311
 31
0.0
  0
LINE
  8
DETAIL
  6
CONTINUOUS
 62
     5
 10
154.10906003642731
 20
-154.32119207075311
 30
0.0
 11
153.65729991803849
 21
-155.28097755551681
 31
0.0
  0
LINE
  8
DETAIL
  6
CONTINUOUS
 62
     5
 10
153.65729991803849
 20
-155.28097755551681
 30
0.0
 11
153.11899093975489
 21
-156.22109407145351
 31
0.0
  0
LINE
  8
DETAIL
  6
CONTINUOUS
 62
     5
 10
153.11899093975489
 20
-156.22109407145351
 30
0.0
 11
152.49865539614709
 21
-157.13083394973751
 31
0.0
  0
LINE
  8
DETAIL
  6
CONTINUOUS
 62
     5
 10
152.49865539614709
 20
-157.13083394973751
 30
0.0
 11
151.80436178879151
 21
-158.0008027786339
 31
0.0
  0
LINE
  8
DETAIL
  6
CONTINUOUS
 62
     5
 10
151.80436178879151
 20
-158.0008027786339
 30
0.0
 11
151.04256245936949
 21
-158.82073705218909
 31
0.0
  0
LINE
  8
DETAIL
  6
CONTINUOUS
 62
     5
 10
151.04256245936949
 20
-158.82073705218909
 30
0.0
 11
150.2226281852891
 21
-159.58253638161139
 31
0.0
  0
LINE
  8
DETAIL
  6
CONTINUOUS
 62
     5
 10
150.2226281852891
 20
-159.58253638161139
 30
0.0
 11
149.35265935691771
 21
-160.27682998896671
 31
0.0
  0
LINE
  8
DETAIL
  6
CONTINUOUS
 62
     5
 10
149.35265935691771
 20
-160.27682998896671
 30
0.0
 11
148.44291947810871
 21
-160.89716553310001
 31
0.0
  0
LINE
  8
DETAIL
  6
CONTINUOUS
 62
     5
 10
148.44291947810871
 20
-160.89716553310001
 30
0.0
 11
147.5028029626969
 21
-161.43547451138349
 31
0.0
  0
LINE
  8
DETAIL
  6
CONTINUOUS
 62
     5
 10
147.5028029626969
 20
-161.43547451138349
 30
0.0
 11
146.54301747793349
 21
-161.88723462977239
 31
0.0
  0
LINE
  8
DETAIL
  6
CONTINUOUS
 62
     5
 10
146.54301747793349
 20
-161.88723462977239
 30
0.0
 11
145.57384087828359
 21
-162.246032293345
 31
0.0
  0
LINE
  8
DETAIL
  6
CONTINUOUS
 62
     5
 10
145.57384087828359
 20
-162.246032293345
 30
0.0
 11
144.60595701803871
 21
-162.50947290105091
 31
0.0
  0
LINE
  8
DETAIL
  6
CONTINUOUS
 62
     5
 10
144.60595701803871
 20
-162.50947290105091
 30
0.0
 11
143.65007800245189
 21
-162.6730780712785
 31
0.0
  0
LINE
  8
DETAIL
  6
CONTINUOUS
 62
     5
 10
143.65007800245189
 20
-162.6730780712785
 30
0.0
 11
142.7163969362521
 21
-162.7366855497373
 31
0.0
  0
LINE
  8
DETAIL
  6
CONTINUOUS
 62
     5
 10
142.7163969362521
 20
-162.7366855497373
 30
0.0
 11
141.81559200472859
 21
-162.69794789474619
 31
0.0
  0
LINE
  8
DETAIL
  6
CONTINUOUS
 62
     5
 10
141.81559200472859
 20
-162.69794789474619
 30
0.0
 11
140.9569200756566
 21
-162.5589422921191
 31
0.0
  0
LINE
  8
DETAIL
  6
CONTINUOUS
 62
     5
 10
140.9569200756566
 20
-162.5589422921191
 30
0.0
 11
140.1505587252191
 21
-162.31955483380031
 31
0.0
  0
LINE
  8
DETAIL
  6
CONTINUOUS
 62
     5
 10
140.1505587252191
 20
-162.31955483380031
 30
0.0
 11
139.40442401716291
 21
-161.98401136182159
 31
0.0
  0
LINE
  8
DETAIL
  6
CONTINUOUS
 62
     5
 10
139.40442401716291
 20
-161.98401136182159
 30
0.0
 11
138.73123811138339
 21
-161.5570232343257
 31
0.0
  0
LINE
  8
DETAIL
  6
CONTINUOUS
 62
     5
 10
138.73123811138339
 20
-161.5570232343257
 30
0.0
 11
138.1267602882663
 21
-161.03701999859891
 31
0.0
  0
LINE
  8
DETAIL
  6
CONTINUOUS
 62
     5
 10
62.500000000350163
 20
53.598807644658343
 30
0.0
 11
62.500000000350163
 21
60.893398281961247
 31
0.0
  0
LINE
  8
DETAIL
  6
CONTINUOUS
 62
     5
 10
-169.49390334535909
 20
-175.2674060374782
 30
0.0
 11
-164.49390334518401
 21
-172.3806546919441
 31
0.0
  0
LINE
  8
DETAIL
  6
CONTINUOUS
 62
     5
 10
37.000000000350163
 20
30.0
 30
0.0
 11
-36.999999999824922
 21
30.0
 31
0.0
  0
LINE
  8
DETAIL
  6
CONTINUOUS
 62
     5
 10
-147.4100857570929
 20
165.03713583730291
 30
0.0
 11
-147.26359414518399
 21
164.9300392928194
 31
0.0
  0
LINE
  8
DETAIL
  6
CONTINUOUS
 62
     5
 10
-147.26359414518399
 20
164.9300392928194
 30
0.0
 11
-147.22003973800341
 21
164.8977092674256
 31
0.0
  0
LINE
  8
DETAIL
  6
CONTINUOUS
 62
     5
 10
-147.2469763528895
 20
164.8814957274956
 30
0.0
 11
-146.8325701649737
 21
164.54656846602441
 31
0.0
  0
LINE
  8
DETAIL
  6
CONTINUOUS
 62
     5
 10
-146.8325701649737
 20
164.54656846602441
 30
0.0
 11
-146.4739736795095
 21
164.23249463222419
 31
0.0
  0
LINE
  8
DETAIL
  6
CONTINUOUS
 62
     5
 10
65.500000000350155
 20
60.893398281961247
 30
0.0
 11
65.500000000350155
 21
52.076773761646109
 31
0.0
  0
LINE
  8
DETAIL
  6
CONTINUOUS
 62
     5
 10
4.7000000001751232
 20
68.099999999999909
 30
0.0
 11
-4.6999999996496626
 21
68.099999999999909
 31
0.0
  0
LINE
  8
DETAIL
  6
CONTINUOUS
 62
     5
 10
-174.49390334553411
 20
166.6071519992995
 30
0.0
 11
-169.49390334535909
 21
163.72040065323969
 31
0.0
  0
LINE
  8
DETAIL
  6
CONTINUOUS
 62
     5
 10
-164.49390334518401
 20
172.38065469141841
 30
0.0
 11
-169.49390334535909
 21
175.2674060374782
 31
0.0
  0
LINE
  8
DETAIL
  6
CONTINUOUS
 62
     5
 10
4.7000000001751232
 20
68.599999999649754
 30
0.0
 11
-4.6999999996496626
 21
68.599999999649754
 31
0.0
  0
LINE
  8
DETAIL
  6
CONTINUOUS
 62
     5
 10
82.813708498949154
 20
-84.935028842732208
 30
0.0
 11
74.469877345534087
 21
-93.278859996147276
 31
0.0
  0
LINE
  8
DETAIL
  6
CONTINUOUS
 62
     5
 10
87.409902576882587
 20
-85.288582233099987
 30
0.0
 11
90.804015126620016
 21
-81.894469683888019
 31
0.0
  0
LINE
  8
DETAIL
  6
CONTINUOUS
 62
     5
 10
89.531222920665414
 20
-87.409902576882814
 30
0.0
 11
92.925335469877382
 21
-84.015790027145385
 31
0.0
  0
LINE
  8
DETAIL
  6
CONTINUOUS
 62
     5
 10
89.88477631103342
 20
-92.006096654816247
 30
0.0
 11
81.540945157618353
 21
-100.3499278082313
 31
0.0
  0
LINE
  8
DETAIL
  6
CONTINUOUS
 62
     5
 10
158.30858539229419
 20
142.89653784798591
 30
0.0
 11
158.5425126861646
 21
142.9581928528896
 31
0.0
  0
LINE
  8
DETAIL
  6
CONTINUOUS
 62
     5
 10
158.5425126861646
 20
142.9581928528896
 30
0.0
 11
159.13153967810851
 21
143.14553738931679
 31
0.0
  0
LINE
  8
DETAIL
  6
CONTINUOUS
 62
     5
 10
159.13153967810851
 20
143.14553738931679
 30
0.0
 11
159.67098855971969
 21
143.3455138460595
 31
0.0
  0
LINE
  8
DETAIL
  6
CONTINUOUS
 62
     5
 10
159.67098855971969
 20
143.3455138460595
 30
0.0
 11
160.16194681418551
 21
143.55209349457101
 31
0.0
  0
LINE
  8
DETAIL
  6
CONTINUOUS
 62
     5
 10
160.16194681418551
 20
143.55209349457101
 30
0.0
 11
160.60412344308219
 21
143.75922171436059
 31
0.0
  0
LINE
  8
DETAIL
  6
CONTINUOUS
 62
     5
 10
160.60412344308219
 20
143.75922171436059
 30
0.0
 11
160.99855216970221
 21
143.9617046705778
 31
0.0
  0
LINE
  8
DETAIL
  6
CONTINUOUS
 62
     5
 10
160.99855216970221
 20
143.9617046705778
 30
0.0
 11
161.34678042504379
 21
144.15488696006969
 31
0.0
  0
LINE
  8
DETAIL
  6
CONTINUOUS
 62
     5
 10
161.34678042504379
 20
144.15488696006969
 30
0.0
 11
161.6503930019264
 21
144.3346969970228
 31
0.0
  0
LINE
  8
DETAIL
  6
CONTINUOUS
 62
     5
 10
161.6503930019264
 20
144.3346969970228
 30
0.0
 11
161.9120500234674
 21
144.4984927323992
 31
0.0
  0
LINE
  8
DETAIL
  6
CONTINUOUS
 62
     5
 10
161.9120500234674
 20
144.4984927323992
 30
0.0
 11
162.13432186024511
 21
144.64423206725041
 31
0.0
  0
LINE
  8
DETAIL
  6
CONTINUOUS
 62
     5
 10
162.13432186024511
 20
144.64423206725041
 30
0.0
 11
162.31925668896679
 21
144.77003647513129
 31
0.0
  0
LINE
  8
DETAIL
  6
CONTINUOUS
 62
     5
 10
162.31925668896679
 20
144.77003647513129
 30
0.0
 11
162.46942108371289
 21
144.8753117301226
 31
0.0
  0
LINE
  8
DETAIL
  6
CONTINUOUS
 62
     5
 10
162.46942108371289
 20
144.8753117301226
 30
0.0
 11
162.586833277408
 21
144.95962657250419
 31
0.0
  0
LINE
  8
DETAIL
  6
CONTINUOUS
 62
     5
 10
162.586833277408
 20
144.95962657250419
 30
0.0
 11
162.73289235656739
 21
145.0664464355516
 31
0.0
  0
LINE
  8
DETAIL
  6
CONTINUOUS
 62
     5
 10
-158.3085853917687
 20
142.89653784798591
 30
0.0
 11
-158.5425126856392
 21
142.9581928528896
 31
0.0
  0
LINE
  8
DETAIL
  6
CONTINUOUS
 62
     5
 10
-158.5425126856392
 20
142.9581928528896
 30
0.0
 11
-159.13153967758311
 21
143.14553738931679
 31
0.0
  0
LINE
  8
DETAIL
  6
CONTINUOUS
 62
     5
 10
-159.13153967758311
 20
143.14553738931679
 30
0.0
 11
-159.67098855919451
 21
143.3455138460595
 31
0.0
  0
LINE
  8
DETAIL
  6
CONTINUOUS
 62
     5
 10
-159.67098855919451
 20
143.3455138460595
 30
0.0
 11
-160.16194681366031
 21
143.55209349457101
 31
0.0
  0
LINE
  8
DETAIL
  6
CONTINUOUS
 62
     5
 10
-160.16194681366031
 20
143.55209349457101
 30
0.0
 11
-160.6041234430825
 21
143.75922171436059
 31
0.0
  0
LINE
  8
DETAIL
  6
CONTINUOUS
 62
     5
 10
-160.6041234430825
 20
143.75922171436059
 30
0.0
 11
-160.99855216970221
 21
143.9617046705778
 31
0.0
  0
LINE
  8
DETAIL
  6
CONTINUOUS
 62
     5
 10
-160.99855216970221
 20
143.9617046705778
 30
0.0
 11
-161.3467804245183
 21
144.15488696006969
 31
0.0
  0
LINE
  8
DETAIL
  6
CONTINUOUS
 62
     5
 10
-161.3467804245183
 20
144.15488696006969
 30
0.0
 11
-161.6503930019264
 21
144.3346969970228
 31
0.0
  0
LINE
  8
DETAIL
  6
CONTINUOUS
 62
     5
 10
-161.6503930019264
 20
144.3346969970228
 30
0.0
 11
-161.9120500229424
 21
144.4984927323992
 31
0.0
  0
LINE
  8
DETAIL
  6
CONTINUOUS
 62
     5
 10
-161.9120500229424
 20
144.4984927323992
 30
0.0
 11
-162.13432186024511
 21
144.64423206725041
 31
0.0
  0
LINE
  8
DETAIL
  6
CONTINUOUS
 62
     5
 10
-162.13432186024511
 20
144.64423206725041
 30
0.0
 11
-162.3192566884413
 21
144.77003647513129
 31
0.0
  0
LINE
  8
DETAIL
  6
CONTINUOUS
 62
     5
 10
-162.3192566884413
 20
144.77003647513129
 30
0.0
 11
-162.4694210837126
 21
144.8753117301226
 31
0.0
  0
LINE
  8
DETAIL
  6
CONTINUOUS
 62
     5
 10
-162.4694210837126
 20
144.8753117301226
 30
0.0
 11
-162.5868332768828
 21
144.95962657250419
 31
0.0
  0
LINE
  8
DETAIL
  6
CONTINUOUS
 62
     5
 10
151.68968392224181
 20
167.10044336217149
 30
0.0
 11
151.45813421138359
 21
167.0395025732048
 31
0.0
  0
LINE
  8
DETAIL
  6
CONTINUOUS
 62
     5
 10
151.45813421138359
 20
167.0395025732048
 30
0.0
 11
150.86923247127831
 21
166.85237949614699
 31
0.0
  0
LINE
  8
DETAIL
  6
CONTINUOUS
 62
     5
 10
150.86923247127831
 20
166.85237949614699
 30
0.0
 11
150.32967679439571
 21
166.65248969632219
 31
0.0
  0
LINE
  8
DETAIL
  6
CONTINUOUS
 62
     5
 10
150.32967679439571
 20
166.65248969632219
 30
0.0
 11
149.8385639768828
 21
166.44606168388779
 31
0.0
  0
LINE
  8
DETAIL
  6
CONTINUOUS
 62
     5
 10
149.8385639768828
 20
166.44606168388779
 30
0.0
 11
149.39637768336249
 21
166.23935775288959
 31
0.0
  0
LINE
  8
DETAIL
  6
CONTINUOUS
 62
     5
 10
149.39637768336249
 20
166.23935775288959
 30
0.0
 11
149.00201442872159
 21
166.03743876409791
 31
0.0
  0
LINE
  8
DETAIL
  6
CONTINUOUS
 62
     5
 10
149.00201442872159
 20
166.03743876409791
 30
0.0
 11
148.65366115061281
 21
165.8445565943957
 31
0.0
  0
LINE
  8
DETAIL
  6
CONTINUOUS
 62
     5
 10
148.65366115061281
 20
165.8445565943957
 30
0.0
 11
148.3495109537653
 21
165.66446392381769
 31
0.0
  0
LINE
  8
DETAIL
  6
CONTINUOUS
 62
     5
 10
148.3495109537653
 20
165.66446392381769
 30
0.0
 11
148.08703747092821
 21
165.49996635288969
 31
0.0
  0
LINE
  8
DETAIL
  6
CONTINUOUS
 62
     5
 10
148.08703747092821
 20
165.49996635288969
 30
0.0
 11
147.86396611786341
 21
165.353489634851
 31
0.0
  0
LINE
  8
DETAIL
  6
CONTINUOUS
 62
     5
 10
147.86396611786341
 20
165.353489634851
 30
0.0
 11
147.67841445656751
 21
165.22717626199639
 31
0.0
  0
LINE
  8
DETAIL
  6
CONTINUOUS
 62
     5
 10
147.67841445656751
 20
165.22717626199639
 30
0.0
 11
147.52781357180379
 21
165.12161832189119
 31
0.0
  0
LINE
  8
DETAIL
  6
CONTINUOUS
 62
     5
 10
147.52781357180379
 20
165.12161832189119
 30
0.0
 11
147.4100857570929
 21
165.03713583730291
 31
0.0
  0
LINE
  8
DETAIL
  6
CONTINUOUS
 62
     5
 10
147.4100857570929
 20
165.03713583730291
 30
0.0
 11
147.26359414570919
 21
164.9300392928194
 31
0.0
  0
LINE
  8
DETAIL
  6
CONTINUOUS
 62
     5
 10
-151.68968392171629
 20
167.10044336217149
 30
0.0
 11
-151.45813421085811
 21
167.0395025732048
 31
0.0
  0
LINE
  8
DETAIL
  6
CONTINUOUS
 62
     5
 10
-151.45813421085811
 20
167.0395025732048
 30
0.0
 11
-150.86923247127831
 21
166.85237949614699
 31
0.0
  0
LINE
  8
DETAIL
  6
CONTINUOUS
 62
     5
 10
-150.86923247127831
 20
166.85237949614699
 30
0.0
 11
-150.32967679439591
 21
166.65248969632219
 31
0.0
  0
LINE
  8
DETAIL
  6
CONTINUOUS
 62
     5
 10
-150.32967679439591
 20
166.65248969632219
 30
0.0
 11
-149.8385639768828
 21
166.44606168388779
 31
0.0
  0
LINE
  8
DETAIL
  6
CONTINUOUS
 62
     5
 10
-149.8385639768828
 20
166.44606168388779
 30
0.0
 11
-149.39637768336249
 21
166.23935775288959
 31
0.0
  0
LINE
  8
DETAIL
  6
CONTINUOUS
 62
     5
 10
-149.39637768336249
 20
166.23935775288959
 30
0.0
 11
-149.00201442819619
 21
166.03743876409791
 31
0.0
  0
LINE
  8
DETAIL
  6
CONTINUOUS
 62
     5
 10
-149.00201442819619
 20
166.03743876409791
 30
0.0
 11
-148.6536611500874
 21
165.8445565943957
 31
0.0
  0
LINE
  8
DETAIL
  6
CONTINUOUS
 62
     5
 10
-148.6536611500874
 20
165.8445565943957
 30
0.0
 11
-148.34951095323979
 21
165.66446392381769
 31
0.0
  0
LINE
  8
DETAIL
  6
CONTINUOUS
 62
     5
 10
-148.34951095323979
 20
165.66446392381769
 30
0.0
 11
-148.08703747092821
 21
165.49996635288969
 31
0.0
  0
LINE
  8
DETAIL
  6
CONTINUOUS
 62
     5
 10
-148.08703747092821
 20
165.49996635288969
 30
0.0
 11
-147.86396611733809
 21
165.353489634851
 31
0.0
  0
LINE
  8
DETAIL
  6
CONTINUOUS
 62
     5
 10
-147.86396611733809
 20
165.353489634851
 30
0.0
 11
-147.67841445656771
 21
165.22717626199639
 31
0.0
  0
LINE
  8
DETAIL
  6
CONTINUOUS
 62
     5
 10
-147.67841445656771
 20
165.22717626199639
 30
0.0
 11
-147.52781357180379
 21
165.12161832189119
 31
0.0
  0
LINE
  8
DETAIL
  6
CONTINUOUS
 62
     5
 10
-147.52781357180379
 20
165.12161832189119
 30
0.0
 11
-147.4100857570929
 21
165.03713583730291
 31
0.0
  0
LINE
  8
DETAIL
  6
CONTINUOUS
 62
     5
 10
153.4429593704028
 20
-206.7788146140106
 30
0.0
 11
153.65388330840639
 21
-208.9600963077057
 31
0.0
  0
LINE
  8
DETAIL
  6
CONTINUOUS
 62
     5
 10
147.25539507740791
 20
-149.80097948984229
 30
0.0
 11
147.25539507740791
 21
-149.37671542119099
 31
0.0
  0
LINE
  8
DETAIL
  6
CONTINUOUS
 62
     5
 10
164.49390334570921
 20
172.38065469141841
 30
0.0
 11
164.49390334570921
 21
166.6071519992995
 31
0.0
  0
LINE
  8
DETAIL
  6
CONTINUOUS
 62
     5
 10
164.49390334570921
 20
-166.60715199982499
 30
0.0
 11
164.49390334570921
 21
-168.81592200577941
 31
0.0
  0
LINE
  8
DETAIL
  6
CONTINUOUS
 62
     5
 10
164.49390334570921
 20
-170.03632842136611
 30
0.0
 11
164.49390334570921
 21
-172.3806546919441
 31
0.0
  0
LINE
  8
DETAIL
  6
CONTINUOUS
 62
     5
 10
147.64982397110339
 20
-150.4562828359021
 30
0.0
 11
147.46138661978989
 21
-151.77534429719799
 31
0.0
  0
LINE
  8
DETAIL
  6
CONTINUOUS
 62
     5
 10
145.98744850087559
 20
-162.0929111295973
 30
0.0
 11
145.669924983888
 21
-164.31557574693531
 31
0.0
  0
LINE
  8
DETAIL
  6
CONTINUOUS
 62
     5
 10
146.85786437653249
 20
-164.4852813746061
 30
0.0
 11
147.08464212714529
 21
-162.89783711873909
 31
0.0
  0
LINE
  8
DETAIL
  6
CONTINUOUS
 62
     5
 10
148.5196346669002
 20
-152.85288934255689
 30
0.0
 11
148.7961264583187
 21
-150.91744680157629
 31
0.0
  0
LINE
  8
DETAIL
  6
CONTINUOUS
 62
     5
 10
126.6532108854642
 20
-142.387339377058
 30
0.0
 11
126.4154843968474
 21
-143.1027282893169
 31
0.0
  0
LINE
  8
DETAIL
  6
CONTINUOUS
 62
     5
 10
126.4154843968474
 20
-143.1027282893169
 30
0.0
 11
126.23092160963211
 21
-143.92280673362529
 31
0.0
  0
LINE
  8
DETAIL
  6
CONTINUOUS
 62
     5
 10
126.23092160963211
 20
-143.92280673362529
 30
0.0
 11
126.13673849211909
 21
-144.72737847898429
 31
0.0
  0
LINE
  8
DETAIL
  6
CONTINUOUS
 62
     5
 10
126.13673849211909
 20
-144.72737847898429
 30
0.0
 11
126.135837136077
 21
-145.50593812907189
 31
0.0
  0
LINE
  8
DETAIL
  6
CONTINUOUS
 62
     5
 10
126.135837136077
 20
-145.50593812907189
 30
0.0
 11
126.2265000073555
 21
-146.24926849702271
 31
0.0
  0
LINE
  8
DETAIL
  6
CONTINUOUS
 62
     5
 10
126.2265000073555
 20
-146.24926849702271
 30
0.0
 11
126.4093052795097
 21
-146.94726912189159
 31
0.0
  0
LINE
  8
DETAIL
  6
CONTINUOUS
 62
     5
 10
126.4093052795097
 20
-146.94726912189159
 30
0.0
 11
126.6802679243433
 21
-147.59208442381779
 31
0.0
  0
LINE
  8
DETAIL
  6
CONTINUOUS
 62
     5
 10
126.6802679243433
 20
-147.59208442381779
 30
0.0
 11
127.03512160192641
 21
-148.17108920385289
 31
0.0
  0
LINE
  8
DETAIL
  6
CONTINUOUS
 62
     5
 10
127.03512160192641
 20
-148.17108920385289
 30
0.0
 11
127.4752884257443
 21
-148.68849186147119
 31
0.0
  0
LINE
  8
DETAIL
  6
CONTINUOUS
 62
     5
 10
128.4050475530648
 20
-144.13181230507891
 30
0.0
 11
128.16548439667261
 21
-144.85272828914211
 31
0.0
  0
LINE
  8
DETAIL
  6
CONTINUOUS
 62
     5
 10
128.16548439667261
 20
-144.85272828914211
 30
0.0
 11
127.9809216099825
 21
-145.6728067339757
 31
0.0
  0
LINE
  8
DETAIL
  6
CONTINUOUS
 62
     5
 10
127.9809216099825
 20
-145.6728067339757
 30
0.0
 11
127.8867384924695
 21
-146.47737847880919
 31
0.0
  0
LINE
  8
DETAIL
  6
CONTINUOUS
 62
     5
 10
127.8867384924695
 20
-146.47737847880919
 30
0.0
 11
127.88583713590199
 21
-147.25593812942219
 31
0.0
  0
LINE
  8
DETAIL
  6
CONTINUOUS
 62
     5
 10
127.88583713590199
 20
-147.25593812942219
 30
0.0
 11
127.97650000718021
 21
-147.99926849684769
 31
0.0
  0
LINE
  8
DETAIL
  6
CONTINUOUS
 62
     5
 10
127.97650000718021
 20
-147.99926849684769
 30
0.0
 11
128.1593052793346
 21
-148.69726912171629
 31
0.0
  0
LINE
  8
DETAIL
  6
CONTINUOUS
 62
     5
 10
128.1593052793346
 20
-148.69726912171629
 30
0.0
 11
128.43026792469351
 21
-149.34208442364269
 31
0.0
  0
LINE
  8
DETAIL
  6
CONTINUOUS
 62
     5
 10
128.43026792469351
 20
-149.34208442364269
 30
0.0
 11
128.7851216022766
 21
-149.92108920367789
 31
0.0
  0
LINE
  8
DETAIL
  6
CONTINUOUS
 62
     5
 10
128.7851216022766
 20
-149.92108920367789
 30
0.0
 11
129.225288425569
 21
-150.43849186129589
 31
0.0
  0
LINE
  8
DETAIL
  6
CONTINUOUS
 62
     5
 10
133.5922535910681
 20
-135.71357393432569
 30
0.0
 11
133.08487159859899
 21
-135.88217892346779
 31
0.0
  0
LINE
  8
DETAIL
  6
CONTINUOUS
 62
     5
 10
133.08487159859899
 20
-135.88217892346779
 30
0.0
 11
132.26439651751301
 21
-136.24114839194411
 31
0.0
  0
LINE
  8
DETAIL
  6
CONTINUOUS
 62
     5
 10
132.26439651751301
 20
-136.24114839194411
 30
0.0
 11
132.15991452294219
 21
-136.29834606725061
 31
0.0
  0
LINE
  8
DETAIL
  6
CONTINUOUS
 62
     5
 10
135.34225359089311
 20
-137.46357393467611
 30
0.0
 11
134.83487159842389
 21
-137.63217892329251
 31
0.0
  0
LINE
  8
DETAIL
  6
CONTINUOUS
 62
     5
 10
134.83487159842389
 20
-137.63217892329251
 30
0.0
 11
134.01439651786339
 21
-137.99114839229421
 31
0.0
  0
LINE
  8
DETAIL
  6
CONTINUOUS
 62
     5
 10
134.01439651786339
 20
-137.99114839229421
 30
0.0
 11
133.9151093112084
 21
-138.04550222994749
 31
0.0
  0
LINE
  8
DETAIL
  6
CONTINUOUS
 62
     5
 10
151.44604788441319
 20
-142.96076651033289
 30
0.0
 11
151.45813421138359
 21
-142.95692608896681
 31
0.0
  0
LINE
  8
DETAIL
  6
CONTINUOUS
 62
     5
 10
151.45813421138359
 20
-142.95692608896681
 30
0.0
 11
152.09709898739041
 21
-142.78875910087569
 31
0.0
  0
LINE
  8
DETAIL
  6
CONTINUOUS
 62
     5
 10
152.09709898739041
 20
-142.78875910087569
 30
0.0
 11
152.7818922640981
 21
-142.64737800893181
 31
0.0
  0
LINE
  8
DETAIL
  6
CONTINUOUS
 62
     5
 10
152.7818922640981
 20
-142.64737800893181
 30
0.0
 11
153.50810878266199
 21
-142.5399446490369
 31
0.0
  0
LINE
  8
DETAIL
  6
CONTINUOUS
 62
     5
 10
153.50810878266199
 20
-142.5399446490369
 30
0.0
 11
154.26865975271451
 21
-142.4730135304728
 31
0.0
  0
LINE
  8
DETAIL
  6
CONTINUOUS
 62
     5
 10
154.26865975271451
 20
-142.4730135304728
 30
0.0
 11
155.05508217635719
 21
-142.4524835947461
 31
0.0
  0
LINE
  8
DETAIL
  6
CONTINUOUS
 62
     5
 10
155.05508217635719
 20
-142.4524835947461
 30
0.0
 11
155.8599464448337
 21
-142.4821040127847
 31
0.0
  0
LINE
  8
DETAIL
  6
CONTINUOUS
 62
     5
 10
155.8599464448337
 20
-142.4821040127847
 30
0.0
 11
156.67533821453591
 21
-142.56508119036789
 31
0.0
  0
LINE
  8
DETAIL
  6
CONTINUOUS
 62
     5
 10
156.67533821453591
 20
-142.56508119036789
 30
0.0
 11
157.4897392339756
 21
-142.7019802718039
 31
0.0
  0
LINE
  8
DETAIL
  6
CONTINUOUS
 62
     5
 10
157.4897392339756
 20
-142.7019802718039
 30
0.0
 11
158.29333788283699
 21
-142.89186987110341
 31
0.0
  0
LINE
  8
DETAIL
  6
CONTINUOUS
 62
     5
 10
158.29333788283699
 20
-142.89186987110341
 30
0.0
 11
159.07220417075291
 21
-143.1303173395797
 31
0.0
  0
LINE
  8
DETAIL
  6
CONTINUOUS
 62
     5
 10
159.07220417075291
 20
-143.1303173395797
 30
0.0
 11
159.8144183070051
 21
-143.41022438458839
 31
0.0
  0
LINE
  8
DETAIL
  6
CONTINUOUS
 62
     5
 10
159.8144183070051
 20
-143.41022438458839
 30
0.0
 11
160.51140769071799
 21
-143.72349140963229
 31
0.0
  0
LINE
  8
DETAIL
  6
CONTINUOUS
 62
     5
 10
160.51140769071799
 20
-143.72349140963229
 30
0.0
 11
161.15578860420331
 21
-144.0598020751315
 31
0.0
  0
LINE
  8
DETAIL
  6
CONTINUOUS
 62
     5
 10
161.15578860420331
 20
-144.0598020751315
 30
0.0
 11
161.74457492574419
 21
-144.41017357092801
 31
0.0
  0
LINE
  8
DETAIL
  6
CONTINUOUS
 62
     5
 10
161.74457492574419
 20
-144.41017357092801
 30
0.0
 11
162.27654946865141
 21
-144.76543239246939
 31
0.0
  0
LINE
  8
DETAIL
  6
CONTINUOUS
 62
     5
 10
162.27654946865141
 20
-144.76543239246939
 30
0.0
 11
162.7497426803852
 21
-145.11570887443099
 31
0.0
  0
LINE
  8
DETAIL
  6
CONTINUOUS
 62
     5
 10
174.49390334553411
 20
-172.3806546919441
 30
0.0
 11
174.49390334553411
 21
-166.60715199982499
 31
0.0
  0
LINE
  8
DETAIL
  6
CONTINUOUS
 62
     5
 10
174.49390334553411
 20
166.6071519992995
 30
0.0
 11
174.49390334553411
 21
172.38065469141841
 31
0.0
  0
LINE
  8
DETAIL
  6
CONTINUOUS
 62
     5
 10
144.25884540577931
 20
-136.90493488108589
 30
0.0
 11
143.41031726795109
 21
-137.75346301891429
 31
0.0
  0
LINE
  8
DETAIL
  6
CONTINUOUS
 62
     5
 10
131.50905956059549
 20
-135.65151753940469
 30
0.0
 11
132.0919777576182
 21
-135.33240451050801
 31
0.0
  0
LINE
  8
DETAIL
  6
CONTINUOUS
 62
     5
 10
132.0919777576182
 20
-135.33240451050801
 30
0.0
 11
132.87047889352019
 21
-134.99179923730301
 31
0.0
  0
LINE
  8
DETAIL
  6
CONTINUOUS
 62
     5
 10
196.5
 20
-116.61343802049031
 30
0.0
 11
196.5
 21
116.6134380199649
 31
0.0
  0
LINE
  8
DETAIL
  6
CONTINUOUS
 62
     5
 10
201.66726188984239
 20
-195.3033008590194
 30
0.0
 11
201.66726188984239
 21
-183.98959235989491
 31
0.0
  0
LINE
  8
DETAIL
  6
CONTINUOUS
 62
     5
 10
201.66726188984239
 20
183.98959235989491
 30
0.0
 11
201.66726188984239
 21
195.30330085849391
 31
0.0
  0
LINE
  8
DETAIL
  6
CONTINUOUS
 62
     5
 10
207.0
 20
-185.00000000017511
 30
0.0
 11
207.0
 21
-149.3619512884413
 31
0.0
  0
LINE
  8
DETAIL
  6
CONTINUOUS
 62
     5
 10
207.0
 20
-149.3619512884413
 30
0.0
 11
207.0
 21
149.3619512879159
 31
0.0
  0
LINE
  8
DETAIL
  6
CONTINUOUS
 62
     5
 10
207.0
 20
149.3619512879159
 30
0.0
 11
207.0
 21
184.99999999964959
 31
0.0
  0
LINE
  8
DETAIL
  6
CONTINUOUS
 62
     5
 10
146.27453083029761
 20
-137.78924945621719
 30
0.0
 11
143.44610370577951
 21
-140.61767658126109
 31
0.0
  0
LINE
  8
DETAIL
  6
CONTINUOUS
 62
     5
 10
149.02453083047271
 20
-140.5392494563923
 30
0.0
 11
146.19610370595461
 21
-143.36767658091071
 31
0.0
  0
LINE
  8
DETAIL
  6
CONTINUOUS
 62
     5
 10
149.13384540577931
 20
-141.77993488108589
 30
0.0
 11
148.28531726795109
 21
-142.62846301891429
 31
0.0
  0
LINE
  8
DETAIL
  6
CONTINUOUS
 62
     5
 10
147.78572516322239
 20
-144.95729803870401
 30
0.0
 11
147.43217177285459
 21
-145.31085142907179
 31
0.0
  0
LINE
  8
DETAIL
  6
CONTINUOUS
 62
     5
 10
152.1245308302978
 20
-143.63924945621741
 30
0.0
 11
151.55884540560419
 21
-144.2049348814362
 31
0.0
  0
LINE
  8
DETAIL
  6
CONTINUOUS
 62
     5
 10
150.7103172683012
 20
-145.05346301873919
 30
0.0
 11
149.29610370577939
 21
-146.467676581261
 31
0.0
  0
LINE
  8
DETAIL
  6
CONTINUOUS
 62
     5
 10
147.36146109457081
 20
-149.90704550700551
 30
0.0
 11
146.48803564308241
 21
-150.78047095849391
 31
0.0
  0
LINE
  8
DETAIL
  6
CONTINUOUS
 62
     5
 10
149.48278143835361
 20
-152.02836585026259
 30
0.0
 11
148.58844675288969
 21
-152.92270053572679
 31
0.0
  0
LINE
  8
DETAIL
  6
CONTINUOUS
 62
     5
 10
161.05413919597211
 20
-143.99254199894929
 30
0.0
 11
162.5759734465851
 21
-142.47070774781079
 31
0.0
  0
LINE
  8
DETAIL
  6
CONTINUOUS
 62
     5
 10
145.661544777583
 20
-162.2135635418565
 30
0.0
 11
145.09871939474601
 21
-162.77638892469349
 31
0.0
  0
LINE
  8
DETAIL
  6
CONTINUOUS
 62
     5
 10
147.22003973852881
 20
-145.09871939474601
 30
0.0
 11
147.26359414570919
 21
-145.0663893698775
 31
0.0
  0
LINE
  8
DETAIL
  6
CONTINUOUS
 62
     5
 10
147.26359414570919
 20
-145.0663893698775
 30
0.0
 11
147.4100857570929
 21
-144.95929282539419
 31
0.0
  0
LINE
  8
DETAIL
  6
CONTINUOUS
 62
     5
 10
147.4100857570929
 20
-144.95929282539419
 30
0.0
 11
147.52781357180379
 21
-144.87481034080571
 31
0.0
  0
LINE
  8
DETAIL
  6
CONTINUOUS
 62
     5
 10
147.52781357180379
 20
-144.87481034080571
 30
0.0
 11
147.6309487791593
 21
-144.8025216546412
 31
0.0
  0
LINE
  8
DETAIL
  6
CONTINUOUS
 62
     5
 10
210.0
 20
-185.00000000017511
 30
0.0
 11
210.0
 21
184.99999999964959
 31
0.0
  0
LINE
  8
DETAIL
  6
CONTINUOUS
 62
     5
 10
164.89770926795089
 20
-162.77638892469349
 30
0.0
 11
164.88744912661991
 21
-162.78905381295979
 31
0.0
  0
LINE
  8
DETAIL
  6
CONTINUOUS
 62
     5
 10
164.88744912661991
 20
-162.78905381295979
 30
0.0
 11
164.8554930304729
 21
-162.82806249089319
 31
0.0
  0
LINE
  8
DETAIL
  6
CONTINUOUS
 62
     5
 10
164.8554930304729
 20
-162.82806249089319
 30
0.0
 11
164.80026144851149
 21
-162.89459560875659
 31
0.0
  0
LINE
  8
DETAIL
  6
CONTINUOUS
 62
     5
 10
164.80026144851149
 20
-162.89459560875659
 30
0.0
 11
164.71976386129609
 21
-162.99015202434339
 31
0.0
  0
LINE
  8
DETAIL
  6
CONTINUOUS
 62
     5
 10
164.71976386129609
 20
-162.99015202434339
 30
0.0
 11
164.61174845306479
 21
-163.11600103555179
 31
0.0
  0
LINE
  8
DETAIL
  6
CONTINUOUS
 62
     5
 10
164.61174845306479
 20
-163.11600103555179
 30
0.0
 11
164.47283487793359
 21
-163.2734423905431
 31
0.0
  0
LINE
  8
DETAIL
  6
CONTINUOUS
 62
     5
 10
164.47283487793359
 20
-163.2734423905431
 30
0.0
 11
164.29888844028031
 21
-163.46370128248691
 31
0.0
  0
LINE
  8
DETAIL
  6
CONTINUOUS
 62
     5
 10
164.29888844028031
 20
-163.46370128248691
 30
0.0
 11
164.08592542486869
 21
-163.68684667933459
 31
0.0
  0
LINE
  8
DETAIL
  6
CONTINUOUS
 62
     5
 10
164.89770926795089
 20
-147.22003973852881
 30
0.0
 11
159.40740264063041
 21
-152.71034636584929
 31
0.0
  0
LINE
  8
DETAIL
  6
CONTINUOUS
 62
     5
 10
158.55887450332739
 20
-153.55887450315231
 30
0.0
 11
157.11953467513149
 21
-154.99821433134841
 31
0.0
  0
LINE
  8
DETAIL
  6
CONTINUOUS
 62
     5
 10
160.46966991436079
 20
-152.6412427896673
 30
0.0
 11
157.64124278931689
 21
-155.46966991418569
 31
0.0
  0
LINE
  8
DETAIL
  6
CONTINUOUS
 62
     5
 10
164.35875721103321
 20
-156.53033008633969
 30
0.0
 11
161.53033008598959
 21
-159.3587572108581
 31
0.0
  0
LINE
  8
DETAIL
  6
CONTINUOUS
 62
     5
 10
165.94974746847629
 20
-160.94974746830121
 30
0.0
 11
166.79827560577931
 21
-160.10121933099819
 31
0.0
  0
LINE
  8
DETAIL
  6
CONTINUOUS
 62
     5
 10
162.77638892469349
 20
-164.89770926795109
 30
0.0
 11
164.89770926795089
 21
-162.77638892469349
 31
0.0
  0
LINE
  8
DETAIL
  6
CONTINUOUS
 62
     5
 10
166.65685424973731
 20
-161.6568542495622
 30
0.0
 11
167.5053823870403
 21
-160.80832611225921
 31
0.0
  0
LINE
  8
DETAIL
  6
CONTINUOUS
 62
     5
 10
164.08592542486869
 20
-163.68684667933459
 30
0.0
 11
163.828894242557
 21
-163.9428656448338
 31
0.0
  0
LINE
  8
DETAIL
  6
CONTINUOUS
 62
     5
 10
163.828894242557
 20
-163.9428656448338
 30
0.0
 11
163.52359271663749
 21
-164.22955242031551
 31
0.0
  0
LINE
  8
DETAIL
  6
CONTINUOUS
 62
     5
 10
163.52359271663749
 20
-164.22955242031551
 30
0.0
 11
163.16463132819629
 21
-164.54439305043769
 31
0.0
  0
LINE
  8
DETAIL
  6
CONTINUOUS
 62
     5
 10
163.16463132819629
 20
-164.54439305043769
 30
0.0
 11
162.9801847171627
 21
-164.69391347548159
 31
0.0
  0
LINE
  8
DETAIL
  6
CONTINUOUS
 62
     5
 10
162.77638892469349
 20
-164.89770926795109
 30
0.0
 11
162.73289235656739
 21
-164.92998222662001
 31
0.0
  0
LINE
  8
DETAIL
  6
CONTINUOUS
 62
     5
 10
162.73289235656739
 20
-164.92998222662001
 30
0.0
 11
162.586833277408
 21
-165.03680208966739
 31
0.0
  0
LINE
  8
DETAIL
  6
CONTINUOUS
 62
     5
 10
162.586833277408
 20
-165.03680208966739
 30
0.0
 11
162.46942108371289
 21
-165.12111693204909
 31
0.0
  0
LINE
  8
DETAIL
  6
CONTINUOUS
 62
     5
 10
162.46942108371289
 20
-165.12111693204909
 30
0.0
 11
162.31925668896679
 21
-165.22639218756561
 31
0.0
  0
LINE
  8
DETAIL
  6
CONTINUOUS
 62
     5
 10
162.31925668896679
 20
-165.22639218756561
 30
0.0
 11
162.13432186024511
 21
-165.35219659544671
 31
0.0
  0
LINE
  8
DETAIL
  6
CONTINUOUS
 62
     5
 10
162.13432186024511
 20
-165.35219659544671
 30
0.0
 11
161.9120500234674
 21
-165.49793592977241
 31
0.0
  0
LINE
  8
DETAIL
  6
CONTINUOUS
 62
     5
 10
161.9120500234674
 20
-165.49793592977241
 30
0.0
 11
161.6503930019264
 21
-165.6617316656743
 31
0.0
  0
LINE
  8
DETAIL
  6
CONTINUOUS
 62
     5
 10
161.6503930019264
 20
-165.6617316656743
 30
0.0
 11
161.34678042504379
 21
-165.84154170262721
 31
0.0
  0
LINE
  8
DETAIL
  6
CONTINUOUS
 62
     5
 10
161.34678042504379
 20
-165.84154170262721
 30
0.0
 11
160.99855216970221
 21
-166.0347239921191
 31
0.0
  0
LINE
  8
DETAIL
  6
CONTINUOUS
 62
     5
 10
160.99855216970221
 20
-166.0347239921191
 30
0.0
 11
160.60412344308219
 21
-166.23720694781079
 31
0.0
  0
LINE
  8
DETAIL
  6
CONTINUOUS
 62
     5
 10
160.60412344308219
 20
-166.23720694781079
 30
0.0
 11
160.16194681418551
 21
-166.44433516812609
 31
0.0
  0
LINE
  8
DETAIL
  6
CONTINUOUS
 62
     5
 10
160.16194681418551
 20
-166.44433516812609
 30
0.0
 11
159.67098855971969
 21
-166.6509148166376
 31
0.0
  0
LINE
  8
DETAIL
  6
CONTINUOUS
 62
     5
 10
159.67098855971969
 20
-166.6509148166376
 30
0.0
 11
159.13153967810851
 21
-166.85089127338011
 31
0.0
  0
LINE
  8
DETAIL
  6
CONTINUOUS
 62
     5
 10
159.13153967810851
 20
-166.85089127338011
 30
0.0
 11
158.5425126861646
 21
-167.0382358098075
 31
0.0
  0
LINE
  8
DETAIL
  6
CONTINUOUS
 62
     5
 10
158.5425126861646
 20
-167.0382358098075
 30
0.0
 11
157.90317651436089
 21
-167.2067423327496
 31
0.0
  0
LINE
  8
DETAIL
  6
CONTINUOUS
 62
     5
 10
157.90317651436089
 20
-167.2067423327496
 30
0.0
 11
157.2178691028021
 21
-167.34846707180401
 31
0.0
  0
LINE
  8
DETAIL
  6
CONTINUOUS
 62
     5
 10
157.2178691028021
 20
-167.34846707180401
 30
0.0
 11
157.0503376040281
 21
-167.373293062697
 31
0.0
  0
LINE
  8
DETAIL
  6
CONTINUOUS
 62
     5
 10
169.49390334588429
 20
-163.72040065376541
 30
0.0
 11
167.83566628056039
 21
-164.67778426970241
 31
0.0
  0
LINE
  8
DETAIL
  6
CONTINUOUS
 62
     5
 10
166.7584254619965
 20
-165.29972954658501
 30
0.0
 11
164.49390334570921
 21
-166.60715199982499
 31
0.0
  0
LINE
  8
DETAIL
  6
CONTINUOUS
 62
     5
 10
169.49390334588429
 20
-175.2674060374782
 30
0.0
 11
174.49390334553411
 21
-172.3806546919441
 31
0.0
  0
LINE
  8
DETAIL
  6
CONTINUOUS
 62
     5
 10
116.61343802049031
 20
196.5
 30
0.0
 11
-116.61343802049031
 21
196.5
 31
0.0
  0
LINE
  8
DETAIL
  6
CONTINUOUS
 62
     5
 10
195.3033008590194
 20
201.6672618893169
 30
0.0
 11
183.98959235989491
 21
201.6672618893169
 31
0.0
  0
LINE
  8
DETAIL
  6
CONTINUOUS
 62
     5
 10
-183.98959235989491
 20
201.6672618893169
 30
0.0
 11
-195.30330085849391
 21
201.6672618893169
 31
0.0
  0
LINE
  8
DETAIL
  6
CONTINUOUS
 62
     5
 10
185.00000000017511
 20
207.0
 30
0.0
 11
149.3619512884413
 21
207.0
 31
0.0
  0
LINE
  8
DETAIL
  6
CONTINUOUS
 62
     5
 10
149.3619512884413
 20
207.0
 30
0.0
 11
-149.3619512879159
 21
207.0
 31
0.0
  0
LINE
  8
DETAIL
  6
CONTINUOUS
 62
     5
 10
-149.3619512879159
 20
207.0
 30
0.0
 11
-184.99999999964959
 21
207.0
 31
0.0
  0
LINE
  8
DETAIL
  6
CONTINUOUS
 62
     5
 10
185.00000000017511
 20
210.0
 30
0.0
 11
-184.99999999964959
 21
210.0
 31
0.0
  0
LINE
  8
DETAIL
  6
CONTINUOUS
 62
     5
 10
147.4100857570929
 20
144.9592928248685
 30
0.0
 11
147.52781357180379
 21
144.87481034028019
 31
0.0
  0
LINE
  8
DETAIL
  6
CONTINUOUS
 62
     5
 10
147.52781357180379
 20
144.87481034028019
 30
0.0
 11
147.67841445656751
 21
144.76925240017499
 31
0.0
  0
LINE
  8
DETAIL
  6
CONTINUOUS
 62
     5
 10
147.67841445656751
 20
144.76925240017499
 30
0.0
 11
147.86396611786341
 21
144.64293902732041
 31
0.0
  0
LINE
  8
DETAIL
  6
CONTINUOUS
 62
     5
 10
147.86396611786341
 20
144.64293902732041
 30
0.0
 11
148.08703747092821
 21
144.4964623092819
 31
0.0
  0
LINE
  8
DETAIL
  6
CONTINUOUS
 62
     5
 10
148.08703747092821
 20
144.4964623092819
 30
0.0
 11
148.3495109537653
 21
144.33196473835369
 31
0.0
  0
LINE
  8
DETAIL
  6
CONTINUOUS
 62
     5
 10
148.3495109537653
 20
144.33196473835369
 30
0.0
 11
148.65366115061281
 21
144.15187206777571
 31
0.0
  0
LINE
  8
DETAIL
  6
CONTINUOUS
 62
     5
 10
148.65366115061281
 20
144.15187206777571
 30
0.0
 11
149.00201442872159
 21
143.9589898980735
 31
0.0
  0
LINE
  8
DETAIL
  6
CONTINUOUS
 62
     5
 10
149.00201442872159
 20
143.9589898980735
 30
0.0
 11
149.39637768336249
 21
143.75707090928199
 31
0.0
  0
LINE
  8
DETAIL
  6
CONTINUOUS
 62
     5
 10
149.39637768336249
 20
143.75707090928199
 30
0.0
 11
149.8385639768828
 21
143.55036697828359
 31
0.0
  0
LINE
  8
DETAIL
  6
CONTINUOUS
 62
     5
 10
149.8385639768828
 20
143.55036697828359
 30
0.0
 11
150.32967679439571
 21
143.34393896584919
 31
0.0
  0
LINE
  8
DETAIL
  6
CONTINUOUS
 62
     5
 10
150.32967679439571
 20
143.34393896584919
 30
0.0
 11
150.86923247127831
 21
143.14404916602439
 31
0.0
  0
LINE
  8
DETAIL
  6
CONTINUOUS
 62
     5
 10
150.86923247127831
 20
143.14404916602439
 30
0.0
 11
151.45813421138359
 21
142.95692608896661
 31
0.0
  0
LINE
  8
DETAIL
  6
CONTINUOUS
 62
     5
 10
151.45813421138359
 20
142.95692608896661
 30
0.0
 11
152.09709898739041
 21
142.78875910035029
 31
0.0
  0
LINE
  8
DETAIL
  6
CONTINUOUS
 62
     5
 10
152.09709898739041
 20
142.78875910035029
 30
0.0
 11
152.7818922640981
 21
142.64737800840609
 31
0.0
  0
LINE
  8
DETAIL
  6
CONTINUOUS
 62
     5
 10
152.7818922640981
 20
142.64737800840609
 30
0.0
 11
153.50810878266199
 21
142.53994464851121
 31
0.0
  0
LINE
  8
DETAIL
  6
CONTINUOUS
 62
     5
 10
153.50810878266199
 20
142.53994464851121
 30
0.0
 11
154.26865975271451
 21
142.47301352994739
 31
0.0
  0
LINE
  8
DETAIL
  6
CONTINUOUS
 62
     5
 10
154.26865975271451
 20
142.47301352994739
 30
0.0
 11
155.05508217635719
 21
142.4524835947459
 31
0.0
  0
LINE
  8
DETAIL
  6
CONTINUOUS
 62
     5
 10
155.05508217635719
 20
142.4524835947459
 30
0.0
 11
155.8599464448337
 21
142.48210401225899
 31
0.0
  0
LINE
  8
DETAIL
  6
CONTINUOUS
 62
     5
 10
155.8599464448337
 20
142.48210401225899
 30
0.0
 11
156.67533821453591
 21
142.5650811898422
 31
0.0
  0
LINE
  8
DETAIL
  6
CONTINUOUS
 62
     5
 10
156.67533821453591
 20
142.5650811898422
 30
0.0
 11
157.4897392339756
 21
142.70198027127839
 31
0.0
  0
LINE
  8
DETAIL
  6
CONTINUOUS
 62
     5
 10
157.4897392339756
 20
142.70198027127839
 30
0.0
 11
158.29333788283699
 21
142.89186987057789
 31
0.0
  0
LINE
  8
DETAIL
  6
CONTINUOUS
 62
     5
 10
158.29333788283699
 20
142.89186987057789
 30
0.0
 11
159.07220417075291
 21
143.1303173390543
 31
0.0
  0
LINE
  8
DETAIL
  6
CONTINUOUS
 62
     5
 10
159.07220417075291
 20
143.1303173390543
 30
0.0
 11
159.8144183070051
 21
143.41022438406301
 31
0.0
  0
LINE
  8
DETAIL
  6
CONTINUOUS
 62
     5
 10
159.8144183070051
 20
143.41022438406301
 30
0.0
 11
160.51140769071799
 21
143.7234914091068
 31
0.0
  0
LINE
  8
DETAIL
  6
CONTINUOUS
 62
     5
 10
160.51140769071799
 20
143.7234914091068
 30
0.0
 11
161.15578860420331
 21
144.05980207460581
 31
0.0
  0
LINE
  8
DETAIL
  6
CONTINUOUS
 62
     5
 10
161.15578860420331
 20
144.05980207460581
 30
0.0
 11
161.74457492574419
 21
144.41017357092801
 31
0.0
  0
LINE
  8
DETAIL
  6
CONTINUOUS
 62
     5
 10
161.74457492574419
 20
144.41017357092801
 30
0.0
 11
162.27654946865141
 21
144.7654323919439
 31
0.0
  0
LINE
  8
DETAIL
  6
CONTINUOUS
 62
     5
 10
162.27654946865141
 20
144.7654323919439
 30
0.0
 11
162.7497426803852
 21
145.11570887390531
 31
0.0
  0
LINE
  8
DETAIL
  6
CONTINUOUS
 62
     5
 10
147.26359414570919
 20
145.06638936935201
 30
0.0
 11
147.4100857570929
 21
144.9592928248685
 31
0.0
  0
LINE
  8
DETAIL
  6
CONTINUOUS
 62
     5
 10
147.22003973852881
 20
145.09871939422061
 30
0.0
 11
147.26359414570919
 21
145.06638936935201
 31
0.0
  0
LINE
  8
DETAIL
  6
CONTINUOUS
 62
     5
 10
162.5759734465851
 20
142.47070774728539
 30
0.0
 11
161.05413919597211
 21
143.9925419984238
 31
0.0
  0
LINE
  8
DETAIL
  6
CONTINUOUS
 62
     5
 10
151.462680425569
 20
153.5840007688266
 30
0.0
 11
142.47070774781079
 21
162.57597344658481
 31
0.0
  0
LINE
  8
DETAIL
  6
CONTINUOUS
 62
     5
 10
167.26095603099819
 20
-186.15182899649739
 30
0.0
 11
167.86755774903691
 21
-185.54522727898441
 31
0.0
  0
LINE
  8
DETAIL
  6
CONTINUOUS
 62
     5
 10
185.5452272784589
 20
-167.86755774903691
 30
0.0
 11
186.15182899649719
 21
-167.26095603152359
 31
0.0
  0
LINE
  8
DETAIL
  6
CONTINUOUS
 62
     5
 10
190.0000000003499
 20
-172.3223304704029
 30
0.0
 11
172.3223304704029
 21
-190.00000000035041
 31
0.0
  0
LINE
  8
DETAIL
  6
CONTINUOUS
 62
     5
 10
164.49390334570921
 20
166.6071519992995
 30
0.0
 11
169.49390334588429
 21
163.72040065323969
 31
0.0
  0
LINE
  8
DETAIL
  6
CONTINUOUS
 62
     5
 10
162.586833277408
 20
165.03680208966719
 30
0.0
 11
162.46942108371289
 21
165.12111693204881
 31
0.0
  0
LINE
  8
DETAIL
  6
CONTINUOUS
 62
     5
 10
162.46942108371289
 20
165.12111693204881
 30
0.0
 11
162.31925668896679
 21
165.22639218704009
 31
0.0
  0
LINE
  8
DETAIL
  6
CONTINUOUS
 62
     5
 10
162.31925668896679
 20
165.22639218704009
 30
0.0
 11
162.13432186024511
 21
165.3521965949212
 31
0.0
  0
LINE
  8
DETAIL
  6
CONTINUOUS
 62
     5
 10
162.13432186024511
 20
165.3521965949212
 30
0.0
 11
161.9120500234674
 21
165.49793592977221
 31
0.0
  0
LINE
  8
DETAIL
  6
CONTINUOUS
 62
     5
 10
161.9120500234674
 20
165.49793592977221
 30
0.0
 11
161.6503930019264
 21
165.66173166514889
 31
0.0
  0
LINE
  8
DETAIL
  6
CONTINUOUS
 62
     5
 10
161.6503930019264
 20
165.66173166514889
 30
0.0
 11
161.34678042504379
 21
165.84154170210149
 31
0.0
  0
LINE
  8
DETAIL
  6
CONTINUOUS
 62
     5
 10
161.34678042504379
 20
165.84154170210149
 30
0.0
 11
160.99855216970221
 21
166.03472399159341
 31
0.0
  0
LINE
  8
DETAIL
  6
CONTINUOUS
 62
     5
 10
160.99855216970221
 20
166.03472399159341
 30
0.0
 11
160.60412344308219
 21
166.23720694781079
 31
0.0
  0
LINE
  8
DETAIL
  6
CONTINUOUS
 62
     5
 10
160.60412344308219
 20
166.23720694781079
 30
0.0
 11
160.16194681418551
 21
166.44433516760071
 31
0.0
  0
LINE
  8
DETAIL
  6
CONTINUOUS
 62
     5
 10
160.16194681418551
 20
166.44433516760071
 30
0.0
 11
159.67098855971969
 21
166.65091481611191
 31
0.0
  0
LINE
  8
DETAIL
  6
CONTINUOUS
 62
     5
 10
159.67098855971969
 20
166.65091481611191
 30
0.0
 11
159.13153967810851
 21
166.8508912728546
 31
0.0
  0
LINE
  8
DETAIL
  6
CONTINUOUS
 62
     5
 10
159.13153967810851
 20
166.8508912728546
 30
0.0
 11
158.5425126861646
 21
167.03823580928179
 31
0.0
  0
LINE
  8
DETAIL
  6
CONTINUOUS
 62
     5
 10
158.5425126861646
 20
167.03823580928179
 30
0.0
 11
157.90317651436089
 21
167.2067423322242
 31
0.0
  0
LINE
  8
DETAIL
  6
CONTINUOUS
 62
     5
 10
157.90317651436089
 20
167.2067423322242
 30
0.0
 11
157.2178691028021
 21
167.34846707127849
 31
0.0
  0
LINE
  8
DETAIL
  6
CONTINUOUS
 62
     5
 10
157.2178691028021
 20
167.34846707127849
 30
0.0
 11
156.4910546611209
 21
167.45617152662001
 31
0.0
  0
LINE
  8
DETAIL
  6
CONTINUOUS
 62
     5
 10
156.4910546611209
 20
167.45617152662001
 30
0.0
 11
155.72984946830121
 21
167.52329501348501
 31
0.0
  0
LINE
  8
DETAIL
  6
CONTINUOUS
 62
     5
 10
155.72984946830121
 20
167.52329501348501
 30
0.0
 11
154.9427555747809
 21
167.54394341243409
 31
0.0
  0
LINE
  8
DETAIL
  6
CONTINUOUS
 62
     5
 10
154.9427555747809
 20
167.54394341243409
 30
0.0
 11
154.1372743429072
 21
167.51437556006999
 31
0.0
  0
LINE
  8
DETAIL
  6
CONTINUOUS
 62
     5
 10
154.1372743429072
 20
167.51437556006999
 30
0.0
 11
153.32141427162881
 21
167.4314030842381
 31
0.0
  0
LINE
  8
DETAIL
  6
CONTINUOUS
 62
     5
 10
153.32141427162881
 20
167.4314030842381
 30
0.0
 11
152.50666092556909
 21
167.29445537390529
 31
0.0
  0
LINE
  8
DETAIL
  6
CONTINUOUS
 62
     5
 10
152.50666092556909
 20
167.29445537390529
 30
0.0
 11
151.70277935936949
 21
167.1044532740805
 31
0.0
  0
LINE
  8
DETAIL
  6
CONTINUOUS
 62
     5
 10
151.70277935936949
 20
167.1044532740805
 30
0.0
 11
150.92373885604209
 21
166.86590576269691
 31
0.0
  0
LINE
  8
DETAIL
  6
CONTINUOUS
 62
     5
 10
150.92373885604209
 20
166.86590576269691
 30
0.0
 11
150.18159514360761
 21
166.58606201401039
 31
0.0
  0
LINE
  8
DETAIL
  6
CONTINUOUS
 62
     5
 10
150.18159514360761
 20
166.58606201401039
 30
0.0
 11
149.48494316007009
 21
166.2730102723292
 31
0.0
  0
LINE
  8
DETAIL
  6
CONTINUOUS
 62
     5
 10
149.48494316007009
 20
166.2730102723292
 30
0.0
 11
148.8408361224169
 21
165.93673620945719
 31
0.0
  0
LINE
  8
DETAIL
  6
CONTINUOUS
 62
     5
 10
148.8408361224169
 20
165.93673620945719
 30
0.0
 11
148.25193165236419
 21
165.58603070070029
 31
0.0
  0
LINE
  8
DETAIL
  6
CONTINUOUS
 62
     5
 10
148.25193165236419
 20
165.58603070070029
 30
0.0
 11
147.7198753591945
 21
165.23078515376531
 31
0.0
  0
LINE
  8
DETAIL
  6
CONTINUOUS
 62
     5
 10
147.7198753591945
 20
165.23078515376531
 30
0.0
 11
147.24697635341499
 21
164.8814957274956
 31
0.0
  0
LINE
  8
DETAIL
  6
CONTINUOUS
 62
     5
 10
162.73289235656739
 20
164.92998222661981
 30
0.0
 11
162.586833277408
 21
165.03680208966719
 31
0.0
  0
LINE
  8
DETAIL
  6
CONTINUOUS
 62
     5
 10
162.77638892469349
 20
164.8977092674256
 30
0.0
 11
162.73289235656739
 21
164.92998222661981
 31
0.0
  0
LINE
  8
DETAIL
  6
CONTINUOUS
 62
     5
 10
163.828894242557
 20
163.94286564430811
 30
0.0
 11
163.52359271663749
 21
164.229552420315
 31
0.0
  0
LINE
  8
DETAIL
  6
CONTINUOUS
 62
     5
 10
163.52359271663749
 20
164.229552420315
 30
0.0
 11
163.16463132819629
 21
164.54439304991229
 31
0.0
  0
LINE
  8
DETAIL
  6
CONTINUOUS
 62
     5
 10
163.16463132819629
 20
164.54439304991229
 30
0.0
 11
162.9801847171627
 21
164.69391347548159
 31
0.0
  0
LINE
  8
DETAIL
  6
CONTINUOUS
 62
     5
 10
164.08592542486869
 20
163.68684667880891
 30
0.0
 11
163.828894242557
 21
163.94286564430811
 31
0.0
  0
LINE
  8
DETAIL
  6
CONTINUOUS
 62
     5
 10
145.09871939474601
 20
162.776388924168
 30
0.0
 11
152.8768939880911
 21
154.998214330823
 31
0.0
  0
LINE
  8
DETAIL
  6
CONTINUOUS
 62
     5
 10
157.11953467513149
 20
154.998214330823
 30
0.0
 11
164.89770926795089
 21
147.22003973800341
 31
0.0
  0
LINE
  8
DETAIL
  6
CONTINUOUS
 62
     5
 10
162.77638892469349
 20
164.8977092674256
 30
0.0
 11
164.89770926795089
 21
162.776388924168
 31
0.0
  0
LINE
  8
DETAIL
  6
CONTINUOUS
 62
     5
 10
164.89770926795089
 20
162.776388924168
 30
0.0
 11
164.88744912661991
 21
162.7890538124343
 31
0.0
  0
LINE
  8
DETAIL
  6
CONTINUOUS
 62
     5
 10
164.88744912661991
 20
162.7890538124343
 30
0.0
 11
164.8554930304729
 21
162.82806249036781
 31
0.0
  0
LINE
  8
DETAIL
  6
CONTINUOUS
 62
     5
 10
164.8554930304729
 20
162.82806249036781
 30
0.0
 11
164.80026144851149
 21
162.89459560823121
 31
0.0
  0
LINE
  8
DETAIL
  6
CONTINUOUS
 62
     5
 10
164.80026144851149
 20
162.89459560823121
 30
0.0
 11
164.71976386129609
 21
162.9901520238177
 31
0.0
  0
LINE
  8
DETAIL
  6
CONTINUOUS
 62
     5
 10
164.71976386129609
 20
162.9901520238177
 30
0.0
 11
164.61174845306479
 21
163.1160010350261
 31
0.0
  0
LINE
  8
DETAIL
  6
CONTINUOUS
 62
     5
 10
164.61174845306479
 20
163.1160010350261
 30
0.0
 11
164.47283487793359
 21
163.27344239001741
 31
0.0
  0
LINE
  8
DETAIL
  6
CONTINUOUS
 62
     5
 10
164.47283487793359
 20
163.27344239001741
 30
0.0
 11
164.29888844028031
 21
163.46370128196119
 31
0.0
  0
LINE
  8
DETAIL
  6
CONTINUOUS
 62
     5
 10
164.29888844028031
 20
163.46370128196119
 30
0.0
 11
164.08592542486869
 21
163.68684667880891
 31
0.0
  0
LINE
  8
DETAIL
  6
CONTINUOUS
 62
     5
 10
195.3033008590194
 20
-201.66726188984239
 30
0.0
 11
201.66726188984239
 21
-195.3033008590194
 31
0.0
  0
LINE
  8
DETAIL
  6
CONTINUOUS
 62
     5
 10
174.49390334553411
 20
172.38065469141841
 30
0.0
 11
169.49390334588429
 21
175.2674060374782
 31
0.0
  0
LINE
  8
DETAIL
  6
CONTINUOUS
 62
     5
 10
186.15182899649719
 20
167.26095603099819
 30
0.0
 11
185.5452272784589
 21
167.86755774851119
 31
0.0
  0
LINE
  8
DETAIL
  6
CONTINUOUS
 62
     5
 10
167.86755774903691
 20
185.5452272784587
 30
0.0
 11
167.26095603099819
 21
186.15182899597201
 31
0.0
  0
LINE
  8
DETAIL
  6
CONTINUOUS
 62
     5
 10
172.3223304704029
 20
189.99999999982489
 30
0.0
 11
190.0000000003499
 21
172.32233046987719
 31
0.0
  0
LINE
  8
DETAIL
  6
CONTINUOUS
 62
     5
 10
201.66726188984239
 20
195.30330085849391
 30
0.0
 11
195.3033008590194
 21
201.6672618893169
 31
0.0
  0
ARC
  8
DETAIL
  6
CONTINUOUS
 62
     5
 10
0.0
 20
-74.000000000175078
 30
0.0
 40
134.2943622619965
 50
64.521035212407483
 51
115.4789647880994
  0
ARC
  8
DETAIL
  6
CONTINUOUS
 62
     5
 10
0.0
 20
-74.000000000175078
 30
0.0
 40
127.7943627252189
 50
66.412040465905008
 51
113.5879595366969
  0
ARC
  8
DETAIL
  6
CONTINUOUS
 62
     5
 10
0.0
 20
15.99999999982469
 30
0.0
 40
109.29436796847639
 50
246.26129690880219
 51
293.73870309160662
  0
ARC
  8
DETAIL
  6
CONTINUOUS
 62
     5
 10
0.0
 20
15.99999999982469
 30
0.0
 40
102.794368197373
 50
248.0555442010006
 51
291.94445580169429
  0
ARC
  8
DETAIL
  6
CONTINUOUS
 62
     5
 10
-184.99999999964959
 20
-185.00000000017511
 30
0.0
 40
24.999999999824919
 50
180.0
 51
270.0
  0
ARC
  8
DETAIL
  6
CONTINUOUS
 62
     5
 10
-184.99999999964959
 20
-185.00000000017511
 30
0.0
 40
21.999999999824919
 50
180.0
 51
270.0
  0
ARC
  8
DETAIL
  6
CONTINUOUS
 62
     5
 10
-176.71810907022771
 20
-156.61284337145369
 30
0.0
 40
20.000000000175131
 50
44.999999999990777
 51
89.687580221798868
  0
ARC
  8
DETAIL
  6
CONTINUOUS
 62
     5
 10
-156.61284337145369
 20
-176.71810907022771
 30
0.0
 40
20.000000000175081
 50
0.3124197782011369
 51
44.999999999990777
  0
ARC
  8
DETAIL
  6
CONTINUOUS
 62
     5
 10
-193.22289680805579
 20
-174.3320238430824
 30
0.0
 40
9.9999999998248512
 50
44.999999999806548
 51
87.196208070792068
  0
ARC
  8
DETAIL
  6
CONTINUOUS
 62
     5
 10
-174.33202384255699
 20
-193.22289680858151
 30
0.0
 40
9.9999999998248761
 50
2.8037919291031992
 51
45.00000000010133
  0
CIRCLE
  8
DETAIL
  6
CONTINUOUS
 62
     5
 10
-169.49390334535909
 20
-169.49390334588449
 30
0.0
 40
5.0000000001751346
  0
ARC
  8
DETAIL
  6
CONTINUOUS
 62
     5
 10
-176.49999999982489
 20
-116.61343802049031
 30
0.0
 40
20.000000000175081
 50
180.0
 51
269.68758022189007
  0
ARC
  8
DETAIL
  6
CONTINUOUS
 62
     5
 10
-192.0
 20
-149.3619512884413
 30
0.0
 40
14.99999999999994
 50
180.0
 51
267.19620807079212
  0
ARC
  8
DETAIL
  6
CONTINUOUS
 62
     5
 10
-116.61343802049031
 20
-176.50000000035041
 30
0.0
 40
20.000000000175081
 50
180.3124197782011
 51
270.0
  0
ARC
  8
DETAIL
  6
CONTINUOUS
 62
     5
 10
-149.3619512879159
 20
-192.0
 30
0.0
 40
15.00000000000003
 50
182.803791929299
 51
270.0
  0
ARC
  8
DETAIL
  6
CONTINUOUS
 62
     5
 10
-71.499999999824922
 20
-60.893398282486942
 30
0.0
 40
9.0000000000000124
 50
315.00000000000921
 51
324.24870082170111
  0
ARC
  8
DETAIL
  6
CONTINUOUS
 62
     5
 10
-71.499999999824922
 20
-60.893398282486942
 30
0.0
 40
6.0000000000000364
 50
315.00000000000921
 51
328.94947598610202
  0
ARC
  8
DETAIL
  6
CONTINUOUS
 62
     5
 10
-36.999999999824922
 20
-37.000000000350383
 30
0.0
 40
3.0
 50
180.0
 51
270.0
  0
CIRCLE
  8
DETAIL
  6
CONTINUOUS
 62
     5
 10
-34.999999999649837
 20
-47.000000000175078
 30
0.0
 40
1.5
  0
ARC
  8
DETAIL
  6
CONTINUOUS
 62
     5
 10
-176.49999999982489
 20
116.6134380199649
 30
0.0
 40
20.000000000175081
 50
90.312419778201146
 51
180.0
  0
ARC
  8
DETAIL
  6
CONTINUOUS
 62
     5
 10
-192.0
 20
149.3619512879159
 30
0.0
 40
15.00000000000003
 50
92.80379192929901
 51
180.0
  0
ARC
  8
DETAIL
  6
CONTINUOUS
 62
     5
 10
-184.99999999964959
 20
184.99999999964959
 30
0.0
 40
24.99999999982489
 50
90.0
 51
180.0
  0
ARC
  8
DETAIL
  6
CONTINUOUS
 62
     5
 10
-184.99999999964959
 20
184.99999999964959
 30
0.0
 40
21.99999999982489
 50
90.0
 51
180.0
  0
ARC
  8
DETAIL
  6
CONTINUOUS
 62
     5
 10
-156.61284337145369
 20
176.71810907022771
 30
0.0
 40
20.00000000017511
 50
315.00000000000921
 51
359.6875802217989
  0
ARC
  8
DETAIL
  6
CONTINUOUS
 62
     5
 10
-176.71810907022771
 20
156.61284337145369
 30
0.0
 40
20.00000000017511
 50
270.3124197782011
 51
315.00000000000921
  0
ARC
  8
DETAIL
  6
CONTINUOUS
 62
     5
 10
-174.33202384255699
 20
193.22289680805579
 30
0.0
 40
9.9999999998248512
 50
314.99999999980662
 51
357.19620807079212
  0
ARC
  8
DETAIL
  6
CONTINUOUS
 62
     5
 10
-193.22289680805579
 20
174.33202384255699
 30
0.0
 40
9.9999999998248761
 50
272.80379192909021
 51
315.00000000010129
  0
CIRCLE
  8
DETAIL
  6
CONTINUOUS
 62
     5
 10
-169.49390334535909
 20
169.4939033453588
 30
0.0
 40
5.0000000001751346
  0
ARC
  8
DETAIL
  6
CONTINUOUS
 62
     5
 10
-116.61343802049031
 20
176.49999999982489
 30
0.0
 40
20.000000000175131
 50
90.0
 51
179.68758022190309
  0
ARC
  8
DETAIL
  6
CONTINUOUS
 62
     5
 10
-149.3619512879159
 20
192.0
 30
0.0
 40
15.00000000000003
 50
90.0
 51
177.1962080707921
  0
ARC
  8
DETAIL
  6
CONTINUOUS
 62
     5
 10
-71.499999999824922
 20
60.893398281961247
 30
0.0
 40
9.0
 50
0.0
 51
44.999999999990777
  0
ARC
  8
DETAIL
  6
CONTINUOUS
 62
     5
 10
-71.499999999824922
 20
60.893398281961247
 30
0.0
 40
6.0
 50
0.0
 51
44.999999999990777
  0
ARC
  8
DETAIL
  6
CONTINUOUS
 62
     5
 10
-36.999999999824922
 20
27.0
 30
0.0
 40
2.9999999999999871
 50
90.0
 51
180.0
  0
CIRCLE
  8
DETAIL
  6
CONTINUOUS
 62
     5
 10
-34.999999999649837
 20
33.999999999824922
 30
0.0
 40
1.5
  0
ARC
  8
DETAIL
  6
CONTINUOUS
 62
     5
 10
0.0
 20
-97.077500000175178
 30
0.0
 40
6.5225000001751567
 50
223.8973981670992
 51
316.1026018329008
  0
CIRCLE
  8
DETAIL
  6
CONTINUOUS
 62
     5
 10
0.0
 20
-69.0
 30
0.0
 40
4.5
  0
CIRCLE
  8
DETAIL
  6
CONTINUOUS
 62
     5
 10
0.0
 20
-69.0
 30
0.0
 40
1.5
  0
CIRCLE
  8
DETAIL
  6
CONTINUOUS
 62
     5
 10
35.000000000175078
 20
-47.000000000175078
 30
0.0
 40
1.5
  0
ARC
  8
DETAIL
  6
CONTINUOUS
 62
     5
 10
71.500000000350155
 20
-60.893398282486942
 30
0.0
 40
8.9999999999999964
 50
215.75129917829889
 51
224.99999999999079
  0
ARC
  8
DETAIL
  6
CONTINUOUS
 62
     5
 10
71.500000000350155
 20
-60.893398282486942
 30
0.0
 40
5.9999999999999867
 50
211.05052401389801
 51
224.99999999999079
  0
ARC
  8
DETAIL
  6
CONTINUOUS
 62
     5
 10
37.000000000350163
 20
-37.000000000350383
 30
0.0
 40
2.9999999999999849
 50
270.0
 51
0.0
  0
ARC
  8
DETAIL
  6
CONTINUOUS
 62
     5
 10
116.61343802049031
 20
-176.50000000035041
 30
0.0
 40
20.000000000175131
 50
270.0
 51
359.68758022190309
  0
ARC
  8
DETAIL
  6
CONTINUOUS
 62
     5
 10
149.3619512884413
 20
-192.0
 30
0.0
 40
15.0
 50
270.0
 51
285.65406660940579
  0
ARC
  8
DETAIL
  6
CONTINUOUS
 62
     5
 10
149.3619512884413
 20
-192.0
 30
0.0
 40
14.999999999999989
 50
321.6741280654972
 51
357.19620807079212
  0
ARC
  8
DETAIL
  6
CONTINUOUS
 62
     5
 10
151.8076118448337
 20
-165.19238815586689
 30
0.0
 40
6.2000000001751578
 50
171.86989764580531
 51
276.19415572929921
  0
ARC
  8
DETAIL
  6
CONTINUOUS
 62
     5
 10
151.8076118448337
 20
-165.19238815586689
 30
0.0
 40
5.0000000001751319
 50
171.86989764580531
 51
276.19415572929921
  0
ARC
  8
DETAIL
  6
CONTINUOUS
 62
     5
 10
151.8076118448337
 20
-151.05025253169879
 30
0.0
 40
4.19999999999997
 50
44.999999999990777
 51
49.905791994592867
  0
ARC
  8
DETAIL
  6
CONTINUOUS
 62
     5
 10
151.8076118448337
 20
-151.05025253169879
 30
0.0
 40
4.1999999999999824
 50
89.946343120390878
 51
121.653025759305
  0
ARC
  8
DETAIL
  6
CONTINUOUS
 62
     5
 10
151.8076118448337
 20
-151.05025253169879
 30
0.0
 40
4.1999999999999824
 50
164.03111542809401
 51
171.86989764580531
  0
ARC
  8
DETAIL
  6
CONTINUOUS
 62
     5
 10
151.8076118448337
 20
-151.05025253169879
 30
0.0
 40
2.9999999999999711
 50
84.405015247502405
 51
116.230295210701
  0
ARC
  8
DETAIL
  6
CONTINUOUS
 62
     5
 10
185.00000000017511
 20
-185.00000000017511
 30
0.0
 40
24.99999999982489
 50
270.0
 51
0.0
  0
ARC
  8
DETAIL
  6
CONTINUOUS
 62
     5
 10
185.00000000017511
 20
-185.00000000017511
 30
0.0
 40
21.999999999824858
 50
270.0
 51
0.0
  0
ARC
  8
DETAIL
  6
CONTINUOUS
 62
     5
 10
156.61284337145369
 20
-176.71810907022771
 30
0.0
 40
20.000000000175149
 50
135.5720363460967
 51
179.6875802217989
  0
ARC
  8
DETAIL
  6
CONTINUOUS
 62
     5
 10
176.71810907022771
 20
-156.61284337145369
 30
0.0
 40
20.000000000175149
 50
90.312419778201146
 51
135.00000000000921
  0
ARC
  8
DETAIL
  6
CONTINUOUS
 62
     5
 10
174.3320238430824
 20
-193.22289680858151
 30
0.0
 40
9.9999999998248637
 50
134.99999999980659
 51
177.1962080707921
  0
ARC
  8
DETAIL
  6
CONTINUOUS
 62
     5
 10
193.22289680858151
 20
-174.3320238430824
 30
0.0
 40
9.9999999998248796
 50
92.80379192909021
 51
135.00000000010141
  0
ARC
  8
DETAIL
  6
CONTINUOUS
 62
     5
 10
169.49390334588429
 20
-169.49390334588449
 30
0.0
 40
5.0000000001751532
 50
123.2140548742935
 51
172.08873497100541
  0
ARC
  8
DETAIL
  6
CONTINUOUS
 62
     5
 10
169.49390334588429
 20
-169.49390334588449
 30
0.0
 40
5.0000000001751612
 50
186.17304833170149
 51
109.0347809029066
  0
ARC
  8
DETAIL
  6
CONTINUOUS
 62
     5
 10
163.82842712469349
 20
-165.89949493660239
 30
0.0
 40
4.1999999999999691
 50
276.19415572929921
 51
44.999999999990777
  0
ARC
  8
DETAIL
  6
CONTINUOUS
 62
     5
 10
163.82842712469349
 20
-165.89949493660239
 30
0.0
 40
2.9999999999999991
 50
276.19415572929921
 51
44.999999999990777
  0
ARC
  8
DETAIL
  6
CONTINUOUS
 62
     5
 10
176.50000000035041
 20
-116.61343802049031
 30
0.0
 40
20.00000000017512
 50
270.3124197782011
 51
0.0
  0
ARC
  8
DETAIL
  6
CONTINUOUS
 62
     5
 10
192.0
 20
-149.3619512884413
 30
0.0
 40
14.99999999999997
 50
272.80379192929911
 51
0.0
  0
ARC
  8
DETAIL
  6
CONTINUOUS
 62
     5
 10
0.0
 20
0.0
 30
0.0
 40
161.37500000017511
 50
45.532586879008228
 51
134.46741312099181
  0
ARC
  8
DETAIL
  6
CONTINUOUS
 62
     5
 10
0.0
 20
0.0
 30
0.0
 40
161.37500000017511
 50
315.53258687900819
 51
44.467413120991758
  0
ARC
  8
DETAIL
  6
CONTINUOUS
 62
     5
 10
0.0
 20
0.0
 30
0.0
 40
161.37500000017511
 50
313.91422419899868
 51
314.46741312099181
  0
ARC
  8
DETAIL
  6
CONTINUOUS
 62
     5
 10
0.0
 20
0.0
 30
0.0
 40
161.37500000017511
 50
225.53258687900819
 51
310.99915158359238
  0
ARC
  8
DETAIL
  6
CONTINUOUS
 62
     5
 10
0.0
 20
0.0
 30
0.0
 40
161.37500000017519
 50
135.53258687900819
 51
224.46741312099181
  0
ARC
  8
DETAIL
  6
CONTINUOUS
 62
     5
 10
0.0
 20
0.0
 30
0.0
 40
152.87499999982489
 50
45.562201695597849
 51
134.43779830440221
  0
ARC
  8
DETAIL
  6
CONTINUOUS
 62
     5
 10
0.0
 20
0.0
 30
0.0
 40
152.87499999982481
 50
315.5622017011068
 51
44.437798298893178
  0
ARC
  8
DETAIL
  6
CONTINUOUS
 62
     5
 10
0.0
 20
0.0
 30
0.0
 40
152.87499999982489
 50
313.84820352060302
 51
314.43779830440218
  0
ARC
  8
DETAIL
  6
CONTINUOUS
 62
     5
 10
0.0
 20
0.0
 30
0.0
 40
152.87499999982489
 50
225.56220169559779
 51
310.77077665069379
  0
ARC
  8
DETAIL
  6
CONTINUOUS
 62
     5
 10
0.0
 20
0.0
 30
0.0
 40
152.87499999982489
 50
135.5622017011068
 51
224.4377982988932
  0
ARC
  8
DETAIL
  6
CONTINUOUS
 62
     5
 10
71.500000000350155
 20
60.893398281961247
 30
0.0
 40
9.0000000000000053
 50
135.00000000000921
 51
180.0
  0
ARC
  8
DETAIL
  6
CONTINUOUS
 62
     5
 10
0.0
 20
64.077499999649717
 30
0.0
 40
6.5225000001751363
 50
43.897398167099183
 51
136.1026018329008
  0
ARC
  8
DETAIL
  6
CONTINUOUS
 62
     5
 10
71.500000000350155
 20
60.893398281961247
 30
0.0
 40
6.0000000000000124
 50
135.00000000000921
 51
180.0
  0
ARC
  8
DETAIL
  6
CONTINUOUS
 62
     5
 10
37.000000000350163
 20
27.0
 30
0.0
 40
2.9999999999999711
 50
0.0
 51
90.0
  0
CIRCLE
  8
DETAIL
  6
CONTINUOUS
 62
     5
 10
35.000000000175078
 20
33.999999999824922
 30
0.0
 40
1.5
  0
ARC
  8
DETAIL
  6
CONTINUOUS
 62
     5
 10
116.61343802049031
 20
176.49999999982489
 30
0.0
 40
20.000000000175081
 50
0.3124197782011369
 51
90.0
  0
ARC
  8
DETAIL
  6
CONTINUOUS
 62
     5
 10
149.3619512884413
 20
192.0
 30
0.0
 40
15.00000000000003
 50
2.8037919292990159
 51
90.0
  0
ARC
  8
DETAIL
  6
CONTINUOUS
 62
     5
 10
176.50000000035041
 20
116.6134380199649
 30
0.0
 40
20.00000000017511
 50
0.0
 51
89.687580221890059
  0
ARC
  8
DETAIL
  6
CONTINUOUS
 62
     5
 10
192.0
 20
149.3619512879159
 30
0.0
 40
15.00000000000002
 50
0.0
 51
87.196208070792068
  0
ARC
  8
DETAIL
  6
CONTINUOUS
 62
     5
 10
185.00000000017511
 20
184.99999999964959
 30
0.0
 40
24.99999999982488
 50
0.0
 51
90.0
  0
ARC
  8
DETAIL
  6
CONTINUOUS
 62
     5
 10
185.00000000017511
 20
184.99999999964959
 30
0.0
 40
21.99999999982489
 50
0.0
 51
90.0
  0
ARC
  8
DETAIL
  6
CONTINUOUS
 62
     5
 10
176.71810907022771
 20
156.61284337145369
 30
0.0
 40
20.000000000175149
 50
224.99999999999079
 51
269.6875802217989
  0
ARC
  8
DETAIL
  6
CONTINUOUS
 62
     5
 10
156.61284337145369
 20
176.71810907022771
 30
0.0
 40
20.000000000175081
 50
180.3124197782011
 51
224.99999999999079
  0
ARC
  8
DETAIL
  6
CONTINUOUS
 62
     5
 10
193.22289680858151
 20
174.33202384255699
 30
0.0
 40
9.9999999998248725
 50
224.9999999997973
 51
267.19620807079212
  0
ARC
  8
DETAIL
  6
CONTINUOUS
 62
     5
 10
174.3320238430824
 20
193.22289680805579
 30
0.0
 40
9.9999999998248761
 50
182.8037919291032
 51
225.00000000010129
  0
CIRCLE
  8
DETAIL
  6
CONTINUOUS
 62
     5
 10
169.49390334588429
 20
169.4939033453588
 30
0.0
 40
5.0000000001751346
  0
LINE
  8
DETAIL
  6
CONTINUOUS
 62
     5
 10
-45.495028237828357
 20
-64.622286481260971
 30
0.0
 11
-45.408713035023077
 21
-64.710123909555023
 31
0.0
  0
CIRCLE
  8
DETAIL
  6
CONTINUOUS
 62
     5
 10
0.0
 20
0.0
 30
0.0
 40
150.0
  0
LINE
  8
DETAIL
  6
CONTINUOUS
 62
     5
 10
-66.459797974255707
 20
-63.88873016322259
 30
0.0
 11
-57.371607523292369
 21
-72.976920614185701
 31
0.0
  0
LINE
  8
DETAIL
  6
CONTINUOUS
 62
     5
 10
-68.100000000000136
 20
47.350731353064702
 30
0.0
 11
-68.100000000000136
 21
-59.928932188266117
 31
0.0
  0
LINE
  8
DETAIL
  6
CONTINUOUS
 62
     5
 10
-56.232803725219128
 20
-74.949386652714566
 30
0.0
 11
-53.708274399299398
 21
-84.371058361471114
 31
0.0
  0
LINE
  8
DETAIL
  6
CONTINUOUS
 62
     5
 10
68.099999999999909
 20
-59.928932188266117
 30
0.0
 11
68.099999999999909
 21
47.350731353064702
 31
0.0
  0
LINE
  8
DETAIL
  6
CONTINUOUS
 62
     5
 10
53.708274399824859
 20
-84.371058361471114
 30
0.0
 11
56.232803725218901
 21
-74.949386652714566
 31
0.0
  0
LINE
  8
DETAIL
  6
CONTINUOUS
 62
     5
 10
57.371607523817829
 20
-72.976920614185701
 30
0.0
 11
66.45979797478094
 21
-63.88873016322259
 31
0.0
  0
CIRCLE
  8
DETAIL
  6
CONTINUOUS
 62
     5
 10
-189.99999999982489
 20
-190.00000000035041
 30
0.0
 40
5.0000000001751346
  0
CIRCLE
  8
DETAIL
  6
CONTINUOUS
 62
     5
 10
-180.0
 20
-120.0
 30
0.0
 40
6.5000000001751346
  0
ARC
  8
DETAIL
  6
CONTINUOUS
 62
     5
 10
-44.435386466900127
 20
-81.886395528546473
 30
0.0
 40
9.6000000000000032
 50
194.9999999999944
 51
245.5843959313946
  0
ARC
  8
DETAIL
  6
CONTINUOUS
 62
     5
 10
-62.499999999824922
 20
-59.928932188266117
 30
0.0
 40
5.6000000001750996
 50
180.0
 51
224.99999999999079
  0
ARC
  8
DETAIL
  6
CONTINUOUS
 62
     5
 10
-60.482877360420389
 20
-76.088190451313494
 30
0.0
 40
4.4000000001751554
 50
14.999999999994451
 51
44.999999999990777
  0
CIRCLE
  8
DETAIL
  6
CONTINUOUS
 62
     5
 10
-189.99999999982489
 20
189.99999999982489
 30
0.0
 40
5.0000000001751346
  0
CIRCLE
  8
DETAIL
  6
CONTINUOUS
 62
     5
 10
-120.0
 20
180.0
 30
0.0
 40
6.5000000001751346
  0
ARC
  8
DETAIL
  6
CONTINUOUS
 62
     5
 10
-62.499999999824922
 20
47.350731353064702
 30
0.0
 40
5.6000000001751324
 50
117.25009942839451
 51
180.0
  0
ARC
  8
DETAIL
  6
CONTINUOUS
 62
     5
 10
0.0
 20
-74.000000000175078
 30
0.0
 40
142.1000000001751
 50
62.749900571605501
 51
117.25009942839451
  0
ARC
  8
DETAIL
  6
CONTINUOUS
 62
     5
 10
44.435386467425587
 20
-81.886395528546473
 30
0.0
 40
9.5999999999999872
 50
294.41560406860538
 51
345.00000000000563
  0
ARC
  8
DETAIL
  6
CONTINUOUS
 62
     5
 10
60.482877360945849
 20
-76.088190451313494
 30
0.0
 40
4.4000000001751269
 50
135.00000000000921
 51
165.0000000000056
  0
ARC
  8
DETAIL
  6
CONTINUOUS
 62
     5
 10
62.500000000350163
 20
-59.928932188266117
 30
0.0
 40
5.6000000001751564
 50
315.00000000000921
 51
0.0
  0
CIRCLE
  8
DETAIL
  6
CONTINUOUS
 62
     5
 10
120.0
 20
-180.0
 30
0.0
 40
6.5000000001751346
  0
CIRCLE
  8
DETAIL
  6
CONTINUOUS
 62
     5
 10
190.0000000003499
 20
-190.00000000035041
 30
0.0
 40
5.0000000001751346
  0
ARC
  8
DETAIL
  6
CONTINUOUS
 62
     5
 10
0.0
 20
15.99999999982469
 30
0.0
 40
117.0999999998249
 50
245.5843959313946
 51
294.41560406860538
  0
ARC
  8
DETAIL
  6
CONTINUOUS
 62
     5
 10
62.500000000350163
 20
47.350731353064702
 30
0.0
 40
5.6000000001751582
 50
0.0
 51
62.749900571605501
  0
CIRCLE
  8
DETAIL
  6
CONTINUOUS
 62
     5
 10
180.0
 20
120.0
 30
0.0
 40
6.5000000001751346
  0
CIRCLE
  8
DETAIL
  6
CONTINUOUS
 62
     5
 10
190.0000000003499
 20
189.99999999982489
 30
0.0
 40
5.0000000001751346
  0
LINE
  8
DETAIL
  6
CONTINUOUS
 62
     5
 10
-167.26651698493879
 20
171.72128970630459
 30
0.0
 11
-171.72128970630459
 21
167.2665169844133
 31
0.0
  0
LINE
  8
DETAIL
  6
CONTINUOUS
 62
     5
 10
-171.72128970630459
 20
-167.26651698493879
 30
0.0
 11
-167.26651698493879
 21
-171.72128970630479
 31
0.0
  0
LINE
  8
DETAIL
  6
CONTINUOUS
 62
     5
 10
171.72128970630459
 20
171.72128970630459
 30
0.0
 11
167.26651698493879
 21
167.2665169844133
 31
0.0
  0
LINE
  8
DETAIL
  6
CONTINUOUS
 62
     5
 10
-167.26651698493879
 20
-167.26651698493879
 30
0.0
 11
-171.72128970630459
 21
-171.72128970630479
 31
0.0
  0
LINE
  8
DETAIL
  6
CONTINUOUS
 62
     5
 10
-171.72128970630459
 20
171.72128970630459
 30
0.0
 11
-167.26651698493879
 21
167.2665169844133
 31
0.0
  0
LINE
  8
DETAIL
  6
CONTINUOUS
 62
     5
 10
167.63991219562169
 20
-167.63991219562169
 30
0.0
 11
171.72128970630459
 21
-171.72128970630479
 31
0.0
  0
LINE
  8
DETAIL
  6
CONTINUOUS
 62
     5
 10
171.72128970630459
 20
-167.26651698493879
 30
0.0
 11
167.26651698493879
 21
-171.72128970630479
 31
0.0
  0
LINE
  8
DETAIL
  6
CONTINUOUS
 62
     5
 10
167.26651698493879
 20
171.72128970630459
 30
0.0
 11
171.72128970630459
 21
167.2665169844133
 31
0.0
  0
LINE
  8
BASIS
  6
DASHDOT
 62
     6
 10
-220.66549912434311
 20
0.0
 30
0.0
 11
220.66549912434311
 21
0.0
 31
0.0
  0
LINE
  8
BASIS
  6
DASHDOT
 62
     6
 10
0.0
 20
-220.66549912434331
 30
0.0
 11
0.0
 21
231.17338003502621
 31
0.0
  0
LINE
  8
SIZE
  6
CONTINUOUS
 62
    30
 10
515.0922027636434
 20
150.37363495329831
 30
0.0
 11
166.42797404098951
 21
48.586212876416539
 31
0.0
  0
LINE
  8
SIZE
  6
CONTINUOUS
 62
    30
 10
-166.42797404098951
 20
-48.586212876416539
 30
0.0
 11
-177.94714167467279
 21
-51.949065389849473
 31
0.0
  0
TEXT
  8
SIZE
  6
CONTINUOUS
 62
    30
 10
278.19110064860911
 20
107.2573714803855
 30
0.0
 40
64.0
  1
φ323
 50
16.274392458708739
 41
0.9
 72
     1
 11
387.98522415137398
 21
139.31016000841919
 31
0.0
  0
LINE
  8
SIZE
  6
CONTINUOUS
 62
    30
 10
-154.9088064073062
 20
-45.22336036298384
 30
0.0
 11
154.9088064073062
 21
45.22336036298384
 31
0.0
  0
CIRCLE
  8
SIZE
  6
CONTINUOUS
 62
    30
 10
-154.9088064073062
 20
-45.22336036298384
 30
0.0
 40
6.0
  0
LINE
  8
SIZE
  6
CONTINUOUS
 62
    30
 10
-154.9088064073062
 20
-45.22336036298384
 30
0.0
 11
-166.42797404098931
 21
-48.586212876416539
 31
0.0
  0
CIRCLE
  8
SIZE
  6
CONTINUOUS
 62
    30
 10
154.9088064073062
 20
45.22336036298384
 30
0.0
 40
6.0
  0
LINE
  8
SIZE
  6
CONTINUOUS
 62
    30
 10
154.9088064073062
 20
45.22336036298384
 30
0.0
 11
166.42797404098931
 21
48.586212876416539
 31
0.0
  0
POINT
  8
DEFPOINTS
  6
CONTINUOUS
 62
    30
 10
154.9088064073062
 20
45.22336036298384
 30
0.0
  0
POINT
  8
DEFPOINTS
  6
CONTINUOUS
 62
    30
 10
-154.9088064073062
 20
-45.22336036298384
 30
0.0
  0
TEXT
  8
ETC
  6
CONTINUOUS
 62
    61
 10
298.75405508091632
 20
279.55352173116808
 30
0.0
 40
40.0
  1
EWF-30BSA2-Q
 41
0.9
  0
LINE
  8
DETAIL
  6
CONTINUOUS
 62
     5
 10
154.62690550612751
 20
-297.44276070472853
 30
0.0
 11
151.67248224746069
 21
-296.92181617197889
 31
0.0
  0
LINE
  8
DETAIL
  6
CONTINUOUS
 62
     5
 10
160.4476352469355
 20
-267.76878946182143
 30
0.0
 11
165.67995700140091
 21
-297.44276070472853
 31
0.0
  0
LINE
  8
DETAIL
  6
CONTINUOUS
 62
     5
 10
163.49391508266129
 20
-267.76878946182143
 30
0.0
 11
168.63438026059521
 21
-296.92181617197889
 31
0.0
  0
LINE
  8
DETAIL
  6
CONTINUOUS
 62
     5
 10
164.48548225373449
 20
-267.76878946182143
 30
0.0
 11
155.8213802537648
 21
-267.76878946182109
 31
0.0
  0
LINE
  8
DETAIL
  6
CONTINUOUS
 62
     5
 10
156.8129474253947
 20
-267.76878946182143
 30
0.0
 11
151.67248224746069
 21
-296.92181617197889
 31
0.0
  0
LINE
  8
DETAIL
  6
CONTINUOUS
 62
     5
 10
165.67995700140091
 20
-297.44276070472853
 30
0.0
 11
168.63438026059521
 21
-296.92181617197889
 31
0.0
  0
LINE
  8
DETAIL
  6
CONTINUOUS
 62
     5
 10
159.8592272611204
 20
-267.76878946182143
 30
0.0
 11
154.62690550612751
 21
-297.44276070472853
 31
0.0
  0
ARC
  8
DETAIL
  6
CONTINUOUS
 62
     5
 10
49.508350201656867
 20
39.151413299566229
 30
0.0
 40
4.2870413918992076
 50
358.75024899168989
 51
67.661793380875181
  0
ARC
  8
DETAIL
  6
CONTINUOUS
 62
     5
 10
-49.523864942002547
 20
39.156586415622307
 30
0.0
 40
4.2716467251646701
 50
115.3174926537269
 51
181.32366051264191
  0
ARC
  8
DETAIL
  6
CONTINUOUS
 62
     5
 10
49.19836746470537
 20
79.215355950975209
 30
0.0
 40
93.36661067243412
 50
131.78659536327021
 51
190.87612983910839
  0
ARC
  8
DETAIL
  6
CONTINUOUS
 62
     5
 10
-3.3555324091685179
 20
-7.8731028046859137
 30
0.0
 40
157.00314733047591
 50
46.713403025431312
 51
93.528108737499494
  0
ARC
  8
DETAIL
  6
CONTINUOUS
 62
     5
 10
9.7109380910915206
 20
6.101325932739428
 30
0.0
 40
137.8183879517982
 50
24.057225971961781
 51
45.437514834132259
  0
ARC
  8
DETAIL
  6
CONTINUOUS
 62
     5
 10
131.3388157220688
 20
61.191942161824272
 30
0.0
 40
4.3581735518865079
 50
239.42257648225399
 51
14.49585447185577
  0
ARC
  8
DETAIL
  6
CONTINUOUS
 62
     5
 10
45.057938136811572
 20
-81.488533211219647
 30
0.0
 40
92.187232250935764
 50
11.478665888124761
 51
75.525534370564969
  0
ARC
  8
DETAIL
  6
CONTINUOUS
 62
     5
 10
-27.004486482492212
 20
22.345123236023479
 30
0.0
 40
183.53164467238261
 50
316.49699231131478
 51
332.23831686667722
  0
ARC
  8
DETAIL
  6
CONTINUOUS
 62
     5
 10
-1.2534426071870259
 20
0.3766050952654041
 30
0.0
 40
149.73537577201171
 50
265.73705931054673
 51
314.66327556918839
  0
ARC
  8
DETAIL
  6
CONTINUOUS
 62
     5
 10
-12.56384210286342
 20
-144.4407470777812
 30
0.0
 40
4.5073649590373046
 50
117.9085068554318
 51
272.28883832527669
  0
ARC
  8
DETAIL
  6
CONTINUOUS
 62
     5
 10
29.711453426934899
 20
-143.2632560692862
 30
0.0
 40
77.64412134137919
 50
40.341562481874213
 51
40.342471931696018
  0
ARC
  8
DETAIL
  6
CONTINUOUS
 62
     5
 10
28.221524933960609
 20
-145.598834962258
 30
0.0
 40
72.115910766382513
 50
48.413014856803507
 51
68.01368216454334
  0
ARC
  8
DETAIL
  6
CONTINUOUS
 62
     5
 10
77997.364419771344
 20
77455.684320253204
 30
0.0
 40
109925.1049396353
 50
224.8673958270283
 51
224.91270784936771
  0
ARC
  8
DETAIL
  6
CONTINUOUS
 62
     5
 10
-8676.7437894981522
 20
-8854.9294348952935
 30
0.0
 40
12385.656781861409
 50
44.591422963071587
 51
44.987880637262641
  0
ARC
  8
DETAIL
  6
CONTINUOUS
 62
     5
 10
-786.09375618183901
 20
-300.87018490506102
 30
0.0
 40
944.24246611473484
 50
3.866046666926982
 51
7.9182048525743696
  0
ARC
  8
DETAIL
  6
CONTINUOUS
 62
     5
 10
-786.09375619307332
 20
-300.87018490667151
 30
0.0
 40
944.24246612608351
 50
8.0105427228390553
 51
8.3485191833093726
  0
ARC
  8
DETAIL
  6
CONTINUOUS
 62
     5
 10
-786.3449716444776
 20
-293.49906266870312
 30
0.0
 40
951.85482105235781
 50
3.1610683550706038
 51
7.4061208822794482
  0
ARC
  8
DETAIL
  6
CONTINUOUS
 62
     5
 10
-786.3449716142859
 20
-293.49906266462881
 30
0.0
 40
951.85482102189258
 50
7.4783706142821327
 51
7.8392575919003074
  0
ARC
  8
DETAIL
  6
CONTINUOUS
 62
     5
 10
1229.712060719598
 20
-256.53104217250711
 30
0.0
 40
1073.949477655028
 50
179.1791442400181
 51
180.59955077495371
  0
ARC
  8
DETAIL
  6
CONTINUOUS
 62
     5
 10
-70929.661623427019
 20
-668.53154092198918
 30
0.0
 40
71095.276660739837
 50
0.3229769533256209
 51
0.3404925903223606
  0
ARC
  8
DETAIL
  6
CONTINUOUS
 62
     5
 10
156.80990814956391
 20
-245.93158863911501
 30
0.0
 40
8.7635634876917941
 50
34.159426697576841
 51
165.74312279252209
  0
ARC
  8
DETAIL
  6
CONTINUOUS
 62
     5
 10
166.51611536356361
 20
-239.01533979300689
 30
0.0
 40
3.1633751284616012
 50
219.1108594718323
 51
341.70157333629737
  0
ARC
  8
DETAIL
  6
CONTINUOUS
 62
     5
 10
155.73411763645711
 20
-247.51184701575221
 30
0.0
 40
6.3482745695569243
 50
36.924415412904168
 51
169.13209275434781
  0
ARC
  8
DETAIL
  6
CONTINUOUS
 62
     5
 10
165.4436070301563
 20
-240.43132770097421
 30
0.0
 40
5.6701006438488681
 50
215.17891446036299
 51
338.05809422280242
  0
ARC
  8
DETAIL
  6
CONTINUOUS
 62
     5
 10
-56.001377233445957
 20
43.320964485562847
 30
0.0
 40
4.2938512758555607
 50
114.3344040626062
 51
181.14455852563921
  0
ARC
  8
DETAIL
  6
CONTINUOUS
 62
     5
 10
56.000824990107503
 20
43.320615904743143
 30
0.0
 40
4.2943964606393559
 50
358.86023848305098
 51
65.660798903078245
  0
ARC
  8
DETAIL
  6
CONTINUOUS
 62
     5
 10
49.051553560100729
 20
-54.421974306664417
 30
0.0
 40
4.7432839754678682
 50
307.06484203343109
 51
359.19708191012148
  0
ARC
  8
DETAIL
  6
CONTINUOUS
 62
     5
 10
52.096714332830743
 20
-71.246436969908473
 30
0.0
 40
9.3520922254419432
 50
134.90268186823889
 51
165.09731813071039
  0
ARC
  8
DETAIL
  6
CONTINUOUS
 62
     5
 10
36.834918549844588
 20
-75.304984361077913
 30
0.0
 40
4.3394852247172953
 50
291.35375509902218
 51
345.59069952825388
  0
ARC
  8
DETAIL
  6
CONTINUOUS
 62
     5
 10
55.918640860978478
 20
-57.202843974439467
 30
0.0
 40
4.3757863107983326
 50
314.711759533291
 51
0.2882404689171709
  0
ARC
  8
DETAIL
  6
CONTINUOUS
 62
     5
 10
58.424379532520113
 20
-74.952392191647277
 30
0.0
 40
9.9507962057742425
 50
137.68234412761441
 51
169.2599020770547
  0
ARC
  8
DETAIL
  6
CONTINUOUS
 62
     5
 10
42.286653193470563
 20
-80.054133908530503
 30
0.0
 40
4.3443033150309436
 50
293.20234368171452
 51
345.53635801274942
  0
ARC
  8
DETAIL
  6
CONTINUOUS
 62
     5
 10
67.633113277184748
 20
21.75384731291842
 30
0.0
 40
52.273346681761893
 50
85.489502947338835
 51
127.1192233473614
  0
ARC
  8
DETAIL
  6
CONTINUOUS
 62
     5
 10
-49.051553560100729
 20
-54.421974306664652
 30
0.0
 40
4.7432839754678682
 50
180.80291808989151
 51
232.93515796656891
  0
ARC
  8
DETAIL
  6
CONTINUOUS
 62
     5
 10
-52.096714332827098
 20
-71.246436969908473
 30
0.0
 40
9.3520922254419432
 50
14.9026818692896
 51
45.097318131761099
  0
ARC
  8
DETAIL
  6
CONTINUOUS
 62
     5
 10
-36.83491854984095
 20
-75.304984361077913
 30
0.0
 40
4.3394852247172953
 50
194.40930047174609
 51
248.64624490097771
  0
ARC
  8
DETAIL
  6
CONTINUOUS
 62
     5
 10
-55.918640860978478
 20
-57.202843974439467
 30
0.0
 40
4.3757863107983326
 50
179.71175953108281
 51
225.288240466709
  0
ARC
  8
DETAIL
  6
CONTINUOUS
 62
     5
 10
-58.424379532516468
 20
-74.952392191647277
 30
0.0
 40
9.9507962057742425
 50
10.74009792294526
 51
42.317655872385608
  0
ARC
  8
DETAIL
  6
CONTINUOUS
 62
     5
 10
-42.286653193470563
 20
-80.054133908530503
 30
0.0
 40
4.3443033150309436
 50
194.46364198725061
 51
246.79765631828559
  0
ARC
  8
DETAIL
  6
CONTINUOUS
 62
     5
 10
-92.725861953222193
 20
13.775826926339731
 30
0.0
 40
103.6844413116179
 50
253.29833487417471
 51
270.38587002680413
  0
ARC
  8
DETAIL
  6
CONTINUOUS
 62
     5
 10
30.86727205438001
 20
11.37429592844251
 30
0.0
 40
181.438920592145
 50
195.4143076585826
 51
212.28377989778781
  0
ARC
  8
DETAIL
  6
CONTINUOUS
 62
     5
 10
0.8134049031978066
 20
1.052100868614843
 30
0.0
 40
149.73537577201171
 50
145.73705931039669
 51
194.66327556914209
  0
ARC
  8
DETAIL
  6
CONTINUOUS
 62
     5
 10
-118.94690123962209
 20
83.255870245342294
 30
0.0
 40
4.5073649590373046
 50
357.90850685535003
 51
152.28883832517681
  0
LINE
  8
DETAIL
  6
CONTINUOUS
 62
     5
 10
148.142752531523
 20
-163.77175091873889
 30
0.0
 11
146.13698743660279
 21
-162.03761625078801
 31
0.0
  0
ARC
  8
DETAIL
  6
CONTINUOUS
 62
     5
 10
146.27246818338239
 20
-165.1478517199462
 30
0.0
 40
10.44679286091913
 50
8.1247463467427448
 51
52.192967946161993
  0
ARC
  8
DETAIL
  6
CONTINUOUS
 62
     5
 10
71.457709594735206
 20
-38.899763962167746
 30
0.0
 40
112.2784942330639
 50
59.097350477555352
 51
87.972632721449102
  0
ARC
  8
DETAIL
  6
CONTINUOUS
 62
     5
 10
-25.737697434247821
 20
78.534070537026992
 30
0.0
 40
88.821832421479911
 50
177.0589565622638
 51
241.51454192880789
  0
ARC
  8
DETAIL
  6
CONTINUOUS
 62
     5
 10
-159.17640879401009
 20
51.087018878227127
 30
0.0
 40
239.93835770563189
 50
307.03120325404808
 51
321.77658525072809
  0
ARC
  8
DETAIL
  6
CONTINUOUS
 62
     5
 10
29.711453426934899
 20
-143.2632560692862
 30
0.0
 40
77.64412134137919
 50
47.727911244069368
 51
67.842395476240938
  0
ENDSEC
  0
EOF
