  0
SECTION
  2
HEADER
  9
$ACADVER
  1
AC1009
  9
$DWGCODEPAGE
  3
dos932
  9
$INSBASE
 10
0.0
 20
0.0
 30
0.0
  9
$EXTMIN
 10
-623.58396781327247
 20
-323.63890416878172
 30
-0.0015257624927045
  9
$EXTMAX
 10
1041.42152037404
 20
711.04431968536664
 30
0.0022888765696933
  9
$LIMMIN
 10
-2970.0
 20
-2100.0
  9
$LIMMAX
 10
2970.0
 20
2100.0
  9
$ORTHOMODE
 70
     1
  9
$REGENMODE
 70
     1
  9
$FILLMODE
 70
     1
  9
$QTEXTMODE
 70
     0
  9
$MIRRTEXT
 70
     0
  9
$LTSCALE
 40
20.0
  9
$ATTMODE
 70
     1
  9
$TEXTSIZE
 40
64.0
  9
$TRACEWID
 40
0.05
  9
$TEXTSTYLE
  7
STANDARD
  9
$CLAYER
  8
SIZE
  9
$CELTYPE
  6
CONTINUOUS
  9
$CECOLOR
 62
     7
  9
$DIMSCALE
 40
1.0
  9
$DIMASZ
 40
12.0
  9
$DIMEXO
 40
20.0
  9
$DIMDLI
 40
200.0
  9
$DIMRND
 40
0.0
  9
$DIMDLE
 40
0.0
  9
$DIMEXE
 40
20.0
  9
$DIMTP
 40
0.0
  9
$DIMTM
 40
0.0
  9
$DIMTXT
 40
64.0
  9
$DIMCEN
 40
0.09
  9
$DIMTSZ
 40
0.0
  9
$DIMTOL
 70
     0
  9
$DIMLIM
 70
     0
  9
$DIMTIH
 70
     0
  9
$DIMTOH
 70
     0
  9
$DIMSE1
 70
     0
  9
$DIMSE2
 70
     0
  9
$DIMTAD
 70
     1
  9
$DIMZIN
 70
     8
  9
$DIMBLK
  1

  9
$DIMASO
 70
     1
  9
$DIMSHO
 70
     0
  9
$DIMPOST
  1

  9
$DIMAPOST
  1

  9
$DIMALT
 70
     0
  9
$DIMALTD
 70
     2
  9
$DIMALTF
 40
25.399999999999999
  9
$DIMLFAC
 40
1.0
  9
$DIMTOFL
 70
     1
  9
$DIMTVP
 40
0.0
  9
$DIMTIX
 70
     1
  9
$DIMSOXD
 70
     0
  9
$DIMSAH
 70
     0
  9
$DIMBLK1
  1

  9
$DIMBLK2
  1

  9
$DIMSTYLE
  2
STANDARD
  9
$DIMCLRD
 70
     7
  9
$DIMCLRE
 70
     7
  9
$DIMCLRT
 70
     7
  9
$DIMTFAC
 40
1.0
  9
$DIMGAP
 40
25.0
  9
$LUNITS
 70
     2
  9
$LUPREC
 70
     4
  9
$SKETCHINC
 40
0.1
  9
$FILLETRAD
 40
3.0
  9
$AUNITS
 70
     1
  9
$AUPREC
 70
     3
  9
$MENU
  1
ACAD
  9
$ELEVATION
 40
0.0
  9
$PELEVATION
 40
0.0
  9
$THICKNESS
 40
50.0
  9
$LIMCHECK
 70
     0
  9
$CHAMFERA
 40
0.0
  9
$CHAMFERB
 40
0.0
  9
$SKPOLY
 70
     0
  9
$TDCREATE
 40
2453019.62301037
  9
$TDUPDATE
 40
2458949.441466181
  9
$TDINDWG
 40
1.7128400579
  9
$TDUSRTIMER
 40
1.7128400579
  9
$USRTIMER
 70
     1
  9
$ANGBASE
 50
0.0
  9
$ANGDIR
 70
     0
  9
$PDMODE
 70
     3
  9
$PDSIZE
 40
-2.0
  9
$PLINEWID
 40
0.0
  9
$SPLFRAME
 70
     0
  9
$SPLINETYPE
 70
     6
  9
$SPLINESEGS
 70
     8
  9
$SURFTAB1
 70
     6
  9
$SURFTAB2
 70
     6
  9
$SURFTYPE
 70
     6
  9
$SURFU
 70
     6
  9
$SURFV
 70
     6
  9
$UCSNAME
  2

  9
$UCSORG
 10
0.0
 20
0.0
 30
0.0
  9
$UCSXDIR
 10
1.0
 20
0.0
 30
0.0
  9
$UCSYDIR
 10
0.0
 20
1.0
 30
0.0
  9
$PUCSNAME
  2

  9
$PUCSORG
 10
0.0
 20
0.0
 30
0.0
  9
$PUCSXDIR
 10
1.0
 20
0.0
 30
0.0
  9
$PUCSYDIR
 10
0.0
 20
1.0
 30
0.0
  9
$USERI1
 70
     0
  9
$USERI2
 70
     0
  9
$USERI3
 70
     0
  9
$USERI4
 70
     0
  9
$USERI5
 70
     0
  9
$USERR1
 40
20.0
  9
$USERR2
 40
0.0
  9
$USERR3
 40
0.0
  9
$USERR4
 40
0.0
  9
$USERR5
 40
0.0
  9
$WORLDVIEW
 70
     1
  9
$SHADEDGE
 70
     3
  9
$SHADEDIF
 70
    70
  9
$TILEMODE
 70
     1
  9
$MAXACTVP
 70
    48
  9
$PINSBASE
 10
0.0
 20
0.0
 30
0.0
  9
$PLIMCHECK
 70
     0
  9
$PEXTMIN
 10
-100000000000000000000.0
 20
-100000000000000000000.0
 30
-100000000000000000000.0
  9
$PEXTMAX
 10
100000000000000000000.0
 20
100000000000000000000.0
 30
100000000000000000000.0
  9
$PLIMMIN
 10
0.0
 20
0.0
  9
$PLIMMAX
 10
12.0
 20
9.0
  9
$UNITMODE
 70
     0
  9
$VISRETAIN
 70
     0
  9
$PLINEGEN
 70
     0
  9
$PSLTSCALE
 70
     0
  9
$TREEDEPTH
 70
  3020
  9
$ATTDIA
 70
     0
  9
$ATTREQ
 70
     1
  9
$BLIPMODE
 70
     1
  9
$COORDS
 70
     1
  9
$DRAGMODE
 70
     2
  9
$OSMODE
 70
     0
  9
$HANDLING
 70
     0
  9
$HANDSEED
  5
FCEF
  0
ENDSEC
  0
SECTION
  2
TABLES
  0
TABLE
  2
LTYPE
 70
     2
  0
LTYPE
  2
CONTINUOUS
 70
     0
  3
実線
 72
    65
 73
     0
 40
0.0
  0
LTYPE
  2
DASHDOT
 70
     0
  3
____ _ ____ _ ____ _ ____ _ ____ _ ____ _ ____
 72
    65
 73
     4
 40
5.5
 49
4.0
 49
-0.6
 49
0.3
 49
-0.6
  0
ENDTAB
  0
TABLE
  2
LAYER
 70
    12
  0
LAYER
  2
0
 70
     0
 62
     7
  6
CONTINUOUS
  0
LAYER
  2
BASIS
 70
     0
 62
     6
  6
DASHDOT
  0
LAYER
  2
OUTLINE
 70
     0
 62
     3
  6
CONTINUOUS
  0
LAYER
  2
DETAIL
 70
     0
 62
     5
  6
CONTINUOUS
  0
LAYER
  2
SIZE
 70
     0
 62
    30
  6
CONTINUOUS
  0
LAYER
  2
ARRANGE
 70
     0
 62
     1
  6
CONTINUOUS
  0
LAYER
  2
DEFPOINTS
 70
     0
 62
     7
  6
CONTINUOUS
  0
LAYER
  2
ETC
 70
     0
 62
    61
  6
CONTINUOUS
  0
LAYER
  2
FIX
 70
     0
 62
    11
  6
CONTINUOUS
  0
LAYER
  2
NOTE
 70
     0
 62
     4
  6
CONTINUOUS
  0
LAYER
  2
SERVICESPACE
 70
    64
 62
     2
  6
DASHDOT
  0
LAYER
  2
SYMBOLLINE
 70
    64
 62
    15
  6
CONTINUOUS
  0
ENDTAB
  0
TABLE
  2
STYLE
 70
     1
  0
STYLE
  2
STANDARD
 70
     0
 40
64.0
 41
0.9
 50
0.0
 71
     0
 42
64.0
  3
SIMPLEX.shx
  4
BIGFONT.shx
  0
ENDTAB
  0
TABLE
  2
APPID
 70
    19
  0
APPID
  2
ACAD
 70
     0
  0
APPID
  2
AUTOCAD_POSTSCRIPT_FIGURE
 70
     0
  0
APPID
  2
ACAD_EXEMPT_FROM_CAD_STANDARDS
 70
     0
  0
APPID
  2
ACAD_PSEXT
 70
     0
  0
APPID
  2
ACAUTHENVIRON
 70
     0
  0
APPID
  2
GENIUS_GENOENT_13
 70
     0
  0
APPID
  2
GENIUS_GENCFG_13
 70
     0
  0
APPID
  2
GENIUS_GENCFG0_13
 70
     0
  0
APPID
  2
GENIUS_GENCFG1_13
 70
     0
  0
APPID
  2
GENIUS_GENCFG2_13
 70
     0
  0
APPID
  2
GENIUS_GENCFG3_13
 70
     0
  0
APPID
  2
GENIUS_GENCFG4_13
 70
     0
  0
APPID
  2
GENIUS_GEVCFG0_13
 70
     0
  0
APPID
  2
CONTENTBLOCKICON
 70
     0
  0
APPID
  2
CONTENTBLOCKDESCRIPTION
 70
     0
  0
APPID
  2
ACAD_NAV_VCDISPLAY
 70
     0
  0
APPID
  2
ACAD_MLEADERVER
 70
     0
  0
APPID
  2
ACDBDYNAMICBLOCKTRUENAME
 70
     0
  0
APPID
  2
ACDBDYNAMICBLOCKGUID
 70
     0
  0
ENDTAB
  0
TABLE
  2
DIMSTYLE
 70
     1
  0
DIMSTYLE
  2
STANDARD
 70
     0
  3

  4

  5
_ORIGIN
  6

  7

 40
1.0
 41
12.0
 42
20.0
 43
200.0
 44
20.0
 45
0.0
 46
0.0
 47
0.0
 48
0.0
140
64.0
141
0.09
142
0.0
143
25.399999999999999
144
1.0
145
0.0
146
1.0
147
25.0
 71
     0
 72
     0
 73
     0
 74
     0
 75
     0
 76
     0
 77
     1
 78
     8
170
     0
171
     2
172
     1
173
     0
174
     1
175
     0
176
     7
177
     7
178
     7
  0
ENDTAB
  0
TABLE
  2
VIEW
 70
     1
  0
VIEW
  2
ALL
 70
     0
 40
4282.6198079999986
 10
0.0
 20
41.309904000000003
 41
5940.0
 11
0.0
 21
0.0
 31
1.0
 12
0.0
 22
0.0
 32
0.0
 42
50.0
 43
0.0
 44
0.0
 50
0.0
 71
     0
  0
ENDTAB
  0
TABLE
  2
UCS
 70
     0
  0
ENDTAB
  0
TABLE
  2
VPORT
 70
     1
  0
VPORT
  2
*ACTIVE
 70
     0
 10
0.0
 20
0.0
 11
1.0
 21
1.0
 12
208.91877628038401
 22
193.70270775829249
 13
0.0
 23
0.0
 14
1.0
 24
1.0
 15
0.0
 25
0.0
 16
0.0
 26
0.0
 36
1.0
 17
0.0
 27
0.0
 37
0.0
 40
1041.5430021338441
 41
1.747787610619469
 42
50.0
 43
0.0
 44
0.0
 50
0.0
 51
0.0
 71
     0
 72
  1000
 73
     1
 74
     3
 75
     0
 76
     0
 77
     0
 78
     0
  0
ENDTAB
  0
ENDSEC
  0
SECTION
  2
BLOCKS
  0
BLOCK
  8
0
  2
_ORIGIN
 70
     0
 10
0.0
 20
0.0
 30
0.0
  3
_ORIGIN
  1
_ORIGIN
  0
CIRCLE
  8
0
  6
CONTINUOUS
 62
     7
 10
0.0
 20
0.0
 30
0.0
 40
0.5
  0
LINE
  8
0
  6
CONTINUOUS
 62
     7
 10
0.0
 20
0.0
 30
0.0
 11
-1.0
 21
0.0
 31
0.0
  0
ENDBLK
  8
0
  0
ENDSEC
  0
SECTION
  2
ENTITIES
  0
TEXT
  8
ETC
  6
CONTINUOUS
 62
    61
 10
251.39115709096771
 20
646.74347996498375
 30
0.0
 40
64.0
  1
EWF-35CTA40A2_2
 41
0.9
  0
TEXT
  8
ETC
  6
CONTINUOUS
 62
    61
 10
247.20516309096729
 20
528.78816995015279
 30
0.0
 40
64.0
  1
産業扇
 41
0.9
  0
CIRCLE
  8
ARRANGE
  6
CONTINUOUS
 62
     1
 10
0.0
 20
0.0
 30
0.0
 40
40.0
  0
POINT
  8
ARRANGE
  6
CONTINUOUS
 62
     1
 10
0.0
 20
0.0
 30
0.0
  0
TEXT
  8
ETC
  6
CONTINUOUS
 62
    61
 10
301.06236371709662
 20
439.56384240743
 30
0.0
 40
40.0
  1
EWF-35CTA40A2
 41
0.9
  0
TEXT
  8
ETC
  6
CONTINUOUS
 62
    61
 10
297.90656133952331
 20
354.63939706392739
 30
0.0
 40
40.0
  1
EWF-35CTA2
 41
0.9
  0
CIRCLE
  8
FIX
  6
CONTINUOUS
 62
    11
 10
-216.9999999998042
 20
216.99999999980449
 30
0.0
 40
7.0
  0
CIRCLE
  8
FIX
  6
CONTINUOUS
 62
    11
 10
-216.9999999998042
 20
-217.00000000039131
 30
0.0
 40
7.0
  0
CIRCLE
  8
FIX
  6
CONTINUOUS
 62
    11
 10
217.00000000039111
 20
-217.00000000039131
 30
0.0
 40
7.0
  0
CIRCLE
  8
FIX
  6
CONTINUOUS
 62
    11
 10
217.00000000039111
 20
216.99999999980449
 30
0.0
 40
7.0
  0
LINE
  8
SIZE
  6
CONTINUOUS
 62
    30
 10
-234.9999999998042
 20
230.00000000000011
 30
0.0
 11
-234.9999999998042
 21
410.79974088317982
 31
0.0
  0
LINE
  8
SIZE
  6
CONTINUOUS
 62
    30
 10
235.00000000039131
 20
230.00000000000011
 30
0.0
 11
235.00000000039131
 21
410.79974088317982
 31
0.0
  0
LINE
  8
SIZE
  6
CONTINUOUS
 62
    30
 10
-222.9999999998042
 20
390.79974088317982
 30
0.0
 11
223.00000000039131
 21
390.79974088317982
 31
0.0
  0
CIRCLE
  8
SIZE
  6
CONTINUOUS
 62
    30
 10
-234.9999999998042
 20
390.79974088317982
 30
0.0
 40
6.0
  0
LINE
  8
SIZE
  6
CONTINUOUS
 62
    30
 10
-234.9999999998042
 20
390.79974088317982
 30
0.0
 11
-222.9999999998042
 21
390.79974088317982
 31
0.0
  0
CIRCLE
  8
SIZE
  6
CONTINUOUS
 62
    30
 10
235.00000000039131
 20
390.79974088317982
 30
0.0
 40
6.0
  0
LINE
  8
SIZE
  6
CONTINUOUS
 62
    30
 10
235.00000000039131
 20
390.79974088317982
 30
0.0
 11
223.00000000039131
 21
390.79974088317982
 31
0.0
  0
TEXT
  8
SIZE
  6
CONTINUOUS
 62
    30
 10
-74.05714285714285
 20
415.79974088317982
 30
0.0
 40
64.0
  1
470
 41
0.9
 72
     1
 11
0.0
 21
415.79974088317982
 31
0.0
  0
POINT
  8
DEFPOINTS
  6
CONTINUOUS
 62
    30
 10
-234.9999999998042
 20
210.00000000000011
 30
0.0
  0
POINT
  8
DEFPOINTS
  6
CONTINUOUS
 62
    30
 10
235.00000000039131
 20
210.00000000000011
 30
0.0
  0
POINT
  8
DEFPOINTS
  6
CONTINUOUS
 62
    30
 10
235.00000000039131
 20
390.79974088317982
 30
0.0
  0
LINE
  8
SIZE
  6
CONTINUOUS
 62
    30
 10
-216.9999999998042
 20
260.48336594892368
 30
0.0
 11
-216.9999999998042
 21
290.96749696448342
 31
0.0
  0
LINE
  8
SIZE
  6
CONTINUOUS
 62
    30
 10
217.00000000039111
 20
260.48336594892368
 30
0.0
 11
217.00000000039111
 21
290.96749696448342
 31
0.0
  0
LINE
  8
SIZE
  6
CONTINUOUS
 62
    30
 10
-204.9999999998042
 20
270.96749696448342
 30
0.0
 11
205.00000000039111
 21
270.96749696448342
 31
0.0
  0
CIRCLE
  8
SIZE
  6
CONTINUOUS
 62
    30
 10
-216.9999999998042
 20
270.96749696448342
 30
0.0
 40
6.0
  0
LINE
  8
SIZE
  6
CONTINUOUS
 62
    30
 10
-216.9999999998042
 20
270.96749696448342
 30
0.0
 11
-204.9999999998042
 21
270.96749696448342
 31
0.0
  0
CIRCLE
  8
SIZE
  6
CONTINUOUS
 62
    30
 10
217.00000000039111
 20
270.96749696448342
 30
0.0
 40
6.0
  0
LINE
  8
SIZE
  6
CONTINUOUS
 62
    30
 10
217.00000000039111
 20
270.96749696448342
 30
0.0
 11
205.00000000039111
 21
270.96749696448342
 31
0.0
  0
TEXT
  8
SIZE
  6
CONTINUOUS
 62
    30
 10
-75.4285714283088
 20
295.96749696448342
 30
0.0
 40
64.0
  1
434
 41
0.9
 72
     1
 11
0.0000000002626166
 21
295.96749696448342
 31
0.0
  0
POINT
  8
DEFPOINTS
  6
CONTINUOUS
 62
    30
 10
-216.9999999998042
 20
240.4833659489237
 30
0.0
  0
POINT
  8
DEFPOINTS
  6
CONTINUOUS
 62
    30
 10
217.00000000039111
 20
240.4833659489237
 30
0.0
  0
POINT
  8
DEFPOINTS
  6
CONTINUOUS
 62
    30
 10
217.00000000039111
 20
270.96749696448342
 30
0.0
  0
LINE
  8
SIZE
  6
CONTINUOUS
 62
    30
 10
-230.0
 20
234.99999999980449
 30
0.0
 11
-554.5687867710252
 21
234.9999999998046
 31
0.0
  0
LINE
  8
SIZE
  6
CONTINUOUS
 62
    30
 10
-230.0
 20
-235.00000000039131
 30
0.0
 11
-554.5687867710252
 21
-235.0000000003912
 31
0.0
  0
LINE
  8
SIZE
  6
CONTINUOUS
 62
    30
 10
-534.56878677102509
 20
222.9999999998046
 30
0.0
 11
-534.56878677102509
 21
-223.0000000003912
 31
0.0
  0
CIRCLE
  8
SIZE
  6
CONTINUOUS
 62
    30
 10
-534.56878677102509
 20
234.9999999998046
 30
0.0
 40
6.0
  0
LINE
  8
SIZE
  6
CONTINUOUS
 62
    30
 10
-534.56878677102509
 20
234.9999999998046
 30
0.0
 11
-534.56878677102509
 21
222.9999999998046
 31
0.0
  0
CIRCLE
  8
SIZE
  6
CONTINUOUS
 62
    30
 10
-534.56878677102509
 20
-235.0000000003912
 30
0.0
 40
6.0
  0
LINE
  8
SIZE
  6
CONTINUOUS
 62
    30
 10
-534.56878677102509
 20
-235.0000000003912
 30
0.0
 11
-534.56878677102509
 21
-223.0000000003912
 31
0.0
  0
TEXT
  8
SIZE
  6
CONTINUOUS
 62
    30
 10
-559.56878677102509
 20
-80.859766315696021
 30
0.0
 40
64.0
  1
470
 50
90.0
 41
0.9
 72
     1
 11
-559.56878677102509
 21
-6.8026234585531711
 31
0.0
  0
POINT
  8
DEFPOINTS
  6
CONTINUOUS
 62
    30
 10
-210.0
 20
234.99999999980449
 30
0.0
  0
POINT
  8
DEFPOINTS
  6
CONTINUOUS
 62
    30
 10
-210.0
 20
-235.00000000039131
 30
0.0
  0
POINT
  8
DEFPOINTS
  6
CONTINUOUS
 62
    30
 10
-534.56878677102509
 20
-235.0000000003912
 30
0.0
  0
LINE
  8
SIZE
  6
CONTINUOUS
 62
    30
 10
-260.48336594892362
 20
216.99999999980449
 30
0.0
 11
-422.91995383703568
 21
216.99999999980449
 31
0.0
  0
LINE
  8
SIZE
  6
CONTINUOUS
 62
    30
 10
-260.48336594892362
 20
-217.00000000039131
 30
0.0
 11
-422.91995383703568
 21
-217.00000000039131
 31
0.0
  0
LINE
  8
SIZE
  6
CONTINUOUS
 62
    30
 10
-402.91995383703568
 20
204.99999999980449
 30
0.0
 11
-402.91995383703568
 21
-205.00000000039131
 31
0.0
  0
CIRCLE
  8
SIZE
  6
CONTINUOUS
 62
    30
 10
-402.91995383703568
 20
216.99999999980449
 30
0.0
 40
6.0
  0
LINE
  8
SIZE
  6
CONTINUOUS
 62
    30
 10
-402.91995383703568
 20
216.99999999980449
 30
0.0
 11
-402.91995383703568
 21
204.99999999980449
 31
0.0
  0
CIRCLE
  8
SIZE
  6
CONTINUOUS
 62
    30
 10
-402.91995383703568
 20
-217.00000000039131
 30
0.0
 40
6.0
  0
LINE
  8
SIZE
  6
CONTINUOUS
 62
    30
 10
-402.91995383703568
 20
-217.00000000039131
 30
0.0
 11
-402.91995383703568
 21
-205.00000000039131
 31
0.0
  0
TEXT
  8
SIZE
  6
CONTINUOUS
 62
    30
 10
-427.91995383703568
 20
-75.428571428571416
 30
0.0
 40
64.0
  1
434
 50
90.0
 41
0.9
 72
     1
 11
-427.91995383703568
 21
0.0
 31
0.0
  0
POINT
  8
DEFPOINTS
  6
CONTINUOUS
 62
    30
 10
-240.48336594892359
 20
216.99999999980449
 30
0.0
  0
POINT
  8
DEFPOINTS
  6
CONTINUOUS
 62
    30
 10
-240.48336594892359
 20
-217.00000000039131
 30
0.0
  0
POINT
  8
DEFPOINTS
  6
CONTINUOUS
 62
    30
 10
-402.91995383703568
 20
-217.00000000039131
 30
0.0
  0
LINE
  8
SIZE
  6
CONTINUOUS
 62
    30
 10
-20.0
 20
60.294362262147843
 30
0.0
 11
-297.16584804100648
 21
60.294362262147963
 31
0.0
  0
LINE
  8
SIZE
  6
CONTINUOUS
 62
    30
 10
-20.0
 20
-93.294367969014075
 30
0.0
 11
-297.16584804100648
 21
-93.29436796901399
 31
0.0
  0
LINE
  8
SIZE
  6
CONTINUOUS
 62
    30
 10
-277.16584804100648
 20
48.294362262147899
 30
0.0
 11
-277.16584804100648
 21
-81.294367969014047
 31
0.0
  0
CIRCLE
  8
SIZE
  6
CONTINUOUS
 62
    30
 10
-277.16584804100648
 20
60.294362262147899
 30
0.0
 40
6.0
  0
LINE
  8
SIZE
  6
CONTINUOUS
 62
    30
 10
-277.16584804100648
 20
60.294362262147899
 30
0.0
 11
-277.16584804100648
 21
48.294362262147899
 31
0.0
  0
CIRCLE
  8
SIZE
  6
CONTINUOUS
 62
    30
 10
-277.16584804100648
 20
-93.294367969014019
 30
0.0
 40
6.0
  0
LINE
  8
SIZE
  6
CONTINUOUS
 62
    30
 10
-277.16584804100648
 20
-93.294367969014019
 30
0.0
 11
-277.16584804100648
 21
-81.294367969014047
 31
0.0
  0
TEXT
  8
SIZE
  6
CONTINUOUS
 62
    30
 10
-302.16584804100648
 20
-85.071431424861657
 30
0.0
 40
64.0
  1
153
 50
90.0
 41
0.9
 72
     1
 11
-302.16584804100648
 21
-16.500002853433099
 31
0.0
  0
POINT
  8
DEFPOINTS
  6
CONTINUOUS
 62
    30
 10
0.0
 20
60.294362262147843
 30
0.0
  0
POINT
  8
DEFPOINTS
  6
CONTINUOUS
 62
    30
 10
0.0
 20
-93.294367969014075
 30
0.0
  0
POINT
  8
DEFPOINTS
  6
CONTINUOUS
 62
    30
 10
-277.16584804100648
 20
-93.294367969014019
 30
0.0
  0
TEXT
  8
NOTE
  6
CONTINUOUS
 62
     4
 10
-564.10747873005164
 20
306.94283622550762
 30
0.0
 40
64.0
  1
4-φ10
 41
0.9
  0
TEXT
  8
NOTE
  6
CONTINUOUS
 62
     4
 10
282.97228929858738
 20
-290.29662934892963
 30
0.0
 40
64.0
  1
EL
 41
0.9
  0
LINE
  8
OUTLINE
  6
CONTINUOUS
 62
     3
 10
-234.9999999998042
 20
210.00000000000011
 30
0.0
 11
-234.9999999998042
 21
-209.99999999999989
 31
0.0
  0
LINE
  8
OUTLINE
  6
CONTINUOUS
 62
     3
 10
-210.0
 20
-235.00000000039131
 30
0.0
 11
210.0
 21
-234.9999999998042
 31
0.0
  0
LINE
  8
OUTLINE
  6
CONTINUOUS
 62
     3
 10
235.00000000039131
 20
-209.99999999999989
 30
0.0
 11
235.00000000039131
 21
210.00000000000011
 31
0.0
  0
LINE
  8
OUTLINE
  6
CONTINUOUS
 62
     3
 10
210.0
 20
234.99999999980449
 30
0.0
 11
-210.0
 21
234.99999999980449
 31
0.0
  0
ARC
  8
OUTLINE
  6
CONTINUOUS
 62
     3
 10
-210.0
 20
-209.99999999999989
 30
0.0
 40
24.999999999804292
 50
180.0
 51
270.0
  0
ARC
  8
OUTLINE
  6
CONTINUOUS
 62
     3
 10
-210.0
 20
210.00000000000011
 30
0.0
 40
24.999999999804292
 50
90.0
 51
180.0
  0
ARC
  8
OUTLINE
  6
CONTINUOUS
 62
     3
 10
210.0
 20
-209.99999999999989
 30
0.0
 40
24.99999999980432
 50
270.0
 51
0.0
  0
ARC
  8
OUTLINE
  6
CONTINUOUS
 62
     3
 10
210.0
 20
210.00000000000011
 30
0.0
 40
24.999999999804309
 50
0.0
 51
90.0
  0
LINE
  8
DETAIL
  6
CONTINUOUS
 62
     5
 10
-48.886929253033259
 20
-72.205931934246564
 30
0.0
 11
-46.493269585714422
 21
-81.139191428571394
 31
0.0
  0
LINE
  8
DETAIL
  6
CONTINUOUS
 62
     5
 10
-43.059188684148921
 20
-68.841284347749422
 30
0.0
 11
-41.037895633268143
 21
-76.384852709588984
 31
0.0
  0
LINE
  8
DETAIL
  6
CONTINUOUS
 62
     5
 10
-60.294371799804367
 20
43.235194865753499
 30
0.0
 11
-60.294371799804367
 21
-57.180830601369848
 31
0.0
  0
LINE
  8
DETAIL
  6
CONTINUOUS
 62
     5
 10
-53.794371800195677
 20
39.057910610371827
 30
0.0
 11
-53.794371800195677
 21
-54.488442445596831
 31
0.0
  0
LINE
  8
DETAIL
  6
CONTINUOUS
 62
     5
 10
-58.997184075146833
 20
-60.312518799217173
 30
0.0
 11
-51.322768807045122
 21
-67.986934067318941
 31
0.0
  0
LINE
  8
DETAIL
  6
CONTINUOUS
 62
     5
 10
-52.497184075538136
 20
-57.620130644031292
 30
0.0
 11
-45.495028237573479
 21
-64.622286481408992
 31
0.0
  0
LINE
  8
DETAIL
  6
CONTINUOUS
 62
     5
 10
53.794371800782763
 20
-54.488442445596831
 30
0.0
 11
53.794371800782763
 21
39.057910610958913
 31
0.0
  0
LINE
  8
DETAIL
  6
CONTINUOUS
 62
     5
 10
60.294371800391218
 20
-57.180830601369848
 30
0.0
 11
60.294371800391218
 21
43.235194865753499
 31
0.0
  0
LINE
  8
DETAIL
  6
CONTINUOUS
 62
     5
 10
41.037895633854987
 20
-76.384852709001905
 30
0.0
 11
43.059188684148687
 21
-68.841284347749422
 31
0.0
  0
LINE
  8
DETAIL
  6
CONTINUOUS
 62
     5
 10
46.493269586301267
 20
-81.139191429158444
 30
0.0
 11
48.886929253620337
 21
-72.205931934246564
 31
0.0
  0
LINE
  8
DETAIL
  6
CONTINUOUS
 62
     5
 10
45.49502823816033
 20
-64.622286481408992
 30
0.0
 11
52.497184076125222
 21
-57.620130644031292
 31
0.0
  0
LINE
  8
DETAIL
  6
CONTINUOUS
 62
     5
 10
51.322768807631967
 20
-67.986934067318941
 30
0.0
 11
58.997184075733912
 21
-60.312518799217173
 31
0.0
  0
LINE
  8
DETAIL
  6
CONTINUOUS
 62
     5
 10
-226.89949493659509
 20
220.53553390567529
 30
0.0
 11
-220.53553390567509
 21
226.899494936595
 31
0.0
  0
LINE
  8
DETAIL
  6
CONTINUOUS
 62
     5
 10
-194.2609560305284
 20
213.15182899608621
 30
0.0
 11
-194.86755774833651
 21
212.54522727827799
 31
0.0
  0
LINE
  8
DETAIL
  6
CONTINUOUS
 62
     5
 10
-212.54522727827799
 20
194.8675577489237
 30
0.0
 11
-213.15182899608621
 21
194.26095603111551
 31
0.0
  0
LINE
  8
DETAIL
  6
CONTINUOUS
 62
     5
 10
-196.49390334540101
 20
202.2674060371821
 30
0.0
 11
-201.49390334559689
 21
199.38065469158511
 31
0.0
  0
LINE
  8
DETAIL
  6
CONTINUOUS
 62
     5
 10
-192.42803935362031
 20
174.75036982367899
 30
0.0
 11
-185.18019484637969
 21
181.99821433091981
 31
0.0
  0
LINE
  8
DETAIL
  6
CONTINUOUS
 62
     5
 10
-196.49390334540101
 20
190.72040065362029
 30
0.0
 11
-191.49390334520561
 21
193.60715199921719
 31
0.0
  0
LINE
  8
DETAIL
  6
CONTINUOUS
 62
     5
 10
-171.56838930821911
 20
189.24605883816039
 30
0.0
 11
-178.81623381545981
 21
181.99821433091981
 31
0.0
  0
LINE
  8
DETAIL
  6
CONTINUOUS
 62
     5
 10
-169.4061151954991
 20
189.6405659982388
 30
0.0
 11
-177.93235033913899
 21
181.11433085459899
 31
0.0
  0
LINE
  8
DETAIL
  6
CONTINUOUS
 62
     5
 10
-188.1178515410958
 20
170.92882965264181
 30
0.0
 11
-189.6405659982388
 21
169.40611519549901
 31
0.0
  0
LINE
  8
DETAIL
  6
CONTINUOUS
 62
     5
 10
-220.53553390567509
 20
-226.89949493659489
 30
0.0
 11
-226.89949493659509
 21
-220.5355339062622
 31
0.0
  0
LINE
  8
DETAIL
  6
CONTINUOUS
 62
     5
 10
-213.15182899608621
 20
-194.2609560311154
 30
0.0
 11
-212.54522727827799
 21
-194.86755774892359
 31
0.0
  0
LINE
  8
DETAIL
  6
CONTINUOUS
 62
     5
 10
-194.86755774833651
 20
-212.54522727886501
 30
0.0
 11
-194.2609560305284
 21
-213.15182899667309
 31
0.0
  0
LINE
  8
DETAIL
  6
CONTINUOUS
 62
     5
 10
-234.9999999998042
 20
210.00000000000011
 30
0.0
 11
-234.9999999998042
 21
-209.99999999999989
 31
0.0
  0
LINE
  8
DETAIL
  6
CONTINUOUS
 62
     5
 10
-231.99999999980449
 20
210.00000000000011
 30
0.0
 11
-231.99999999980449
 21
176.5406354958906
 31
0.0
  0
LINE
  8
DETAIL
  6
CONTINUOUS
 62
     5
 10
-231.99999999980449
 20
176.5406354958906
 30
0.0
 11
-231.99999999980449
 21
-176.54063549647751
 31
0.0
  0
LINE
  8
DETAIL
  6
CONTINUOUS
 62
     5
 10
-231.99999999980449
 20
-176.54063549647751
 30
0.0
 11
-231.99999999980449
 21
-209.99999999999989
 31
0.0
  0
LINE
  8
DETAIL
  6
CONTINUOUS
 62
     5
 10
-226.89949493659509
 20
220.53553390567529
 30
0.0
 11
-226.89949493659509
 21
209.22182540665369
 31
0.0
  0
LINE
  8
DETAIL
  6
CONTINUOUS
 62
     5
 10
-226.89949493659509
 20
-209.22182540724069
 30
0.0
 11
-226.89949493659509
 21
-220.5355339062622
 31
0.0
  0
LINE
  8
DETAIL
  6
CONTINUOUS
 62
     5
 10
-221.4999999998042
 20
143.61343801996091
 30
0.0
 11
-221.4999999998042
 21
-143.6134380205479
 31
0.0
  0
LINE
  8
DETAIL
  6
CONTINUOUS
 62
     5
 10
-201.49390334559689
 20
-199.38065469158511
 30
0.0
 11
-196.49390334540101
 21
-202.26740603776901
 31
0.0
  0
LINE
  8
DETAIL
  6
CONTINUOUS
 62
     5
 10
-201.49390334559689
 20
199.38065469158511
 30
0.0
 11
-201.49390334559689
 21
193.60715199921719
 31
0.0
  0
LINE
  8
DETAIL
  6
CONTINUOUS
 62
     5
 10
-201.49390334559689
 20
-193.6071519998043
 30
0.0
 11
-201.49390334559689
 21
-199.38065469158511
 31
0.0
  0
LINE
  8
DETAIL
  6
CONTINUOUS
 62
     5
 10
-191.49390334520561
 20
-193.6071519998043
 30
0.0
 11
-196.49390334540101
 21
-190.7204006536202
 31
0.0
  0
LINE
  8
DETAIL
  6
CONTINUOUS
 62
     5
 10
-185.18019484637969
 20
-181.9982143315068
 30
0.0
 11
-192.42803935362031
 21
-174.7503698242661
 31
0.0
  0
LINE
  8
DETAIL
  6
CONTINUOUS
 62
     5
 10
-178.81623381545981
 20
-181.9982143315068
 30
0.0
 11
-171.56838930821911
 21
-189.2460588387475
 31
0.0
  0
LINE
  8
DETAIL
  6
CONTINUOUS
 62
     5
 10
-189.6405659982388
 20
-169.40611519608609
 30
0.0
 11
-188.1178528003916
 21
-170.9288283939334
 31
0.0
  0
LINE
  8
DETAIL
  6
CONTINUOUS
 62
     5
 10
-177.93235033913899
 20
-181.1143308551859
 30
0.0
 11
-169.4061151954991
 21
-189.64056599882571
 31
0.0
  0
LINE
  8
DETAIL
  6
CONTINUOUS
 62
     5
 10
-191.49390334520561
 20
-199.38065469158511
 30
0.0
 11
-191.49390334520561
 21
-193.6071519998043
 31
0.0
  0
LINE
  8
DETAIL
  6
CONTINUOUS
 62
     5
 10
-191.49390334520561
 20
193.60715199921719
 30
0.0
 11
-191.49390334520561
 21
199.38065469158511
 31
0.0
  0
LINE
  8
DETAIL
  6
CONTINUOUS
 62
     5
 10
-210.0
 20
-235.00000000039131
 30
0.0
 11
181.43169877045011
 21
-235.00000000039131
 31
0.0
  0
LINE
  8
DETAIL
  6
CONTINUOUS
 62
     5
 10
189.6844909626225
 20
-235.00000000039131
 30
0.0
 11
210.0
 21
-235.00000000039131
 31
0.0
  0
LINE
  8
DETAIL
  6
CONTINUOUS
 62
     5
 10
-210.0
 20
-232.0000000003914
 30
0.0
 11
-176.5406354958906
 21
-232.0000000003914
 31
0.0
  0
LINE
  8
DETAIL
  6
CONTINUOUS
 62
     5
 10
-176.5406354958906
 20
-232.0000000003914
 30
0.0
 11
176.54063549647751
 21
-232.0000000003914
 31
0.0
  0
LINE
  8
DETAIL
  6
CONTINUOUS
 62
     5
 10
176.54063549647751
 20
-232.0000000003914
 30
0.0
 11
181.0855029064578
 21
-232.0000000003914
 31
0.0
  0
LINE
  8
DETAIL
  6
CONTINUOUS
 62
     5
 10
189.34115147318971
 20
-232.0000000003914
 30
0.0
 11
210.0
 21
-232.0000000003914
 31
0.0
  0
LINE
  8
DETAIL
  6
CONTINUOUS
 62
     5
 10
179.4765791348336
 20
-197.35619240019571
 30
0.0
 11
191.28159851506811
 21
-196.0749752313111
 31
0.0
  0
LINE
  8
DETAIL
  6
CONTINUOUS
 62
     5
 10
191.15212097495069
 20
-194.88198086183951
 30
0.0
 11
179.34710159471621
 21
-196.1631980301369
 31
0.0
  0
LINE
  8
DETAIL
  6
CONTINUOUS
 62
     5
 10
-220.53553390567509
 20
-226.89949493659489
 30
0.0
 11
-209.22182540665381
 21
-226.89949493659489
 31
0.0
  0
LINE
  8
DETAIL
  6
CONTINUOUS
 62
     5
 10
209.2218254072404
 20
-226.89949493659489
 30
0.0
 11
220.53553390626209
 21
-226.89949493659489
 31
0.0
  0
LINE
  8
DETAIL
  6
CONTINUOUS
 62
     5
 10
-143.613438019961
 20
-221.50000000039131
 30
0.0
 11
143.61343802054759
 21
-221.50000000039131
 31
0.0
  0
LINE
  8
DETAIL
  6
CONTINUOUS
 62
     5
 10
196.4939033459882
 20
202.2674060371821
 30
0.0
 11
191.4939033457924
 21
199.38065469158511
 31
0.0
  0
LINE
  8
DETAIL
  6
CONTINUOUS
 62
     5
 10
176.05851748003889
 20
-179.6647620639921
 30
0.0
 11
176.4827815485323
 21
-179.6647620639921
 31
0.0
  0
LINE
  8
DETAIL
  6
CONTINUOUS
 62
     5
 10
196.4939033459882
 20
190.72040065362029
 30
0.0
 11
201.49390334559661
 21
193.60715199921719
 31
0.0
  0
LINE
  8
DETAIL
  6
CONTINUOUS
 62
     5
 10
181.7184946538159
 20
-176.0231621407045
 30
0.0
 11
182.0231621407047
 21
-176.0231621407045
 31
0.0
  0
LINE
  8
DETAIL
  6
CONTINUOUS
 62
     5
 10
182.8738441632095
 20
-169.43232184990211
 30
0.0
 11
183.3152309377692
 21
-169.46569620352241
 31
0.0
  0
LINE
  8
DETAIL
  6
CONTINUOUS
 62
     5
 10
183.3152309377692
 20
-169.46569620352241
 30
0.0
 11
183.9521565622307
 21
-169.54677660704499
 31
0.0
  0
LINE
  8
DETAIL
  6
CONTINUOUS
 62
     5
 10
183.9521565622307
 20
-169.54677660704499
 30
0.0
 11
184.54988828630121
 21
-169.652743493542
 31
0.0
  0
LINE
  8
DETAIL
  6
CONTINUOUS
 62
     5
 10
184.54988828630121
 20
-169.652743493542
 30
0.0
 11
185.10637267279839
 21
-169.77779337710359
 31
0.0
  0
LINE
  8
DETAIL
  6
CONTINUOUS
 62
     5
 10
185.10637267279839
 20
-169.77779337710359
 30
0.0
 11
185.61896551643801
 21
-169.91602381761251
 31
0.0
  0
LINE
  8
DETAIL
  6
CONTINUOUS
 62
     5
 10
185.61896551643801
 20
-169.91602381761251
 30
0.0
 11
186.09025532289601
 21
-170.06328790567511
 31
0.0
  0
LINE
  8
DETAIL
  6
CONTINUOUS
 62
     5
 10
186.09025532289601
 20
-170.06328790567511
 30
0.0
 11
186.5223813093935
 21
-170.2156517636007
 31
0.0
  0
LINE
  8
DETAIL
  6
CONTINUOUS
 62
     5
 10
186.5223813093935
 20
-170.2156517636007
 30
0.0
 11
186.91645639021499
 21
-170.36939937123279
 31
0.0
  0
LINE
  8
DETAIL
  6
CONTINUOUS
 62
     5
 10
186.91645639021499
 20
-170.36939937123279
 30
0.0
 11
187.27404186927561
 21
-170.52147179882579
 31
0.0
  0
LINE
  8
DETAIL
  6
CONTINUOUS
 62
     5
 10
187.27404186927561
 20
-170.52147179882579
 30
0.0
 11
187.59650409745609
 21
-170.66903312583159
 31
0.0
  0
LINE
  8
DETAIL
  6
CONTINUOUS
 62
     5
 10
187.59650409745609
 20
-170.66903312583159
 30
0.0
 11
187.88512750039129
 21
-170.8095365342464
 31
0.0
  0
LINE
  8
DETAIL
  6
CONTINUOUS
 62
     5
 10
187.88512750039129
 20
-170.8095365342464
 30
0.0
 11
188.14196898493159
 21
-170.94119212778861
 31
0.0
  0
LINE
  8
DETAIL
  6
CONTINUOUS
 62
     5
 10
188.14196898493159
 20
-170.94119212778861
 30
0.0
 11
188.36907557553789
 21
-171.06277423091959
 31
0.0
  0
LINE
  8
DETAIL
  6
CONTINUOUS
 62
     5
 10
188.36907557553789
 20
-171.06277423091959
 30
0.0
 11
188.56723537279811
 21
-171.17269691682969
 31
0.0
  0
LINE
  8
DETAIL
  6
CONTINUOUS
 62
     5
 10
188.56723537279811
 20
-171.17269691682969
 30
0.0
 11
188.73743275420739
 21
-171.2696152596869
 31
0.0
  0
LINE
  8
DETAIL
  6
CONTINUOUS
 62
     5
 10
188.73743275420739
 20
-171.2696152596869
 30
0.0
 11
188.88095655499001
 21
-171.35286160391379
 31
0.0
  0
LINE
  8
DETAIL
  6
CONTINUOUS
 62
     5
 10
16.93472555048902
 20
67.387113224266159
 30
0.0
 11
17.263929014090081
 21
67.721105425831695
 31
0.0
  0
LINE
  8
DETAIL
  6
CONTINUOUS
 62
     5
 10
17.263929014090081
 20
67.721105425831695
 30
0.0
 11
17.604643471232752
 21
68.072123203326839
 31
0.0
  0
LINE
  8
DETAIL
  6
CONTINUOUS
 62
     5
 10
17.604643471232752
 20
68.072123203326839
 30
0.0
 11
17.957695411937269
 21
68.443632447358198
 31
0.0
  0
LINE
  8
DETAIL
  6
CONTINUOUS
 62
     5
 10
15.58067499569461
 20
67.614250636790644
 30
0.0
 11
16.092525321134872
 21
68.116435214677153
 31
0.0
  0
LINE
  8
DETAIL
  6
CONTINUOUS
 62
     5
 10
16.092525321134872
 20
68.116435214677153
 30
0.0
 11
17.799332761643651
 21
69.770730245401126
 31
0.0
  0
LINE
  8
DETAIL
  6
CONTINUOUS
 62
     5
 10
-66.999999999804459
 20
50.680364296086168
 30
0.0
 11
-66.999999999804459
 21
61.332738110371849
 31
0.0
  0
LINE
  8
DETAIL
  6
CONTINUOUS
 62
     5
 10
-62.499999999804459
 20
61.332738110371849
 30
0.0
 11
-62.499999999804459
 21
53.598807644618489
 31
0.0
  0
LINE
  8
DETAIL
  6
CONTINUOUS
 62
     5
 10
209.2218254072404
 20
226.899494936595
 30
0.0
 11
174.7503698242663
 21
192.42803935362039
 31
0.0
  0
LINE
  8
DETAIL
  6
CONTINUOUS
 62
     5
 10
-226.89949493659509
 20
-209.22182540724069
 30
0.0
 11
-192.42803935362031
 21
-174.7503698242661
 31
0.0
  0
LINE
  8
DETAIL
  6
CONTINUOUS
 62
     5
 10
164.4514187724071
 20
-161.2694382569471
 30
0.0
 11
165.22764710782761
 21
-161.47273124383551
 31
0.0
  0
LINE
  8
DETAIL
  6
CONTINUOUS
 62
     5
 10
165.22764710782761
 20
-161.47273124383551
 30
0.0
 11
165.96349515851259
 21
-161.7819474393346
 31
0.0
  0
LINE
  8
DETAIL
  6
CONTINUOUS
 62
     5
 10
165.96349515851259
 20
-161.7819474393346
 30
0.0
 11
166.6242417898238
 21
-162.18689810665359
 31
0.0
  0
LINE
  8
DETAIL
  6
CONTINUOUS
 62
     5
 10
166.6242417898238
 20
-162.18689810665359
 30
0.0
 11
167.2146895285714
 21
-162.68920612896281
 31
0.0
  0
LINE
  8
DETAIL
  6
CONTINUOUS
 62
     5
 10
-39.999999999804459
 20
27.00000000000006
 30
0.0
 11
-39.999999999804459
 21
-37.000000000391367
 31
0.0
  0
LINE
  8
DETAIL
  6
CONTINUOUS
 62
     5
 10
-192.42803935362031
 20
-189.2460588387475
 30
0.0
 11
-68.757359312524386
 21
-65.575378797651581
 31
0.0
  0
LINE
  8
DETAIL
  6
CONTINUOUS
 62
     5
 10
65.575378797651638
 20
68.757359312524557
 30
0.0
 11
189.24605883874739
 21
192.42803935362039
 31
0.0
  0
LINE
  8
DETAIL
  6
CONTINUOUS
 62
     5
 10
192.42803935420761
 20
189.24605883816039
 30
0.0
 11
68.757359313111465
 21
65.575378797064616
 31
0.0
  0
LINE
  8
DETAIL
  6
CONTINUOUS
 62
     5
 10
-65.575378797064786
 20
-68.757359313111522
 30
0.0
 11
-189.24605883816039
 21
-192.42803935420741
 31
0.0
  0
LINE
  8
DETAIL
  6
CONTINUOUS
 62
     5
 10
-209.22182540665381
 20
-226.89949493659489
 30
0.0
 11
-174.75036982367919
 21
-192.42803935420741
 31
0.0
  0
LINE
  8
DETAIL
  6
CONTINUOUS
 62
     5
 10
192.42803935420761
 20
174.75036982367899
 30
0.0
 11
226.89949493659509
 21
209.22182540665369
 31
0.0
  0
LINE
  8
DETAIL
  6
CONTINUOUS
 62
     5
 10
-4.6999999996087354
 20
-101.60000000019561
 30
0.0
 11
4.7000000001955868
 21
-101.60000000019561
 31
0.0
  0
LINE
  8
DETAIL
  6
CONTINUOUS
 62
     5
 10
-4.6999999996087354
 20
-101.09999999999999
 30
0.0
 11
4.7000000001955868
 21
-101.09999999999999
 31
0.0
  0
LINE
  8
DETAIL
  6
CONTINUOUS
 62
     5
 10
176.02081589765149
 20
-193.1404542481408
 30
0.0
 11
175.8674854250489
 21
-193.0620672228961
 31
0.0
  0
LINE
  8
DETAIL
  6
CONTINUOUS
 62
     5
 10
175.8674854250489
 20
-193.0620672228961
 30
0.0
 11
175.63799845362001
 21
-192.9394674387475
 31
0.0
  0
LINE
  8
DETAIL
  6
CONTINUOUS
 62
     5
 10
175.63799845362001
 20
-192.9394674387475
 30
0.0
 11
175.43772507886479
 21
-192.828539323679
 31
0.0
  0
LINE
  8
DETAIL
  6
CONTINUOUS
 62
     5
 10
175.43772507886479
 20
-192.828539323679
 30
0.0
 11
175.26574496066539
 21
-192.73069421389431
 31
0.0
  0
LINE
  8
DETAIL
  6
CONTINUOUS
 62
     5
 10
175.26574496066539
 20
-192.73069421389431
 30
0.0
 11
175.1205103808214
 21
-192.64650361174171
 31
0.0
  0
LINE
  8
DETAIL
  6
CONTINUOUS
 62
     5
 10
176.01422950626241
 20
-193.09407195909969
 30
0.0
 11
175.43381753659469
 21
-192.7673275091976
 31
0.0
  0
LINE
  8
DETAIL
  6
CONTINUOUS
 62
     5
 10
175.43381753659469
 20
-192.7673275091976
 30
0.0
 11
174.84452401526411
 21
-192.39106779569471
 31
0.0
  0
LINE
  8
DETAIL
  6
CONTINUOUS
 62
     5
 10
191.4939033457924
 20
-199.38065469158511
 30
0.0
 11
196.4939033459882
 21
-202.26740603776901
 31
0.0
  0
LINE
  8
DETAIL
  6
CONTINUOUS
 62
     5
 10
174.83410802524489
 20
-192.47725917710369
 30
0.0
 11
174.7503698242663
 21
-192.42803935420741
 31
0.0
  0
LINE
  8
DETAIL
  6
CONTINUOUS
 62
     5
 10
175.1205103808214
 20
-192.64650361174171
 30
0.0
 11
174.83410802524489
 21
-192.47725917710369
 31
0.0
  0
LINE
  8
DETAIL
  6
CONTINUOUS
 62
     5
 10
-4.6999999996087354
 20
68.599999999608599
 30
0.0
 11
-4.6999999996087354
 21
68.10000000000008
 31
0.0
  0
LINE
  8
DETAIL
  6
CONTINUOUS
 62
     5
 10
-4.6999999996087354
 20
-101.60000000019561
 30
0.0
 11
-4.6999999996087354
 21
-101.09999999999999
 31
0.0
  0
LINE
  8
DETAIL
  6
CONTINUOUS
 62
     5
 10
-4.5
 20
-101.00791151565549
 30
0.0
 11
-4.5
 21
-101.09999999999999
 31
0.0
  0
LINE
  8
DETAIL
  6
CONTINUOUS
 62
     5
 10
201.49390334559661
 20
-193.6071519998043
 30
0.0
 11
196.4939033459882
 21
-190.7204006536202
 31
0.0
  0
LINE
  8
DETAIL
  6
CONTINUOUS
 62
     5
 10
189.16314699569449
 20
-171.51964067495101
 30
0.0
 11
189.24605878356169
 21
-171.56838936399211
 31
0.0
  0
LINE
  8
DETAIL
  6
CONTINUOUS
 62
     5
 10
188.88095655499001
 20
-171.35286160391379
 30
0.0
 11
189.16314699569449
 21
-171.51964067495101
 31
0.0
  0
LINE
  8
DETAIL
  6
CONTINUOUS
 62
     5
 10
174.84452401526411
 20
-192.39106779569471
 30
0.0
 11
174.309918083366
 21
-192.00913946183951
 31
0.0
  0
LINE
  8
DETAIL
  6
CONTINUOUS
 62
     5
 10
174.309918083366
 20
-192.00913946183951
 30
0.0
 11
173.84221842857141
 21
-191.6397223426614
 31
0.0
  0
LINE
  8
DETAIL
  6
CONTINUOUS
 62
     5
 10
4.5
 20
-101.00791151565549
 30
0.0
 11
4.5
 21
-101.09999999999999
 31
0.0
  0
LINE
  8
DETAIL
  6
CONTINUOUS
 62
     5
 10
4.7000000001955868
 20
68.599999999608599
 30
0.0
 11
4.7000000001955868
 21
68.10000000000008
 31
0.0
  0
LINE
  8
DETAIL
  6
CONTINUOUS
 62
     5
 10
4.7000000001955868
 20
-101.60000000019561
 30
0.0
 11
4.7000000001955868
 21
-101.09999999999999
 31
0.0
  0
LINE
  8
DETAIL
  6
CONTINUOUS
 62
     5
 10
-196.49390334540101
 20
-190.7204006536202
 30
0.0
 11
-201.49390334559689
 21
-193.6071519998043
 31
0.0
  0
LINE
  8
DETAIL
  6
CONTINUOUS
 62
     5
 10
-196.49390334540101
 20
-202.26740603776901
 30
0.0
 11
-191.49390334520561
 21
-199.38065469158511
 31
0.0
  0
LINE
  8
DETAIL
  6
CONTINUOUS
 62
     5
 10
-36.999999999804459
 20
-40.000000000391367
 30
0.0
 11
37.00000000039131
 21
-40.000000000391367
 31
0.0
  0
LINE
  8
DETAIL
  6
CONTINUOUS
 62
     5
 10
189.16261065675141
 20
-171.61261563698631
 30
0.0
 11
189.69377872015639
 21
-171.99276293953031
 31
0.0
  0
LINE
  8
DETAIL
  6
CONTINUOUS
 62
     5
 10
189.69377872015639
 20
-171.99276293953031
 30
0.0
 11
190.16621419021519
 21
-172.36635785459879
 31
0.0
  0
LINE
  8
DETAIL
  6
CONTINUOUS
 62
     5
 10
190.16621419021519
 20
-172.36635785459879
 30
0.0
 11
190.58096620861031
 21
-172.7247917847358
 31
0.0
  0
LINE
  8
DETAIL
  6
CONTINUOUS
 62
     5
 10
164.09534611056731
 20
-185.3085495463796
 30
0.0
 11
164.6736196690799
 21
-185.8005007021525
 31
0.0
  0
LINE
  8
DETAIL
  6
CONTINUOUS
 62
     5
 10
164.6736196690799
 20
-185.8005007021525
 30
0.0
 11
165.3207426587087
 21
-186.19710187103701
 31
0.0
  0
LINE
  8
DETAIL
  6
CONTINUOUS
 62
     5
 10
165.3207426587087
 20
-186.19710187103701
 30
0.0
 11
166.0414185845402
 21
-186.4999424747553
 31
0.0
  0
LINE
  8
DETAIL
  6
CONTINUOUS
 62
     5
 10
166.0414185845402
 20
-186.4999424747553
 30
0.0
 11
166.82153692954981
 21
-186.70425424931511
 31
0.0
  0
LINE
  8
DETAIL
  6
CONTINUOUS
 62
     5
 10
166.82153692954981
 20
-186.70425424931511
 30
0.0
 11
167.65231792896239
 21
-186.8055833407044
 31
0.0
  0
LINE
  8
DETAIL
  6
CONTINUOUS
 62
     5
 10
167.65231792896239
 20
-186.8055833407044
 30
0.0
 11
168.52247283228959
 21
-186.8045759424657
 31
0.0
  0
LINE
  8
DETAIL
  6
CONTINUOUS
 62
     5
 10
168.52247283228959
 20
-186.8045759424657
 30
0.0
 11
169.42170007690771
 21
-186.6993124579256
 31
0.0
  0
LINE
  8
DETAIL
  6
CONTINUOUS
 62
     5
 10
169.42170007690771
 20
-186.6993124579256
 30
0.0
 11
170.3382583385519
 21
-186.49303640254399
 31
0.0
  0
LINE
  8
DETAIL
  6
CONTINUOUS
 62
     5
 10
170.3382583385519
 20
-186.49303640254399
 30
0.0
 11
171.26084081859059
 21
-186.1864586929548
 31
0.0
  0
LINE
  8
DETAIL
  6
CONTINUOUS
 62
     5
 10
171.26084081859059
 20
-186.1864586929548
 30
0.0
 11
172.17784237984321
 21
-185.78525752250491
 31
0.0
  0
LINE
  8
DETAIL
  6
CONTINUOUS
 62
     5
 10
172.17784237984321
 20
-185.78525752250491
 30
0.0
 11
173.077517958317
 21
-185.29273867455959
 31
0.0
  0
LINE
  8
DETAIL
  6
CONTINUOUS
 62
     5
 10
173.077517958317
 20
-185.29273867455959
 30
0.0
 11
173.9489805322896
 21
-184.71673029099799
 31
0.0
  0
LINE
  8
DETAIL
  6
CONTINUOUS
 62
     5
 10
173.9489805322896
 20
-184.71673029099799
 30
0.0
 11
174.78063571878641
 21
-184.062967255773
 31
0.0
  0
LINE
  8
DETAIL
  6
CONTINUOUS
 62
     5
 10
174.78063571878641
 20
-184.062967255773
 30
0.0
 11
175.56286053228951
 21
-183.34103512485311
 31
0.0
  0
LINE
  8
DETAIL
  6
CONTINUOUS
 62
     5
 10
175.56286053228951
 20
-183.34103512485311
 30
0.0
 11
176.28479266320929
 21
-182.55881031193729
 31
0.0
  0
LINE
  8
DETAIL
  6
CONTINUOUS
 62
     5
 10
176.28479266320929
 20
-182.55881031193729
 30
0.0
 11
176.93855569784719
 21
-181.7271551248532
 31
0.0
  0
LINE
  8
DETAIL
  6
CONTINUOUS
 62
     5
 10
176.93855569784719
 20
-181.7271551248532
 30
0.0
 11
177.51456408140891
 21
-180.85569255146771
 31
0.0
  0
LINE
  8
DETAIL
  6
CONTINUOUS
 62
     5
 10
177.51456408140891
 20
-180.85569255146771
 30
0.0
 11
178.0070829293542
 21
-179.95601697299409
 31
0.0
  0
LINE
  8
DETAIL
  6
CONTINUOUS
 62
     5
 10
178.0070829293542
 20
-179.95601697299409
 30
0.0
 11
178.4082840998044
 21
-179.03901541174159
 31
0.0
  0
LINE
  8
DETAIL
  6
CONTINUOUS
 62
     5
 10
178.4082840998044
 20
-179.03901541174159
 30
0.0
 11
178.7148618093934
 21
-178.11643293111541
 31
0.0
  0
LINE
  8
DETAIL
  6
CONTINUOUS
 62
     5
 10
178.7148618093934
 20
-178.11643293111541
 30
0.0
 11
178.9211378653616
 21
-177.1998746694716
 31
0.0
  0
LINE
  8
DETAIL
  6
CONTINUOUS
 62
     5
 10
178.9211378653616
 20
-177.1998746694716
 30
0.0
 11
179.02640134931519
 21
-176.3006474254403
 31
0.0
  0
LINE
  8
DETAIL
  6
CONTINUOUS
 62
     5
 10
179.02640134931519
 20
-176.3006474254403
 30
0.0
 11
179.02740874755361
 21
-175.4304925221135
 31
0.0
  0
LINE
  8
DETAIL
  6
CONTINUOUS
 62
     5
 10
179.02740874755361
 20
-175.4304925221135
 30
0.0
 11
178.92607965616429
 21
-174.5997115227004
 31
0.0
  0
LINE
  8
DETAIL
  6
CONTINUOUS
 62
     5
 10
178.92607965616429
 20
-174.5997115227004
 30
0.0
 11
178.72176788160459
 21
-173.81959317769071
 31
0.0
  0
LINE
  8
DETAIL
  6
CONTINUOUS
 62
     5
 10
178.72176788160459
 20
-173.81959317769071
 30
0.0
 11
178.4189272778867
 21
-173.09891725185909
 31
0.0
  0
LINE
  8
DETAIL
  6
CONTINUOUS
 62
     5
 10
178.4189272778867
 20
-173.09891725185909
 30
0.0
 11
178.0223261090018
 21
-172.45179426223081
 31
0.0
  0
LINE
  8
DETAIL
  6
CONTINUOUS
 62
     5
 10
178.0223261090018
 20
-172.45179426223081
 30
0.0
 11
177.5303749532286
 21
-171.87352070371821
 31
0.0
  0
LINE
  8
DETAIL
  6
CONTINUOUS
 62
     5
 10
153.4968179735811
 20
-176.40707768395299
 30
0.0
 11
164.9968179733855
 21
-187.90707768375719
 31
0.0
  0
LINE
  8
DETAIL
  6
CONTINUOUS
 62
     5
 10
154.34534611056731
 20
-175.5585495463796
 30
0.0
 11
164.09534611056731
 21
-185.3085495463796
 31
0.0
  0
LINE
  8
DETAIL
  6
CONTINUOUS
 62
     5
 10
74.909188309197589
 20
-94.778888860861059
 30
0.0
 11
81.980256121526509
 21
-101.8499566726027
 31
0.0
  0
LINE
  8
DETAIL
  6
CONTINUOUS
 62
     5
 10
-226.89949493659509
 20
209.22182540665369
 30
0.0
 11
-192.42803935362031
 21
174.75036982367899
 31
0.0
  0
LINE
  8
DETAIL
  6
CONTINUOUS
 62
     5
 10
174.7503698242663
 20
-192.42803935420741
 30
0.0
 11
174.38538263365939
 21
-192.06305216301371
 31
0.0
  0
LINE
  8
DETAIL
  6
CONTINUOUS
 62
     5
 10
176.11311006575289
 20
-193.79077959569469
 30
0.0
 11
174.7503698242663
 21
-192.42803935420741
 31
0.0
  0
LINE
  8
DETAIL
  6
CONTINUOUS
 62
     5
 10
185.7333897639918
 20
-203.41105929393339
 30
0.0
 11
209.2218254072404
 21
-226.89949493659489
 31
0.0
  0
LINE
  8
DETAIL
  6
CONTINUOUS
 62
     5
 10
40.00000000039131
 20
-37.000000000391367
 30
0.0
 11
40.00000000039131
 21
27.00000000000006
 31
0.0
  0
LINE
  8
DETAIL
  6
CONTINUOUS
 62
     5
 10
190.58096620861031
 20
-172.7247917847358
 30
0.0
 11
190.93865406810161
 21
-173.05888704422699
 31
0.0
  0
LINE
  8
DETAIL
  6
CONTINUOUS
 62
     5
 10
190.93865406810161
 20
-173.05888704422699
 30
0.0
 11
191.24537792700571
 21
-173.36557595577301
 31
0.0
  0
LINE
  8
DETAIL
  6
CONTINUOUS
 62
     5
 10
191.24537792700571
 20
-173.36557595577301
 30
0.0
 11
191.50551360821919
 21
-173.64145357455959
 31
0.0
  0
LINE
  8
DETAIL
  6
CONTINUOUS
 62
     5
 10
191.50551360821919
 20
-173.64145357455959
 30
0.0
 11
191.72448884559711
 21
-173.8856231682974
 31
0.0
  0
LINE
  8
DETAIL
  6
CONTINUOUS
 62
     5
 10
191.72448884559711
 20
-173.8856231682974
 30
0.0
 11
191.90666266438339
 21
-174.097508874364
 31
0.0
  0
LINE
  8
DETAIL
  6
CONTINUOUS
 62
     5
 10
191.90666266438339
 20
-174.097508874364
 30
0.0
 11
192.05637971154599
 21
-174.2778795193737
 31
0.0
  0
LINE
  8
DETAIL
  6
CONTINUOUS
 62
     5
 10
192.05637971154599
 20
-174.2778795193737
 30
0.0
 11
192.17720590919731
 21
-174.42767319099801
 31
0.0
  0
LINE
  8
DETAIL
  6
CONTINUOUS
 62
     5
 10
192.17720590919731
 20
-174.42767319099801
 30
0.0
 11
192.27173226810191
 21
-174.5473961506849
 31
0.0
  0
LINE
  8
DETAIL
  6
CONTINUOUS
 62
     5
 10
192.27173226810191
 20
-174.5473961506849
 30
0.0
 11
192.34229838023461
 21
-174.63809788532279
 31
0.0
  0
LINE
  8
DETAIL
  6
CONTINUOUS
 62
     5
 10
192.34229838023461
 20
-174.63809788532279
 30
0.0
 11
192.3908256992172
 21
-174.7012639949119
 31
0.0
  0
LINE
  8
DETAIL
  6
CONTINUOUS
 62
     5
 10
192.3908256992172
 20
-174.7012639949119
 30
0.0
 11
192.41898116360059
 21
-174.73833091174171
 31
0.0
  0
LINE
  8
DETAIL
  6
CONTINUOUS
 62
     5
 10
192.41898116360059
 20
-174.73833091174171
 30
0.0
 11
192.42803929902121
 21
-174.75036987945199
 31
0.0
  0
LINE
  8
DETAIL
  6
CONTINUOUS
 62
     5
 10
173.7250651021524
 20
-177.33130968610561
 30
0.0
 11
174.42485075635969
 21
-178.03109534031299
 31
0.0
  0
LINE
  8
DETAIL
  6
CONTINUOUS
 62
     5
 10
175.48551092817979
 20
-179.09175551213301
 30
0.0
 11
176.05851748003889
 21
-179.6647620639921
 31
0.0
  0
LINE
  8
DETAIL
  6
CONTINUOUS
 62
     5
 10
189.24605883874739
 20
-192.42803935420741
 30
0.0
 11
179.95666409060689
 21
-183.13864460606641
 31
0.0
  0
LINE
  8
DETAIL
  6
CONTINUOUS
 62
     5
 10
177.5708661076319
 20
-180.7528466230919
 30
0.0
 11
65.575378797651638
 21
-68.757359313111522
 31
0.0
  0
LINE
  8
DETAIL
  6
CONTINUOUS
 62
     5
 10
-68.757359312524386
 20
65.575378797064616
 30
0.0
 11
-192.42803935362031
 21
189.24605883816039
 31
0.0
  0
LINE
  8
DETAIL
  6
CONTINUOUS
 62
     5
 10
192.42283553424639
 20
-189.25126265870841
 30
0.0
 11
192.94974746829749
 21
-189.77817459334639
 31
0.0
  0
LINE
  8
DETAIL
  6
CONTINUOUS
 62
     5
 10
-189.24605883816039
 20
192.42803935362039
 30
0.0
 11
-65.575378797064786
 21
68.757359312524557
 31
0.0
  0
LINE
  8
DETAIL
  6
CONTINUOUS
 62
     5
 10
68.757359313111465
 20
-65.575378797651581
 30
0.0
 11
179.02692892250479
 21
-175.844948407045
 31
0.0
  0
LINE
  8
DETAIL
  6
CONTINUOUS
 62
     5
 10
181.7233584821914
 20
-178.5413779667318
 30
0.0
 11
192.42803935420761
 21
-189.2460588387475
 31
0.0
  0
LINE
  8
DETAIL
  6
CONTINUOUS
 62
     5
 10
181.962859103131
 20
-178.0737718062621
 30
0.0
 11
181.79190433385509
 21
-177.90281703698631
 31
0.0
  0
LINE
  8
DETAIL
  6
CONTINUOUS
 62
     5
 10
178.9868228929549
 20
-175.0977355960861
 30
0.0
 11
178.04712613913881
 21
-174.15803884285711
 31
0.0
  0
LINE
  8
DETAIL
  6
CONTINUOUS
 62
     5
 10
177.11130376731899
 20
-173.22221647103709
 30
0.0
 11
176.69649147710379
 21
-172.80740418023481
 31
0.0
  0
LINE
  8
DETAIL
  6
CONTINUOUS
 62
     5
 10
167.2146895285714
 20
-162.68920612896281
 30
0.0
 11
171.16468952818011
 21
-166.6392061285714
 31
0.0
  0
LINE
  8
DETAIL
  6
CONTINUOUS
 62
     5
 10
193.7982756058708
 20
-188.9296464557728
 30
0.0
 11
189.37885822367889
 21
-184.5102290735812
 31
0.0
  0
LINE
  8
DETAIL
  6
CONTINUOUS
 62
     5
 10
177.5303749532286
 20
-171.87352070371821
 30
0.0
 11
175.15537495362059
 21
-169.49852070352239
 31
0.0
  0
LINE
  8
DETAIL
  6
CONTINUOUS
 62
     5
 10
171.7303749534249
 20
-166.07352070391391
 30
0.0
 11
170.28037495362011
 21
-164.62352070352239
 31
0.0
  0
LINE
  8
DETAIL
  6
CONTINUOUS
 62
     5
 10
181.65964726027411
 20
-175.65964726027391
 30
0.0
 11
186.05545635205439
 21
-180.05545635205479
 31
0.0
  0
LINE
  8
DETAIL
  6
CONTINUOUS
 62
     5
 10
189.94454364833649
 20
-183.94454364833649
 30
0.0
 11
193.65685424970599
 21
-187.65685424970641
 31
0.0
  0
LINE
  8
DETAIL
  6
CONTINUOUS
 62
     5
 10
171.1289030906064
 20
-163.77499256653621
 30
0.0
 11
172.57890309099821
 21
-165.2249925663404
 31
0.0
  0
LINE
  8
DETAIL
  6
CONTINUOUS
 62
     5
 10
176.0039030906064
 20
-168.6499925665361
 30
0.0
 11
180.1289030906064
 21
-172.77499256653621
 31
0.0
  0
LINE
  8
DETAIL
  6
CONTINUOUS
 62
     5
 10
186.90398448962779
 20
-179.20692821448139
 30
0.0
 11
181.77746032602721
 21
-174.08040405088059
 31
0.0
  0
LINE
  8
DETAIL
  6
CONTINUOUS
 62
     5
 10
190.79307178590989
 20
-183.09601551076321
 30
0.0
 11
194.5053823872795
 21
-186.8083261121329
 31
0.0
  0
LINE
  8
DETAIL
  6
CONTINUOUS
 62
     5
 10
178.60567978591001
 20
-170.89821587084151
 30
0.0
 11
181.78266414598821
 21
-174.07520023091971
 31
0.0
  0
LINE
  8
DETAIL
  6
CONTINUOUS
 62
     5
 10
91.243354954990082
 20
-83.394469683757279
 30
0.0
 11
93.364675298630118
 21
-85.515790027397202
 31
0.0
  0
LINE
  8
DETAIL
  6
CONTINUOUS
 62
     5
 10
173.14458851565541
 20
-164.659307141683
 30
0.0
 11
178.99458851565569
 21
-170.50930714168291
 31
0.0
  0
LINE
  8
DETAIL
  6
CONTINUOUS
 62
     5
 10
187.46966991428599
 20
-178.64124278982379
 30
0.0
 11
191.3587572111546
 21
-182.53033008610549
 31
0.0
  0
LINE
  8
DETAIL
  6
CONTINUOUS
 62
     5
 10
226.89949493659509
 20
-209.22182540724069
 30
0.0
 11
192.42803935420761
 21
-174.7503698242661
 31
0.0
  0
LINE
  8
DETAIL
  6
CONTINUOUS
 62
     5
 10
189.61166561917801
 20
-171.93399608982381
 30
0.0
 11
189.24605883874739
 21
-171.56838930880619
 31
0.0
  0
LINE
  8
DETAIL
  6
CONTINUOUS
 62
     5
 10
-174.75036982367919
 20
192.42803935362039
 30
0.0
 11
-209.22182540665381
 21
226.899494936595
 31
0.0
  0
LINE
  8
DETAIL
  6
CONTINUOUS
 62
     5
 10
172.65387024305261
 20
-190.52777432641881
 30
0.0
 11
172.4891540471626
 21
-190.35303977612509
 31
0.0
  0
LINE
  8
DETAIL
  6
CONTINUOUS
 62
     5
 10
172.4891540471626
 20
-190.35303977612509
 30
0.0
 11
172.26965473679039
 21
-190.10819119373761
 31
0.0
  0
LINE
  8
DETAIL
  6
CONTINUOUS
 62
     5
 10
172.26965473679039
 20
-190.10819119373761
 30
0.0
 11
172.08727328806251
 21
-189.89597652504881
 31
0.0
  0
LINE
  8
DETAIL
  6
CONTINUOUS
 62
     5
 10
172.08727328806251
 20
-189.89597652504881
 30
0.0
 11
171.93775650117411
 21
-189.71577039099799
 31
0.0
  0
LINE
  8
DETAIL
  6
CONTINUOUS
 62
     5
 10
171.93775650117411
 20
-189.71577039099799
 30
0.0
 11
171.81755125772969
 21
-189.5666887356164
 31
0.0
  0
LINE
  8
DETAIL
  6
CONTINUOUS
 62
     5
 10
171.81755125772969
 20
-189.5666887356164
 30
0.0
 11
171.72366916966709
 21
-189.44774696007829
 31
0.0
  0
LINE
  8
DETAIL
  6
CONTINUOUS
 62
     5
 10
171.72366916966709
 20
-189.44774696007829
 30
0.0
 11
171.65360717847341
 21
-189.35766988180021
 31
0.0
  0
LINE
  8
DETAIL
  6
CONTINUOUS
 62
     5
 10
171.65360717847341
 20
-189.35766988180021
 30
0.0
 11
171.6367874307239
 21
-189.33577113698621
 31
0.0
  0
LINE
  8
DETAIL
  6
CONTINUOUS
 62
     5
 10
169.5144003904106
 20
-186.48019865107631
 30
0.0
 11
169.66717378708381
 21
-186.64522481624269
 31
0.0
  0
LINE
  8
DETAIL
  6
CONTINUOUS
 62
     5
 10
153.4968179735811
 20
-176.40707768395299
 30
0.0
 11
152.99450995127199
 21
-175.81662994520539
 31
0.0
  0
LINE
  8
DETAIL
  6
CONTINUOUS
 62
     5
 10
152.99450995127199
 20
-175.81662994520539
 30
0.0
 11
152.58955928395281
 21
-175.15588331389421
 31
0.0
  0
LINE
  8
DETAIL
  6
CONTINUOUS
 62
     5
 10
152.58955928395281
 20
-175.15588331389421
 30
0.0
 11
152.28034308845409
 21
-174.4200352632092
 31
0.0
  0
LINE
  8
DETAIL
  6
CONTINUOUS
 62
     5
 10
152.28034308845409
 20
-174.4200352632092
 30
0.0
 11
152.0717300136985
 21
-173.62349337416831
 31
0.0
  0
LINE
  8
DETAIL
  6
CONTINUOUS
 62
     5
 10
152.0717300136985
 20
-173.62349337416831
 30
0.0
 11
151.96826767808199
 21
-172.77522224853229
 31
0.0
  0
LINE
  8
DETAIL
  6
CONTINUOUS
 62
     5
 10
151.96826767808199
 20
-172.77522224853229
 30
0.0
 11
151.96929628473569
 21
-171.8867482943248
 31
0.0
  0
LINE
  8
DETAIL
  6
CONTINUOUS
 62
     5
 10
151.96929628473569
 20
-171.8867482943248
 30
0.0
 11
152.07677584226991
 21
-170.96858995009779
 31
0.0
  0
LINE
  8
DETAIL
  6
CONTINUOUS
 62
     5
 10
152.07677584226991
 20
-170.96858995009779
 30
0.0
 11
152.28739455205459
 21
-170.0327357254402
 31
0.0
  0
LINE
  8
DETAIL
  6
CONTINUOUS
 62
     5
 10
152.28739455205459
 20
-170.0327357254402
 30
0.0
 11
152.60042652915851
 21
-169.0907304557729
 31
0.0
  0
LINE
  8
DETAIL
  6
CONTINUOUS
 62
     5
 10
152.60042652915851
 20
-169.0907304557729
 30
0.0
 11
152.72176733894321
 21
-168.81338901076319
 31
0.0
  0
LINE
  8
DETAIL
  6
CONTINUOUS
 62
     5
 10
62.50000000039131
 20
53.598807644618489
 30
0.0
 11
62.50000000039131
 21
61.332738110371849
 31
0.0
  0
LINE
  8
DETAIL
  6
CONTINUOUS
 62
     5
 10
67.00000000039131
 20
61.332738110371849
 30
0.0
 11
67.00000000039131
 21
50.680364006653633
 31
0.0
  0
LINE
  8
DETAIL
  6
CONTINUOUS
 62
     5
 10
178.3789030908024
 20
-171.02499256614479
 30
0.0
 11
178.89890632661459
 21
-171.6294703896281
 31
0.0
  0
LINE
  8
DETAIL
  6
CONTINUOUS
 62
     5
 10
178.89890632661459
 20
-171.6294703896281
 30
0.0
 11
179.32589445381609
 21
-172.30265629491191
 31
0.0
  0
LINE
  8
DETAIL
  6
CONTINUOUS
 62
     5
 10
179.32589445381609
 20
-172.30265629491191
 30
0.0
 11
179.6614379254402
 21
-173.04879100391381
 31
0.0
  0
LINE
  8
DETAIL
  6
CONTINUOUS
 62
     5
 10
179.6614379254402
 20
-173.04879100391381
 30
0.0
 11
179.90082538414839
 21
-173.85515235381601
 31
0.0
  0
LINE
  8
DETAIL
  6
CONTINUOUS
 62
     5
 10
179.90082538414839
 20
-173.85515235381601
 30
0.0
 11
180.03983098708429
 21
-174.7138242827788
 31
0.0
  0
LINE
  8
DETAIL
  6
CONTINUOUS
 62
     5
 10
180.03983098708429
 20
-174.7138242827788
 30
0.0
 11
180.07856864207409
 21
-175.6146292144814
 31
0.0
  0
LINE
  8
DETAIL
  6
CONTINUOUS
 62
     5
 10
180.07856864207409
 20
-175.6146292144814
 30
0.0
 11
180.01496116320959
 21
-176.54831028082191
 31
0.0
  0
LINE
  8
DETAIL
  6
CONTINUOUS
 62
     5
 10
180.01496116320959
 20
-176.54831028082191
 30
0.0
 11
179.8513559935418
 21
-177.50418929647751
 31
0.0
  0
LINE
  8
DETAIL
  6
CONTINUOUS
 62
     5
 10
179.8513559935418
 20
-177.50418929647751
 30
0.0
 11
179.5879153855185
 21
-178.4720731561643
 31
0.0
  0
LINE
  8
DETAIL
  6
CONTINUOUS
 62
     5
 10
179.5879153855185
 20
-178.4720731561643
 30
0.0
 11
179.22911772152659
 21
-179.44124975577299
 31
0.0
  0
LINE
  8
DETAIL
  6
CONTINUOUS
 62
     5
 10
179.22911772152659
 20
-179.44124975577299
 30
0.0
 11
178.77735760332669
 21
-180.40103524050869
 31
0.0
  0
LINE
  8
DETAIL
  6
CONTINUOUS
 62
     5
 10
178.77735760332669
 20
-180.40103524050869
 30
0.0
 11
178.23904862524429
 21
-181.3411517565556
 31
0.0
  0
LINE
  8
DETAIL
  6
CONTINUOUS
 62
     5
 10
178.23904862524429
 20
-181.3411517565556
 30
0.0
 11
177.6187130812132
 21
-182.2508916346379
 31
0.0
  0
LINE
  8
DETAIL
  6
CONTINUOUS
 62
     5
 10
177.6187130812132
 20
-182.2508916346379
 30
0.0
 11
176.92441947416819
 21
-183.12086046340491
 31
0.0
  0
LINE
  8
DETAIL
  6
CONTINUOUS
 62
     5
 10
176.92441947416819
 20
-183.12086046340491
 30
0.0
 11
176.1626201448139
 21
-183.94079473737759
 31
0.0
  0
LINE
  8
DETAIL
  6
CONTINUOUS
 62
     5
 10
176.1626201448139
 20
-183.94079473737759
 30
0.0
 11
175.34268587084139
 21
-184.70259406673171
 31
0.0
  0
LINE
  8
DETAIL
  6
CONTINUOUS
 62
     5
 10
175.34268587084139
 20
-184.70259406673171
 30
0.0
 11
174.47271704207421
 21
-185.39688767436391
 31
0.0
  0
LINE
  8
DETAIL
  6
CONTINUOUS
 62
     5
 10
174.47271704207421
 20
-185.39688767436391
 30
0.0
 11
173.5629771634049
 21
-186.01722321780809
 31
0.0
  0
LINE
  8
DETAIL
  6
CONTINUOUS
 62
     5
 10
173.5629771634049
 20
-186.01722321780809
 30
0.0
 11
172.62286064794529
 21
-186.55553219647749
 31
0.0
  0
LINE
  8
DETAIL
  6
CONTINUOUS
 62
     5
 10
172.62286064794529
 20
-186.55553219647749
 30
0.0
 11
171.66307516320919
 21
-187.0072923146769
 31
0.0
  0
LINE
  8
DETAIL
  6
CONTINUOUS
 62
     5
 10
171.66307516320919
 20
-187.0072923146769
 30
0.0
 11
170.69389856301359
 21
-187.36608997866921
 31
0.0
  0
LINE
  8
DETAIL
  6
CONTINUOUS
 62
     5
 10
170.69389856301359
 20
-187.36608997866921
 30
0.0
 11
169.72601470332671
 21
-187.62953058610569
 31
0.0
  0
LINE
  8
DETAIL
  6
CONTINUOUS
 62
     5
 10
169.72601470332671
 20
-187.62953058610569
 30
0.0
 11
168.7701356876714
 21
-187.79313575635999
 31
0.0
  0
LINE
  8
DETAIL
  6
CONTINUOUS
 62
     5
 10
168.7701356876714
 20
-187.79313575635999
 30
0.0
 11
167.83645462191771
 21
-187.856743235225
 31
0.0
  0
LINE
  8
DETAIL
  6
CONTINUOUS
 62
     5
 10
167.83645462191771
 20
-187.856743235225
 30
0.0
 11
166.93564968962801
 21
-187.8180055796476
 31
0.0
  0
LINE
  8
DETAIL
  6
CONTINUOUS
 62
     5
 10
166.93564968962801
 20
-187.8180055796476
 30
0.0
 11
166.07697776066561
 21
-187.67899997729941
 31
0.0
  0
LINE
  8
DETAIL
  6
CONTINUOUS
 62
     5
 10
166.07697776066561
 20
-187.67899997729941
 30
0.0
 11
165.27061641076301
 21
-187.43961251859091
 31
0.0
  0
LINE
  8
DETAIL
  6
CONTINUOUS
 62
     5
 10
165.27061641076301
 20
-187.43961251859091
 30
0.0
 11
164.52448170234811
 21
-187.10406904696671
 31
0.0
  0
LINE
  8
DETAIL
  6
CONTINUOUS
 62
     5
 10
164.52448170234811
 20
-187.10406904696671
 30
0.0
 11
163.85129579647759
 21
-186.677080919178
 31
0.0
  0
LINE
  8
DETAIL
  6
CONTINUOUS
 62
     5
 10
163.85129579647759
 20
-186.677080919178
 30
0.0
 11
163.2468179735811
 21
-186.15707768395299
 31
0.0
  0
LINE
  8
DETAIL
  6
CONTINUOUS
 62
     5
 10
180.1289030906064
 20
-172.77499256653621
 30
0.0
 11
180.64890632641891
 21
-173.3794703894325
 31
0.0
  0
LINE
  8
DETAIL
  6
CONTINUOUS
 62
     5
 10
180.64890632641891
 20
-173.3794703894325
 30
0.0
 11
181.07589445362009
 21
-174.05265629530331
 31
0.0
  0
LINE
  8
DETAIL
  6
CONTINUOUS
 62
     5
 10
181.07589445362009
 20
-174.05265629530331
 30
0.0
 11
181.41143792583171
 21
-174.79879100371809
 31
0.0
  0
LINE
  8
DETAIL
  6
CONTINUOUS
 62
     5
 10
181.41143792583171
 20
-174.79879100371809
 30
0.0
 11
181.65082538454001
 21
-175.6051523536203
 31
0.0
  0
LINE
  8
DETAIL
  6
CONTINUOUS
 62
     5
 10
181.65082538454001
 20
-175.6051523536203
 30
0.0
 11
181.78983098688821
 21
-176.46382428258309
 31
0.0
  0
LINE
  8
DETAIL
  6
CONTINUOUS
 62
     5
 10
181.78983098688821
 20
-176.46382428258309
 30
0.0
 11
181.82856864187841
 21
-177.36462921487279
 31
0.0
  0
LINE
  8
DETAIL
  6
CONTINUOUS
 62
     5
 10
181.82856864187841
 20
-177.36462921487279
 30
0.0
 11
181.7649611630136
 21
-178.29831028062611
 31
0.0
  0
LINE
  8
DETAIL
  6
CONTINUOUS
 62
     5
 10
181.7649611630136
 20
-178.29831028062611
 30
0.0
 11
181.60135599334609
 21
-179.25418929628179
 31
0.0
  0
LINE
  8
DETAIL
  6
CONTINUOUS
 62
     5
 10
181.60135599334609
 20
-179.25418929628179
 30
0.0
 11
181.33791538532299
 21
-180.2220731559685
 31
0.0
  0
LINE
  8
DETAIL
  6
CONTINUOUS
 62
     5
 10
181.33791538532299
 20
-180.2220731559685
 30
0.0
 11
180.97911772191759
 21
-181.19124975616441
 31
0.0
  0
LINE
  8
DETAIL
  6
CONTINUOUS
 62
     5
 10
180.97911772191759
 20
-181.19124975616441
 30
0.0
 11
180.52735760313129
 21
-182.1510352409002
 31
0.0
  0
LINE
  8
DETAIL
  6
CONTINUOUS
 62
     5
 10
180.52735760313129
 20
-182.1510352409002
 30
0.0
 11
179.98904862504881
 21
-183.09115175636001
 31
0.0
  0
LINE
  8
DETAIL
  6
CONTINUOUS
 62
     5
 10
179.98904862504881
 20
-183.09115175636001
 30
0.0
 11
179.3687130810176
 21
-184.00089163502921
 31
0.0
  0
LINE
  8
DETAIL
  6
CONTINUOUS
 62
     5
 10
179.3687130810176
 20
-184.00089163502921
 30
0.0
 11
178.67441947397259
 21
-184.87086046379639
 31
0.0
  0
LINE
  8
DETAIL
  6
CONTINUOUS
 62
     5
 10
178.67441947397259
 20
-184.87086046379639
 30
0.0
 11
177.91262014461839
 21
-185.69079473776901
 31
0.0
  0
LINE
  8
DETAIL
  6
CONTINUOUS
 62
     5
 10
177.91262014461839
 20
-185.69079473776901
 30
0.0
 11
177.09268587064571
 21
-186.45259406712319
 31
0.0
  0
LINE
  8
DETAIL
  6
CONTINUOUS
 62
     5
 10
177.09268587064571
 20
-186.45259406712319
 30
0.0
 11
176.2227170418787
 21
-187.14688767416831
 31
0.0
  0
LINE
  8
DETAIL
  6
CONTINUOUS
 62
     5
 10
176.2227170418787
 20
-187.14688767416831
 30
0.0
 11
175.3129771632093
 21
-187.7672232181994
 31
0.0
  0
LINE
  8
DETAIL
  6
CONTINUOUS
 62
     5
 10
175.3129771632093
 20
-187.7672232181994
 30
0.0
 11
174.37286064774929
 21
-188.30553219628169
 31
0.0
  0
LINE
  8
DETAIL
  6
CONTINUOUS
 62
     5
 10
174.37286064774929
 20
-188.30553219628169
 30
0.0
 11
173.4130751630137
 21
-188.75729231448139
 31
0.0
  0
LINE
  8
DETAIL
  6
CONTINUOUS
 62
     5
 10
173.4130751630137
 20
-188.75729231448139
 30
0.0
 11
172.44389856340501
 21
-189.1160899784735
 31
0.0
  0
LINE
  8
DETAIL
  6
CONTINUOUS
 62
     5
 10
172.44389856340501
 20
-189.1160899784735
 30
0.0
 11
171.47601470313111
 21
-189.379530586497
 31
0.0
  0
LINE
  8
DETAIL
  6
CONTINUOUS
 62
     5
 10
171.47601470313111
 20
-189.379530586497
 30
0.0
 11
170.5201356874754
 21
-189.54313575616439
 31
0.0
  0
LINE
  8
DETAIL
  6
CONTINUOUS
 62
     5
 10
170.5201356874754
 20
-189.54313575616439
 30
0.0
 11
169.5864546217222
 21
-189.60674323502931
 31
0.0
  0
LINE
  8
DETAIL
  6
CONTINUOUS
 62
     5
 10
169.5864546217222
 20
-189.60674323502931
 30
0.0
 11
168.6856496900194
 21
-189.56800558003911
 31
0.0
  0
LINE
  8
DETAIL
  6
CONTINUOUS
 62
     5
 10
168.6856496900194
 20
-189.56800558003911
 30
0.0
 11
167.82697776046959
 21
-189.4289999771037
 31
0.0
  0
LINE
  8
DETAIL
  6
CONTINUOUS
 62
     5
 10
167.82697776046959
 20
-189.4289999771037
 30
0.0
 11
167.0206164105675
 21
-189.18961251839519
 31
0.0
  0
LINE
  8
DETAIL
  6
CONTINUOUS
 62
     5
 10
167.0206164105675
 20
-189.18961251839519
 30
0.0
 11
166.2744817021526
 21
-188.854069046771
 31
0.0
  0
LINE
  8
DETAIL
  6
CONTINUOUS
 62
     5
 10
166.2744817021526
 20
-188.854069046771
 30
0.0
 11
165.60129579628159
 21
-188.42708091956931
 31
0.0
  0
LINE
  8
DETAIL
  6
CONTINUOUS
 62
     5
 10
165.60129579628159
 20
-188.42708091956931
 30
0.0
 11
164.9968179733855
 21
-187.90707768375719
 31
0.0
  0
LINE
  8
DETAIL
  6
CONTINUOUS
 62
     5
 10
83.253048327592978
 20
-86.435028842465726
 30
0.0
 11
74.909217173776824
 21
-94.778859996281739
 31
0.0
  0
LINE
  8
DETAIL
  6
CONTINUOUS
 62
     5
 10
88.909902577103594
 20
-85.727922061643795
 30
0.0
 11
91.243354954990082
 21
-83.394469683757279
 31
0.0
  0
LINE
  8
DETAIL
  6
CONTINUOUS
 62
     5
 10
91.03122292074363
 20
-87.84924240528369
 30
0.0
 11
93.364675298630118
 21
-85.515790027397202
 31
0.0
  0
LINE
  8
DETAIL
  6
CONTINUOUS
 62
     5
 10
90.324116139334592
 20
-93.506096654794476
 30
0.0
 11
81.980284985518665
 21
-101.84992780802339
 31
0.0
  0
LINE
  8
DETAIL
  6
CONTINUOUS
 62
     5
 10
37.00000000039131
 20
30.00000000000006
 30
0.0
 11
-36.999999999804459
 21
30.00000000000006
 31
0.0
  0
LINE
  8
DETAIL
  6
CONTINUOUS
 62
     5
 10
4.7000000001955868
 20
68.10000000000008
 30
0.0
 11
-4.6999999996087354
 21
68.10000000000008
 31
0.0
  0
LINE
  8
DETAIL
  6
CONTINUOUS
 62
     5
 10
4.7000000001955868
 20
68.599999999608599
 30
0.0
 11
-4.6999999996087354
 21
68.599999999608599
 31
0.0
  0
LINE
  8
DETAIL
  6
CONTINUOUS
 62
     5
 10
-201.49390334559689
 20
193.60715199921719
 30
0.0
 11
-196.49390334540101
 21
190.72040065362029
 31
0.0
  0
LINE
  8
DETAIL
  6
CONTINUOUS
 62
     5
 10
-191.49390334520561
 20
199.38065469158511
 30
0.0
 11
-196.49390334540101
 21
202.2674060371821
 31
0.0
  0
LINE
  8
DETAIL
  6
CONTINUOUS
 62
     5
 10
118.9737090704502
 20
-122.1556895859099
 30
0.0
 11
118.49731332622279
 21
-122.6575399972602
 31
0.0
  0
LINE
  8
DETAIL
  6
CONTINUOUS
 62
     5
 10
118.79149573561649
 20
-121.9734762504892
 30
0.0
 11
118.311939167319
 21
-122.47812195792559
 31
0.0
  0
LINE
  8
DETAIL
  6
CONTINUOUS
 62
     5
 10
173.7250651021524
 20
-177.33130968610561
 30
0.0
 11
173.7250651021524
 21
-176.90704561761251
 31
0.0
  0
LINE
  8
DETAIL
  6
CONTINUOUS
 62
     5
 10
158.16128629373759
 20
-162.6408247091976
 30
0.0
 11
158.9620354432482
 21
-162.2024621953033
 31
0.0
  0
LINE
  8
DETAIL
  6
CONTINUOUS
 62
     5
 10
158.9620354432482
 20
-162.2024621953033
 30
0.0
 11
159.00269329432459
 21
-162.18467380978461
 31
0.0
  0
LINE
  8
DETAIL
  6
CONTINUOUS
 62
     5
 10
159.68733317906069
 20
-162.86931369452051
 30
0.0
 11
159.13445420254399
 21
-163.11120607690799
 31
0.0
  0
LINE
  8
DETAIL
  6
CONTINUOUS
 62
     5
 10
159.13445420254399
 20
-163.11120607690799
 30
0.0
 11
158.7931865101759
 21
-163.29802983287669
 31
0.0
  0
LINE
  8
DETAIL
  6
CONTINUOUS
 62
     5
 10
161.43733317945231
 20
-164.6193136943248
 30
0.0
 11
160.88445420293559
 21
-164.86120607729941
 31
0.0
  0
LINE
  8
DETAIL
  6
CONTINUOUS
 62
     5
 10
160.88445420293559
 20
-164.86120607729941
 30
0.0
 11
160.49689153091961
 21
-165.07337357964769
 31
0.0
  0
LINE
  8
DETAIL
  6
CONTINUOUS
 62
     5
 10
178.39618908317021
 20
-169.9109077091976
 30
0.0
 11
178.41274284129119
 21
-169.90578405440311
 31
0.0
  0
LINE
  8
DETAIL
  6
CONTINUOUS
 62
     5
 10
178.41274284129119
 20
-169.90578405440311
 30
0.0
 11
178.92869740802331
 21
-169.76827848610569
 31
0.0
  0
LINE
  8
DETAIL
  6
CONTINUOUS
 62
     5
 10
178.92869740802331
 20
-169.76827848610569
 30
0.0
 11
179.48836563405089
 21
-169.64437783326801
 31
0.0
  0
LINE
  8
DETAIL
  6
CONTINUOUS
 62
     5
 10
179.48836563405089
 20
-169.64437783326801
 30
0.0
 11
180.08885262915831
 21
-169.54004216829739
 31
0.0
  0
LINE
  8
DETAIL
  6
CONTINUOUS
 62
     5
 10
180.08885262915831
 20
-169.54004216829739
 30
0.0
 11
180.72777205772991
 21
-169.46103110900191
 31
0.0
  0
LINE
  8
DETAIL
  6
CONTINUOUS
 62
     5
 10
180.72777205772991
 20
-169.46103110900191
 30
0.0
 11
181.40058231193731
 21
-169.41264930821919
 31
0.0
  0
LINE
  8
DETAIL
  6
CONTINUOUS
 62
     5
 10
181.40058231193731
 20
-169.41264930821919
 30
0.0
 11
182.10159959823889
 21
-169.4001383606653
 31
0.0
  0
LINE
  8
DETAIL
  6
CONTINUOUS
 62
     5
 10
182.10159959823889
 20
-169.4001383606653
 30
0.0
 11
182.8260913473575
 21
-169.42774500704499
 31
0.0
  0
LINE
  8
DETAIL
  6
CONTINUOUS
 62
     5
 10
182.8260913473575
 20
-169.42774500704499
 30
0.0
 11
183.5678814698631
 21
-169.49884148043051
 31
0.0
  0
LINE
  8
DETAIL
  6
CONTINUOUS
 62
     5
 10
183.5678814698631
 20
-169.49884148043051
 30
0.0
 11
184.32042540469681
 21
-169.61638492015641
 31
0.0
  0
LINE
  8
DETAIL
  6
CONTINUOUS
 62
     5
 10
184.32042540469681
 20
-169.61638492015641
 30
0.0
 11
185.07792357299411
 21
-169.7818314246575
 31
0.0
  0
LINE
  8
DETAIL
  6
CONTINUOUS
 62
     5
 10
185.07792357299411
 20
-169.7818314246575
 30
0.0
 11
185.8287841819961
 21
-169.99462224716231
 31
0.0
  0
LINE
  8
DETAIL
  6
CONTINUOUS
 62
     5
 10
185.8287841819961
 20
-169.99462224716231
 30
0.0
 11
186.56328386360059
 21
-170.25215128238739
 31
0.0
  0
LINE
  8
DETAIL
  6
CONTINUOUS
 62
     5
 10
186.56328386360059
 20
-170.25215128238739
 30
0.0
 11
187.27167386418799
 21
-170.54964048493139
 31
0.0
  0
LINE
  8
DETAIL
  6
CONTINUOUS
 62
     5
 10
187.27167386418799
 20
-170.54964048493139
 30
0.0
 11
187.94545253659501
 21
-170.88098722074361
 31
0.0
  0
LINE
  8
DETAIL
  6
CONTINUOUS
 62
     5
 10
187.94545253659501
 20
-170.88098722074361
 30
0.0
 11
188.5773105915849
 21
-171.23794712700581
 31
0.0
  0
LINE
  8
DETAIL
  6
CONTINUOUS
 62
     5
 10
188.5773105915849
 20
-171.23794712700581
 30
0.0
 11
189.16261065675141
 21
-171.61261563698631
 31
0.0
  0
LINE
  8
DETAIL
  6
CONTINUOUS
 62
     5
 10
191.4939033457924
 20
199.38065469158511
 30
0.0
 11
191.4939033457924
 21
193.60715199921719
 31
0.0
  0
LINE
  8
DETAIL
  6
CONTINUOUS
 62
     5
 10
191.4939033457924
 20
-193.6071519998043
 30
0.0
 11
191.4939033457924
 21
-194.8159220060665
 31
0.0
  0
LINE
  8
DETAIL
  6
CONTINUOUS
 62
     5
 10
191.4939033457924
 20
-196.03632842113501
 30
0.0
 11
191.4939033457924
 21
-199.38065469158511
 31
0.0
  0
LINE
  8
DETAIL
  6
CONTINUOUS
 62
     5
 10
201.49390334559661
 20
-199.38065469158511
 30
0.0
 11
201.49390334559661
 21
-193.6071519998043
 31
0.0
  0
LINE
  8
DETAIL
  6
CONTINUOUS
 62
     5
 10
201.49390334559661
 20
193.60715199921719
 30
0.0
 11
201.49390334559661
 21
199.38065469158511
 31
0.0
  0
LINE
  8
DETAIL
  6
CONTINUOUS
 62
     5
 10
174.47788376536209
 20
-177.65986428023481
 30
0.0
 11
174.21553710998069
 21
-179.49629086614479
 31
0.0
  0
LINE
  8
DETAIL
  6
CONTINUOUS
 62
     5
 10
172.7234943634048
 20
-189.94059009041089
 30
0.0
 11
172.66992498434411
 21
-190.315575746771
 31
0.0
  0
LINE
  8
DETAIL
  6
CONTINUOUS
 62
     5
 10
175.2666258704503
 20
-180.62395091917799
 30
0.0
 11
175.53854393659441
 21
-178.7205244520546
 31
0.0
  0
LINE
  8
DETAIL
  6
CONTINUOUS
 62
     5
 10
153.4268401432482
 20
-169.54757855753411
 30
0.0
 11
153.28554208180029
 21
-169.9727859745596
 31
0.0
  0
LINE
  8
DETAIL
  6
CONTINUOUS
 62
     5
 10
153.28554208180029
 20
-169.9727859745596
 30
0.0
 11
153.10097929491161
 21
-170.79286441878671
 31
0.0
  0
LINE
  8
DETAIL
  6
CONTINUOUS
 62
     5
 10
153.10097929491161
 20
-170.79286441878671
 30
0.0
 11
153.0067961776908
 21
-171.59743616360069
 31
0.0
  0
LINE
  8
DETAIL
  6
CONTINUOUS
 62
     5
 10
153.0067961776908
 20
-171.59743616360069
 30
0.0
 11
153.00589482093929
 21
-172.37599581428569
 31
0.0
  0
LINE
  8
DETAIL
  6
CONTINUOUS
 62
     5
 10
153.00589482093929
 20
-172.37599581428569
 30
0.0
 11
153.09655769236821
 21
-173.11932618199609
 31
0.0
  0
LINE
  8
DETAIL
  6
CONTINUOUS
 62
     5
 10
153.09655769236821
 20
-173.11932618199609
 30
0.0
 11
153.27936296418781
 21
-173.81732680684931
 31
0.0
  0
LINE
  8
DETAIL
  6
CONTINUOUS
 62
     5
 10
153.27936296418781
 20
-173.81732680684931
 30
0.0
 11
153.55032560958901
 21
-174.46214210900189
 31
0.0
  0
LINE
  8
DETAIL
  6
CONTINUOUS
 62
     5
 10
153.55032560958901
 20
-174.46214210900189
 30
0.0
 11
153.90517928747519
 21
-175.04114688845399
 31
0.0
  0
LINE
  8
DETAIL
  6
CONTINUOUS
 62
     5
 10
153.90517928747519
 20
-175.04114688845399
 30
0.0
 11
154.34534611056731
 21
-175.5585495463796
 31
0.0
  0
LINE
  8
DETAIL
  6
CONTINUOUS
 62
     5
 10
155.1584045489235
 20
-171.35305668140899
 30
0.0
 11
155.03554208160489
 21
-171.72278597436389
 31
0.0
  0
LINE
  8
DETAIL
  6
CONTINUOUS
 62
     5
 10
155.03554208160489
 20
-171.72278597436389
 30
0.0
 11
154.8509792947161
 21
-172.54286441917799
 31
0.0
  0
LINE
  8
DETAIL
  6
CONTINUOUS
 62
     5
 10
154.8509792947161
 20
-172.54286441917799
 30
0.0
 11
154.75679617749481
 21
-173.34743616399211
 31
0.0
  0
LINE
  8
DETAIL
  6
CONTINUOUS
 62
     5
 10
154.75679617749481
 20
-173.34743616399211
 30
0.0
 11
154.75589482133091
 21
-174.12599581467711
 31
0.0
  0
LINE
  8
DETAIL
  6
CONTINUOUS
 62
     5
 10
154.75589482133091
 20
-174.12599581467711
 30
0.0
 11
154.84655769275921
 21
-174.86932618238751
 31
0.0
  0
LINE
  8
DETAIL
  6
CONTINUOUS
 62
     5
 10
154.84655769275921
 20
-174.86932618238751
 30
0.0
 11
155.02936296457929
 21
-175.5673268066536
 31
0.0
  0
LINE
  8
DETAIL
  6
CONTINUOUS
 62
     5
 10
155.02936296457929
 20
-175.5673268066536
 30
0.0
 11
155.30032560939341
 21
-176.21214210880609
 31
0.0
  0
LINE
  8
DETAIL
  6
CONTINUOUS
 62
     5
 10
155.30032560939341
 20
-176.21214210880609
 30
0.0
 11
155.65517928727971
 21
-176.7911468888453
 31
0.0
  0
LINE
  8
DETAIL
  6
CONTINUOUS
 62
     5
 10
155.65517928727971
 20
-176.7911468888453
 30
0.0
 11
156.0953461109589
 21
-177.30854954618391
 31
0.0
  0
LINE
  8
DETAIL
  6
CONTINUOUS
 62
     5
 10
171.1289030906064
 20
-163.77499256653621
 30
0.0
 11
170.28037495362011
 21
-164.62352070352239
 31
0.0
  0
LINE
  8
DETAIL
  6
CONTINUOUS
 62
     5
 10
173.14458851565541
 20
-164.659307141683
 30
0.0
 11
170.4929380861058
 21
-167.3109575706458
 31
0.0
  0
LINE
  8
DETAIL
  6
CONTINUOUS
 62
     5
 10
221.50000000039111
 20
-143.6134380205479
 30
0.0
 11
221.50000000039111
 21
143.61343801996091
 31
0.0
  0
LINE
  8
DETAIL
  6
CONTINUOUS
 62
     5
 10
226.89949493659509
 20
-220.5355339062622
 30
0.0
 11
226.89949493659509
 21
-209.22182540724069
 31
0.0
  0
LINE
  8
DETAIL
  6
CONTINUOUS
 62
     5
 10
226.89949493659509
 20
209.22182540665369
 30
0.0
 11
226.89949493659509
 21
220.53553390567529
 31
0.0
  0
LINE
  8
DETAIL
  6
CONTINUOUS
 62
     5
 10
175.89458851585101
 20
-167.40930714129141
 30
0.0
 11
173.24293808630139
 21
-170.0609575708414
 31
0.0
  0
LINE
  8
DETAIL
  6
CONTINUOUS
 62
     5
 10
176.0039030906064
 20
-168.6499925665361
 30
0.0
 11
175.15537495362059
 21
-169.49852070352239
 31
0.0
  0
LINE
  8
DETAIL
  6
CONTINUOUS
 62
     5
 10
178.99458851565569
 20
-170.50930714168291
 30
0.0
 11
178.42890309099809
 21
-171.07499256634051
 31
0.0
  0
LINE
  8
DETAIL
  6
CONTINUOUS
 62
     5
 10
177.5803749534243
 20
-171.92352070391391
 30
0.0
 11
176.3429380861057
 21
-173.16095757064571
 31
0.0
  0
LINE
  8
DETAIL
  6
CONTINUOUS
 62
     5
 10
173.83113111956939
 20
-177.43737570352241
 30
0.0
 11
173.03231525166339
 21
-178.23619157084141
 31
0.0
  0
LINE
  8
DETAIL
  6
CONTINUOUS
 62
     5
 10
175.95245146262229
 20
-179.55869604657531
 30
0.0
 11
175.32986408336581
 21
-180.18128342641859
 31
0.0
  0
LINE
  8
DETAIL
  6
CONTINUOUS
 62
     5
 10
169.40611519608581
 20
-189.64056599882571
 30
0.0
 11
169.44597889080251
 21
-189.6007023041096
 31
0.0
  0
LINE
  8
DETAIL
  6
CONTINUOUS
 62
     5
 10
188.11785154168319
 20
-170.92882965322889
 30
0.0
 11
189.64056599882579
 21
-169.40611519608609
 31
0.0
  0
LINE
  8
DETAIL
  6
CONTINUOUS
 62
     5
 10
181.962859103131
 20
-178.0737718062621
 30
0.0
 11
181.7669087424656
 21
-178.26972216692741
 31
0.0
  0
LINE
  8
DETAIL
  6
CONTINUOUS
 62
     5
 10
187.46966991428599
 20
-178.64124278982379
 30
0.0
 11
184.64124278982399
 21
-181.46966991428559
 31
0.0
  0
LINE
  8
DETAIL
  6
CONTINUOUS
 62
     5
 10
192.42803935420761
 20
-174.7503698242661
 30
0.0
 11
188.00341815146751
 21
-179.1749910270058
 31
0.0
  0
LINE
  8
DETAIL
  6
CONTINUOUS
 62
     5
 10
191.3587572111546
 20
-182.53033008610549
 30
0.0
 11
188.53033008610541
 21
-185.3587572105674
 31
0.0
  0
LINE
  8
DETAIL
  6
CONTINUOUS
 62
     5
 10
189.21067810039119
 20
-192.44876950743631
 30
0.0
 11
188.88095646457899
 21
-192.64356711135031
 31
0.0
  0
LINE
  8
DETAIL
  6
CONTINUOUS
 62
     5
 10
188.88095646457899
 20
-192.64356711135031
 30
0.0
 11
188.7374326109589
 21
-192.72681348551839
 31
0.0
  0
LINE
  8
DETAIL
  6
CONTINUOUS
 62
     5
 10
188.7374326109589
 20
-192.72681348551839
 30
0.0
 11
188.5672351608608
 21
-192.82373186536199
 31
0.0
  0
LINE
  8
DETAIL
  6
CONTINUOUS
 62
     5
 10
188.5672351608608
 20
-192.82373186536199
 30
0.0
 11
188.36907528845401
 21
-192.9336545888454
 31
0.0
  0
LINE
  8
DETAIL
  6
CONTINUOUS
 62
     5
 10
188.36907528845401
 20
-192.9336545888454
 30
0.0
 11
188.14196861448141
 21
-193.0552367301369
 31
0.0
  0
LINE
  8
DETAIL
  6
CONTINUOUS
 62
     5
 10
188.14196861448141
 20
-193.0552367301369
 30
0.0
 11
187.88512703542071
 21
-193.1868923612524
 31
0.0
  0
LINE
  8
DETAIL
  6
CONTINUOUS
 62
     5
 10
187.88512703542071
 20
-193.1868923612524
 30
0.0
 11
187.59650353033231
 21
-193.3273958054794
 31
0.0
  0
LINE
  8
DETAIL
  6
CONTINUOUS
 62
     5
 10
187.59650353033231
 20
-193.3273958054794
 30
0.0
 11
187.27404119295491
 21
-193.4749571630137
 31
0.0
  0
LINE
  8
DETAIL
  6
CONTINUOUS
 62
     5
 10
187.27404119295491
 20
-193.4749571630137
 30
0.0
 11
186.9164556099804
 21
-193.6270296105674
 31
0.0
  0
LINE
  8
DETAIL
  6
CONTINUOUS
 62
     5
 10
186.9164556099804
 20
-193.6270296105674
 30
0.0
 11
186.52238046046929
 21
-193.7807772146769
 31
0.0
  0
LINE
  8
DETAIL
  6
CONTINUOUS
 62
     5
 10
186.52238046046929
 20
-193.7807772146769
 30
0.0
 11
186.09025440821921
 21
-193.93314106203519
 31
0.0
  0
LINE
  8
DETAIL
  6
CONTINUOUS
 62
     5
 10
186.09025440821921
 20
-193.93314106203519
 30
0.0
 11
185.61896448727981
 21
-194.08040514540099
 31
0.0
  0
LINE
  8
DETAIL
  6
CONTINUOUS
 62
     5
 10
185.61896448727981
 20
-194.08040514540099
 30
0.0
 11
184.5152946748992
 21
-194.37803066591661
 31
0.0
  0
LINE
  8
DETAIL
  6
CONTINUOUS
 62
     5
 10
189.24605883874739
 20
-192.42803935420741
 30
0.0
 11
189.21067810039119
 21
-192.44876950743631
 31
0.0
  0
LINE
  8
DETAIL
  6
CONTINUOUS
 62
     5
 10
196.4939033459882
 20
-190.7204006536202
 30
0.0
 11
195.01372094442289
 21
-191.5749843616438
 31
0.0
  0
LINE
  8
DETAIL
  6
CONTINUOUS
 62
     5
 10
193.79573121545991
 20
-192.2781910596868
 30
0.0
 11
191.4939033457924
 21
-193.6071519998043
 31
0.0
  0
LINE
  8
DETAIL
  6
CONTINUOUS
 62
     5
 10
196.4939033459882
 20
-202.26740603776901
 30
0.0
 11
201.49390334559661
 21
-199.38065469158511
 31
0.0
  0
LINE
  8
DETAIL
  6
CONTINUOUS
 62
     5
 10
232.00000000039111
 20
-209.99999999999989
 30
0.0
 11
232.00000000039111
 21
-176.54063549647751
 31
0.0
  0
LINE
  8
DETAIL
  6
CONTINUOUS
 62
     5
 10
232.00000000039111
 20
-176.54063549647751
 30
0.0
 11
232.00000000039111
 21
176.5406354958906
 31
0.0
  0
LINE
  8
DETAIL
  6
CONTINUOUS
 62
     5
 10
232.00000000039111
 20
176.5406354958906
 30
0.0
 11
232.00000000039111
 21
210.00000000000011
 31
0.0
  0
LINE
  8
DETAIL
  6
CONTINUOUS
 62
     5
 10
235.00000000039111
 20
-209.99999999999989
 30
0.0
 11
235.00000000039111
 21
210.00000000000011
 31
0.0
  0
LINE
  8
DETAIL
  6
CONTINUOUS
 62
     5
 10
192.4235707702546
 20
-189.2519978953033
 30
0.0
 11
192.4189812129157
 21
-189.25809773424649
 31
0.0
  0
LINE
  8
DETAIL
  6
CONTINUOUS
 62
     5
 10
192.4189812129157
 20
-189.25809773424649
 30
0.0
 11
192.39082578786659
 21
-189.29516455185899
 31
0.0
  0
LINE
  8
DETAIL
  6
CONTINUOUS
 62
     5
 10
192.39082578786659
 20
-189.29516455185899
 30
0.0
 11
192.34229851702551
 21
-189.35833059334641
 31
0.0
  0
LINE
  8
DETAIL
  6
CONTINUOUS
 62
     5
 10
192.34229851702551
 20
-189.35833059334641
 30
0.0
 11
192.2717324248533
 21
-189.44903231213311
 31
0.0
  0
LINE
  8
DETAIL
  6
CONTINUOUS
 62
     5
 10
192.2717324248533
 20
-189.44903231213311
 30
0.0
 11
192.17720602661441
 21
-189.5687553246575
 31
0.0
  0
LINE
  8
DETAIL
  6
CONTINUOUS
 62
     5
 10
192.17720602661441
 20
-189.5687553246575
 30
0.0
 11
192.0563797332679
 21
-189.71854911780821
 31
0.0
  0
LINE
  8
DETAIL
  6
CONTINUOUS
 62
     5
 10
192.0563797332679
 20
-189.71854911780821
 30
0.0
 11
191.90666254227011
 21
-189.89891993307239
 31
0.0
  0
LINE
  8
DETAIL
  6
CONTINUOUS
 62
     5
 10
191.90666254227011
 20
-189.89891993307239
 30
0.0
 11
191.72448855440331
 21
-190.11080582700581
 31
0.0
  0
LINE
  8
DETAIL
  6
CONTINUOUS
 62
     5
 10
191.72448855440331
 20
-190.11080582700581
 30
0.0
 11
191.50551316790589
 21
-190.35497556810171
 31
0.0
  0
LINE
  8
DETAIL
  6
CONTINUOUS
 62
     5
 10
191.50551316790589
 20
-190.35497556810171
 30
0.0
 11
191.24537737045009
 21
-190.63085328199611
 31
0.0
  0
LINE
  8
DETAIL
  6
CONTINUOUS
 62
     5
 10
191.24537737045009
 20
-190.63085328199611
 30
0.0
 11
190.93865345812131
 21
-190.93754220939331
 31
0.0
  0
LINE
  8
DETAIL
  6
CONTINUOUS
 62
     5
 10
192.94974746829749
 20
-186.9497474682974
 30
0.0
 11
193.7982756058708
 21
-186.10121933131111
 31
0.0
  0
LINE
  8
DETAIL
  6
CONTINUOUS
 62
     5
 10
193.65685424970599
 20
-187.65685424970641
 30
0.0
 11
194.5053823872795
 21
-186.8083261121329
 31
0.0
  0
LINE
  8
DETAIL
  6
CONTINUOUS
 62
     5
 10
189.24605883874739
 20
-192.42803935420741
 30
0.0
 11
192.42803935420761
 21
-189.2460588387475
 31
0.0
  0
LINE
  8
DETAIL
  6
CONTINUOUS
 62
     5
 10
194.26095603111531
 20
-213.15182899667309
 30
0.0
 11
194.8675577489239
 21
-212.54522727886501
 31
0.0
  0
LINE
  8
DETAIL
  6
CONTINUOUS
 62
     5
 10
212.54522727886479
 20
-194.86755774892359
 30
0.0
 11
213.15182899667289
 21
-194.2609560311154
 31
0.0
  0
LINE
  8
DETAIL
  6
CONTINUOUS
 62
     5
 10
190.93865345812131
 20
-190.93754220939331
 30
0.0
 11
190.58096562563611
 21
-191.27163740313111
 31
0.0
  0
LINE
  8
DETAIL
  6
CONTINUOUS
 62
     5
 10
190.58096562563611
 20
-191.27163740313111
 30
0.0
 11
190.16621378512721
 21
-191.630071144227
 31
0.0
  0
LINE
  8
DETAIL
  6
CONTINUOUS
 62
     5
 10
190.16621378512721
 20
-191.630071144227
 30
0.0
 11
189.69377852054771
 21
-192.0036658743638
 31
0.0
  0
LINE
  8
DETAIL
  6
CONTINUOUS
 62
     5
 10
189.69377852054771
 20
-192.0036658743638
 30
0.0
 11
189.61166560039121
 21
-192.06243259256351
 31
0.0
  0
LINE
  8
DETAIL
  6
CONTINUOUS
 62
     5
 10
226.89949493659509
 20
-220.5355339062622
 30
0.0
 11
220.53553390626209
 21
-226.89949493659489
 31
0.0
  0
LINE
  8
DETAIL
  6
CONTINUOUS
 62
     5
 10
143.61343802054759
 20
221.4999999998042
 30
0.0
 11
-143.613438019961
 21
221.4999999998042
 31
0.0
  0
LINE
  8
DETAIL
  6
CONTINUOUS
 62
     5
 10
220.53553390626209
 20
226.899494936595
 30
0.0
 11
209.2218254072404
 21
226.899494936595
 31
0.0
  0
LINE
  8
DETAIL
  6
CONTINUOUS
 62
     5
 10
-209.22182540665381
 20
226.899494936595
 30
0.0
 11
-220.53553390567509
 21
226.899494936595
 31
0.0
  0
LINE
  8
DETAIL
  6
CONTINUOUS
 62
     5
 10
210.0
 20
231.9999999998042
 30
0.0
 11
176.54063549647751
 21
231.9999999998042
 31
0.0
  0
LINE
  8
DETAIL
  6
CONTINUOUS
 62
     5
 10
176.54063549647751
 20
231.9999999998042
 30
0.0
 11
-176.5406354958906
 21
231.9999999998042
 31
0.0
  0
LINE
  8
DETAIL
  6
CONTINUOUS
 62
     5
 10
-176.5406354958906
 20
231.9999999998042
 30
0.0
 11
-210.0
 21
231.9999999998042
 31
0.0
  0
LINE
  8
DETAIL
  6
CONTINUOUS
 62
     5
 10
210.0
 20
234.99999999980449
 30
0.0
 11
-210.0
 21
234.99999999980449
 31
0.0
  0
LINE
  8
DETAIL
  6
CONTINUOUS
 62
     5
 10
189.64056599882579
 20
169.40611519549901
 30
0.0
 11
188.11785280039109
 21
170.9288283939334
 31
0.0
  0
LINE
  8
DETAIL
  6
CONTINUOUS
 62
     5
 10
177.93235033972579
 20
181.11433085459899
 30
0.0
 11
169.40611519608581
 21
189.6405659982388
 31
0.0
  0
LINE
  8
DETAIL
  6
CONTINUOUS
 62
     5
 10
171.56838930880619
 20
189.24605883816039
 30
0.0
 11
178.81623381604689
 21
181.99821433091981
 31
0.0
  0
LINE
  8
DETAIL
  6
CONTINUOUS
 62
     5
 10
185.18019484696649
 20
181.99821433091981
 30
0.0
 11
192.42803935420761
 21
174.75036982367899
 31
0.0
  0
LINE
  8
DETAIL
  6
CONTINUOUS
 62
     5
 10
191.4939033457924
 20
193.60715199921719
 30
0.0
 11
196.4939033459882
 21
190.72040065362029
 31
0.0
  0
LINE
  8
DETAIL
  6
CONTINUOUS
 62
     5
 10
201.49390334559661
 20
199.38065469158511
 30
0.0
 11
196.4939033459882
 21
202.2674060371821
 31
0.0
  0
LINE
  8
DETAIL
  6
CONTINUOUS
 62
     5
 10
213.15182899667289
 20
194.26095603111551
 30
0.0
 11
212.54522727886479
 21
194.8675577489237
 31
0.0
  0
LINE
  8
DETAIL
  6
CONTINUOUS
 62
     5
 10
194.8675577489239
 20
212.54522727827799
 30
0.0
 11
194.26095603111531
 21
213.15182899608621
 31
0.0
  0
LINE
  8
DETAIL
  6
CONTINUOUS
 62
     5
 10
220.53553390626209
 20
226.899494936595
 30
0.0
 11
226.89949493659509
 21
220.53553390567529
 31
0.0
  0
ARC
  8
DETAIL
  6
CONTINUOUS
 62
     5
 10
0.0
 20
-74.000000000195627
 30
0.0
 40
134.29436226223081
 50
64.521035212393613
 51
115.4789647880973
  0
ARC
  8
DETAIL
  6
CONTINUOUS
 62
     5
 10
0.0
 20
-74.000000000195627
 30
0.0
 40
127.7943627252446
 50
66.412040465903715
 51
113.5879595366975
  0
ARC
  8
DETAIL
  6
CONTINUOUS
 62
     5
 10
0.0
 20
15.99999999980429
 30
0.0
 40
109.2943679688845
 50
246.2612969088041
 51
293.73870309160861
  0
ARC
  8
DETAIL
  6
CONTINUOUS
 62
     5
 10
0.0
 20
15.99999999980429
 30
0.0
 40
102.79436819765171
 50
248.055544201
 51
291.94445580169668
  0
ARC
  8
DETAIL
  6
CONTINUOUS
 62
     5
 10
-210.0
 20
-209.99999999999989
 30
0.0
 40
24.999999999804292
 50
180.0
 51
270.0
  0
ARC
  8
DETAIL
  6
CONTINUOUS
 62
     5
 10
-210.0
 20
-209.99999999999989
 30
0.0
 40
21.999999999804341
 50
180.0
 51
270.0
  0
ARC
  8
DETAIL
  6
CONTINUOUS
 62
     5
 10
-183.5482508195696
 20
-203.78270162230919
 30
0.0
 40
20.000000000195701
 50
3.2715065836001331
 51
45.000000000009223
  0
ARC
  8
DETAIL
  6
CONTINUOUS
 62
     5
 10
-203.78270162172231
 20
-183.5482508195694
 30
0.0
 40
20.00000000019573
 50
45.000000000009223
 51
86.728493416396631
  0
ARC
  8
DETAIL
  6
CONTINUOUS
 62
     5
 10
-201.3320238428571
 20
-220.2228968084149
 30
0.0
 40
9.9999999998043592
 50
7.4069492259009992
 51
45.00000000010133
  0
ARC
  8
DETAIL
  6
CONTINUOUS
 62
     5
 10
-220.22289680782799
 20
-201.3320238428571
 30
0.0
 40
9.9999999998043112
 50
44.999999999806548
 51
82.593050773997206
  0
CIRCLE
  8
DETAIL
  6
CONTINUOUS
 62
     5
 10
-196.49390334540101
 20
-196.49390334598829
 30
0.0
 40
5.000000000195711
  0
ARC
  8
DETAIL
  6
CONTINUOUS
 62
     5
 10
-201.49999999960869
 20
-143.6134380205479
 30
0.0
 40
20.000000000195602
 50
180.0
 51
266.72849341639659
  0
ARC
  8
DETAIL
  6
CONTINUOUS
 62
     5
 10
-216.9999999998042
 20
-176.54063549647751
 30
0.0
 40
14.99999999999994
 50
180.0
 51
262.59305077390508
  0
ARC
  8
DETAIL
  6
CONTINUOUS
 62
     5
 10
-143.613438019961
 20
-201.50000000019571
 30
0.0
 40
20.000000000195701
 50
183.2715065837011
 51
270.0
  0
ARC
  8
DETAIL
  6
CONTINUOUS
 62
     5
 10
-176.5406354958906
 20
-217.00000000039131
 30
0.0
 40
15.00000000000002
 50
187.40694922610129
 51
270.0
  0
ARC
  8
DETAIL
  6
CONTINUOUS
 62
     5
 10
-72.999999999804459
 20
-61.332738110371793
 30
0.0
 40
10.49999999999997
 50
314.99999999999079
 51
330.5657976168963
  0
ARC
  8
DETAIL
  6
CONTINUOUS
 62
     5
 10
-72.999999999804459
 20
-61.332738110371793
 30
0.0
 40
5.9999999999999858
 50
314.99999999999079
 51
344.4861866248973
  0
ARC
  8
DETAIL
  6
CONTINUOUS
 62
     5
 10
-36.999999999804459
 20
-37.000000000391367
 30
0.0
 40
3.0
 50
180.0
 51
270.0
  0
CIRCLE
  8
DETAIL
  6
CONTINUOUS
 62
     5
 10
-34.99999999960869
 20
-47.000000000195662
 30
0.0
 40
1.5
  0
ARC
  8
DETAIL
  6
CONTINUOUS
 62
     5
 10
-201.49999999960869
 20
143.61343801996091
 30
0.0
 40
20.000000000195701
 50
93.271506583694716
 51
180.0
  0
ARC
  8
DETAIL
  6
CONTINUOUS
 62
     5
 10
-216.9999999998042
 20
176.5406354958906
 30
0.0
 40
14.99999999999998
 50
97.406949226094923
 51
180.0
  0
ARC
  8
DETAIL
  6
CONTINUOUS
 62
     5
 10
-210.0
 20
210.00000000000011
 30
0.0
 40
24.999999999804292
 50
90.0
 51
180.0
  0
ARC
  8
DETAIL
  6
CONTINUOUS
 62
     5
 10
-210.0
 20
210.00000000000011
 30
0.0
 40
21.999999999804341
 50
90.0
 51
180.0
  0
ARC
  8
DETAIL
  6
CONTINUOUS
 62
     5
 10
-203.78270162172231
 20
183.5482508195694
 30
0.0
 40
20.000000000195701
 50
273.27150658360341
 51
314.99999999999079
  0
ARC
  8
DETAIL
  6
CONTINUOUS
 62
     5
 10
-183.5482508195696
 20
203.78270162172231
 30
0.0
 40
20.00000000019573
 50
314.99999999999079
 51
356.72849341639989
  0
ARC
  8
DETAIL
  6
CONTINUOUS
 62
     5
 10
-201.3320238428571
 20
220.22289680782799
 30
0.0
 40
9.9999999998043343
 50
314.99999999980662
 51
352.59305077400052
  0
ARC
  8
DETAIL
  6
CONTINUOUS
 62
     5
 10
-220.22289680782799
 20
201.33202384285721
 30
0.0
 40
9.9999999998043343
 50
277.40694922589768
 51
315.00000000010129
  0
CIRCLE
  8
DETAIL
  6
CONTINUOUS
 62
     5
 10
-196.49390334540101
 20
196.49390334540109
 30
0.0
 40
5.000000000195711
  0
ARC
  8
DETAIL
  6
CONTINUOUS
 62
     5
 10
-143.613438019961
 20
201.49999999960869
 30
0.0
 40
20.000000000195769
 50
90.0
 51
176.72849341639991
  0
ARC
  8
DETAIL
  6
CONTINUOUS
 62
     5
 10
-176.5406354958906
 20
216.99999999980449
 30
0.0
 40
15.00000000000006
 50
90.0
 51
172.59305077389871
  0
ARC
  8
DETAIL
  6
CONTINUOUS
 62
     5
 10
-72.999999999804459
 20
61.332738110371849
 30
0.0
 40
10.49999999999997
 50
0.0
 51
45.000000000009223
  0
ARC
  8
DETAIL
  6
CONTINUOUS
 62
     5
 10
-72.999999999804459
 20
61.332738110371849
 30
0.0
 40
5.9999999999999707
 50
0.0
 51
45.000000000009223
  0
ARC
  8
DETAIL
  6
CONTINUOUS
 62
     5
 10
-36.999999999804459
 20
27.00000000000006
 30
0.0
 40
2.9999999999999711
 50
90.0
 51
180.0
  0
CIRCLE
  8
DETAIL
  6
CONTINUOUS
 62
     5
 10
-34.99999999960869
 20
33.999999999804338
 30
0.0
 40
1.5
  0
ARC
  8
DETAIL
  6
CONTINUOUS
 62
     5
 10
0.0
 20
-97.077500000195698
 30
0.0
 40
6.5225000001956941
 50
223.89739816710619
 51
316.10260183289381
  0
CIRCLE
  8
DETAIL
  6
CONTINUOUS
 62
     5
 10
0.0
 20
-68.999999999999943
 30
0.0
 40
4.5
  0
CIRCLE
  8
DETAIL
  6
CONTINUOUS
 62
     5
 10
0.0
 20
-68.999999999999943
 30
0.0
 40
1.5
  0
CIRCLE
  8
DETAIL
  6
CONTINUOUS
 62
     5
 10
35.000000000195541
 20
-47.000000000195662
 30
0.0
 40
1.5
  0
ARC
  8
DETAIL
  6
CONTINUOUS
 62
     5
 10
73.00000000039131
 20
-61.332738110371793
 30
0.0
 40
10.49999999999998
 50
209.4342023831037
 51
225.00000000000921
  0
ARC
  8
DETAIL
  6
CONTINUOUS
 62
     5
 10
73.00000000039131
 20
-61.332738110371793
 30
0.0
 40
5.9999999999999707
 50
195.50944786930131
 51
225.00000000000921
  0
ARC
  8
DETAIL
  6
CONTINUOUS
 62
     5
 10
37.00000000039131
 20
-37.000000000391367
 30
0.0
 40
2.9999999999999751
 50
270.0
 51
0.0
  0
ARC
  8
DETAIL
  6
CONTINUOUS
 62
     5
 10
143.61343802054759
 20
-201.50000000019571
 30
0.0
 40
20.00000000019568
 50
270.0
 51
356.72849341639989
  0
ARC
  8
DETAIL
  6
CONTINUOUS
 62
     5
 10
176.54063549647751
 20
-217.00000000039131
 30
0.0
 40
15.0
 50
270.0
 51
287.32114463840293
  0
ARC
  8
DETAIL
  6
CONTINUOUS
 62
     5
 10
176.54063549647751
 20
-217.00000000039131
 30
0.0
 40
14.99999999999998
 50
323.64456208320581
 51
352.59305077389871
  0
ARC
  8
DETAIL
  6
CONTINUOUS
 62
     5
 10
178.80761184481389
 20
-191.19238815557719
 30
0.0
 40
6.2000000001957369
 50
171.8698976457994
 51
276.19415572929978
  0
ARC
  8
DETAIL
  6
CONTINUOUS
 62
     5
 10
178.80761184481389
 20
-191.19238815557719
 30
0.0
 40
5.0000000001956808
 50
178.2558977224013
 51
276.19415572929978
  0
ARC
  8
DETAIL
  6
CONTINUOUS
 62
     5
 10
175.4415668136985
 20
-177.94826035244611
 30
0.0
 40
6.5225000001957278
 50
358.8973981670992
 51
12.89540000280059
  0
ARC
  8
DETAIL
  6
CONTINUOUS
 62
     5
 10
178.80761184481389
 20
-177.05025253209391
 30
0.0
 40
4.199999999999986
 50
45.000000000009223
 51
65.884005592894525
  0
ARC
  8
DETAIL
  6
CONTINUOUS
 62
     5
 10
178.80761184481389
 20
-177.05025253209391
 30
0.0
 40
4.2000000000000064
 50
97.086167837106231
 51
121.0520008268967
  0
ARC
  8
DETAIL
  6
CONTINUOUS
 62
     5
 10
178.80761184481389
 20
-177.05025253209391
 30
0.0
 40
2.9999999999999831
 50
90.480664061302974
 51
115.35219362330081
  0
ARC
  8
DETAIL
  6
CONTINUOUS
 62
     5
 10
210.0
 20
-209.99999999999989
 30
0.0
 40
24.99999999980432
 50
270.0
 51
0.0
  0
ARC
  8
DETAIL
  6
CONTINUOUS
 62
     5
 10
210.0
 20
-209.99999999999989
 30
0.0
 40
21.99999999980432
 50
270.0
 51
0.0
  0
ARC
  8
DETAIL
  6
CONTINUOUS
 62
     5
 10
203.78270162230911
 20
-183.5482508195694
 30
0.0
 40
20.000000000195701
 50
93.271506583603397
 51
134.99999999999079
  0
ARC
  8
DETAIL
  6
CONTINUOUS
 62
     5
 10
183.54825081956909
 20
-203.78270162230919
 30
0.0
 40
20.000000000195701
 50
134.99999999999079
 51
176.72849341639991
  0
ARC
  8
DETAIL
  6
CONTINUOUS
 62
     5
 10
201.3320238434444
 20
-220.2228968084149
 30
0.0
 40
9.9999999998043005
 50
134.99999999980659
 51
172.5930507740004
  0
ARC
  8
DETAIL
  6
CONTINUOUS
 62
     5
 10
220.22289680841459
 20
-201.3320238428571
 30
0.0
 40
9.9999999998043343
 50
97.406949225897762
 51
135.00000000010141
  0
ARC
  8
DETAIL
  6
CONTINUOUS
 62
     5
 10
196.4939033459882
 20
-196.49390334598829
 30
0.0
 40
5.0000000001956959
 50
122.7841404851079
 51
159.1674616562949
  0
ARC
  8
DETAIL
  6
CONTINUOUS
 62
     5
 10
196.4939033459882
 20
-196.49390334598829
 30
0.0
 40
5.0000000001957314
 50
174.65634555829971
 51
107.2227935112
  0
ARC
  8
DETAIL
  6
CONTINUOUS
 62
     5
 10
190.82842712524459
 20
-191.89949493698629
 30
0.0
 40
4.2000000000000002
 50
276.19415572929978
 51
45.000000000009223
  0
ARC
  8
DETAIL
  6
CONTINUOUS
 62
     5
 10
190.82842712524459
 20
-191.89949493698629
 30
0.0
 40
2.9999999999999671
 50
276.19415572929978
 51
45.000000000009223
  0
ARC
  8
DETAIL
  6
CONTINUOUS
 62
     5
 10
201.50000000019551
 20
-143.6134380205479
 30
0.0
 40
20.00000000019568
 50
273.2715065836947
 51
0.0
  0
ARC
  8
DETAIL
  6
CONTINUOUS
 62
     5
 10
217.00000000039111
 20
-176.54063549647751
 30
0.0
 40
14.99999999999998
 50
277.40694922609492
 51
0.0
  0
ARC
  8
DETAIL
  6
CONTINUOUS
 62
     5
 10
0.0
 20
0.0
 30
0.0
 40
209.4999999998044
 50
45.615410251903867
 51
134.38458974809609
  0
ARC
  8
DETAIL
  6
CONTINUOUS
 62
     5
 10
0.0
 20
0.0
 30
0.0
 40
209.49999999980429
 50
315.61541025189922
 51
44.384589748100737
  0
ARC
  8
DETAIL
  6
CONTINUOUS
 62
     5
 10
0.0
 20
0.0
 30
0.0
 40
209.49999999980429
 50
314.20703697829867
 51
314.38458974809612
  0
ARC
  8
DETAIL
  6
CONTINUOUS
 62
     5
 10
0.0
 20
0.0
 30
0.0
 40
209.49999999980429
 50
225.61541025190391
 51
311.96391712239313
  0
ARC
  8
DETAIL
  6
CONTINUOUS
 62
     5
 10
0.0
 20
0.0
 30
0.0
 40
209.49999999980429
 50
135.61541025189931
 51
224.38458974810069
  0
ARC
  8
DETAIL
  6
CONTINUOUS
 62
     5
 10
73.00000000039131
 20
61.332738110371849
 30
0.0
 40
10.49999999999998
 50
134.99999999999079
 51
180.0
  0
ARC
  8
DETAIL
  6
CONTINUOUS
 62
     5
 10
0.0
 20
64.077499999608676
 30
0.0
 40
6.5225000001956994
 50
43.897398167106218
 51
136.10260183289381
  0
ARC
  8
DETAIL
  6
CONTINUOUS
 62
     5
 10
73.00000000039131
 20
61.332738110371849
 30
0.0
 40
6.0000000000000071
 50
134.99999999999079
 51
180.0
  0
ARC
  8
DETAIL
  6
CONTINUOUS
 62
     5
 10
37.00000000039131
 20
27.00000000000006
 30
0.0
 40
3.000000000000028
 50
0.0
 51
90.0
  0
CIRCLE
  8
DETAIL
  6
CONTINUOUS
 62
     5
 10
35.000000000195541
 20
33.999999999804338
 30
0.0
 40
1.5
  0
ARC
  8
DETAIL
  6
CONTINUOUS
 62
     5
 10
143.61343802054759
 20
201.49999999960869
 30
0.0
 40
20.000000000195691
 50
3.2715065837011168
 51
90.0
  0
ARC
  8
DETAIL
  6
CONTINUOUS
 62
     5
 10
176.54063549647751
 20
216.99999999980449
 30
0.0
 40
14.99999999999998
 50
7.4069492261013696
 51
90.0
  0
ARC
  8
DETAIL
  6
CONTINUOUS
 62
     5
 10
201.50000000019551
 20
143.61343801996091
 30
0.0
 40
20.00000000019573
 50
0.0
 51
86.728493416396631
  0
ARC
  8
DETAIL
  6
CONTINUOUS
 62
     5
 10
217.00000000039111
 20
176.5406354958906
 30
0.0
 40
15.00000000000003
 50
0.0
 51
82.593050773905091
  0
ARC
  8
DETAIL
  6
CONTINUOUS
 62
     5
 10
210.0
 20
210.00000000000011
 30
0.0
 40
24.999999999804309
 50
0.0
 51
90.0
  0
ARC
  8
DETAIL
  6
CONTINUOUS
 62
     5
 10
210.0
 20
210.00000000000011
 30
0.0
 40
21.999999999804331
 50
0.0
 51
90.0
  0
ARC
  8
DETAIL
  6
CONTINUOUS
 62
     5
 10
183.54825081956909
 20
203.78270162172231
 30
0.0
 40
20.000000000195691
 50
183.2715065837011
 51
225.00000000000921
  0
ARC
  8
DETAIL
  6
CONTINUOUS
 62
     5
 10
203.78270162230911
 20
183.5482508195694
 30
0.0
 40
20.000000000195701
 50
225.00000000000921
 51
266.72849341639659
  0
ARC
  8
DETAIL
  6
CONTINUOUS
 62
     5
 10
220.22289680841459
 20
201.33202384285721
 30
0.0
 40
9.9999999998043396
 50
224.99999999980659
 51
262.59305077399722
  0
ARC
  8
DETAIL
  6
CONTINUOUS
 62
     5
 10
201.3320238434444
 20
220.22289680782799
 30
0.0
 40
9.9999999998042757
 50
187.406949225901
 51
225.00000000010129
  0
CIRCLE
  8
DETAIL
  6
CONTINUOUS
 62
     5
 10
196.4939033459882
 20
196.49390334540109
 30
0.0
 40
5.0000000001956932
  0
CIRCLE
  8
DETAIL
  6
CONTINUOUS
 62
     5
 10
0.0
 20
0.0
 30
0.0
 40
174.50000000019571
  0
LINE
  8
DETAIL
  6
CONTINUOUS
 62
     5
 10
-68.100000000000136
 20
47.350731353424749
 30
0.0
 11
-68.100000000000136
 21
-59.928932188062618
 31
0.0
  0
LINE
  8
DETAIL
  6
CONTINUOUS
 62
     5
 10
-66.459797974168396
 20
-63.88873016301369
 30
0.0
 11
-57.371607523092052
 21
-72.976920614089977
 31
0.0
  0
LINE
  8
DETAIL
  6
CONTINUOUS
 62
     5
 10
-56.232803724657508
 20
-74.94938665303323
 30
0.0
 11
-53.708274399217323
 21
-84.371058361643804
 31
0.0
  0
LINE
  8
DETAIL
  6
CONTINUOUS
 62
     5
 10
57.371607523678897
 20
-72.976920614089977
 30
0.0
 11
66.459797974755475
 21
-63.88873016301369
 31
0.0
  0
LINE
  8
DETAIL
  6
CONTINUOUS
 62
     5
 10
68.099999999999909
 20
-59.928932188062618
 30
0.0
 11
68.099999999999909
 21
47.350731353424749
 31
0.0
  0
LINE
  8
DETAIL
  6
CONTINUOUS
 62
     5
 10
53.708274399804168
 20
-84.371058361643804
 30
0.0
 11
56.232803725244587
 21
-74.94938665303323
 31
0.0
  0
CIRCLE
  8
DETAIL
  6
CONTINUOUS
 62
     5
 10
-216.9999999998042
 20
-217.00000000039131
 30
0.0
 40
5.000000000195711
  0
CIRCLE
  8
DETAIL
  6
CONTINUOUS
 62
     5
 10
-205.99999999960869
 20
-146.00000000019571
 30
0.0
 40
6.5000000001957119
  0
ARC
  8
DETAIL
  6
CONTINUOUS
 62
     5
 10
-44.435386466536329
 20
-81.886395528375687
 30
0.0
 40
9.6000000000000245
 50
195.00000000000159
 51
245.58439593139261
  0
ARC
  8
DETAIL
  6
CONTINUOUS
 62
     5
 10
-62.499999999804459
 20
-59.928932188062618
 30
0.0
 40
5.6000000001957044
 50
180.0
 51
225.00000000000921
  0
ARC
  8
DETAIL
  6
CONTINUOUS
 62
     5
 10
-60.482877360469729
 20
-76.088190451467682
 30
0.0
 40
4.4000000001956678
 50
15.000000000001579
 51
45.000000000009223
  0
CIRCLE
  8
DETAIL
  6
CONTINUOUS
 62
     5
 10
-216.9999999998042
 20
216.99999999980449
 30
0.0
 40
5.000000000195711
  0
CIRCLE
  8
DETAIL
  6
CONTINUOUS
 62
     5
 10
-145.99999999960869
 20
205.99999999960869
 30
0.0
 40
6.5000000001957119
  0
ARC
  8
DETAIL
  6
CONTINUOUS
 62
     5
 10
-62.499999999804459
 20
47.350731353424749
 30
0.0
 40
5.6000000001957044
 50
117.25009942839451
 51
180.0
  0
ARC
  8
DETAIL
  6
CONTINUOUS
 62
     5
 10
0.0
 20
-74.000000000195627
 30
0.0
 40
142.10000000019571
 50
62.749900571605501
 51
117.25009942839451
  0
ARC
  8
DETAIL
  6
CONTINUOUS
 62
     5
 10
44.43538646712318
 20
-81.886395528375687
 30
0.0
 40
9.6000000000000121
 50
294.41560406860742
 51
344.99999999999841
  0
ARC
  8
DETAIL
  6
CONTINUOUS
 62
     5
 10
60.48287736105658
 20
-76.088190451467682
 30
0.0
 40
4.4000000001956767
 50
134.99999999999079
 51
164.99999999999841
  0
ARC
  8
DETAIL
  6
CONTINUOUS
 62
     5
 10
62.50000000039131
 20
-59.928932188062618
 30
0.0
 40
5.6000000001956911
 50
314.99999999999079
 51
0.0
  0
CIRCLE
  8
DETAIL
  6
CONTINUOUS
 62
     5
 10
146.00000000019551
 20
-206.00000000019571
 30
0.0
 40
6.5000000001956968
  0
CIRCLE
  8
DETAIL
  6
CONTINUOUS
 62
     5
 10
217.00000000039111
 20
-217.00000000039131
 30
0.0
 40
5.0000000001956932
  0
ARC
  8
DETAIL
  6
CONTINUOUS
 62
     5
 10
0.0
 20
0.0
 30
0.0
 40
177.50000000019571
 50
314.07824335019677
 51
314.27367602079761
  0
ARC
  8
DETAIL
  6
CONTINUOUS
 62
     5
 10
0.0
 20
0.0
 30
0.0
 40
177.50000000019551
 50
225.7263239792025
 51
311.42729165830872
  0
ARC
  8
DETAIL
  6
CONTINUOUS
 62
     5
 10
0.0
 20
0.0
 30
0.0
 40
177.50000000019571
 50
315.72632397919779
 51
44.273676020802149
  0
ARC
  8
DETAIL
  6
CONTINUOUS
 62
     5
 10
0.0
 20
0.0
 30
0.0
 40
177.50000000019571
 50
45.726323979202448
 51
134.27367602079761
  0
ARC
  8
DETAIL
  6
CONTINUOUS
 62
     5
 10
0.0
 20
0.0
 30
0.0
 40
177.50000000019551
 50
135.72632397919779
 51
224.27367602080221
  0
ARC
  8
DETAIL
  6
CONTINUOUS
 62
     5
 10
0.0
 20
15.99999999980429
 30
0.0
 40
117.0999999998043
 50
245.58439593139261
 51
294.41560406860742
  0
ARC
  8
DETAIL
  6
CONTINUOUS
 62
     5
 10
62.50000000039131
 20
47.350731353424749
 30
0.0
 40
5.6000000001956911
 50
0.0
 51
62.749900571605501
  0
CIRCLE
  8
DETAIL
  6
CONTINUOUS
 62
     5
 10
206.00000000019551
 20
145.99999999960869
 30
0.0
 40
6.5000000001956932
  0
CIRCLE
  8
DETAIL
  6
CONTINUOUS
 62
     5
 10
217.00000000039111
 20
216.99999999980449
 30
0.0
 40
5.0000000001956932
  0
LINE
  8
DETAIL
  6
CONTINUOUS
 62
     5
 10
-194.26651698434441
 20
198.72128970587099
 30
0.0
 11
-198.72128970587079
 21
194.2665169849316
 31
0.0
  0
LINE
  8
DETAIL
  6
CONTINUOUS
 62
     5
 10
-198.72128970587079
 20
-194.26651698493151
 30
0.0
 11
-194.26651698434441
 21
-198.7212897064579
 31
0.0
  0
LINE
  8
DETAIL
  6
CONTINUOUS
 62
     5
 10
198.72128970645781
 20
198.72128970587099
 30
0.0
 11
194.26651698493151
 21
194.2665169849316
 31
0.0
  0
LINE
  8
DETAIL
  6
CONTINUOUS
 62
     5
 10
-194.26651698434441
 20
-194.26651698493151
 30
0.0
 11
-198.72128970587079
 21
-198.7212897064579
 31
0.0
  0
LINE
  8
DETAIL
  6
CONTINUOUS
 62
     5
 10
-198.72128970587079
 20
198.72128970587099
 30
0.0
 11
-194.26651698434441
 21
194.2665169849316
 31
0.0
  0
LINE
  8
DETAIL
  6
CONTINUOUS
 62
     5
 10
194.28210662289621
 20
-194.2821066223091
 30
0.0
 11
198.72128970645781
 21
-198.7212897064579
 31
0.0
  0
LINE
  8
DETAIL
  6
CONTINUOUS
 62
     5
 10
198.72128970645781
 20
-194.26651698493151
 30
0.0
 11
194.26651698493151
 21
-198.7212897064579
 31
0.0
  0
LINE
  8
DETAIL
  6
CONTINUOUS
 62
     5
 10
194.26651698493151
 20
198.72128970587099
 30
0.0
 11
198.72128970645781
 21
194.2665169849316
 31
0.0
  0
LINE
  8
NOTE
  6
CONTINUOUS
 62
     4
 10
193.51663405127181
 20
-217.00000000039131
 30
0.0
 11
240.4833659495107
 21
-217.00000000039131
 31
0.0
  0
LINE
  8
NOTE
  6
CONTINUOUS
 62
     4
 10
217.00000000039111
 20
-193.51663405127201
 30
0.0
 11
217.00000000039111
 21
-240.4833659495107
 31
0.0
  0
LINE
  8
NOTE
  6
CONTINUOUS
 62
     4
 10
-216.9999999998042
 20
-193.51663405127201
 30
0.0
 11
-216.9999999998042
 21
-240.4833659495107
 31
0.0
  0
LINE
  8
NOTE
  6
CONTINUOUS
 62
     4
 10
-193.51663405068479
 20
-217.00000000039131
 30
0.0
 11
-240.48336594892359
 21
-217.00000000039131
 31
0.0
  0
LINE
  8
NOTE
  6
CONTINUOUS
 62
     4
 10
-216.9999999998042
 20
193.5166340506851
 30
0.0
 11
-216.9999999998042
 21
240.4833659489237
 31
0.0
  0
LINE
  8
NOTE
  6
CONTINUOUS
 62
     4
 10
-193.51663405068479
 20
216.99999999980449
 30
0.0
 11
-240.48336594892359
 21
216.99999999980449
 31
0.0
  0
LINE
  8
NOTE
  6
CONTINUOUS
 62
     4
 10
193.51663405127181
 20
216.99999999980449
 30
0.0
 11
240.4833659495107
 21
216.99999999980449
 31
0.0
  0
LINE
  8
NOTE
  6
CONTINUOUS
 62
     4
 10
217.00000000039111
 20
193.5166340506851
 30
0.0
 11
217.00000000039111
 21
240.4833659489237
 31
0.0
  0
LINE
  8
BASIS
  6
DASHDOT
 62
     6
 10
-251.83561643835631
 20
0.0
 30
0.0
 11
251.8356164383558
 21
0.0
 31
0.0
  0
LINE
  8
BASIS
  6
DASHDOT
 62
     6
 10
0.0
 20
-259.37377690802339
 30
0.0
 11
0.0
 21
259.37377690802361
 31
0.0
  0
LINE
  8
SIZE
  6
CONTINUOUS
 62
    30
 10
553.99393970435221
 20
172.76965065315269
 30
0.0
 11
211.4556883878065
 21
65.944991078566147
 31
0.0
  0
LINE
  8
SIZE
  6
CONTINUOUS
 62
    30
 10
-211.4556883878065
 20
-65.944991078566147
 30
0.0
 11
-222.91152703636601
 21
-69.517631678762541
 31
0.0
  0
TEXT
  8
SIZE
  6
CONTINUOUS
 62
    30
 10
331.01206186192741
 20
129.41759890700479
 30
0.0
 40
64.0
  1
φ419
 50
17.32071538602435
 41
0.9
 72
     1
 11
433.65637615302012
 21
161.42845868476419
 31
0.0
  0
LINE
  8
SIZE
  6
CONTINUOUS
 62
    30
 10
-199.999849739247
 20
-62.372350478369754
 30
0.0
 11
199.999849739247
 21
62.372350478369754
 31
0.0
  0
CIRCLE
  8
SIZE
  6
CONTINUOUS
 62
    30
 10
-199.999849739247
 20
-62.372350478369754
 30
0.0
 40
6.0
  0
LINE
  8
SIZE
  6
CONTINUOUS
 62
    30
 10
-199.999849739247
 20
-62.372350478369754
 30
0.0
 11
-211.45568838780639
 21
-65.944991078566147
 31
0.0
  0
CIRCLE
  8
SIZE
  6
CONTINUOUS
 62
    30
 10
199.999849739247
 20
62.372350478369754
 30
0.0
 40
6.0
  0
LINE
  8
SIZE
  6
CONTINUOUS
 62
    30
 10
199.999849739247
 20
62.372350478369754
 30
0.0
 11
211.45568838780639
 21
65.944991078566147
 31
0.0
  0
POINT
  8
DEFPOINTS
  6
CONTINUOUS
 62
    30
 10
199.999849739247
 20
62.372350478369754
 30
0.0
  0
POINT
  8
DEFPOINTS
  6
CONTINUOUS
 62
    30
 10
-199.999849739247
 20
-62.372350478369754
 30
0.0
  0
LINE
  8
SIZE
  6
CONTINUOUS
 62
    30
 10
556.11009529987587
 20
-80.78364392102219
 30
0.0
 11
187.53167527095681
 21
-27.241893659262811
 31
0.0
  0
LINE
  8
SIZE
  6
CONTINUOUS
 62
    30
 10
-187.53167527095701
 20
27.241893659262811
 30
0.0
 11
-199.4070320163348
 21
28.966973996523048
 31
0.0
  0
TEXT
  8
SIZE
  6
CONTINUOUS
 62
    30
 10
325.41453394642451
 20
-22.00912524766084
 30
0.0
 40
64.0
  1
φ356
 50
351.73471123378607
 41
0.9
 72
     1
 11
437.24646489718538
 21
-38.25445322368887
 31
0.0
  0
LINE
  8
SIZE
  6
CONTINUOUS
 62
    30
 10
-175.65631852557851
 20
25.51681332200258
 30
0.0
 11
175.65631852557851
 21
-25.51681332200258
 31
0.0
  0
CIRCLE
  8
SIZE
  6
CONTINUOUS
 62
    30
 10
-175.65631852557851
 20
25.51681332200258
 30
0.0
 40
6.0
  0
LINE
  8
SIZE
  6
CONTINUOUS
 62
    30
 10
-175.65631852557851
 20
25.51681332200258
 30
0.0
 11
-187.53167527095681
 21
27.241893659262871
 31
0.0
  0
CIRCLE
  8
SIZE
  6
CONTINUOUS
 62
    30
 10
175.65631852557851
 20
-25.51681332200258
 30
0.0
 40
6.0
  0
LINE
  8
SIZE
  6
CONTINUOUS
 62
    30
 10
175.65631852557851
 20
-25.51681332200258
 30
0.0
 11
187.5316752709567
 21
-27.241893659262811
 31
0.0
  0
POINT
  8
DEFPOINTS
  6
CONTINUOUS
 62
    30
 10
175.65631852557851
 20
-25.51681332200258
 30
0.0
  0
POINT
  8
DEFPOINTS
  6
CONTINUOUS
 62
    30
 10
-175.65631852557851
 20
25.51681332200258
 30
0.0
  0
LINE
  8
SIZE
  6
CONTINUOUS
 62
    30
 10
536.97462767673255
 20
-268.27757705085418
 30
0.0
 11
166.83672886225901
 21
-83.353199714312268
 31
0.0
  0
LINE
  8
SIZE
  6
CONTINUOUS
 62
    30
 10
-166.83672886225909
 20
83.353199714312268
 30
0.0
 11
-177.5715317917228
 21
88.716408275013066
 31
0.0
  0
TEXT
  8
SIZE
  6
CONTINUOUS
 62
    30
 10
333.90687142735487
 20
-138.87653095374199
 30
0.0
 40
64.0
  1
φ350
 50
333.45285493543849
 41
0.9
 72
     1
 11
436.22487877790172
 21
-189.99557026373591
 31
0.0
  0
LINE
  8
SIZE
  6
CONTINUOUS
 62
    30
 10
-156.10192593279521
 20
77.98999115361147
 30
0.0
 11
156.10192593279521
 21
-77.98999115361147
 31
0.0
  0
CIRCLE
  8
SIZE
  6
CONTINUOUS
 62
    30
 10
-156.10192593279521
 20
77.98999115361147
 30
0.0
 40
6.0
  0
LINE
  8
SIZE
  6
CONTINUOUS
 62
    30
 10
-156.10192593279521
 20
77.98999115361147
 30
0.0
 11
-166.83672886225901
 21
83.353199714312268
 31
0.0
  0
CIRCLE
  8
SIZE
  6
CONTINUOUS
 62
    30
 10
156.10192593279521
 20
-77.98999115361147
 30
0.0
 40
6.0
  0
LINE
  8
SIZE
  6
CONTINUOUS
 62
    30
 10
156.10192593279521
 20
-77.98999115361147
 30
0.0
 11
166.83672886225881
 21
-83.353199714312268
 31
0.0
  0
POINT
  8
DEFPOINTS
  6
CONTINUOUS
 62
    30
 10
156.10192593279521
 20
-77.98999115361147
 30
0.0
  0
POINT
  8
DEFPOINTS
  6
CONTINUOUS
 62
    30
 10
-156.10192593279521
 20
77.98999115361147
 30
0.0
  0
LINE
  8
NOTE
  6
CONTINUOUS
 62
     4
 10
180.44013063969589
 20
-191.62335618445411
 30
0.0
 11
178.0598902959193
 21
-185.88583448986699
 31
0.0
  0
LINE
  8
NOTE
  6
CONTINUOUS
 62
     4
 10
178.0598902959193
 20
-185.88583448986699
 30
0.0
 11
182.99000544234781
 21
-189.66454643085359
 31
0.0
  0
LINE
  8
NOTE
  6
CONTINUOUS
 62
     4
 10
178.0598902959193
 20
-185.88583448986699
 30
0.0
 11
185.3702457861244
 21
-195.40206812544079
 31
0.0
  0
LINE
  8
NOTE
  6
CONTINUOUS
 62
     4
 10
185.3702457861244
 20
-195.40206812544079
 30
0.0
 11
270.01692418995248
 21
-305.59063135541982
 31
0.0
  0
LINE
  8
NOTE
  6
CONTINUOUS
 62
     4
 10
270.01692418995248
 20
-305.59063135541982
 30
0.0
 11
369.86363218165178
 21
-305.50325494378751
 31
0.0
  0
LINE
  8
NOTE
  6
CONTINUOUS
 62
     4
 10
-220.02217284903401
 20
222.87329287441719
 30
0.0
 11
-217.25877420940171
 21
217.31017079697901
 31
0.0
  0
LINE
  8
NOTE
  6
CONTINUOUS
 62
     4
 10
-217.25877420940171
 20
217.31017079697901
 30
0.0
 11
-222.43351384883789
 21
220.74626872254089
 31
0.0
  0
LINE
  8
NOTE
  6
CONTINUOUS
 62
     4
 10
-217.25877420940171
 20
217.31017079697901
 30
0.0
 11
-225.19691248846999
 21
226.3093907999789
 31
0.0
  0
LINE
  8
NOTE
  6
CONTINUOUS
 62
     4
 10
-225.19691248846999
 20
226.3093907999789
 30
0.0
 11
-273.3623670889034
 21
280.91306577459449
 31
0.0
  0
LINE
  8
NOTE
  6
CONTINUOUS
 62
     4
 10
-273.3623670889034
 20
280.91306577459449
 30
0.0
 11
-571.23092933393696
 21
281.07452062377502
 31
0.0
  0
TEXT
  8
ETC
  6
CONTINUOUS
 62
    61
 10
298.59671553099628
 20
277.14795551583211
 30
0.0
 40
40.0
  1
EWF-35CSA2
 41
0.9
  0
LINE
  8
DETAIL
  6
CONTINUOUS
 62
     5
 10
183.1348284960097
 20
-323.40793598185019
 30
0.0
 11
180.18040523734069
 21
-322.88699144910061
 31
0.0
  0
LINE
  8
DETAIL
  6
CONTINUOUS
 62
     5
 10
188.95555823681519
 20
-293.73396473894309
 30
0.0
 11
194.18787999128111
 21
-323.40793598185019
 31
0.0
  0
LINE
  8
DETAIL
  6
CONTINUOUS
 62
     5
 10
192.00183807254211
 20
-293.73396473894309
 30
0.0
 11
197.14230325047561
 21
-322.88699144910061
 31
0.0
  0
LINE
  8
DETAIL
  6
CONTINUOUS
 62
     5
 10
192.99340524361651
 20
-293.73396473894309
 30
0.0
 11
184.3293032436452
 21
-293.73396473894292
 31
0.0
  0
LINE
  8
DETAIL
  6
CONTINUOUS
 62
     5
 10
185.32087041527419
 20
-293.73396473894309
 30
0.0
 11
180.18040523734069
 21
-322.88699144910061
 31
0.0
  0
LINE
  8
DETAIL
  6
CONTINUOUS
 62
     5
 10
194.18787999128111
 20
-323.40793598185019
 30
0.0
 11
197.14230325047561
 21
-322.88699144910061
 31
0.0
  0
LINE
  8
DETAIL
  6
CONTINUOUS
 62
     5
 10
188.36715025100099
 20
-293.73396473894309
 30
0.0
 11
183.1348284960097
 21
-323.40793598185019
 31
0.0
  0
ARC
  8
DETAIL
  6
CONTINUOUS
 62
     5
 10
-49.508350201657322
 20
39.151413299566123
 30
0.0
 40
4.2870413918992076
 50
112.3382066190136
 51
181.24975100831011
  0
ARC
  8
DETAIL
  6
CONTINUOUS
 62
     5
 10
49.510866261296997
 20
39.153060140122591
 30
0.0
 40
4.2845621875543527
 50
358.72749783667467
 51
67.684544627980841
  0
ARC
  8
DETAIL
  6
CONTINUOUS
 62
     5
 10
15.194601159249491
 20
104.20156742265679
 30
0.0
 40
104.7540155363741
 50
300.33428071395087
 51
6.5164069733548224
  0
ARC
  8
DETAIL
  6
CONTINUOUS
 62
     5
 10
15.194601159249491
 20
104.20156742265679
 30
0.0
 40
104.7540155363741
 50
9.5963761582979199
 51
12.4772634107896
  0
ARC
  8
DETAIL
  6
CONTINUOUS
 62
     5
 10
3.108236630122065
 20
-6.5829803792029793
 30
0.0
 40
175.72623664640651
 50
49.396488604026437
 51
114.1131560117133
  0
ARC
  8
DETAIL
  6
CONTINUOUS
 62
     5
 10
-63.770409268893218
 20
141.064571295821
 30
0.0
 40
13.658890180400631
 50
111.0793317071452
 51
129.84097287302569
  0
ARC
  8
DETAIL
  6
CONTINUOUS
 62
     5
 10
-69.831486463217971
 20
148.1147619067801
 30
0.0
 40
4.3646434255853439
 50
128.0411612113634
 51
249.50978149841521
  0
ARC
  8
DETAIL
  6
CONTINUOUS
 62
     5
 10
-97.836761224552447
 20
-37.517102158466287
 30
0.0
 40
103.7670988512117
 50
65.638265825929111
 51
70.090273672924368
  0
ARC
  8
DETAIL
  6
CONTINUOUS
 62
     5
 10
-97.836761224554721
 20
-37.517102158472078
 30
0.0
 40
103.7670988512179
 50
72.714693671501138
 51
132.61496106511461
  0
ARC
  8
DETAIL
  6
CONTINUOUS
 62
     5
 10
0.376737262687584
 20
4.8268332276829824
 30
0.0
 40
171.8715490472141
 50
168.5834353851487
 51
225.29892649327081
  0
ARC
  8
DETAIL
  6
CONTINUOUS
 62
     5
 10
61.9395651724044
 20
79.996958908251713
 30
0.0
 40
269.28986245392309
 50
228.19708911311301
 51
234.18453782996119
  0
ARC
  8
DETAIL
  6
CONTINUOUS
 62
     5
 10
-93.455679760505973
 20
-134.48864343320591
 30
0.0
 40
4.4565878738419258
 50
240.6131744266936
 51
8.7315141075344016
  0
ARC
  8
DETAIL
  6
CONTINUOUS
 62
     5
 10
34.060205221538808
 20
-89.212153401559135
 30
0.0
 40
130.94067966297911
 50
184.7114813576265
 51
199.91416162245449
  0
ARC
  8
DETAIL
  6
CONTINUOUS
 62
     5
 10
4.4198842502403286
 20
-176.72761120179021
 30
0.0
 40
116.8355524995348
 50
48.976861869482569
 51
62.905212253179528
  0
ARC
  8
DETAIL
  6
CONTINUOUS
 62
     5
 10
4.0840849478177006
 20
-176.95738368883841
 30
0.0
 40
109.0131401247879
 50
49.22326173677633
 51
62.29774571355717
  0
ARC
  8
DETAIL
  6
CONTINUOUS
 62
     5
 10
-843.98731338648633
 20
-1125.152168184251
 30
0.0
 40
1389.607360154492
 50
42.737482815116181
 51
47.838969247735498
  0
ARC
  8
DETAIL
  6
CONTINUOUS
 62
     5
 10
-840.87549725657595
 20
-1122.1886969552879
 30
0.0
 40
1377.1122242802271
 50
42.793000025807054
 51
47.869119568108488
  0
ARC
  8
DETAIL
  6
CONTINUOUS
 62
     5
 10
-1529.007338386597
 20
-435.25357899781642
 30
0.0
 40
1722.1344513008059
 50
5.7348044616165561
 51
7.9532063489323956
  0
ARC
  8
DETAIL
  6
CONTINUOUS
 62
     5
 10
230.82311719868741
 20
-186.30805594460699
 30
0.0
 40
55.239349982747889
 50
186.51026639514731
 51
189.62521587859391
  0
ARC
  8
DETAIL
  6
CONTINUOUS
 62
     5
 10
-792.98832915421758
 20
-340.30743470404087
 30
0.0
 40
988.28220105483877
 50
4.2553070681435381
 51
8.350743364900227
  0
ARC
  8
DETAIL
  6
CONTINUOUS
 62
     5
 10
159.2155595384526
 20
-197.77625519103111
 30
0.0
 40
25.526937299594881
 50
4.9243221561602182
 51
22.29856340125243
  0
ARC
  8
DETAIL
  6
CONTINUOUS
 62
     5
 10
1258.2199837094779
 20
-282.49621744962877
 30
0.0
 40
1073.949477655028
 50
179.17914424001799
 51
180.5995507749536
  0
ARC
  8
DETAIL
  6
CONTINUOUS
 62
     5
 10
-70901.153700437164
 20
-694.49671619911101
 30
0.0
 40
71095.276660739837
 50
0.3229769533256026
 51
0.340492590328855
  0
ARC
  8
DETAIL
  6
CONTINUOUS
 62
     5
 10
185.31783113944309
 20
-271.89676391623681
 30
0.0
 40
8.7635634876917941
 50
34.159426697604367
 51
165.74312279254889
  0
ARC
  8
DETAIL
  6
CONTINUOUS
 62
     5
 10
195.02403835344529
 20
-264.9805150701286
 30
0.0
 40
3.1633751284616012
 50
219.11085947181149
 51
341.70157333625627
  0
ARC
  8
DETAIL
  6
CONTINUOUS
 62
     5
 10
184.2420406263395
 20
-273.47702229287421
 30
0.0
 40
6.3482745695569243
 50
36.924415413005789
 51
169.13209275437461
  0
ARC
  8
DETAIL
  6
CONTINUOUS
 62
     5
 10
193.9515300200371
 20
-266.39650297809612
 30
0.0
 40
5.6701006438488681
 50
215.1789144604046
 51
338.05809422285512
  0
ARC
  8
DETAIL
  6
CONTINUOUS
 62
     5
 10
56.001377233445957
 20
43.32096448556274
 30
0.0
 40
4.2938512758555607
 50
358.85544147436718
 51
65.665595937305824
  0
ARC
  8
DETAIL
  6
CONTINUOUS
 62
     5
 10
-56.000824990107283
 20
43.320615904743143
 30
0.0
 40
4.2943964606393559
 50
114.33920109702299
 51
181.13976151694251
  0
ARC
  8
DETAIL
  6
CONTINUOUS
 62
     5
 10
-49.430123599499673
 20
-54.515212125110281
 30
0.0
 40
4.3643303006093088
 50
179.64856022788419
 51
225.35143976940259
  0
ARC
  8
DETAIL
  6
CONTINUOUS
 62
     5
 10
-52.096714332828917
 20
-71.246436969908473
 30
0.0
 40
9.3520922254419432
 50
14.902681869270721
 51
45.097318131780668
  0
ARC
  8
DETAIL
  6
CONTINUOUS
 62
     5
 10
-36.834918549842541
 20
-75.3049843610778
 30
0.0
 40
4.3394852247172953
 50
194.40930047180061
 51
248.64624490093601
  0
ARC
  8
DETAIL
  6
CONTINUOUS
 62
     5
 10
-55.918640860979387
 20
-57.202843974439467
 30
0.0
 40
4.3757863107983326
 50
179.7117595310763
 51
225.28824046665139
  0
ARC
  8
DETAIL
  6
CONTINUOUS
 62
     5
 10
-57.984215145745338
 20
-74.645587148413199
 30
0.0
 40
9.4187328329106368
 50
15.012015062240399
 51
44.987984934310873
  0
ARC
  8
DETAIL
  6
CONTINUOUS
 62
     5
 10
-42.286653193470102
 20
-80.054133908530503
 30
0.0
 40
4.3443033150309436
 50
194.46364198719689
 51
246.7976563183563
  0
ARC
  8
DETAIL
  6
CONTINUOUS
 62
     5
 10
49.430123596076783
 20
-54.51521212426735
 30
0.0
 40
4.3643303040270114
 50
314.64856026026359
 51
0.3514397607686544
  0
ARC
  8
DETAIL
  6
CONTINUOUS
 62
     5
 10
52.096714332828917
 20
-71.246436969908473
 30
0.0
 40
9.3520922254419432
 50
134.9026818682193
 51
165.09731813072929
  0
ARC
  8
DETAIL
  6
CONTINUOUS
 62
     5
 10
36.834918549842541
 20
-75.3049843610778
 30
0.0
 40
4.3394852247172953
 50
291.35375509906402
 51
345.59069952819942
  0
ARC
  8
DETAIL
  6
CONTINUOUS
 62
     5
 10
55.918640860979387
 20
-57.202843974439467
 30
0.0
 40
4.3757863107983326
 50
314.71175953334858
 51
0.288240468923701
  0
ARC
  8
DETAIL
  6
CONTINUOUS
 62
     5
 10
57.984170796693661
 20
-74.641450147462933
 30
0.0
 40
9.417619267093329
 50
136.13363297853999
 51
165.01222513534091
  0
ARC
  8
DETAIL
  6
CONTINUOUS
 62
     5
 10
42.286653193470102
 20
-80.054133908530503
 30
0.0
 40
4.3443033150309436
 50
293.20234368164358
 51
345.53635801280308
  0
ARC
  8
DETAIL
  6
CONTINUOUS
 62
     5
 10
88.626594535901404
 20
-57.86287488526068
 30
0.0
 40
113.5508393070829
 50
201.71416927453441
 51
250.89773083919621
  0
ARC
  8
DETAIL
  6
CONTINUOUS
 62
     5
 10
-12.414928214849169
 20
12.45515179997108
 30
0.0
 40
188.7548226333866
 50
289.78160859178138
 51
311.56827420813181
  0
ARC
  8
DETAIL
  6
CONTINUOUS
 62
     5
 10
-11.543851428489919
 20
1.191272952502118
 30
0.0
 40
179.9881833414598
 50
318.04798348031011
 51
354.81443118632728
  0
ARC
  8
DETAIL
  6
CONTINUOUS
 62
     5
 10
163.25094191225
 20
-13.85785962580383
 30
0.0
 40
4.6203080870866557
 50
344.7085079787991
 51
127.94236324386701
  0
LINE
  8
DETAIL
  6
CONTINUOUS
 62
     5
 10
175.93997508727989
 20
-192.57116208258319
 30
0.0
 11
172.04880969041099
 21
-189.22504165538149
 31
0.0
  0
ARC
  8
DETAIL
  6
CONTINUOUS
 62
     5
 10
178.49662848726851
 20
-188.96113383659309
 30
0.0
 40
4.4234715660787236
 50
234.66739654687251
 51
84.448047379116915
  0
ARC
  8
DETAIL
  6
CONTINUOUS
 62
     5
 10
-10.714148587429349
 20
-83.113639112024828
 30
0.0
 40
86.748367796986699
 50
131.41596257051521
 51
186.96936489239511
  0
ARC
  8
DETAIL
  6
CONTINUOUS
 62
     5
 10
-81.787562382195688
 20
41.056675452816187
 30
0.0
 40
103.49629844237811
 50
14.455848578629929
 51
84.217087876051963
  0
ARC
  8
DETAIL
  6
CONTINUOUS
 62
     5
 10
64.45381256668577
 20
68.192538642838258
 30
0.0
 40
123.9161405676446
 50
271.68615087783098
 51
320.74744220739751
  0
ARC
  8
DETAIL
  6
CONTINUOUS
 62
     5
 10
-181.99821433091969
 20
181.7563384075149
 30
0.0
 40
12.840450230945139
 50
35.682356083111578
 51
144.31764391688839
  0
ARC
  8
DETAIL
  6
CONTINUOUS
 62
     5
 10
-182.0040867564046
 20
-181.77633557264551
 30
0.0
 40
12.820494490742639
 50
216.25747846771401
 51
321.73106988919449
  0
ARC
  8
DETAIL
  6
CONTINUOUS
 62
     5
 10
-181.8713192829691
 20
-182.4523832845635
 30
0.0
 40
13.067507936906511
 50
56.74903308892506
 51
143.81992382951631
  0
ARC
  8
DETAIL
  6
CONTINUOUS
 62
     5
 10
181.99821433150689
 20
181.75385299493371
 30
0.0
 40
12.8419001086846
 50
35.691363258301948
 51
144.3086367417026
  0
ARC
  8
DETAIL
  6
CONTINUOUS
 62
     5
 10
181.93428264079421
 20
182.35339039241731
 30
0.0
 40
12.958582165073681
 50
236.33232910347331
 51
324.07561833674299
  0
ARC
  8
DETAIL
  6
CONTINUOUS
 62
     5
 10
-181.9421705894716
 20
182.31932966286959
 30
0.0
 40
12.93223092842949
 50
215.82268424249989
 51
303.59776854772213
  0
ENDSEC
  0
EOF
