  0
SECTION
  2
HEADER
  9
$ACADVER
  1
AC1009
  9
$DWGCODEPAGE
  3
dos932
  9
$INSBASE
 10
0.0
 20
0.0
 30
0.0
  9
$EXTMIN
 10
-592.3141313510896
 20
-350.87584267705279
 30
-0.0015257624927045
  9
$EXTMAX
 10
1248.0743526458659
 20
688.93433430806544
 30
0.0022888765696933
  9
$LIMMIN
 10
-2970.0
 20
-2100.0
  9
$LIMMAX
 10
2970.0
 20
2100.0
  9
$ORTHOMODE
 70
     1
  9
$REGENMODE
 70
     1
  9
$FILLMODE
 70
     1
  9
$QTEXTMODE
 70
     0
  9
$MIRRTEXT
 70
     0
  9
$LTSCALE
 40
20.0
  9
$ATTMODE
 70
     1
  9
$TEXTSIZE
 40
64.0
  9
$TRACEWID
 40
0.05
  9
$TEXTSTYLE
  7
STANDARD
  9
$CLAYER
  8
SIZE
  9
$CELTYPE
  6
CONTINUOUS
  9
$CECOLOR
 62
     7
  9
$DIMSCALE
 40
1.0
  9
$DIMASZ
 40
12.0
  9
$DIMEXO
 40
20.0
  9
$DIMDLI
 40
200.0
  9
$DIMRND
 40
0.0
  9
$DIMDLE
 40
0.0
  9
$DIMEXE
 40
20.0
  9
$DIMTP
 40
0.0
  9
$DIMTM
 40
0.0
  9
$DIMTXT
 40
64.0
  9
$DIMCEN
 40
0.09
  9
$DIMTSZ
 40
0.0
  9
$DIMTOL
 70
     0
  9
$DIMLIM
 70
     0
  9
$DIMTIH
 70
     0
  9
$DIMTOH
 70
     0
  9
$DIMSE1
 70
     0
  9
$DIMSE2
 70
     0
  9
$DIMTAD
 70
     1
  9
$DIMZIN
 70
     8
  9
$DIMBLK
  1

  9
$DIMASO
 70
     1
  9
$DIMSHO
 70
     0
  9
$DIMPOST
  1

  9
$DIMAPOST
  1

  9
$DIMALT
 70
     0
  9
$DIMALTD
 70
     2
  9
$DIMALTF
 40
25.399999999999999
  9
$DIMLFAC
 40
1.0
  9
$DIMTOFL
 70
     1
  9
$DIMTVP
 40
0.0
  9
$DIMTIX
 70
     1
  9
$DIMSOXD
 70
     0
  9
$DIMSAH
 70
     0
  9
$DIMBLK1
  1

  9
$DIMBLK2
  1

  9
$DIMSTYLE
  2
STANDARD
  9
$DIMCLRD
 70
     7
  9
$DIMCLRE
 70
     7
  9
$DIMCLRT
 70
     7
  9
$DIMTFAC
 40
1.0
  9
$DIMGAP
 40
25.0
  9
$LUNITS
 70
     2
  9
$LUPREC
 70
     4
  9
$SKETCHINC
 40
0.1
  9
$FILLETRAD
 40
3.0
  9
$AUNITS
 70
     1
  9
$AUPREC
 70
     3
  9
$MENU
  1
ACAD
  9
$ELEVATION
 40
0.0
  9
$PELEVATION
 40
0.0
  9
$THICKNESS
 40
50.0
  9
$LIMCHECK
 70
     0
  9
$CHAMFERA
 40
0.0
  9
$CHAMFERB
 40
0.0
  9
$SKPOLY
 70
     0
  9
$TDCREATE
 40
2453019.62301037
  9
$TDUPDATE
 40
2458949.443550185
  9
$TDINDWG
 40
1.7158145949
  9
$TDUSRTIMER
 40
1.7158145949
  9
$USRTIMER
 70
     1
  9
$ANGBASE
 50
0.0
  9
$ANGDIR
 70
     0
  9
$PDMODE
 70
     3
  9
$PDSIZE
 40
-2.0
  9
$PLINEWID
 40
0.0
  9
$SPLFRAME
 70
     0
  9
$SPLINETYPE
 70
     6
  9
$SPLINESEGS
 70
     8
  9
$SURFTAB1
 70
     6
  9
$SURFTAB2
 70
     6
  9
$SURFTYPE
 70
     6
  9
$SURFU
 70
     6
  9
$SURFV
 70
     6
  9
$UCSNAME
  2

  9
$UCSORG
 10
0.0
 20
0.0
 30
0.0
  9
$UCSXDIR
 10
1.0
 20
0.0
 30
0.0
  9
$UCSYDIR
 10
0.0
 20
1.0
 30
0.0
  9
$PUCSNAME
  2

  9
$PUCSORG
 10
0.0
 20
0.0
 30
0.0
  9
$PUCSXDIR
 10
1.0
 20
0.0
 30
0.0
  9
$PUCSYDIR
 10
0.0
 20
1.0
 30
0.0
  9
$USERI1
 70
     0
  9
$USERI2
 70
     0
  9
$USERI3
 70
     0
  9
$USERI4
 70
     0
  9
$USERI5
 70
     0
  9
$USERR1
 40
20.0
  9
$USERR2
 40
0.0
  9
$USERR3
 40
0.0
  9
$USERR4
 40
0.0
  9
$USERR5
 40
0.0
  9
$WORLDVIEW
 70
     1
  9
$SHADEDGE
 70
     3
  9
$SHADEDIF
 70
    70
  9
$TILEMODE
 70
     1
  9
$MAXACTVP
 70
    48
  9
$PINSBASE
 10
0.0
 20
0.0
 30
0.0
  9
$PLIMCHECK
 70
     0
  9
$PEXTMIN
 10
-100000000000000000000.0
 20
-100000000000000000000.0
 30
-100000000000000000000.0
  9
$PEXTMAX
 10
100000000000000000000.0
 20
100000000000000000000.0
 30
100000000000000000000.0
  9
$PLIMMIN
 10
0.0
 20
0.0
  9
$PLIMMAX
 10
12.0
 20
9.0
  9
$UNITMODE
 70
     0
  9
$VISRETAIN
 70
     0
  9
$PLINEGEN
 70
     0
  9
$PSLTSCALE
 70
     0
  9
$TREEDEPTH
 70
  3020
  9
$ATTDIA
 70
     0
  9
$ATTREQ
 70
     1
  9
$BLIPMODE
 70
     1
  9
$COORDS
 70
     1
  9
$DRAGMODE
 70
     2
  9
$OSMODE
 70
     0
  9
$HANDLING
 70
     0
  9
$HANDSEED
  5
10E3B
  0
ENDSEC
  0
SECTION
  2
TABLES
  0
TABLE
  2
LTYPE
 70
     2
  0
LTYPE
  2
CONTINUOUS
 70
     0
  3
実線
 72
    65
 73
     0
 40
0.0
  0
LTYPE
  2
DASHDOT
 70
     0
  3
____ _ ____ _ ____ _ ____ _ ____ _ ____ _ ____
 72
    65
 73
     4
 40
5.5
 49
4.0
 49
-0.6
 49
0.3
 49
-0.6
  0
ENDTAB
  0
TABLE
  2
LAYER
 70
    12
  0
LAYER
  2
0
 70
     0
 62
     7
  6
CONTINUOUS
  0
LAYER
  2
BASIS
 70
     0
 62
     6
  6
DASHDOT
  0
LAYER
  2
OUTLINE
 70
     0
 62
     3
  6
CONTINUOUS
  0
LAYER
  2
DETAIL
 70
     0
 62
     5
  6
CONTINUOUS
  0
LAYER
  2
SIZE
 70
     0
 62
    30
  6
CONTINUOUS
  0
LAYER
  2
ARRANGE
 70
     0
 62
     1
  6
CONTINUOUS
  0
LAYER
  2
DEFPOINTS
 70
     0
 62
     7
  6
CONTINUOUS
  0
LAYER
  2
ETC
 70
     0
 62
    61
  6
CONTINUOUS
  0
LAYER
  2
FIX
 70
     0
 62
    11
  6
CONTINUOUS
  0
LAYER
  2
NOTE
 70
     0
 62
     4
  6
CONTINUOUS
  0
LAYER
  2
SERVICESPACE
 70
    64
 62
     2
  6
DASHDOT
  0
LAYER
  2
SYMBOLLINE
 70
    64
 62
    15
  6
CONTINUOUS
  0
ENDTAB
  0
TABLE
  2
STYLE
 70
     1
  0
STYLE
  2
STANDARD
 70
     0
 40
64.0
 41
0.9
 50
0.0
 71
     0
 42
64.0
  3
SIMPLEX.shx
  4
BIGFONT.shx
  0
ENDTAB
  0
TABLE
  2
APPID
 70
    19
  0
APPID
  2
ACAD
 70
     0
  0
APPID
  2
AUTOCAD_POSTSCRIPT_FIGURE
 70
     0
  0
APPID
  2
ACAD_EXEMPT_FROM_CAD_STANDARDS
 70
     0
  0
APPID
  2
ACAD_PSEXT
 70
     0
  0
APPID
  2
ACAUTHENVIRON
 70
     0
  0
APPID
  2
GENIUS_GENOENT_13
 70
     0
  0
APPID
  2
GENIUS_GENCFG_13
 70
     0
  0
APPID
  2
GENIUS_GENCFG0_13
 70
     0
  0
APPID
  2
GENIUS_GENCFG1_13
 70
     0
  0
APPID
  2
GENIUS_GENCFG2_13
 70
     0
  0
APPID
  2
GENIUS_GENCFG3_13
 70
     0
  0
APPID
  2
GENIUS_GENCFG4_13
 70
     0
  0
APPID
  2
GENIUS_GEVCFG0_13
 70
     0
  0
APPID
  2
CONTENTBLOCKICON
 70
     0
  0
APPID
  2
CONTENTBLOCKDESCRIPTION
 70
     0
  0
APPID
  2
ACAD_NAV_VCDISPLAY
 70
     0
  0
APPID
  2
ACAD_MLEADERVER
 70
     0
  0
APPID
  2
ACDBDYNAMICBLOCKTRUENAME
 70
     0
  0
APPID
  2
ACDBDYNAMICBLOCKGUID
 70
     0
  0
ENDTAB
  0
TABLE
  2
DIMSTYLE
 70
     1
  0
DIMSTYLE
  2
STANDARD
 70
     0
  3

  4

  5
_ORIGIN
  6

  7

 40
1.0
 41
12.0
 42
20.0
 43
200.0
 44
20.0
 45
0.0
 46
0.0
 47
0.0
 48
0.0
140
64.0
141
0.09
142
0.0
143
25.399999999999999
144
1.0
145
0.0
146
1.0
147
25.0
 71
     0
 72
     0
 73
     0
 74
     0
 75
     0
 76
     0
 77
     1
 78
     8
170
     0
171
     2
172
     1
173
     0
174
     1
175
     0
176
     7
177
     7
178
     7
  0
ENDTAB
  0
TABLE
  2
VIEW
 70
     1
  0
VIEW
  2
ALL
 70
     0
 40
4282.6198079999986
 10
0.0
 20
41.309904000000003
 41
5940.0
 11
0.0
 21
0.0
 31
1.0
 12
0.0
 22
0.0
 32
0.0
 42
50.0
 43
0.0
 44
0.0
 50
0.0
 71
     0
  0
ENDTAB
  0
TABLE
  2
UCS
 70
     0
  0
ENDTAB
  0
TABLE
  2
VPORT
 70
     1
  0
VPORT
  2
*ACTIVE
 70
     0
 10
0.0
 20
0.0
 11
1.0
 21
1.0
 12
327.88011064738839
 22
169.02924581550641
 13
0.0
 23
0.0
 14
1.0
 24
1.0
 15
0.0
 25
0.0
 16
0.0
 26
0.0
 36
1.0
 17
0.0
 27
0.0
 37
0.0
 40
1056.976012045465
 41
1.747787610619469
 42
50.0
 43
0.0
 44
0.0
 50
0.0
 51
0.0
 71
     0
 72
  1000
 73
     1
 74
     3
 75
     0
 76
     0
 77
     0
 78
     0
  0
ENDTAB
  0
ENDSEC
  0
SECTION
  2
BLOCKS
  0
BLOCK
  8
0
  2
_ORIGIN
 70
     0
 10
0.0
 20
0.0
 30
0.0
  3
_ORIGIN
  1
_ORIGIN
  0
CIRCLE
  8
0
  6
CONTINUOUS
 62
     7
 10
0.0
 20
0.0
 30
0.0
 40
0.5
  0
LINE
  8
0
  6
CONTINUOUS
 62
     7
 10
0.0
 20
0.0
 30
0.0
 11
-1.0
 21
0.0
 31
0.0
  0
ENDBLK
  8
0
  0
ENDSEC
  0
SECTION
  2
ENTITIES
  0
TEXT
  8
ETC
  6
CONTINUOUS
 62
    61
 10
326.28785804585442
 20
624.70590174295694
 30
0.0
 40
64.0
  1
EWF-40DTA40A2-Q_3
 41
0.9
  0
TEXT
  8
ETC
  6
CONTINUOUS
 62
    61
 10
322.10186404585397
 20
506.75059172812553
 30
0.0
 40
64.0
  1
産業扇
 41
0.9
  0
CIRCLE
  8
ARRANGE
  6
CONTINUOUS
 62
     1
 10
0.0
 20
0.0
 30
0.0
 40
40.0
  0
POINT
  8
ARRANGE
  6
CONTINUOUS
 62
     1
 10
0.0
 20
0.0
 30
0.0
  0
TEXT
  8
ETC
  6
CONTINUOUS
 62
    61
 10
372.80326229441039
 20
398.60181884190018
 30
0.0
 40
40.0
  1
EWF-40DTA40A2-Q
 41
0.9
  0
TEXT
  8
ETC
  6
CONTINUOUS
 62
    61
 10
372.80326229441039
 20
332.60181884190018
 30
0.0
 40
40.0
  1
EWF-40DTA2-Q
 41
0.9
  0
TEXT
  8
NOTE
  6
CONTINUOUS
 62
     4
 10
-584.75386857812714
 20
341.4146752520096
 30
0.0
 40
64.0
  1
4-φ14
 41
0.9
  0
LINE
  8
SIZE
  6
CONTINUOUS
 62
    30
 10
-260.00000000000023
 20
239.9229287090559
 30
0.0
 11
-260.00000000000023
 21
440.65973468702208
 31
0.0
  0
LINE
  8
SIZE
  6
CONTINUOUS
 62
    30
 10
259.99999999999977
 20
239.9229287090559
 30
0.0
 11
259.99999999999977
 21
440.65973468702208
 31
0.0
  0
LINE
  8
SIZE
  6
CONTINUOUS
 62
    30
 10
-248.0000000000002
 20
420.65973468702208
 30
0.0
 11
247.9999999999998
 21
420.65973468702208
 31
0.0
  0
CIRCLE
  8
SIZE
  6
CONTINUOUS
 62
    30
 10
-260.00000000000023
 20
420.65973468702208
 30
0.0
 40
6.0
  0
LINE
  8
SIZE
  6
CONTINUOUS
 62
    30
 10
-260.00000000000023
 20
420.65973468702208
 30
0.0
 11
-248.0000000000002
 21
420.65973468702208
 31
0.0
  0
CIRCLE
  8
SIZE
  6
CONTINUOUS
 62
    30
 10
259.99999999999977
 20
420.65973468702208
 30
0.0
 40
6.0
  0
LINE
  8
SIZE
  6
CONTINUOUS
 62
    30
 10
259.99999999999977
 20
420.65973468702208
 30
0.0
 11
247.9999999999998
 21
420.65973468702208
 31
0.0
  0
TEXT
  8
SIZE
  6
CONTINUOUS
 62
    30
 10
-89.211639272292956
 20
445.65973468702208
 30
0.0
 40
64.0
  1
520
 41
0.9
 72
     1
 11
-15.15449641515011
 21
445.65973468702208
 31
0.0
  0
POINT
  8
DEFPOINTS
  6
CONTINUOUS
 62
    30
 10
-260.00000000000023
 20
219.9229287090559
 30
0.0
  0
POINT
  8
DEFPOINTS
  6
CONTINUOUS
 62
    30
 10
259.99999999999977
 20
219.9229287090559
 30
0.0
  0
POINT
  8
DEFPOINTS
  6
CONTINUOUS
 62
    30
 10
259.99999999999977
 20
420.65973468702208
 30
0.0
  0
LINE
  8
SIZE
  6
CONTINUOUS
 62
    30
 10
-230.44315992292849
 20
262.45664739884393
 30
0.0
 11
-230.44315992292849
 21
327.36477584917338
 31
0.0
  0
LINE
  8
SIZE
  6
CONTINUOUS
 62
    30
 10
230.44315992292849
 20
262.4566473988441
 30
0.0
 11
230.44315992292849
 21
327.36477584917338
 31
0.0
  0
LINE
  8
SIZE
  6
CONTINUOUS
 62
    30
 10
-218.44315992292849
 20
307.36477584917338
 30
0.0
 11
218.44315992292849
 21
307.36477584917338
 31
0.0
  0
CIRCLE
  8
SIZE
  6
CONTINUOUS
 62
    30
 10
-230.44315992292849
 20
307.36477584917338
 30
0.0
 40
6.0
  0
LINE
  8
SIZE
  6
CONTINUOUS
 62
    30
 10
-230.44315992292849
 20
307.36477584917338
 30
0.0
 11
-218.44315992292849
 21
307.36477584917338
 31
0.0
  0
CIRCLE
  8
SIZE
  6
CONTINUOUS
 62
    30
 10
230.44315992292849
 20
307.36477584917338
 30
0.0
 40
6.0
  0
LINE
  8
SIZE
  6
CONTINUOUS
 62
    30
 10
230.44315992292849
 20
307.36477584917338
 30
0.0
 11
218.44315992292849
 21
307.36477584917338
 31
0.0
  0
TEXT
  8
SIZE
  6
CONTINUOUS
 62
    30
 10
-98.968181766151389
 20
332.36477584917338
 30
0.0
 40
64.0
  1
460
 41
0.9
 72
     1
 11
-24.911038909008539
 21
332.36477584917338
 31
0.0
  0
POINT
  8
DEFPOINTS
  6
CONTINUOUS
 62
    30
 10
-230.44315992292849
 20
242.4566473988439
 30
0.0
  0
POINT
  8
DEFPOINTS
  6
CONTINUOUS
 62
    30
 10
230.44315992292849
 20
242.4566473988441
 30
0.0
  0
POINT
  8
DEFPOINTS
  6
CONTINUOUS
 62
    30
 10
230.44315992292849
 20
307.36477584917338
 30
0.0
  0
LINE
  8
SIZE
  6
CONTINUOUS
 62
    30
 10
-239.9229287090559
 20
260.0
 30
0.0
 11
-462.1765630780535
 21
260.0
 31
0.0
  0
LINE
  8
SIZE
  6
CONTINUOUS
 62
    30
 10
-239.9229287090559
 20
-260.0
 30
0.0
 11
-462.17656307805368
 21
-259.99999999999989
 31
0.0
  0
LINE
  8
SIZE
  6
CONTINUOUS
 62
    30
 10
-442.1765630780535
 20
248.0
 30
0.0
 11
-442.1765630780535
 21
-248.0
 31
0.0
  0
CIRCLE
  8
SIZE
  6
CONTINUOUS
 62
    30
 10
-442.1765630780535
 20
260.0
 30
0.0
 40
6.0
  0
LINE
  8
SIZE
  6
CONTINUOUS
 62
    30
 10
-442.1765630780535
 20
260.0
 30
0.0
 11
-442.1765630780535
 21
248.0
 31
0.0
  0
CIRCLE
  8
SIZE
  6
CONTINUOUS
 62
    30
 10
-442.1765630780535
 20
-259.99999999999989
 30
0.0
 40
6.0
  0
LINE
  8
SIZE
  6
CONTINUOUS
 62
    30
 10
-442.1765630780535
 20
-259.99999999999989
 30
0.0
 11
-442.1765630780535
 21
-247.99999999999989
 31
0.0
  0
TEXT
  8
SIZE
  6
CONTINUOUS
 62
    30
 10
-467.1765630780535
 20
-80.859766315696021
 30
0.0
 40
64.0
  1
520
 50
90.0
 41
0.9
 72
     1
 11
-467.1765630780535
 21
-6.8026234585531711
 31
0.0
  0
POINT
  8
DEFPOINTS
  6
CONTINUOUS
 62
    30
 10
-219.9229287090557
 20
260.0
 30
0.0
  0
POINT
  8
DEFPOINTS
  6
CONTINUOUS
 62
    30
 10
-219.9229287090557
 20
-260.0
 30
0.0
  0
POINT
  8
DEFPOINTS
  6
CONTINUOUS
 62
    30
 10
-442.1765630780535
 20
-259.99999999999989
 30
0.0
  0
LINE
  8
SIZE
  6
CONTINUOUS
 62
    30
 10
-262.45664739884359
 20
230.4431599229288
 30
0.0
 11
-345.4215995432512
 21
230.4431599229288
 31
0.0
  0
LINE
  8
SIZE
  6
CONTINUOUS
 62
    30
 10
-262.45664739884359
 20
-230.4431599229288
 30
0.0
 11
-345.4215995432512
 21
-230.44315992292869
 31
0.0
  0
LINE
  8
SIZE
  6
CONTINUOUS
 62
    30
 10
-325.4215995432512
 20
218.4431599229288
 30
0.0
 11
-325.42159954325138
 21
-218.44315992292869
 31
0.0
  0
CIRCLE
  8
SIZE
  6
CONTINUOUS
 62
    30
 10
-325.4215995432512
 20
230.4431599229288
 30
0.0
 40
6.0
  0
LINE
  8
SIZE
  6
CONTINUOUS
 62
    30
 10
-325.4215995432512
 20
230.4431599229288
 30
0.0
 11
-325.4215995432512
 21
218.4431599229288
 31
0.0
  0
CIRCLE
  8
SIZE
  6
CONTINUOUS
 62
    30
 10
-325.42159954325138
 20
-230.44315992292869
 30
0.0
 40
6.0
  0
LINE
  8
SIZE
  6
CONTINUOUS
 62
    30
 10
-325.42159954325138
 20
-230.44315992292869
 30
0.0
 11
-325.42159954325138
 21
-218.44315992292869
 31
0.0
  0
TEXT
  8
SIZE
  6
CONTINUOUS
 62
    30
 10
-350.4215995432512
 20
-74.05714285714285
 30
0.0
 40
64.0
  1
460
 50
90.0
 41
0.9
 72
     1
 11
-350.4215995432512
 21
0.0
 31
0.0
  0
POINT
  8
DEFPOINTS
  6
CONTINUOUS
 62
    30
 10
-242.45664739884359
 20
230.4431599229288
 30
0.0
  0
POINT
  8
DEFPOINTS
  6
CONTINUOUS
 62
    30
 10
-242.45664739884359
 20
-230.4431599229288
 30
0.0
  0
POINT
  8
DEFPOINTS
  6
CONTINUOUS
 62
    30
 10
-325.42159954325138
 20
-230.44315992292869
 30
0.0
  0
CIRCLE
  8
FIX
  6
CONTINUOUS
 62
    11
 10
230.44315992292849
 20
-230.4431599229288
 30
0.0
 40
7.0
  0
CIRCLE
  8
FIX
  6
CONTINUOUS
 62
    11
 10
230.44315992292849
 20
230.4431599229288
 30
0.0
 40
7.0
  0
CIRCLE
  8
FIX
  6
CONTINUOUS
 62
    11
 10
-230.44315992292849
 20
230.4431599229288
 30
0.0
 40
7.0
  0
CIRCLE
  8
FIX
  6
CONTINUOUS
 62
    11
 10
-230.44315992292849
 20
-230.4431599229288
 30
0.0
 40
7.0
  0
LINE
  8
NOTE
  6
CONTINUOUS
 62
     4
 10
242.4566473988441
 20
-230.4431599229288
 30
0.0
 11
218.42967244701299
 21
-230.4431599229288
 31
0.0
  0
LINE
  8
NOTE
  6
CONTINUOUS
 62
     4
 10
230.44315992292849
 20
-218.4296724470133
 30
0.0
 11
230.44315992292849
 21
-242.45664739884401
 31
0.0
  0
LINE
  8
NOTE
  6
CONTINUOUS
 62
     4
 10
-218.42967244701339
 20
-230.4431599229288
 30
0.0
 11
-242.45664739884359
 21
-230.4431599229288
 31
0.0
  0
LINE
  8
NOTE
  6
CONTINUOUS
 62
     4
 10
-230.44315992292849
 20
-218.4296724470133
 30
0.0
 11
-230.44315992292849
 21
-242.4566473988439
 31
0.0
  0
LINE
  8
NOTE
  6
CONTINUOUS
 62
     4
 10
-218.42967244701339
 20
230.4431599229288
 30
0.0
 11
-242.45664739884359
 21
230.4431599229288
 31
0.0
  0
LINE
  8
NOTE
  6
CONTINUOUS
 62
     4
 10
-230.44315992292849
 20
242.4566473988439
 30
0.0
 11
-230.44315992292849
 21
218.42967244701319
 31
0.0
  0
LINE
  8
NOTE
  6
CONTINUOUS
 62
     4
 10
242.4566473988441
 20
230.4431599229288
 30
0.0
 11
218.42967244701299
 21
230.4431599229288
 31
0.0
  0
LINE
  8
NOTE
  6
CONTINUOUS
 62
     4
 10
230.44315992292849
 20
242.4566473988441
 30
0.0
 11
230.44315992292849
 21
218.42967244701319
 31
0.0
  0
LINE
  8
SIZE
  6
CONTINUOUS
 62
    30
 10
543.05580550528089
 20
-161.63281378222169
 30
0.0
 11
206.32110406233571
 21
-61.408533440170693
 31
0.0
  0
LINE
  8
SIZE
  6
CONTINUOUS
 62
    30
 10
-206.32110406233619
 20
61.408533440170693
 30
0.0
 11
-217.82247652906381
 21
64.831752887065022
 31
0.0
  0
TEXT
  8
SIZE
  6
CONTINUOUS
 62
    30
 10
323.27638760583562
 20
-70.134761664976168
 30
0.0
 40
64.0
  1
φ406
 50
343.42511393285571
 41
0.9
 72
     1
 11
431.58645517822077
 21
-102.37170822773
 31
0.0
  0
LINE
  8
SIZE
  6
CONTINUOUS
 62
    30
 10
-194.81973159560809
 20
57.98531399327635
 30
0.0
 11
194.81973159560789
 21
-57.985313993276243
 31
0.0
  0
CIRCLE
  8
SIZE
  6
CONTINUOUS
 62
    30
 10
-194.81973159560809
 20
57.98531399327635
 30
0.0
 40
6.0
  0
LINE
  8
SIZE
  6
CONTINUOUS
 62
    30
 10
-194.81973159560809
 20
57.98531399327635
 30
0.0
 11
-206.32110406233619
 21
61.408533440170693
 31
0.0
  0
CIRCLE
  8
SIZE
  6
CONTINUOUS
 62
    30
 10
194.81973159560789
 20
-57.985313993276243
 30
0.0
 40
6.0
  0
LINE
  8
SIZE
  6
CONTINUOUS
 62
    30
 10
194.81973159560789
 20
-57.985313993276243
 30
0.0
 11
206.32110406233571
 21
-61.408533440170693
 31
0.0
  0
POINT
  8
DEFPOINTS
  6
CONTINUOUS
 62
    30
 10
194.81973159560789
 20
-57.985313993276243
 30
0.0
  0
POINT
  8
DEFPOINTS
  6
CONTINUOUS
 62
    30
 10
-194.81973159560809
 20
57.98531399327635
 30
0.0
  0
LINE
  8
NOTE
  6
CONTINUOUS
 62
     4
 10
-232.93589822195619
 20
236.43437048474789
 30
0.0
 11
-230.62897568197491
 21
230.66697872724399
 31
0.0
  0
LINE
  8
NOTE
  6
CONTINUOUS
 62
     4
 10
-230.62897568197491
 20
230.66697872724399
 30
0.0
 11
-235.51053087345051
 21
234.50821787660399
 31
0.0
  0
LINE
  8
NOTE
  6
CONTINUOUS
 62
     4
 10
-230.62897568197491
 20
230.66697872724399
 30
0.0
 11
-237.81745341343179
 21
240.27560963410821
 31
0.0
  0
LINE
  8
NOTE
  6
CONTINUOUS
 62
     4
 10
-237.81745341343179
 20
240.27560963410789
 30
0.0
 11
-294.00875693697873
 21
315.38490480109681
 31
0.0
  0
LINE
  8
NOTE
  6
CONTINUOUS
 62
     4
 10
-294.00875693697873
 20
315.38490480109681
 30
0.0
 11
-591.87731918201257
 21
315.54635965027728
 31
0.0
  0
LINE
  8
OUTLINE
  6
CONTINUOUS
 62
     3
 10
219.92292870905541
 20
-260.0
 30
0.0
 11
-219.92292870905641
 21
-260.0
 31
0.0
  0
ARC
  8
OUTLINE
  6
CONTINUOUS
 62
     3
 10
219.92292870905541
 20
-219.9229287090559
 30
0.0
 40
40.077071290944097
 50
270.0
 51
0.0
  0
LINE
  8
OUTLINE
  6
CONTINUOUS
 62
     3
 10
259.99999999999892
 20
219.92292870905609
 30
0.0
 11
259.99999999999892
 21
-219.9229287090559
 31
0.0
  0
ARC
  8
OUTLINE
  6
CONTINUOUS
 62
     3
 10
219.92292870905541
 20
219.92292870905609
 30
0.0
 40
40.077071290943422
 50
0.0
 51
90.0
  0
LINE
  8
OUTLINE
  6
CONTINUOUS
 62
     3
 10
-219.92292870905641
 20
260.0
 30
0.0
 11
219.92292870905541
 21
260.0
 31
0.0
  0
ARC
  8
OUTLINE
  6
CONTINUOUS
 62
     3
 10
-219.92292870905641
 20
219.92292870905609
 30
0.0
 40
40.077071290944097
 50
90.0
 51
180.0
  0
LINE
  8
OUTLINE
  6
CONTINUOUS
 62
     3
 10
-260.00000000000023
 20
-219.9229287090559
 30
0.0
 11
-260.00000000000023
 21
219.92292870905609
 31
0.0
  0
ARC
  8
OUTLINE
  6
CONTINUOUS
 62
     3
 10
-219.92292870905641
 20
-219.9229287090559
 30
0.0
 40
40.077071290943877
 50
180.0
 51
270.0
  0
LINE
  8
DETAIL
  6
CONTINUOUS
 62
     5
 10
-202.74022423361609
 20
211.95390233821291
 30
0.0
 11
-211.95390233821291
 21
202.7402242329656
 31
0.0
  0
LINE
  8
DETAIL
  6
CONTINUOUS
 62
     5
 10
-211.31449092880939
 20
185.92647213522511
 30
0.0
 11
-216.32412484017729
 21
183.0341586484499
 31
0.0
  0
LINE
  8
DETAIL
  6
CONTINUOUS
 62
     5
 10
-211.31449092880939
 20
174.3572181861723
 30
0.0
 11
-206.30485701744121
 21
177.24953167359811
 31
0.0
  0
LINE
  8
DETAIL
  6
CONTINUOUS
 62
     5
 10
-195.8101583045318
 20
156.53867673107609
 30
0.0
 11
-156.53867673107629
 21
195.81015830388131
 31
0.0
  0
LINE
  8
DETAIL
  6
CONTINUOUS
 62
     5
 10
-259.99999999999977
 20
-219.9229287090559
 30
0.0
 11
-259.99999999999977
 21
219.92292870905609
 31
0.0
  0
LINE
  8
DETAIL
  6
CONTINUOUS
 62
     5
 10
-256.39306358381509
 20
177.8653894225661
 30
0.0
 11
-256.39306358381509
 21
-177.86538942321641
 31
0.0
  0
LINE
  8
DETAIL
  6
CONTINUOUS
 62
     5
 10
-246.37379576107901
 20
-121.0368035909717
 30
0.0
 11
-246.37379576107901
 21
121.0368035909717
 31
0.0
  0
LINE
  8
DETAIL
  6
CONTINUOUS
 62
     5
 10
-185.15147907239179
 20
-214.20680441623489
 30
0.0
 11
-180.14184516102429
 21
-217.0991179036607
 31
0.0
  0
LINE
  8
DETAIL
  6
CONTINUOUS
 62
     5
 10
-211.95390233821291
 20
-202.74022423361609
 30
0.0
 11
-202.74022423361609
 21
-211.95390233821291
 31
0.0
  0
LINE
  8
DETAIL
  6
CONTINUOUS
 62
     5
 10
-216.32412484017729
 20
183.0341586484499
 30
0.0
 11
-216.32412484017729
 21
177.24953167359811
 31
0.0
  0
LINE
  8
DETAIL
  6
CONTINUOUS
 62
     5
 10
219.9229287090559
 20
-260.0
 30
0.0
 11
-219.92292870905609
 21
-260.0
 31
0.0
  0
LINE
  8
DETAIL
  6
CONTINUOUS
 62
     5
 10
-177.86538942256581
 20
-256.39306358381492
 30
0.0
 11
177.86538942321661
 21
-256.39306358381492
 31
0.0
  0
LINE
  8
DETAIL
  6
CONTINUOUS
 62
     5
 10
-175.13221124965591
 20
-208.4221774420337
 30
0.0
 11
-180.14184516102429
 21
-205.52986395460789
 31
0.0
  0
LINE
  8
DETAIL
  6
CONTINUOUS
 62
     5
 10
-156.53867673107629
 20
-195.8101583045316
 30
0.0
 11
-195.8101583045318
 21
-156.53867673172681
 31
0.0
  0
LINE
  8
DETAIL
  6
CONTINUOUS
 62
     5
 10
-206.30485701744121
 20
177.24953167359811
 30
0.0
 11
-206.30485701744121
 21
183.0341586484499
 31
0.0
  0
LINE
  8
DETAIL
  6
CONTINUOUS
 62
     5
 10
-192.2931350873059
 20
241.9653179190752
 30
0.0
 11
-192.2931350873059
 21
237.17540664084279
 31
0.0
  0
LINE
  8
DETAIL
  6
CONTINUOUS
 62
     5
 10
-192.2931350873059
 20
-237.17540664149331
 30
0.0
 11
-192.2931350873059
 21
-241.9653179190752
 31
0.0
  0
LINE
  8
DETAIL
  6
CONTINUOUS
 62
     5
 10
-185.15147907239179
 20
-208.4221774420337
 30
0.0
 11
-185.15147907239179
 21
-214.20680441623489
 31
0.0
  0
LINE
  8
DETAIL
  6
CONTINUOUS
 62
     5
 10
121.0368035909717
 20
-246.37379576107901
 30
0.0
 11
-121.0368035909719
 21
-246.37379576107901
 31
0.0
  0
LINE
  8
DETAIL
  6
CONTINUOUS
 62
     5
 10
-175.13221124965591
 20
-214.20680441623489
 30
0.0
 11
-175.13221124965591
 21
-208.4221774420337
 31
0.0
  0
LINE
  8
DETAIL
  6
CONTINUOUS
 62
     5
 10
-150.49345098981581
 20
-216.91714836223511
 30
0.0
 11
-150.49345098981581
 21
-210.40462427745661
 31
0.0
  0
LINE
  8
DETAIL
  6
CONTINUOUS
 62
     5
 10
-150.49345098981581
 20
210.40462427745661
 30
0.0
 11
-150.49345098981581
 21
216.91714836223511
 31
0.0
  0
LINE
  8
DETAIL
  6
CONTINUOUS
 62
     5
 10
180.14184516102389
 20
217.09911790301041
 30
0.0
 11
175.13221124965591
 21
214.2068044162352
 31
0.0
  0
LINE
  8
DETAIL
  6
CONTINUOUS
 62
     5
 10
-241.96531791907501
 20
-192.2931350879561
 30
0.0
 11
-237.17540664084299
 21
-192.2931350879561
 31
0.0
  0
LINE
  8
DETAIL
  6
CONTINUOUS
 62
     5
 10
237.17540664149331
 20
-192.2931350879561
 30
0.0
 11
241.9653179190752
 21
-192.2931350879561
 31
0.0
  0
LINE
  8
DETAIL
  6
CONTINUOUS
 62
     5
 10
180.14184516102389
 20
205.5298639539574
 30
0.0
 11
185.1514790723916
 21
208.42217744138341
 31
0.0
  0
LINE
  8
DETAIL
  6
CONTINUOUS
 62
     5
 10
216.91714836223471
 20
-150.4934509898155
 30
0.0
 11
210.40462427745641
 21
-150.4934509898155
 31
0.0
  0
LINE
  8
DETAIL
  6
CONTINUOUS
 62
     5
 10
-210.40462427745661
 20
-150.4934509898155
 30
0.0
 11
-216.91714836223511
 21
-150.4934509898155
 31
0.0
  0
LINE
  8
DETAIL
  6
CONTINUOUS
 62
     5
 10
-93.402545953406616
 20
-113.31047325170771
 30
0.0
 11
-101.7624538526138
 21
-104.9505653518504
 31
0.0
  0
LINE
  8
DETAIL
  6
CONTINUOUS
 62
     5
 10
-99.637046186672478
 20
-106.65089148512359
 30
0.0
 11
-99.991280797988338
 21
-106.2966568738082
 31
0.0
  0
LINE
  8
DETAIL
  6
CONTINUOUS
 62
     5
 10
-98.43264850937112
 20
-103.32108614123059
 30
0.0
 11
-98.574342354027522
 21
-103.17939229722489
 31
0.0
  0
LINE
  8
DETAIL
  6
CONTINUOUS
 62
     5
 10
-102.4709230745939
 20
-99.282811576007816
 30
0.0
 11
-104.8088715071942
 21
-96.944863143407702
 31
0.0
  0
LINE
  8
DETAIL
  6
CONTINUOUS
 62
     5
 10
-96.307240843430236
 20
-101.1956784752895
 30
0.0
 11
-96.448934688086183
 21
-101.0539846312838
 31
0.0
  0
LINE
  8
DETAIL
  6
CONTINUOUS
 62
     5
 10
-100.345515408653
 20
-97.157403910066705
 30
0.0
 11
-102.6834638412531
 21
-94.81945547746659
 31
0.0
  0
LINE
  8
DETAIL
  6
CONTINUOUS
 62
     5
 10
-92.977435500187767
 20
-99.991280797988111
 30
0.0
 11
-93.331670110852883
 21
-99.637046187323222
 31
0.0
  0
LINE
  8
DETAIL
  6
CONTINUOUS
 62
     5
 10
-86.772002159597378
 20
-105.7716326052598
 30
0.0
 11
-94.677761632810643
 21
-97.865873132047
 31
0.0
  0
LINE
  8
DETAIL
  6
CONTINUOUS
 62
     5
 10
-81.757225433525946
 20
-63.992564463578901
 30
0.0
 11
-81.757225433525946
 21
23.939240874639609
 31
0.0
  0
LINE
  8
DETAIL
  6
CONTINUOUS
 62
     5
 10
-81.156069364161795
 20
-63.992564463578901
 30
0.0
 11
-81.156069364161795
 21
23.87442519891238
 31
0.0
  0
LINE
  8
DETAIL
  6
CONTINUOUS
 62
     5
 10
-80.154142581888436
 20
-74.475961112528921
 30
0.0
 11
-80.154142581888209
 21
23.758707974110621
 31
0.0
  0
LINE
  8
DETAIL
  6
CONTINUOUS
 62
     5
 10
-1.594055749618065
 20
65.034075271576285
 30
0.0
 11
1.5940557971118781
 21
68.222186818306909
 31
0.0
  0
LINE
  8
DETAIL
  6
CONTINUOUS
 62
     5
 10
-75.645472061657074
 20
-72.777007617992695
 30
0.0
 11
-75.645472061657074
 21
23.118144089379481
 31
0.0
  0
LINE
  8
DETAIL
  6
CONTINUOUS
 62
     5
 10
-51.120910391762663
 20
-44.799352472987493
 30
0.0
 11
-51.120910391762663
 21
-46.471938823511657
 31
0.0
  0
LINE
  8
DETAIL
  6
CONTINUOUS
 62
     5
 10
47.113203262667639
 20
51.740904842029067
 30
0.0
 11
43.105496133573752
 21
49.427054052348467
 31
0.0
  0
LINE
  8
DETAIL
  6
CONTINUOUS
 62
     5
 10
47.113203262667639
 20
42.48550168330712
 30
0.0
 11
51.120910391762663
 21
44.799352472987721
 31
0.0
  0
LINE
  8
DETAIL
  6
CONTINUOUS
 62
     5
 10
-43.105496133573752
 20
-49.427054052998983
 30
0.0
 11
-43.105496133573752
 21
-44.799352472987493
 31
0.0
  0
LINE
  8
DETAIL
  6
CONTINUOUS
 62
     5
 10
-104.8088715071942
 20
-96.944863143407702
 30
0.0
 11
-102.6834638412531
 21
-94.81945547746659
 31
0.0
  0
LINE
  8
DETAIL
  6
CONTINUOUS
 62
     5
 10
142.14385588329219
 20
145.33196738187829
 30
0.0
 11
138.35080998373471
 21
141.5389214829718
 31
0.0
  0
LINE
  8
DETAIL
  6
CONTINUOUS
 62
     5
 10
-145.331967382529
 20
-142.14385588329199
 30
0.0
 11
-81.914887943647955
 21
-78.726776445061432
 31
0.0
  0
LINE
  8
DETAIL
  6
CONTINUOUS
 62
     5
 10
145.3319673825288
 20
142.14385588329219
 30
0.0
 11
141.51801775362199
 21
138.32990625438541
 31
0.0
  0
LINE
  8
DETAIL
  6
CONTINUOUS
 62
     5
 10
-142.14385588329199
 20
-145.3319673825288
 30
0.0
 11
-80.891296959775218
 21
-84.079408459012029
 31
0.0
  0
LINE
  8
DETAIL
  6
CONTINUOUS
 62
     5
 10
-93.969292410830349
 20
-98.574342354027294
 30
0.0
 11
-101.05398463063349
 21
-105.6590345738307
 31
0.0
  0
LINE
  8
DETAIL
  6
CONTINUOUS
 62
     5
 10
-93.82759856617372
 20
-98.716036198683696
 30
0.0
 11
-100.91229078662739
 21
-105.8007284184871
 31
0.0
  0
LINE
  8
DETAIL
  6
CONTINUOUS
 62
     5
 10
-93.119129344193652
 20
-99.424505420663991
 30
0.0
 11
-100.2038215646473
 21
-106.50919764046741
 31
0.0
  0
LINE
  8
DETAIL
  6
CONTINUOUS
 62
     5
 10
-92.977435500187767
 20
-99.991280797988111
 30
0.0
 11
-99.637046186672478
 21
-106.65089148512359
 31
0.0
  0
LINE
  8
DETAIL
  6
CONTINUOUS
 62
     5
 10
-0.0000000000002274
 20
10.99079125130743
 30
0.0
 11
-9.5183044315995176
 21
5.4953956256538277
 31
0.0
  0
LINE
  8
DETAIL
  6
CONTINUOUS
 62
     5
 10
-0.0000000000002274
 20
-10.99079125195794
 30
0.0
 11
9.5183044315992902
 21
-5.4953956263043438
 31
0.0
  0
LINE
  8
DETAIL
  6
CONTINUOUS
 62
     5
 10
-47.113203262667867
 20
-42.485501683306893
 30
0.0
 11
-51.120910391762663
 21
-44.799352472987493
 31
0.0
  0
LINE
  8
DETAIL
  6
CONTINUOUS
 62
     5
 10
-9.5183044315995176
 20
5.4953956256538277
 30
0.0
 11
-9.5183044315995176
 21
-5.4953956263043438
 31
0.0
  0
LINE
  8
DETAIL
  6
CONTINUOUS
 62
     5
 10
-4.7090558766858521
 20
81.757225433525946
 30
0.0
 11
-4.7090558766858521
 21
81.256262042389153
 31
0.0
  0
LINE
  8
DETAIL
  6
CONTINUOUS
 62
     5
 10
-1.5028901734106059
 20
80.639234282361258
 30
0.0
 11
-1.5028901734106059
 21
80.139534382053398
 31
0.0
  0
LINE
  8
DETAIL
  6
CONTINUOUS
 62
     5
 10
1.5028901734106059
 20
80.639234282361258
 30
0.0
 11
1.5028901734106059
 21
80.139534382053398
 31
0.0
  0
LINE
  8
DETAIL
  6
CONTINUOUS
 62
     5
 10
-136.46555635572921
 20
-150.6618029344643
 30
0.0
 11
-136.47305486424941
 21
-150.66943780196681
 31
0.0
  0
LINE
  8
DETAIL
  6
CONTINUOUS
 62
     5
 10
-87.019243028651772
 20
-106.92722816740481
 30
0.0
 11
-93.402517032855485
 21
-113.3105021716087
 31
0.0
  0
LINE
  8
DETAIL
  6
CONTINUOUS
 62
     5
 10
-47.113203262667867
 20
-51.740904842679583
 30
0.0
 11
-43.105496133573752
 21
-49.427054052998983
 31
0.0
  0
LINE
  8
DETAIL
  6
CONTINUOUS
 62
     5
 10
81.156069364161795
 20
-60.11560693641627
 30
0.0
 11
81.757225433525718
 21
-60.11560693641627
 31
0.0
  0
LINE
  8
DETAIL
  6
CONTINUOUS
 62
     5
 10
-43.105496133573752
 20
-44.799352472987493
 30
0.0
 11
-47.113203262667867
 21
-42.485501683306893
 31
0.0
  0
LINE
  8
DETAIL
  6
CONTINUOUS
 62
     5
 10
206.30485701744101
 20
-183.0341586484499
 30
0.0
 11
211.31449092880919
 21
-185.92647213587571
 31
0.0
  0
LINE
  8
DETAIL
  6
CONTINUOUS
 62
     5
 10
216.32412484017729
 20
-177.24953167424849
 30
0.0
 11
211.31449092880919
 21
-174.35721818682279
 31
0.0
  0
LINE
  8
DETAIL
  6
CONTINUOUS
 62
     5
 10
4.7090558766858521
 20
81.757225433525946
 30
0.0
 11
4.7090558766858521
 21
81.256262042389153
 31
0.0
  0
LINE
  8
DETAIL
  6
CONTINUOUS
 62
     5
 10
9.5183044315992902
 20
-5.4953956263043438
 30
0.0
 11
9.5183044315992902
 21
5.4953956256538277
 31
0.0
  0
LINE
  8
DETAIL
  6
CONTINUOUS
 62
     5
 10
47.113203262667639
 20
-42.485501683306893
 30
0.0
 11
43.105496133573752
 21
-44.799352472987493
 31
0.0
  0
LINE
  8
DETAIL
  6
CONTINUOUS
 62
     5
 10
47.113203262667639
 20
-51.740904842679583
 30
0.0
 11
51.120910391762663
 21
-49.427054052998983
 31
0.0
  0
LINE
  8
DETAIL
  6
CONTINUOUS
 62
     5
 10
43.105496133573752
 20
-49.427054052998983
 30
0.0
 11
47.113203262667639
 21
-51.740904842679583
 31
0.0
  0
LINE
  8
DETAIL
  6
CONTINUOUS
 62
     5
 10
51.120910391762663
 20
-44.799352472987493
 30
0.0
 11
47.113203262667639
 21
-42.485501683306893
 31
0.0
  0
LINE
  8
DETAIL
  6
CONTINUOUS
 62
     5
 10
-9.5183044315995176
 20
-5.4953956263043438
 30
0.0
 11
-0.0000000000002274
 21
-10.99079125195794
 31
0.0
  0
LINE
  8
DETAIL
  6
CONTINUOUS
 62
     5
 10
-141.39236781457839
 20
138.20425631534181
 30
0.0
 11
-145.331967382529
 21
142.14385588329219
 31
0.0
  0
LINE
  8
DETAIL
  6
CONTINUOUS
 62
     5
 10
78.726776444410916
 20
-81.914887943647727
 30
0.0
 11
142.14385588329219
 21
-145.3319673825288
 31
0.0
  0
LINE
  8
DETAIL
  6
CONTINUOUS
 62
     5
 10
43.105496133573752
 20
49.427054052348467
 30
0.0
 11
43.105496133573752
 21
44.799352472987721
 31
0.0
  0
LINE
  8
DETAIL
  6
CONTINUOUS
 62
     5
 10
43.105496133573752
 20
-44.799352472987493
 30
0.0
 11
43.105496133573752
 21
-49.427054052998983
 31
0.0
  0
LINE
  8
DETAIL
  6
CONTINUOUS
 62
     5
 10
43.183044315991992
 20
-87.267822736030894
 30
0.0
 11
43.183044315991992
 21
-81.055876685934436
 31
0.0
  0
LINE
  8
DETAIL
  6
CONTINUOUS
 62
     5
 10
51.120910391762663
 20
-49.427054052998983
 30
0.0
 11
51.120910391762663
 21
-44.799352472987493
 31
0.0
  0
LINE
  8
DETAIL
  6
CONTINUOUS
 62
     5
 10
51.120910391762663
 20
44.799352472987721
 30
0.0
 11
51.120910391762663
 21
49.427054052348467
 31
0.0
  0
LINE
  8
DETAIL
  6
CONTINUOUS
 62
     5
 10
-180.14184516102429
 20
-205.52986395460789
 30
0.0
 11
-185.15147907239179
 21
-208.4221774420337
 31
0.0
  0
LINE
  8
DETAIL
  6
CONTINUOUS
 62
     5
 10
9.5183044315992902
 20
5.4953956256538277
 30
0.0
 11
-0.0000000000002274
 21
10.99079125130743
 31
0.0
  0
LINE
  8
DETAIL
  6
CONTINUOUS
 62
     5
 10
-138.20761636268571
 20
141.39572786127181
 30
0.0
 11
-142.14385588329199
 21
145.33196738187829
 31
0.0
  0
LINE
  8
DETAIL
  6
CONTINUOUS
 62
     5
 10
81.914887943647727
 20
-78.726776445061432
 30
0.0
 11
145.3319673825288
 21
-142.14385588329199
 31
0.0
  0
LINE
  8
DETAIL
  6
CONTINUOUS
 62
     5
 10
46.160529892650402
 20
-112.88112803588319
 30
0.0
 11
46.071359519605949
 21
-112.2866221371269
 31
0.0
  0
LINE
  8
DETAIL
  6
CONTINUOUS
 62
     5
 10
75.645472061656847
 20
-26.871818818987322
 30
0.0
 11
75.645472061656847
 21
-74.475961112528921
 31
0.0
  0
LINE
  8
DETAIL
  6
CONTINUOUS
 62
     5
 10
80.154142581888209
 20
-27.69612537933892
 30
0.0
 11
80.154142581888209
 21
-74.475961112528921
 31
0.0
  0
LINE
  8
DETAIL
  6
CONTINUOUS
 62
     5
 10
81.156069364161795
 20
-63.992564463578901
 30
0.0
 11
81.156069364161795
 21
-27.85384672622672
 31
0.0
  0
LINE
  8
DETAIL
  6
CONTINUOUS
 62
     5
 10
81.757225433525718
 20
-63.992564463578901
 30
0.0
 11
81.757225433525718
 21
-27.944076280504309
 31
0.0
  0
LINE
  8
DETAIL
  6
CONTINUOUS
 62
     5
 10
51.972223661887028
 20
-108.0990701636013
 30
0.0
 11
64.015067544579097
 21
-85.264898165152545
 31
0.0
  0
LINE
  8
DETAIL
  6
CONTINUOUS
 62
     5
 10
52.503958845781881
 20
-108.3795096651402
 30
0.0
 11
64.546802729124693
 21
-85.545337666691694
 31
0.0
  0
LINE
  8
DETAIL
  6
CONTINUOUS
 62
     5
 10
67.063392087030252
 20
-81.778990170607813
 30
0.0
 11
74.848060415383998
 21
-76.232413987037944
 31
0.0
  0
LINE
  8
DETAIL
  6
CONTINUOUS
 62
     5
 10
67.412227798313552
 20
-82.268584152040603
 30
0.0
 11
75.196896127317586
 21
-76.722007967820218
 31
0.0
  0
LINE
  8
DETAIL
  6
CONTINUOUS
 62
     5
 10
-180.14184516102429
 20
-217.0991179036607
 30
0.0
 11
-175.13221124965591
 21
-214.20680441623489
 31
0.0
  0
LINE
  8
DETAIL
  6
CONTINUOUS
 62
     5
 10
1.594055749618519
 20
65.034075271576285
 30
0.0
 11
-1.594055797112333
 21
68.222186818306909
 31
0.0
  0
LINE
  8
DETAIL
  6
CONTINUOUS
 62
     5
 10
-216.32412484017729
 20
177.24953167359811
 30
0.0
 11
-211.31449092880939
 21
174.3572181861723
 31
0.0
  0
LINE
  8
DETAIL
  6
CONTINUOUS
 62
     5
 10
-206.30485701744121
 20
183.0341586484499
 30
0.0
 11
-211.31449092880939
 21
185.92647213522511
 31
0.0
  0
LINE
  8
DETAIL
  6
CONTINUOUS
 62
     5
 10
43.105496133573752
 20
44.799352472987721
 30
0.0
 11
47.113203262667639
 21
42.48550168330712
 31
0.0
  0
LINE
  8
DETAIL
  6
CONTINUOUS
 62
     5
 10
51.120910391762663
 20
49.427054052348467
 30
0.0
 11
47.113203262667639
 21
51.740904842029067
 31
0.0
  0
LINE
  8
DETAIL
  6
CONTINUOUS
 62
     5
 10
-4.7090558766858521
 20
81.256262042389153
 30
0.0
 11
-2.7552986512525881
 21
81.256262042389153
 31
0.0
  0
LINE
  8
DETAIL
  6
CONTINUOUS
 62
     5
 10
2.7552986512523598
 20
81.256262042389153
 30
0.0
 11
4.7090558766858521
 21
81.256262042389153
 31
0.0
  0
LINE
  8
DETAIL
  6
CONTINUOUS
 62
     5
 10
-4.7090558766858521
 20
81.757225433525946
 30
0.0
 11
4.7090558766858521
 21
81.757225433525946
 31
0.0
  0
LINE
  8
DETAIL
  6
CONTINUOUS
 62
     5
 10
150.49345098981581
 20
216.91714836223511
 30
0.0
 11
150.49345098981581
 21
210.40462427745661
 31
0.0
  0
LINE
  8
DETAIL
  6
CONTINUOUS
 62
     5
 10
150.49345098981581
 20
-210.40462427745661
 30
0.0
 11
150.49345098981581
 21
-216.91714836223511
 31
0.0
  0
LINE
  8
DETAIL
  6
CONTINUOUS
 62
     5
 10
175.13221124965591
 20
214.2068044162352
 30
0.0
 11
175.13221124965591
 21
208.42217744138341
 31
0.0
  0
LINE
  8
DETAIL
  6
CONTINUOUS
 62
     5
 10
185.1514790723916
 20
208.42217744138341
 30
0.0
 11
185.1514790723916
 21
214.2068044162352
 31
0.0
  0
LINE
  8
DETAIL
  6
CONTINUOUS
 62
     5
 10
192.29313508795639
 20
-241.9653179190752
 30
0.0
 11
192.29313508795639
 21
-237.17540664149331
 31
0.0
  0
LINE
  8
DETAIL
  6
CONTINUOUS
 62
     5
 10
192.29313508795639
 20
237.17540664084279
 30
0.0
 11
192.29313508795639
 21
241.9653179190752
 31
0.0
  0
LINE
  8
DETAIL
  6
CONTINUOUS
 62
     5
 10
206.30485701744101
 20
-177.24953167424849
 30
0.0
 11
206.30485701744101
 21
-183.0341586484499
 31
0.0
  0
LINE
  8
DETAIL
  6
CONTINUOUS
 62
     5
 10
216.32412484017729
 20
-183.0341586484499
 30
0.0
 11
216.32412484017729
 21
-177.24953167424849
 31
0.0
  0
LINE
  8
DETAIL
  6
CONTINUOUS
 62
     5
 10
195.8101583045316
 20
-156.53867673172681
 30
0.0
 11
156.53867673172661
 21
-195.8101583045316
 31
0.0
  0
LINE
  8
DETAIL
  6
CONTINUOUS
 62
     5
 10
-216.91714836223511
 20
150.4934509898155
 30
0.0
 11
-210.40462427745661
 21
150.4934509898155
 31
0.0
  0
LINE
  8
DETAIL
  6
CONTINUOUS
 62
     5
 10
210.40462427745641
 20
150.4934509898155
 30
0.0
 11
216.91714836223471
 21
150.4934509898155
 31
0.0
  0
LINE
  8
DETAIL
  6
CONTINUOUS
 62
     5
 10
211.31449092880919
 20
-174.35721818682279
 30
0.0
 11
206.30485701744101
 21
-177.24953167424849
 31
0.0
  0
LINE
  8
DETAIL
  6
CONTINUOUS
 62
     5
 10
211.31449092880919
 20
-185.92647213587571
 30
0.0
 11
216.32412484017729
 21
-183.0341586484499
 31
0.0
  0
LINE
  8
DETAIL
  6
CONTINUOUS
 62
     5
 10
241.9653179190752
 20
192.2931350873057
 30
0.0
 11
237.17540664149331
 21
192.2931350873057
 31
0.0
  0
LINE
  8
DETAIL
  6
CONTINUOUS
 62
     5
 10
-237.17540664084299
 20
192.2931350873057
 30
0.0
 11
-241.96531791907501
 21
192.2931350873057
 31
0.0
  0
LINE
  8
DETAIL
  6
CONTINUOUS
 62
     5
 10
246.37379576107921
 20
121.0368035909717
 30
0.0
 11
246.37379576107921
 21
-121.0368035909717
 31
0.0
  0
LINE
  8
DETAIL
  6
CONTINUOUS
 62
     5
 10
256.39306358381509
 20
-177.86538942321641
 30
0.0
 11
256.39306358381509
 21
177.8653894225661
 31
0.0
  0
LINE
  8
DETAIL
  6
CONTINUOUS
 62
     5
 10
259.99999999999977
 20
219.92292870905609
 30
0.0
 11
259.99999999999977
 21
-219.9229287090559
 31
0.0
  0
LINE
  8
DETAIL
  6
CONTINUOUS
 62
     5
 10
202.74022423361589
 20
-211.95390233821291
 30
0.0
 11
211.9539023382124
 21
-202.74022423361609
 31
0.0
  0
LINE
  8
DETAIL
  6
CONTINUOUS
 62
     5
 10
-121.0368035909719
 20
246.37379576107901
 30
0.0
 11
121.0368035909717
 21
246.37379576107901
 31
0.0
  0
LINE
  8
DETAIL
  6
CONTINUOUS
 62
     5
 10
156.53867673172661
 20
195.81015830388131
 30
0.0
 11
195.8101583045316
 21
156.53867673107609
 31
0.0
  0
LINE
  8
DETAIL
  6
CONTINUOUS
 62
     5
 10
177.86538942321661
 20
256.39306358381509
 30
0.0
 11
-177.86538942256581
 21
256.39306358381509
 31
0.0
  0
LINE
  8
DETAIL
  6
CONTINUOUS
 62
     5
 10
-219.92292870905609
 20
260.0
 30
0.0
 11
219.9229287090559
 21
260.0
 31
0.0
  0
LINE
  8
DETAIL
  6
CONTINUOUS
 62
     5
 10
175.13221124965591
 20
208.42217744138341
 30
0.0
 11
180.14184516102389
 21
205.5298639539574
 31
0.0
  0
LINE
  8
DETAIL
  6
CONTINUOUS
 62
     5
 10
185.1514790723916
 20
214.2068044162352
 30
0.0
 11
180.14184516102389
 21
217.09911790301041
 31
0.0
  0
LINE
  8
DETAIL
  6
CONTINUOUS
 62
     5
 10
211.9539023382124
 20
202.7402242329656
 30
0.0
 11
202.74022423361589
 21
211.95390233821291
 31
0.0
  0
ARC
  8
DETAIL
  6
CONTINUOUS
 62
     5
 10
-237.17540664084299
 20
-227.96172853689649
 30
0.0
 40
35.668593448940321
 50
45.000000000004597
 51
90.0
  0
ARC
  8
DETAIL
  6
CONTINUOUS
 62
     5
 10
-227.96172853624631
 20
-237.17540664149331
 30
0.0
 40
35.668593448940328
 50
0.0
 51
45.000000000004597
  0
ARC
  8
DETAIL
  6
CONTINUOUS
 62
     5
 10
-219.92292870905609
 20
-219.9229287090559
 30
0.0
 40
40.077071290944097
 50
180.0
 51
270.0
  0
ARC
  8
DETAIL
  6
CONTINUOUS
 62
     5
 10
-177.86538942256581
 20
-241.9653179190752
 30
0.0
 40
14.42774566473997
 50
180.0
 51
270.0
  0
CIRCLE
  8
DETAIL
  6
CONTINUOUS
 62
     5
 10
-180.14184516102429
 20
-211.31449092945971
 30
0.0
 40
5.0096339113680406
  0
CIRCLE
  8
DETAIL
  6
CONTINUOUS
 62
     5
 10
-180.14184516102429
 20
-211.31449092945971
 30
0.0
 40
3.5067437379576631
  0
CIRCLE
  8
DETAIL
  6
CONTINUOUS
 62
     5
 10
-180.14184516102429
 20
-211.31449092945971
 30
0.0
 40
2.504816955683963
  0
ARC
  8
DETAIL
  6
CONTINUOUS
 62
     5
 10
-210.40462427745661
 20
-171.13314270465179
 30
0.0
 40
20.63969171483625
 50
45.000000000004597
 51
90.0
  0
ARC
  8
DETAIL
  6
CONTINUOUS
 62
     5
 10
-241.96531791907501
 20
-177.86538942321641
 30
0.0
 40
14.42774566474009
 50
180.0
 51
270.0
  0
ARC
  8
DETAIL
  6
CONTINUOUS
 62
     5
 10
-216.91714836223511
 20
-121.0368035909717
 30
0.0
 40
29.45664739884387
 50
180.0
 51
270.0
  0
ARC
  8
DETAIL
  6
CONTINUOUS
 62
     5
 10
-241.96531791907501
 20
177.8653894225661
 30
0.0
 40
14.427745664739909
 50
90.0
 51
180.0
  0
ARC
  8
DETAIL
  6
CONTINUOUS
 62
     5
 10
-216.91714836223511
 20
121.0368035909717
 30
0.0
 40
29.456647398843881
 50
90.0
 51
180.0
  0
ARC
  8
DETAIL
  6
CONTINUOUS
 62
     5
 10
-210.40462427745661
 20
171.13314270465179
 30
0.0
 40
20.6396917148362
 50
270.0
 51
314.99999999999528
  0
CIRCLE
  8
DETAIL
  6
CONTINUOUS
 62
     5
 10
-211.31449092880939
 20
180.14184516102409
 30
0.0
 40
5.0096339113680406
  0
CIRCLE
  8
DETAIL
  6
CONTINUOUS
 62
     5
 10
-211.31449092880939
 20
180.14184516102409
 30
0.0
 40
3.5067437379576631
  0
CIRCLE
  8
DETAIL
  6
CONTINUOUS
 62
     5
 10
-211.31449092880939
 20
180.14184516102409
 30
0.0
 40
2.504816955683963
  0
ARC
  8
DETAIL
  6
CONTINUOUS
 62
     5
 10
-219.92292870905609
 20
219.92292870905609
 30
0.0
 40
40.077071290944097
 50
90.0
 51
180.0
  0
ARC
  8
DETAIL
  6
CONTINUOUS
 62
     5
 10
-227.96172853624631
 20
237.17540664084279
 30
0.0
 40
35.668593448940292
 50
314.99999999999528
 51
0.0
  0
ARC
  8
DETAIL
  6
CONTINUOUS
 62
     5
 10
-237.17540664084299
 20
227.961728536246
 30
0.0
 40
35.668593448940257
 50
270.0
 51
314.99999999999528
  0
ARC
  8
DETAIL
  6
CONTINUOUS
 62
     5
 10
-177.86538942256581
 20
241.9653179190752
 30
0.0
 40
14.427745664739909
 50
90.0
 51
180.0
  0
ARC
  8
DETAIL
  6
CONTINUOUS
 62
     5
 10
-0.0000000000002274
 20
-229.94219653179181
 30
0.0
 40
311.19845857418119
 50
76.774379258779291
 51
92.802956811656159
  0
ARC
  8
DETAIL
  6
CONTINUOUS
 62
     5
 10
-0.0000000000002274
 20
-229.94219653179181
 30
0.0
 40
310.59730250481681
 50
76.803639461963058
 51
92.76998983886493
  0
ARC
  8
DETAIL
  6
CONTINUOUS
 62
     5
 10
121.0368035909717
 20
-216.91714836223511
 30
0.0
 40
29.456647398843931
 50
270.0
 51
0.0
  0
ARC
  8
DETAIL
  6
CONTINUOUS
 62
     5
 10
-121.0368035909719
 20
-216.91714836223511
 30
0.0
 40
29.45664739884398
 50
180.0
 51
270.0
  0
ARC
  8
DETAIL
  6
CONTINUOUS
 62
     5
 10
-171.13314270465179
 20
-210.40462427745661
 30
0.0
 40
20.639691714836321
 50
0.0
 51
45.000000000004597
  0
ARC
  8
DETAIL
  6
CONTINUOUS
 62
     5
 10
171.13314270465139
 20
-210.40462427745661
 30
0.0
 40
20.639691714836129
 50
134.9999999999954
 51
180.0
  0
ARC
  8
DETAIL
  6
CONTINUOUS
 62
     5
 10
177.86538942321661
 20
-241.9653179190752
 30
0.0
 40
14.427745664739859
 50
270.0
 51
0.0
  0
ARC
  8
DETAIL
  6
CONTINUOUS
 62
     5
 10
219.9229287090559
 20
-219.9229287090559
 30
0.0
 40
40.077071290944097
 50
270.0
 51
0.0
  0
ARC
  8
DETAIL
  6
CONTINUOUS
 62
     5
 10
227.96172853689649
 20
-237.17540664149331
 30
0.0
 40
35.668593448940321
 50
134.9999999999954
 51
180.0
  0
ARC
  8
DETAIL
  6
CONTINUOUS
 62
     5
 10
237.17540664149331
 20
-227.96172853689649
 30
0.0
 40
35.668593448940328
 50
90.0
 51
134.9999999999954
  0
ARC
  8
DETAIL
  6
CONTINUOUS
 62
     5
 10
210.40462427745641
 20
-171.13314270465179
 30
0.0
 40
20.639691714836289
 50
90.0
 51
134.9999999999954
  0
CIRCLE
  8
DETAIL
  6
CONTINUOUS
 62
     5
 10
211.31449092880919
 20
-180.14184516102389
 30
0.0
 40
5.0096339113679269
  0
CIRCLE
  8
DETAIL
  6
CONTINUOUS
 62
     5
 10
211.31449092880919
 20
-180.14184516102389
 30
0.0
 40
3.506743737957549
  0
CIRCLE
  8
DETAIL
  6
CONTINUOUS
 62
     5
 10
211.31449092880919
 20
-180.14184516102389
 30
0.0
 40
2.504816955683963
  0
ARC
  8
DETAIL
  6
CONTINUOUS
 62
     5
 10
241.9653179190752
 20
-177.86538942321641
 30
0.0
 40
14.427745664739859
 50
270.0
 51
0.0
  0
ARC
  8
DETAIL
  6
CONTINUOUS
 62
     5
 10
-66.127167630057784
 20
-63.992564463578901
 30
0.0
 40
15.630057803468279
 50
180.0
 51
206.14938130939959
  0
ARC
  8
DETAIL
  6
CONTINUOUS
 62
     5
 10
-66.127167630057784
 20
-63.992564463578901
 30
0.0
 40
15.02890173410413
 50
180.0
 51
201.0164641495054
  0
ARC
  8
DETAIL
  6
CONTINUOUS
 62
     5
 10
-59.328910359032307
 20
-39.249521387783723
 30
0.0
 40
8.0154142581887609
 50
327.22918620189751
 51
33.486951602205792
  0
ARC
  8
DETAIL
  6
CONTINUOUS
 62
     5
 10
-99.511292899532009
 20
-100.11703408512879
 30
0.0
 40
6.5350674373795359
 50
268.89739816709272
 51
1.1026018328944289
  0
ARC
  8
DETAIL
  6
CONTINUOUS
 62
     5
 10
-86.16570327552995
 20
-74.475961112528921
 30
0.0
 40
6.0115606936415924
 50
314.99999999999528
 51
0.0
  0
ARC
  8
DETAIL
  6
CONTINUOUS
 62
     5
 10
-47.113203262667867
 20
-47.113203263318383
 30
0.0
 40
6.5125240847785202
 50
147.22918620200241
 51
169.10221917179729
  0
ARC
  8
DETAIL
  6
CONTINUOUS
 62
     5
 10
-47.113203262667867
 20
-47.113203263318383
 30
0.0
 40
4.0077071290944994
 50
259.00663599009812
 51
171.33461348210429
  0
ARC
  8
DETAIL
  6
CONTINUOUS
 62
     5
 10
-47.113203262667867
 20
-47.113203263318383
 30
0.0
 40
3.0057803468209041
 50
235.94047538099309
 51
184.36664966750149
  0
CIRCLE
  8
DETAIL
  6
CONTINUOUS
 62
     5
 10
-47.113203262667867
 20
-47.113203263318383
 30
0.0
 40
2.0038535645471711
  0
ARC
  8
DETAIL
  6
CONTINUOUS
 62
     5
 10
14.026974951830431
 20
-67.129094412331369
 30
0.0
 40
1.5028901734103539
 50
305.09128986370303
 51
167.93712530699869
  0
ARC
  8
DETAIL
  6
CONTINUOUS
 62
     5
 10
-0.0000000000002274
 20
0.0
 30
0.0
 40
63.121387283236999
 50
281.73311609170332
 51
303.48695160220763
  0
ARC
  8
DETAIL
  6
CONTINUOUS
 62
     5
 10
-0.0000000000002274
 20
0.0
 30
0.0
 40
63.121387283237112
 50
326.51304839780681
 51
347.68909443417778
  0
ARC
  8
DETAIL
  6
CONTINUOUS
 62
     5
 10
-0.0000000000002274
 20
0.0
 30
0.0
 40
63.121387283236928
 50
56.513048397792367
 51
78.486951602201941
  0
ARC
  8
DETAIL
  6
CONTINUOUS
 62
     5
 10
-0.0000000000002274
 20
0.0
 30
0.0
 40
63.121387283236963
 50
101.5130483977981
 51
107.689094434181
  0
ARC
  8
DETAIL
  6
CONTINUOUS
 62
     5
 10
-0.0000000000002274
 20
0.0
 30
0.0
 40
63.121387283237112
 50
161.73460389920541
 51
213.48695160220581
  0
CIRCLE
  8
DETAIL
  6
CONTINUOUS
 62
     5
 10
-0.0000000000002274
 20
0.0
 30
0.0
 40
23.044315992292919
  0
CIRCLE
  8
DETAIL
  6
CONTINUOUS
 62
     5
 10
-0.0000000000002274
 20
0.0
 30
0.0
 40
19.03660886319836
  0
CIRCLE
  8
DETAIL
  6
CONTINUOUS
 62
     5
 10
-0.0000000000002274
 20
0.0
 30
0.0
 40
18.034684362585491
  0
CIRCLE
  8
DETAIL
  6
CONTINUOUS
 62
     5
 10
-0.0000000000002274
 20
0.0
 30
0.0
 40
12.023121387283259
  0
CIRCLE
  8
DETAIL
  6
CONTINUOUS
 62
     5
 10
-0.0000000000002274
 20
0.0
 30
0.0
 40
9.5183044315992884
  0
CIRCLE
  8
DETAIL
  6
CONTINUOUS
 62
     5
 10
-0.0000000000002274
 20
0.0
 30
0.0
 40
6.5321771212871909
  0
CIRCLE
  8
DETAIL
  6
CONTINUOUS
 62
     5
 10
-0.0000000000002274
 20
0.0
 30
0.0
 40
6.0115606936416279
  0
ARC
  8
DETAIL
  6
CONTINUOUS
 62
     5
 10
-0.0000000000002274
 20
194.8747591522158
 30
0.0
 40
311.19845857418119
 50
277.65853147201398
 51
278.53024611230393
  0
ARC
  8
DETAIL
  6
CONTINUOUS
 62
     5
 10
-0.0000000000002274
 20
194.8747591522158
 30
0.0
 40
310.59730250481692
 50
277.57605837541149
 51
278.53024611230393
  0
ARC
  8
DETAIL
  6
CONTINUOUS
 62
     5
 10
-121.0368035909719
 20
216.91714836223511
 30
0.0
 40
29.45664739884387
 50
90.0
 51
180.0
  0
ARC
  8
DETAIL
  6
CONTINUOUS
 62
     5
 10
-171.13314270465179
 20
210.40462427745661
 30
0.0
 40
20.639691714836299
 50
314.99999999999528
 51
0.0
  0
ARC
  8
DETAIL
  6
CONTINUOUS
 62
     5
 10
-14.198272103845969
 20
69.705477566749323
 30
0.0
 40
8.0154142581888781
 50
281.51304839779812
 51
347.77081379809749
  0
ARC
  8
DETAIL
  6
CONTINUOUS
 62
     5
 10
14.19827210384619
 20
69.705477566749323
 30
0.0
 40
8.0154142581888728
 50
192.22918620199709
 51
258.48695160220188
  0
ARC
  8
DETAIL
  6
CONTINUOUS
 62
     5
 10
-0.0000000000002274
 20
77.226011560693678
 30
0.0
 40
6.5350674373796211
 50
43.897398167090152
 51
136.10260183289611
  0
ARC
  8
DETAIL
  6
CONTINUOUS
 62
     5
 10
-0.0000000000002274
 20
66.628131021194577
 30
0.0
 40
6.5125240847785202
 50
12.22918620190247
 51
167.77081379809749
  0
CIRCLE
  8
DETAIL
  6
CONTINUOUS
 62
     5
 10
-0.0000000000002274
 20
66.628131021194577
 30
0.0
 40
4.7090558766859649
  0
ARC
  8
DETAIL
  6
CONTINUOUS
 62
     5
 10
66.127167630057784
 20
-63.992564463578901
 30
0.0
 40
15.63005780346818
 50
333.85061869060041
 51
0.0
  0
ARC
  8
DETAIL
  6
CONTINUOUS
 62
     5
 10
66.127167630057784
 20
-63.992564463578901
 30
0.0
 40
15.630057803468169
 50
305.46987216740109
 51
308.234208837898
  0
ARC
  8
DETAIL
  6
CONTINUOUS
 62
     5
 10
66.127167630057784
 20
-63.992564463578901
 30
0.0
 40
15.02890173410403
 50
338.9835358504946
 51
0.0
  0
ARC
  8
DETAIL
  6
CONTINUOUS
 62
     5
 10
66.127167630057784
 20
-63.992564463578901
 30
0.0
 40
15.028901734104149
 50
305.46987216740109
 51
309.6033906129997
  0
ARC
  8
DETAIL
  6
CONTINUOUS
 62
     5
 10
86.165703275529495
 20
-74.475961112528921
 30
0.0
 40
10.520231213872879
 50
180.0
 51
225.0000000000046
  0
ARC
  8
DETAIL
  6
CONTINUOUS
 62
     5
 10
72.877320611015193
 20
-89.938889853564433
 30
0.0
 40
10.019267822736079
 50
125.46987216740111
 51
152.1926362551032
  0
ARC
  8
DETAIL
  6
CONTINUOUS
 62
     5
 10
72.877320611015193
 20
-89.938889853564433
 30
0.0
 40
9.4181117533719494
 50
125.46987216740111
 51
152.1926362551032
  0
ARC
  8
DETAIL
  6
CONTINUOUS
 62
     5
 10
44.882421209518718
 20
-104.3598768130021
 30
0.0
 40
8.6165703275529584
 50
278.53024611230393
 51
332.19263625510308
  0
ARC
  8
DETAIL
  6
CONTINUOUS
 62
     5
 10
44.882421209518718
 20
-104.3598768130021
 30
0.0
 40
8.0154142581888692
 50
278.53024611230393
 51
332.19263625510308
  0
ARC
  8
DETAIL
  6
CONTINUOUS
 62
     5
 10
59.328910359032079
 20
-39.249521387783723
 30
0.0
 40
8.0154142581888213
 50
146.51304839780681
 51
212.77081379810241
  0
ARC
  8
DETAIL
  6
CONTINUOUS
 62
     5
 10
39.249521387783943
 20
-59.328910359032079
 30
0.0
 40
8.0154142581888834
 50
57.229186201897541
 51
123.4869516022076
  0
ARC
  8
DETAIL
  6
CONTINUOUS
 62
     5
 10
47.113203262667639
 20
-47.113203263318383
 30
0.0
 40
6.512524084778283
 50
237.22918620189751
 51
32.770813798102452
  0
ARC
  8
DETAIL
  6
CONTINUOUS
 62
     5
 10
86.165703275529495
 20
-74.475961112528921
 30
0.0
 40
6.0115606936417407
 50
180.0
 51
225.0000000000046
  0
CIRCLE
  8
DETAIL
  6
CONTINUOUS
 62
     5
 10
47.113203262667639
 20
-47.113203263318383
 30
0.0
 40
4.0077071290943422
  0
CIRCLE
  8
DETAIL
  6
CONTINUOUS
 62
     5
 10
47.113203262667639
 20
-47.113203263318383
 30
0.0
 40
3.0057803468207558
  0
CIRCLE
  8
DETAIL
  6
CONTINUOUS
 62
     5
 10
47.113203262667639
 20
-47.113203263318383
 30
0.0
 40
2.0038535645471711
  0
ARC
  8
DETAIL
  6
CONTINUOUS
 62
     5
 10
43.183044315991992
 20
-84.161849710982551
 30
0.0
 40
1.1447707692615541
 50
270.0
 51
90.0
  0
ARC
  8
DETAIL
  6
CONTINUOUS
 62
     5
 10
39.249521387783943
 20
59.328910359032307
 30
0.0
 40
8.0154142581890451
 50
236.5130483977924
 51
302.77081379810249
  0
ARC
  8
DETAIL
  6
CONTINUOUS
 62
     5
 10
47.113203262667639
 20
47.113203262668087
 30
0.0
 40
6.512524084778633
 50
13.877615428092669
 51
122.77081379810249
  0
CIRCLE
  8
DETAIL
  6
CONTINUOUS
 62
     5
 10
47.113203262667639
 20
47.113203262668087
 30
0.0
 40
4.0077071290943422
  0
CIRCLE
  8
DETAIL
  6
CONTINUOUS
 62
     5
 10
47.113203262667639
 20
47.113203262668087
 30
0.0
 40
3.0057803468207558
  0
CIRCLE
  8
DETAIL
  6
CONTINUOUS
 62
     5
 10
47.113203262667639
 20
47.113203262668087
 30
0.0
 40
2.0038535645471711
  0
ARC
  8
DETAIL
  6
CONTINUOUS
 62
     5
 10
216.91714836223471
 20
-121.0368035909717
 30
0.0
 40
29.456647398843899
 50
270.0
 51
0.0
  0
ARC
  8
DETAIL
  6
CONTINUOUS
 62
     5
 10
121.0368035909717
 20
216.91714836223511
 30
0.0
 40
29.45664739884409
 50
0.0
 51
90.0
  0
ARC
  8
DETAIL
  6
CONTINUOUS
 62
     5
 10
216.91714836223471
 20
121.0368035909717
 30
0.0
 40
29.45664739884409
 50
0.0
 51
90.0
  0
ARC
  8
DETAIL
  6
CONTINUOUS
 62
     5
 10
171.13314270465139
 20
210.40462427745661
 30
0.0
 40
20.63969171483609
 50
180.0
 51
225.0000000000046
  0
CIRCLE
  8
DETAIL
  6
CONTINUOUS
 62
     5
 10
180.14184516102389
 20
211.31449092880939
 30
0.0
 40
5.0096339113679269
  0
CIRCLE
  8
DETAIL
  6
CONTINUOUS
 62
     5
 10
180.14184516102389
 20
211.31449092880939
 30
0.0
 40
3.506743737957549
  0
CIRCLE
  8
DETAIL
  6
CONTINUOUS
 62
     5
 10
180.14184516102389
 20
211.31449092880939
 30
0.0
 40
2.504816955683963
  0
ARC
  8
DETAIL
  6
CONTINUOUS
 62
     5
 10
177.86538942321661
 20
241.9653179190752
 30
0.0
 40
14.42774566474009
 50
0.0
 51
90.0
  0
ARC
  8
DETAIL
  6
CONTINUOUS
 62
     5
 10
210.40462427745641
 20
171.13314270465179
 30
0.0
 40
20.639691714836299
 50
225.0000000000046
 51
270.0
  0
ARC
  8
DETAIL
  6
CONTINUOUS
 62
     5
 10
241.9653179190752
 20
177.8653894225661
 30
0.0
 40
14.427745664739859
 50
0.0
 51
90.0
  0
ARC
  8
DETAIL
  6
CONTINUOUS
 62
     5
 10
219.9229287090559
 20
219.92292870905609
 30
0.0
 40
40.077071290944097
 50
0.0
 51
90.0
  0
ARC
  8
DETAIL
  6
CONTINUOUS
 62
     5
 10
237.17540664149331
 20
227.961728536246
 30
0.0
 40
35.668593448940392
 50
225.0000000000046
 51
270.0
  0
ARC
  8
DETAIL
  6
CONTINUOUS
 62
     5
 10
227.96172853689649
 20
237.17540664084279
 30
0.0
 40
35.668593448940101
 50
180.0
 51
225.0000000000046
  0
LINE
  8
DETAIL
  6
CONTINUOUS
 62
     5
 10
-94.890302399469647
 20
-104.7380245851912
 30
0.0
 11
-94.877143226455473
 21
-104.7238088795543
 31
0.0
  0
LINE
  8
DETAIL
  6
CONTINUOUS
 62
     5
 10
-94.877143226455473
 20
-104.7238088795543
 30
0.0
 11
-94.863990700084969
 21
-104.7096143766944
 31
0.0
  0
LINE
  8
DETAIL
  6
CONTINUOUS
 62
     5
 10
-94.863990700084969
 20
-104.7096143766944
 30
0.0
 11
-94.863990700084969
 21
-104.7096143766944
 31
0.0
  0
LINE
  8
DETAIL
  6
CONTINUOUS
 62
     5
 10
-94.863990700084969
 20
-104.7096143766944
 30
0.0
 11
-94.850840734841995
 21
-104.6954448729512
 31
0.0
  0
LINE
  8
DETAIL
  6
CONTINUOUS
 62
     5
 10
-94.850840734841995
 20
-104.6954448729512
 30
0.0
 11
-94.837646316565497
 21
-104.6812345389144
 31
0.0
  0
LINE
  8
DETAIL
  6
CONTINUOUS
 62
     5
 10
-94.837646316565497
 20
-104.6812345389144
 30
0.0
 11
-94.837646316565497
 21
-104.6812345389144
 31
0.0
  0
LINE
  8
DETAIL
  6
CONTINUOUS
 62
     5
 10
-94.837646316565497
 20
-104.6812345389144
 30
0.0
 11
-94.824402841361689
 21
-104.6669602736179
 31
0.0
  0
LINE
  8
DETAIL
  6
CONTINUOUS
 62
     5
 10
-94.824402841361689
 20
-104.6669602736179
 30
0.0
 11
-94.811318275052372
 21
-104.6528395156199
 31
0.0
  0
LINE
  8
DETAIL
  6
CONTINUOUS
 62
     5
 10
-94.811318275052372
 20
-104.6528395156199
 30
0.0
 11
-94.811318275052372
 21
-104.6528395156199
 31
0.0
  0
LINE
  8
DETAIL
  6
CONTINUOUS
 62
     5
 10
-94.811318275052372
 20
-104.6528395156199
 30
0.0
 11
-94.798451888333375
 21
-104.6389267052725
 31
0.0
  0
LINE
  8
DETAIL
  6
CONTINUOUS
 62
     5
 10
-94.798451888333375
 20
-104.6389267052725
 30
0.0
 11
-94.785055601689237
 21
-104.6243837505792
 31
0.0
  0
LINE
  8
DETAIL
  6
CONTINUOUS
 62
     5
 10
-94.785055601689237
 20
-104.6243837505792
 30
0.0
 11
-94.785055601689237
 21
-104.6243837505792
 31
0.0
  0
LINE
  8
DETAIL
  6
CONTINUOUS
 62
     5
 10
-94.785055601689237
 20
-104.6243837505792
 30
0.0
 11
-94.77093370583475
 21
-104.6089818239236
 31
0.0
  0
LINE
  8
DETAIL
  6
CONTINUOUS
 62
     5
 10
-94.77093370583475
 20
-104.6089818239236
 30
0.0
 11
-94.758907322617915
 21
-104.5958216875608
 31
0.0
  0
LINE
  8
DETAIL
  6
CONTINUOUS
 62
     5
 10
-94.758907322617915
 20
-104.5958216875608
 30
0.0
 11
-94.758907322617915
 21
-104.5958216875608
 31
0.0
  0
LINE
  8
DETAIL
  6
CONTINUOUS
 62
     5
 10
-94.758907322617915
 20
-104.5958216875608
 30
0.0
 11
-94.751358625839885
 21
-104.5875267332176
 31
0.0
  0
LINE
  8
DETAIL
  6
CONTINUOUS
 62
     5
 10
-94.751358625839885
 20
-104.5875267332176
 30
0.0
 11
-94.745897165974611
 21
-104.5814812806336
 31
0.0
  0
LINE
  8
DETAIL
  6
CONTINUOUS
 62
     5
 10
-94.745897165974611
 20
-104.5814812806336
 30
0.0
 11
-94.745897165974611
 21
-104.5814812806336
 31
0.0
  0
LINE
  8
DETAIL
  6
CONTINUOUS
 62
     5
 10
-94.745897165974611
 20
-104.5814812806336
 30
0.0
 11
-94.739697718081743
 21
-104.5745884395253
 31
0.0
  0
LINE
  8
DETAIL
  6
CONTINUOUS
 62
     5
 10
-94.739697718081743
 20
-104.5745884395253
 30
0.0
 11
-94.732968578887267
 21
-104.56706555150031
 31
0.0
  0
LINE
  8
DETAIL
  6
CONTINUOUS
 62
     5
 10
-94.732968578887267
 20
-104.56706555150031
 30
0.0
 11
-94.732968578887267
 21
-104.56706555150031
 31
0.0
  0
LINE
  8
DETAIL
  6
CONTINUOUS
 62
     5
 10
-94.732968578887267
 20
-104.56706555150031
 30
0.0
 11
-94.726473218113597
 21
-104.5597365046999
 31
0.0
  0
LINE
  8
DETAIL
  6
CONTINUOUS
 62
     5
 10
-94.726473218113597
 20
-104.5597365046999
 30
0.0
 11
-94.72016227580275
 21
-104.55253714150651
 31
0.0
  0
LINE
  8
DETAIL
  6
CONTINUOUS
 62
     5
 10
-94.72016227580275
 20
-104.55253714150651
 30
0.0
 11
-94.72016227580275
 21
-104.55253714150651
 31
0.0
  0
LINE
  8
DETAIL
  6
CONTINUOUS
 62
     5
 10
-94.72016227580275
 20
-104.55253714150651
 30
0.0
 11
-94.713837633840512
 21
-104.5452407806486
 31
0.0
  0
LINE
  8
DETAIL
  6
CONTINUOUS
 62
     5
 10
-94.713837633840512
 20
-104.5452407806486
 30
0.0
 11
-94.707518971169065
 21
-104.53785869199839
 31
0.0
  0
LINE
  8
DETAIL
  6
CONTINUOUS
 62
     5
 10
-94.707518971169065
 20
-104.53785869199839
 30
0.0
 11
-94.707518971169065
 21
-104.53785869199839
 31
0.0
  0
LINE
  8
DETAIL
  6
CONTINUOUS
 62
     5
 10
-94.707518971169065
 20
-104.53785869199839
 30
0.0
 11
-94.70126582635794
 21
-104.5304456935107
 31
0.0
  0
LINE
  8
DETAIL
  6
CONTINUOUS
 62
     5
 10
-94.70126582635794
 20
-104.5304456935107
 30
0.0
 11
-94.695079379432173
 21
-104.5229928443225
 31
0.0
  0
LINE
  8
DETAIL
  6
CONTINUOUS
 62
     5
 10
-94.695079379432173
 20
-104.5229928443225
 30
0.0
 11
-94.695079379432173
 21
-104.5229928443225
 31
0.0
  0
LINE
  8
DETAIL
  6
CONTINUOUS
 62
     5
 10
-94.695079379432173
 20
-104.5229928443225
 30
0.0
 11
-94.688947758569157
 21
-104.5154816990303
 31
0.0
  0
LINE
  8
DETAIL
  6
CONTINUOUS
 62
     5
 10
-94.688947758569157
 20
-104.5154816990303
 30
0.0
 11
-94.682865243101787
 21
-104.50791955288319
 31
0.0
  0
LINE
  8
DETAIL
  6
CONTINUOUS
 62
     5
 10
-94.682865243101787
 20
-104.50791955288319
 30
0.0
 11
-94.682865243101787
 21
-104.50791955288319
 31
0.0
  0
LINE
  8
DETAIL
  6
CONTINUOUS
 62
     5
 10
-94.682865243101787
 20
-104.50791955288319
 30
0.0
 11
-94.676826602662914
 21
-104.50031899187501
 31
0.0
  0
LINE
  8
DETAIL
  6
CONTINUOUS
 62
     5
 10
-94.676826602662914
 20
-104.50031899187501
 30
0.0
 11
-94.670822416930832
 21
-104.4926880243213
 31
0.0
  0
LINE
  8
DETAIL
  6
CONTINUOUS
 62
     5
 10
-94.670822416930832
 20
-104.4926880243213
 30
0.0
 11
-94.670822416930832
 21
-104.4926880243213
 31
0.0
  0
LINE
  8
DETAIL
  6
CONTINUOUS
 62
     5
 10
-94.670822416930832
 20
-104.4926880243213
 30
0.0
 11
-94.664842498768394
 21
-104.48503382076549
 31
0.0
  0
LINE
  8
DETAIL
  6
CONTINUOUS
 62
     5
 10
-94.664842498768394
 20
-104.48503382076549
 30
0.0
 11
-94.658877783734397
 21
-104.4773647783354
 31
0.0
  0
LINE
  8
DETAIL
  6
CONTINUOUS
 62
     5
 10
-94.658877783734397
 20
-104.4773647783354
 30
0.0
 11
-94.658877783734397
 21
-104.4773647783354
 31
0.0
  0
LINE
  8
DETAIL
  6
CONTINUOUS
 62
     5
 10
-94.658877783734397
 20
-104.4773647783354
 30
0.0
 11
-94.652919412853407
 21
-104.4696895186398
 31
0.0
  0
LINE
  8
DETAIL
  6
CONTINUOUS
 62
     5
 10
-94.652919412853407
 20
-104.4696895186398
 30
0.0
 11
-94.64695822632666
 21
-104.46201633462491
 31
0.0
  0
LINE
  8
DETAIL
  6
CONTINUOUS
 62
     5
 10
-94.64695822632666
 20
-104.46201633462491
 30
0.0
 11
-94.64695822632666
 21
-104.46201633462491
 31
0.0
  0
LINE
  8
DETAIL
  6
CONTINUOUS
 62
     5
 10
-94.64695822632666
 20
-104.46201633462491
 30
0.0
 11
-94.640985009298674
 21
-104.4543534590871
 31
0.0
  0
LINE
  8
DETAIL
  6
CONTINUOUS
 62
     5
 10
-94.640985009298674
 20
-104.4543534590871
 30
0.0
 11
-94.634990627522257
 21
-104.44670921288839
 31
0.0
  0
LINE
  8
DETAIL
  6
CONTINUOUS
 62
     5
 10
-94.634990627522257
 20
-104.44670921288839
 30
0.0
 11
-94.634990627522257
 21
-104.44670921288839
 31
0.0
  0
LINE
  8
DETAIL
  6
CONTINUOUS
 62
     5
 10
-94.634990627522257
 20
-104.44670921288839
 30
0.0
 11
-94.628968990463818
 21
-104.4390892369659
 31
0.0
  0
LINE
  8
DETAIL
  6
CONTINUOUS
 62
     5
 10
-94.628968990463818
 20
-104.4390892369659
 30
0.0
 11
-94.622926101851135
 21
-104.431488364492
 31
0.0
  0
LINE
  8
DETAIL
  6
CONTINUOUS
 62
     5
 10
-94.622926101851135
 20
-104.431488364492
 30
0.0
 11
-94.622926101851135
 21
-104.431488364492
 31
0.0
  0
LINE
  8
DETAIL
  6
CONTINUOUS
 62
     5
 10
-94.622926101851135
 20
-104.431488364492
 30
0.0
 11
-94.616870990420466
 21
-104.42389872827989
 31
0.0
  0
LINE
  8
DETAIL
  6
CONTINUOUS
 62
     5
 10
-94.616870990420466
 20
-104.42389872827989
 30
0.0
 11
-94.61081269069814
 21
-104.4163124674651
 31
0.0
  0
LINE
  8
DETAIL
  6
CONTINUOUS
 62
     5
 10
-94.61081269069814
 20
-104.4163124674651
 30
0.0
 11
-94.61081269069814
 21
-104.4163124674651
 31
0.0
  0
LINE
  8
DETAIL
  6
CONTINUOUS
 62
     5
 10
-94.61081269069814
 20
-104.4163124674651
 30
0.0
 11
-94.604760238269137
 21
-104.4087217223403
 31
0.0
  0
LINE
  8
DETAIL
  6
CONTINUOUS
 62
     5
 10
-94.604760238269137
 20
-104.4087217223403
 30
0.0
 11
-94.59872266716684
 21
-104.401118631504
 31
0.0
  0
LINE
  8
DETAIL
  6
CONTINUOUS
 62
     5
 10
-94.59872266716684
 20
-104.401118631504
 30
0.0
 11
-94.59872266716684
 21
-104.401118631504
 31
0.0
  0
LINE
  8
DETAIL
  6
CONTINUOUS
 62
     5
 10
-94.59872266716684
 20
-104.401118631504
 30
0.0
 11
-94.592709011140869
 21
-104.3934953332446
 31
0.0
  0
LINE
  8
DETAIL
  6
CONTINUOUS
 62
     5
 10
-94.592709011140869
 20
-104.3934953332446
 30
0.0
 11
-94.586728304356257
 21
-104.38584396630451
 31
0.0
  0
LINE
  8
DETAIL
  6
CONTINUOUS
 62
     5
 10
-94.586728304356257
 20
-104.38584396630451
 30
0.0
 11
-94.586728304356257
 21
-104.38584396630451
 31
0.0
  0
LINE
  8
DETAIL
  6
CONTINUOUS
 62
     5
 10
-94.586728304356257
 20
-104.38584396630451
 30
0.0
 11
-94.580789581055114
 21
-104.37815666950929
 31
0.0
  0
LINE
  8
DETAIL
  6
CONTINUOUS
 62
     5
 10
-94.580789581055114
 20
-104.37815666950929
 30
0.0
 11
-94.574901875368141
 21
-104.3704255815628
 31
0.0
  0
LINE
  8
DETAIL
  6
CONTINUOUS
 62
     5
 10
-94.574901875368141
 20
-104.3704255815628
 30
0.0
 11
-94.574901875368141
 21
-104.3704255815628
 31
0.0
  0
LINE
  8
DETAIL
  6
CONTINUOUS
 62
     5
 10
-94.574901875368141
 20
-104.3704255815628
 30
0.0
 11
-94.56907208034545
 21
-104.36264471019651
 31
0.0
  0
LINE
  8
DETAIL
  6
CONTINUOUS
 62
     5
 10
-94.56907208034545
 20
-104.36264471019651
 30
0.0
 11
-94.563298524832362
 21
-104.35481553937301
 31
0.0
  0
LINE
  8
DETAIL
  6
CONTINUOUS
 62
     5
 10
-94.563298524832362
 20
-104.35481553937301
 30
0.0
 11
-94.563298524832362
 21
-104.35481553937301
 31
0.0
  0
LINE
  8
DETAIL
  6
CONTINUOUS
 62
     5
 10
-94.563298524832362
 20
-104.35481553937301
 30
0.0
 11
-94.5575773966209
 21
-104.3469414221111
 31
0.0
  0
LINE
  8
DETAIL
  6
CONTINUOUS
 62
     5
 10
-94.5575773966209
 20
-104.3469414221111
 30
0.0
 11
-94.551904883495126
 21
-104.3390257114206
 31
0.0
  0
LINE
  8
DETAIL
  6
CONTINUOUS
 62
     5
 10
-94.551904883495126
 20
-104.3390257114206
 30
0.0
 11
-94.551904883495126
 21
-104.3390257114206
 31
0.0
  0
LINE
  8
DETAIL
  6
CONTINUOUS
 62
     5
 10
-94.551904883495126
 20
-104.3390257114206
 30
0.0
 11
-94.546277173237286
 21
-104.3310717603097
 31
0.0
  0
LINE
  8
DETAIL
  6
CONTINUOUS
 62
     5
 10
-94.546277173237286
 20
-104.3310717603097
 30
0.0
 11
-94.540690453632124
 21
-104.32308292178909
 31
0.0
  0
LINE
  8
DETAIL
  6
CONTINUOUS
 62
     5
 10
-94.540690453632124
 20
-104.32308292178909
 30
0.0
 11
-94.540690453632124
 21
-104.32308292178909
 31
0.0
  0
LINE
  8
DETAIL
  6
CONTINUOUS
 62
     5
 10
-94.540690453632124
 20
-104.32308292178909
 30
0.0
 11
-94.535140912464385
 21
-104.31506254886951
 31
0.0
  0
LINE
  8
DETAIL
  6
CONTINUOUS
 62
     5
 10
-94.535140912464385
 20
-104.31506254886951
 30
0.0
 11
-94.529624737518134
 21
-104.3070139945617
 31
0.0
  0
LINE
  8
DETAIL
  6
CONTINUOUS
 62
     5
 10
-94.529624737518134
 20
-104.3070139945617
 30
0.0
 11
-94.529624737518134
 21
-104.3070139945617
 31
0.0
  0
LINE
  8
DETAIL
  6
CONTINUOUS
 62
     5
 10
-94.529624737518134
 20
-104.3070139945617
 30
0.0
 11
-94.524138116577888
 21
-104.29894061187569
 31
0.0
  0
LINE
  8
DETAIL
  6
CONTINUOUS
 62
     5
 10
-94.524138116577888
 20
-104.29894061187569
 30
0.0
 11
-94.518677237428165
 21
-104.2908457538222
 31
0.0
  0
LINE
  8
DETAIL
  6
CONTINUOUS
 62
     5
 10
-94.518677237428165
 20
-104.2908457538222
 30
0.0
 11
-94.518677237428165
 21
-104.2908457538222
 31
0.0
  0
LINE
  8
DETAIL
  6
CONTINUOUS
 62
     5
 10
-94.518677237428165
 20
-104.2908457538222
 30
0.0
 11
-94.513238026952649
 21
-104.2827329375491
 31
0.0
  0
LINE
  8
DETAIL
  6
CONTINUOUS
 62
     5
 10
-94.513238026952649
 20
-104.2827329375491
 30
0.0
 11
-94.507815368434876
 21
-104.2746063367558
 31
0.0
  0
LINE
  8
DETAIL
  6
CONTINUOUS
 62
     5
 10
-94.507815368434876
 20
-104.2746063367558
 30
0.0
 11
-94.507815368434876
 21
-104.2746063367558
 31
0.0
  0
LINE
  8
DETAIL
  6
CONTINUOUS
 62
     5
 10
-94.507815368434876
 20
-104.2746063367558
 30
0.0
 11
-94.50240388425641
 21
-104.2664702892789
 31
0.0
  0
LINE
  8
DETAIL
  6
CONTINUOUS
 62
     5
 10
-94.50240388425641
 20
-104.2664702892789
 30
0.0
 11
-94.496998196800632
 21
-104.2583291329552
 31
0.0
  0
LINE
  8
DETAIL
  6
CONTINUOUS
 62
     5
 10
-94.496998196800632
 20
-104.2583291329552
 30
0.0
 11
-94.496998196800632
 21
-104.2583291329552
 31
0.0
  0
LINE
  8
DETAIL
  6
CONTINUOUS
 62
     5
 10
-94.496998196800632
 20
-104.2583291329552
 30
0.0
 11
-94.491592928449563
 21
-104.2501872056214
 31
0.0
  0
LINE
  8
DETAIL
  6
CONTINUOUS
 62
     5
 10
-94.491592928449563
 20
-104.2501872056214
 30
0.0
 11
-94.486182701585676
 21
-104.2420488451146
 31
0.0
  0
LINE
  8
DETAIL
  6
CONTINUOUS
 62
     5
 10
-94.486182701585676
 20
-104.2420488451146
 30
0.0
 11
-94.486182701585676
 21
-104.2420488451146
 31
0.0
  0
LINE
  8
DETAIL
  6
CONTINUOUS
 62
     5
 10
-94.486182701585676
 20
-104.2420488451146
 30
0.0
 11
-94.480762138590762
 21
-104.233918389271
 31
0.0
  0
LINE
  8
DETAIL
  6
CONTINUOUS
 62
     5
 10
-94.480762138590762
 20
-104.233918389271
 30
0.0
 11
-94.475325861848432
 21
-104.2258001759283
 31
0.0
  0
LINE
  8
DETAIL
  6
CONTINUOUS
 62
     5
 10
-94.475325861848432
 20
-104.2258001759283
 30
0.0
 11
-94.475325861848432
 21
-104.2258001759283
 31
0.0
  0
LINE
  8
DETAIL
  6
CONTINUOUS
 62
     5
 10
-94.475325861848432
 20
-104.2258001759283
 30
0.0
 11
-94.46986849374025
 21
-104.21769854292261
 31
0.0
  0
LINE
  8
DETAIL
  6
CONTINUOUS
 62
     5
 10
-94.46986849374025
 20
-104.21769854292261
 30
0.0
 11
-94.464384656649145
 21
-104.209617828091
 31
0.0
  0
LINE
  8
DETAIL
  6
CONTINUOUS
 62
     5
 10
-94.464384656649145
 20
-104.209617828091
 30
0.0
 11
-94.464384656649145
 21
-104.209617828091
 31
0.0
  0
LINE
  8
DETAIL
  6
CONTINUOUS
 62
     5
 10
-94.464384656649145
 20
-104.209617828091
 30
0.0
 11
-94.458872157617179
 21
-104.2015598436692
 31
0.0
  0
LINE
  8
DETAIL
  6
CONTINUOUS
 62
     5
 10
-94.458872157617179
 20
-104.2015598436692
 30
0.0
 11
-94.453341542327053
 21
-104.1935162994907
 31
0.0
  0
LINE
  8
DETAIL
  6
CONTINUOUS
 62
     5
 10
-94.453341542327053
 20
-104.1935162994907
 30
0.0
 11
-94.453341542327053
 21
-104.1935162994907
 31
0.0
  0
LINE
  8
DETAIL
  6
CONTINUOUS
 62
     5
 10
-94.453341542327053
 20
-104.1935162994907
 30
0.0
 11
-94.447806541120599
 21
-104.1854763797876
 31
0.0
  0
LINE
  8
DETAIL
  6
CONTINUOUS
 62
     5
 10
-94.447806541120599
 20
-104.1854763797876
 30
0.0
 11
-94.44228088433988
 21
-104.1774292687919
 31
0.0
  0
LINE
  8
DETAIL
  6
CONTINUOUS
 62
     5
 10
-94.44228088433988
 20
-104.1774292687919
 30
0.0
 11
-94.44228088433988
 21
-104.1774292687919
 31
0.0
  0
LINE
  8
DETAIL
  6
CONTINUOUS
 62
     5
 10
-94.44228088433988
 20
-104.1774292687919
 30
0.0
 11
-94.436778302327411
 21
-104.1693641507363
 31
0.0
  0
LINE
  8
DETAIL
  6
CONTINUOUS
 62
     5
 10
-94.436778302327411
 20
-104.1693641507363
 30
0.0
 11
-94.431312525425483
 21
-104.1612702098528
 31
0.0
  0
LINE
  8
DETAIL
  6
CONTINUOUS
 62
     5
 10
-94.431312525425483
 20
-104.1612702098528
 30
0.0
 11
-94.431312525425483
 21
-104.1612702098528
 31
0.0
  0
LINE
  8
DETAIL
  6
CONTINUOUS
 62
     5
 10
-94.431312525425483
 20
-104.1612702098528
 30
0.0
 11
-94.425897283975928
 21
-104.1531366303734
 31
0.0
  0
LINE
  8
DETAIL
  6
CONTINUOUS
 62
     5
 10
-94.425897283975928
 20
-104.1531366303734
 30
0.0
 11
-94.420546308320354
 21
-104.1449525965309
 31
0.0
  0
LINE
  8
DETAIL
  6
CONTINUOUS
 62
     5
 10
-94.420546308320354
 20
-104.1449525965309
 30
0.0
 11
-94.420546308320354
 21
-104.1449525965309
 31
0.0
  0
LINE
  8
DETAIL
  6
CONTINUOUS
 62
     5
 10
-94.420546308320354
 20
-104.1449525965309
 30
0.0
 11
-94.415273328801504
 21
-104.1367072925573
 31
0.0
  0
LINE
  8
DETAIL
  6
CONTINUOUS
 62
     5
 10
-94.415273328801504
 20
-104.1367072925573
 30
0.0
 11
-94.410092075761895
 21
-104.1283899026851
 31
0.0
  0
LINE
  8
DETAIL
  6
CONTINUOUS
 62
     5
 10
-94.410092075761895
 20
-104.1283899026851
 30
0.0
 11
-94.410092075761895
 21
-104.1283899026851
 31
0.0
  0
LINE
  8
DETAIL
  6
CONTINUOUS
 62
     5
 10
-94.410092075761895
 20
-104.1283899026851
 30
0.0
 11
-94.405011699343049
 21
-104.11999321032521
 31
0.0
  0
LINE
  8
DETAIL
  6
CONTINUOUS
 62
     5
 10
-94.405011699343049
 20
-104.11999321032521
 30
0.0
 11
-94.400023028884107
 21
-104.11152439560711
 31
0.0
  0
LINE
  8
DETAIL
  6
CONTINUOUS
 62
     5
 10
-94.400023028884107
 20
-104.11152439560711
 30
0.0
 11
-94.400023028884107
 21
-104.11152439560711
 31
0.0
  0
LINE
  8
DETAIL
  6
CONTINUOUS
 62
     5
 10
-94.400023028884107
 20
-104.11152439560711
 30
0.0
 11
-94.395112313524123
 21
-104.1029942378384
 31
0.0
  0
LINE
  8
DETAIL
  6
CONTINUOUS
 62
     5
 10
-94.395112313524123
 20
-104.1029942378384
 30
0.0
 11
-94.390265802402837
 21
-104.09441351632719
 31
0.0
  0
LINE
  8
DETAIL
  6
CONTINUOUS
 62
     5
 10
-94.390265802402837
 20
-104.09441351632719
 30
0.0
 11
-94.390265802402837
 21
-104.09441351632719
 31
0.0
  0
LINE
  8
DETAIL
  6
CONTINUOUS
 62
     5
 10
-94.390265802402837
 20
-104.09441351632719
 30
0.0
 11
-94.385469744659531
 21
-104.08579301038139
 31
0.0
  0
LINE
  8
DETAIL
  6
CONTINUOUS
 62
     5
 10
-94.385469744659531
 20
-104.08579301038139
 30
0.0
 11
-94.380710389433489
 21
-104.0771434993092
 31
0.0
  0
LINE
  8
DETAIL
  6
CONTINUOUS
 62
     5
 10
-94.380710389433489
 20
-104.0771434993092
 30
0.0
 11
-94.380710389433489
 21
-104.0771434993092
 31
0.0
  0
LINE
  8
DETAIL
  6
CONTINUOUS
 62
     5
 10
-94.380710389433489
 20
-104.0771434993092
 30
0.0
 11
-94.375973985862629
 21
-104.0684757624183
 31
0.0
  0
LINE
  8
DETAIL
  6
CONTINUOUS
 62
     5
 10
-94.375973985862629
 20
-104.0684757624183
 30
0.0
 11
-94.371246783086917
 21
-104.05980057901731
 31
0.0
  0
LINE
  8
DETAIL
  6
CONTINUOUS
 62
     5
 10
-94.371246783086917
 20
-104.05980057901731
 30
0.0
 11
-94.371246783086917
 21
-104.05980057901731
 31
0.0
  0
LINE
  8
DETAIL
  6
CONTINUOUS
 62
     5
 10
-94.371246783086917
 20
-104.05980057901731
 30
0.0
 11
-94.366515030245864
 21
-104.0511287284137
 31
0.0
  0
LINE
  8
DETAIL
  6
CONTINUOUS
 62
     5
 10
-94.366515030245864
 20
-104.0511287284137
 30
0.0
 11
-94.361764976478298
 21
-104.0424709899155
 31
0.0
  0
LINE
  8
DETAIL
  6
CONTINUOUS
 62
     5
 10
-94.361764976478298
 20
-104.0424709899155
 30
0.0
 11
-94.361764976478298
 21
-104.0424709899155
 31
0.0
  0
LINE
  8
DETAIL
  6
CONTINUOUS
 62
     5
 10
-94.361764976478298
 20
-104.0424709899155
 30
0.0
 11
-94.356986076101975
 21
-104.03383565368949
 31
0.0
  0
LINE
  8
DETAIL
  6
CONTINUOUS
 62
     5
 10
-94.356986076101975
 20
-104.03383565368949
 30
0.0
 11
-94.352180604150135
 21
-104.0252210533356
 31
0.0
  0
LINE
  8
DETAIL
  6
CONTINUOUS
 62
     5
 10
-94.352180604150135
 20
-104.0252210533356
 30
0.0
 11
-94.352180604150135
 21
-104.0252210533356
 31
0.0
  0
LINE
  8
DETAIL
  6
CONTINUOUS
 62
     5
 10
-94.352180604150135
 20
-104.0252210533356
 30
0.0
 11
-94.347354040833125
 21
-104.0166230333123
 31
0.0
  0
LINE
  8
DETAIL
  6
CONTINUOUS
 62
     5
 10
-94.347354040833125
 20
-104.0166230333123
 30
0.0
 11
-94.342511866364475
 21
-104.0080374380782
 31
0.0
  0
LINE
  8
DETAIL
  6
CONTINUOUS
 62
     5
 10
-94.342511866364475
 20
-104.0080374380782
 30
0.0
 11
-94.342511866364475
 21
-104.0080374380782
 31
0.0
  0
LINE
  8
DETAIL
  6
CONTINUOUS
 62
     5
 10
-94.342511866364475
 20
-104.0080374380782
 30
0.0
 11
-94.33765956095408
 21
-103.999460112092
 31
0.0
  0
LINE
  8
DETAIL
  6
CONTINUOUS
 62
     5
 10
-94.33765956095408
 20
-103.999460112092
 30
0.0
 11
-94.332802604815242
 21
-103.99088689981249
 31
0.0
  0
LINE
  8
DETAIL
  6
CONTINUOUS
 62
     5
 10
-94.332802604815242
 20
-103.99088689981249
 30
0.0
 11
-94.332802604815242
 21
-103.99088689981249
 31
0.0
  0
LINE
  8
DETAIL
  6
CONTINUOUS
 62
     5
 10
-94.332802604815242
 20
-103.99088689981249
 30
0.0
 11
-94.327946478157855
 21
-103.9823136456978
 31
0.0
  0
LINE
  8
DETAIL
  6
CONTINUOUS
 62
     5
 10
-94.327946478157855
 20
-103.9823136456978
 30
0.0
 11
-94.323096661194086
 21
-103.97373619420659
 31
0.0
  0
LINE
  8
DETAIL
  6
CONTINUOUS
 62
     5
 10
-94.323096661194086
 20
-103.97373619420659
 30
0.0
 11
-94.323096661194086
 21
-103.97373619420659
 31
0.0
  0
LINE
  8
DETAIL
  6
CONTINUOUS
 62
     5
 10
-94.323096661194086
 20
-103.97373619420659
 30
0.0
 11
-94.3182586341361
 21
-103.9651503897976
 31
0.0
  0
LINE
  8
DETAIL
  6
CONTINUOUS
 62
     5
 10
-94.3182586341361
 20
-103.9651503897976
 30
0.0
 11
-94.313437877194701
 21
-103.9565520769295
 31
0.0
  0
LINE
  8
DETAIL
  6
CONTINUOUS
 62
     5
 10
-94.313437877194701
 20
-103.9565520769295
 30
0.0
 11
-94.313437877194701
 21
-103.9565520769295
 31
0.0
  0
LINE
  8
DETAIL
  6
CONTINUOUS
 62
     5
 10
-94.313437877194701
 20
-103.9565520769295
 30
0.0
 11
-94.308639634278734
 21
-103.9479372921101
 31
0.0
  0
LINE
  8
DETAIL
  6
CONTINUOUS
 62
     5
 10
-94.308639634278734
 20
-103.9479372921101
 30
0.0
 11
-94.30386820407989
 21
-103.9393028400448
 31
0.0
  0
LINE
  8
DETAIL
  6
CONTINUOUS
 62
     5
 10
-94.30386820407989
 20
-103.9393028400448
 30
0.0
 11
-94.30386820407989
 21
-103.9393028400448
 31
0.0
  0
LINE
  8
DETAIL
  6
CONTINUOUS
 62
     5
 10
-94.30386820407989
 20
-103.9393028400448
 30
0.0
 11
-94.299127648986996
 21
-103.9306457174889
 31
0.0
  0
LINE
  8
DETAIL
  6
CONTINUOUS
 62
     5
 10
-94.299127648986996
 20
-103.9306457174889
 30
0.0
 11
-94.294422031389331
 21
-103.9219629211975
 31
0.0
  0
LINE
  8
DETAIL
  6
CONTINUOUS
 62
     5
 10
-94.294422031389331
 20
-103.9219629211975
 30
0.0
 11
-94.294422031389331
 21
-103.9219629211975
 31
0.0
  0
LINE
  8
DETAIL
  6
CONTINUOUS
 62
     5
 10
-94.294422031389331
 20
-103.9219629211975
 30
0.0
 11
-94.289755413675721
 21
-103.9132514479254
 31
0.0
  0
LINE
  8
DETAIL
  6
CONTINUOUS
 62
     5
 10
-94.289755413675721
 20
-103.9132514479254
 30
0.0
 11
-94.285131858236355
 21
-103.9045082944283
 31
0.0
  0
LINE
  8
DETAIL
  6
CONTINUOUS
 62
     5
 10
-94.285131858236355
 20
-103.9045082944283
 30
0.0
 11
-94.285131858236355
 21
-103.9045082944283
 31
0.0
  0
LINE
  8
DETAIL
  6
CONTINUOUS
 62
     5
 10
-94.285131858236355
 20
-103.9045082944283
 30
0.0
 11
-94.280555427458694
 21
-103.8957304574618
 31
0.0
  0
LINE
  8
DETAIL
  6
CONTINUOUS
 62
     5
 10
-94.280555427458694
 20
-103.8957304574618
 30
0.0
 11
-94.276030183731336
 21
-103.8869149337777
 31
0.0
  0
LINE
  8
DETAIL
  6
CONTINUOUS
 62
     5
 10
-94.276030183731336
 20
-103.8869149337777
 30
0.0
 11
-94.276030183731336
 21
-103.8869149337777
 31
0.0
  0
LINE
  8
DETAIL
  6
CONTINUOUS
 62
     5
 10
-94.276030183731336
 20
-103.8869149337777
 30
0.0
 11
-94.271560189441971
 21
-103.8780587201302
 31
0.0
  0
LINE
  8
DETAIL
  6
CONTINUOUS
 62
     5
 10
-94.271560189441971
 20
-103.8780587201302
 30
0.0
 11
-94.267149506985561
 21
-103.86915881328559
 31
0.0
  0
LINE
  8
DETAIL
  6
CONTINUOUS
 62
     5
 10
-94.267149506985561
 20
-103.86915881328559
 30
0.0
 11
-94.267149506985561
 21
-103.86915881328559
 31
0.0
  0
LINE
  8
DETAIL
  6
CONTINUOUS
 62
     5
 10
-94.267149506985561
 20
-103.86915881328559
 30
0.0
 11
-94.262799938787339
 21
-103.8602139309457
 31
0.0
  0
LINE
  8
DETAIL
  6
CONTINUOUS
 62
     5
 10
-94.262799938787339
 20
-103.8602139309457
 30
0.0
 11
-94.258504247406336
 21
-103.8512296745469
 31
0.0
  0
LINE
  8
DETAIL
  6
CONTINUOUS
 62
     5
 10
-94.258504247406336
 20
-103.8512296745469
 30
0.0
 11
-94.258504247406336
 21
-103.8512296745469
 31
0.0
  0
LINE
  8
DETAIL
  6
CONTINUOUS
 62
     5
 10
-94.258504247406336
 20
-103.8512296745469
 30
0.0
 11
-94.254252935446857
 21
-103.8422133664976
 31
0.0
  0
LINE
  8
DETAIL
  6
CONTINUOUS
 62
     5
 10
-94.254252935446857
 20
-103.8422133664976
 30
0.0
 11
-94.25003650558051
 21
-103.8331723293711
 31
0.0
  0
LINE
  8
DETAIL
  6
CONTINUOUS
 62
     5
 10
-94.25003650558051
 20
-103.8331723293711
 30
0.0
 11
-94.25003650558051
 21
-103.8331723293711
 31
0.0
  0
LINE
  8
DETAIL
  6
CONTINUOUS
 62
     5
 10
-94.25003650558051
 20
-103.8331723293711
 30
0.0
 11
-94.24584546043161
 21
-103.82411388562829
 31
0.0
  0
LINE
  8
DETAIL
  6
CONTINUOUS
 62
     5
 10
-94.24584546043161
 20
-103.82411388562829
 30
0.0
 11
-94.241670302393459
 21
-103.8150453571234
 31
0.0
  0
LINE
  8
DETAIL
  6
CONTINUOUS
 62
     5
 10
-94.241670302393459
 20
-103.8150453571234
 30
0.0
 11
-94.241670302393459
 21
-103.8150453571234
 31
0.0
  0
LINE
  8
DETAIL
  6
CONTINUOUS
 62
     5
 10
-94.241670302393459
 20
-103.8150453571234
 30
0.0
 11
-94.237501534017383
 21
-103.8059740661247
 31
0.0
  0
LINE
  8
DETAIL
  6
CONTINUOUS
 62
     5
 10
-94.237501534017383
 20
-103.8059740661247
 30
0.0
 11
-94.233329658728053
 21
-103.7969073371675
 31
0.0
  0
LINE
  8
DETAIL
  6
CONTINUOUS
 62
     5
 10
-94.233329658728053
 20
-103.7969073371675
 30
0.0
 11
-94.233329658728053
 21
-103.7969073371675
 31
0.0
  0
LINE
  8
DETAIL
  6
CONTINUOUS
 62
     5
 10
-94.233329658728053
 20
-103.7969073371675
 30
0.0
 11
-94.229145179353736
 21
-103.7878524932396
 31
0.0
  0
LINE
  8
DETAIL
  6
CONTINUOUS
 62
     5
 10
-94.229145179353736
 20
-103.7878524932396
 30
0.0
 11
-94.22493859546762
 21
-103.7788168488685
 31
0.0
  0
LINE
  8
DETAIL
  6
CONTINUOUS
 62
     5
 10
-94.22493859546762
 20
-103.7788168488685
 30
0.0
 11
-94.22493859546762
 21
-103.7788168488685
 31
0.0
  0
LINE
  8
DETAIL
  6
CONTINUOUS
 62
     5
 10
-94.22493859546762
 20
-103.7788168488685
 30
0.0
 11
-94.220703568833642
 21
-103.7698050715842
 31
0.0
  0
LINE
  8
DETAIL
  6
CONTINUOUS
 62
     5
 10
-94.220703568833642
 20
-103.7698050715842
 30
0.0
 11
-94.216446413240419
 21
-103.7608112493854
 31
0.0
  0
LINE
  8
DETAIL
  6
CONTINUOUS
 62
     5
 10
-94.216446413240419
 20
-103.7608112493854
 30
0.0
 11
-94.216446413240419
 21
-103.7608112493854
 31
0.0
  0
LINE
  8
DETAIL
  6
CONTINUOUS
 62
     5
 10
-94.216446413240419
 20
-103.7608112493854
 30
0.0
 11
-94.212176594144466
 21
-103.7518267959308
 31
0.0
  0
LINE
  8
DETAIL
  6
CONTINUOUS
 62
     5
 10
-94.212176594144466
 20
-103.7518267959308
 30
0.0
 11
-94.207903531646252
 21
-103.7428430070597
 31
0.0
  0
LINE
  8
DETAIL
  6
CONTINUOUS
 62
     5
 10
-94.207903531646252
 20
-103.7428430070597
 30
0.0
 11
-94.207903531646252
 21
-103.7428430070597
 31
0.0
  0
LINE
  8
DETAIL
  6
CONTINUOUS
 62
     5
 10
-94.207903531646252
 20
-103.7428430070597
 30
0.0
 11
-94.203636676824772
 21
-103.73385125908381
 31
0.0
  0
LINE
  8
DETAIL
  6
CONTINUOUS
 62
     5
 10
-94.203636676824772
 20
-103.73385125908381
 30
0.0
 11
-94.199385650030763
 21
-103.7248433680286
 31
0.0
  0
LINE
  8
DETAIL
  6
CONTINUOUS
 62
     5
 10
-94.199385650030763
 20
-103.7248433680286
 30
0.0
 11
-94.199385650030763
 21
-103.7248433680286
 31
0.0
  0
LINE
  8
DETAIL
  6
CONTINUOUS
 62
     5
 10
-94.199385650030763
 20
-103.7248433680286
 30
0.0
 11
-94.195159955999543
 21
-103.7158108495894
 31
0.0
  0
LINE
  8
DETAIL
  6
CONTINUOUS
 62
     5
 10
-94.195159955999543
 20
-103.7158108495894
 30
0.0
 11
-94.190968467737775
 21
-103.7067435784288
 31
0.0
  0
LINE
  8
DETAIL
  6
CONTINUOUS
 62
     5
 10
-94.190968467737775
 20
-103.7067435784288
 30
0.0
 11
-94.190968467737775
 21
-103.7067435784288
 31
0.0
  0
LINE
  8
DETAIL
  6
CONTINUOUS
 62
     5
 10
-94.190968467737775
 20
-103.7067435784288
 30
0.0
 11
-94.186820489730735
 21
-103.6976325500552
 31
0.0
  0
LINE
  8
DETAIL
  6
CONTINUOUS
 62
     5
 10
-94.186820489730735
 20
-103.6976325500552
 30
0.0
 11
-94.182727684112024
 21
-103.688474884397
 31
0.0
  0
LINE
  8
DETAIL
  6
CONTINUOUS
 62
     5
 10
-94.182727684112024
 20
-103.688474884397
 30
0.0
 11
-94.182727684112024
 21
-103.688474884397
 31
0.0
  0
LINE
  8
DETAIL
  6
CONTINUOUS
 62
     5
 10
-94.182727684112024
 20
-103.688474884397
 30
0.0
 11
-94.178697650139384
 21
-103.6792657700132
 31
0.0
  0
LINE
  8
DETAIL
  6
CONTINUOUS
 62
     5
 10
-94.178697650139384
 20
-103.6792657700132
 30
0.0
 11
-94.174719377922884
 21
-103.66998654556321
 31
0.0
  0
LINE
  8
DETAIL
  6
CONTINUOUS
 62
     5
 10
-94.174719377922884
 20
-103.66998654556321
 30
0.0
 11
-94.174719377922884
 21
-103.66998654556321
 31
0.0
  0
LINE
  8
DETAIL
  6
CONTINUOUS
 62
     5
 10
-94.174719377922884
 20
-103.66998654556321
 30
0.0
 11
-94.170785414733473
 21
-103.66063641277221
 31
0.0
  0
LINE
  8
DETAIL
  6
CONTINUOUS
 62
     5
 10
-94.170785414733473
 20
-103.66063641277221
 30
0.0
 11
-94.166921145638526
 21
-103.6512998755277
 31
0.0
  0
LINE
  8
DETAIL
  6
CONTINUOUS
 62
     5
 10
-94.166921145638526
 20
-103.6512998755277
 30
0.0
 11
-94.166921145638526
 21
-103.6512998755277
 31
0.0
  0
LINE
  8
DETAIL
  6
CONTINUOUS
 62
     5
 10
-94.166921145638526
 20
-103.6512998755277
 30
0.0
 11
-94.163129527074034
 21
-103.6420031752568
 31
0.0
  0
LINE
  8
DETAIL
  6
CONTINUOUS
 62
     5
 10
-94.163129527074034
 20
-103.6420031752568
 30
0.0
 11
-94.15929096315358
 21
-103.6324542013833
 31
0.0
  0
LINE
  8
DETAIL
  6
CONTINUOUS
 62
     5
 10
-94.15929096315358
 20
-103.6324542013833
 30
0.0
 11
-94.15929096315358
 21
-103.6324542013833
 31
0.0
  0
LINE
  8
DETAIL
  6
CONTINUOUS
 62
     5
 10
-94.15929096315358
 20
-103.6324542013833
 30
0.0
 11
-94.15536956278288
 21
-103.622578281793
 31
0.0
  0
LINE
  8
DETAIL
  6
CONTINUOUS
 62
     5
 10
-94.15536956278288
 20
-103.622578281793
 30
0.0
 11
-94.151786806359951
 21
-103.61348885022331
 31
0.0
  0
LINE
  8
DETAIL
  6
CONTINUOUS
 62
     5
 10
-94.151786806359951
 20
-103.61348885022331
 30
0.0
 11
-94.151786806359951
 21
-103.61348885022331
 31
0.0
  0
LINE
  8
DETAIL
  6
CONTINUOUS
 62
     5
 10
-94.151786806359951
 20
-103.61348885022331
 30
0.0
 11
-94.148651783742935
 21
-103.6054878490236
 31
0.0
  0
LINE
  8
DETAIL
  6
CONTINUOUS
 62
     5
 10
-94.148651783742935
 20
-103.6054878490236
 30
0.0
 11
-94.144366651152268
 21
-103.5944431491407
 31
0.0
  0
LINE
  8
DETAIL
  6
CONTINUOUS
 62
     5
 10
-94.144366651152268
 20
-103.5944431491407
 30
0.0
 11
-94.144366651152268
 21
-103.5944431491407
 31
0.0
  0
LINE
  8
DETAIL
  6
CONTINUOUS
 62
     5
 10
-94.144366651152268
 20
-103.5944431491407
 30
0.0
 11
-94.137583098700361
 21
-103.5768595672087
 31
0.0
  0
LINE
  8
DETAIL
  6
CONTINUOUS
 62
     5
 10
-94.137583098700361
 20
-103.5768595672087
 30
0.0
 11
-94.129657885714096
 21
-103.5562237740191
 31
0.0
  0
LINE
  8
DETAIL
  6
CONTINUOUS
 62
     5
 10
-94.129657885714096
 20
-103.5562237740191
 30
0.0
 11
-94.129657885714096
 21
-103.5562237740191
 31
0.0
  0
LINE
  8
DETAIL
  6
CONTINUOUS
 62
     5
 10
-94.129657885714096
 20
-103.5562237740191
 30
0.0
 11
-94.122193047893006
 21
-103.5366635843734
 31
0.0
  0
LINE
  8
DETAIL
  6
CONTINUOUS
 62
     5
 10
-94.122193047893006
 20
-103.5366635843734
 30
0.0
 11
-94.115066657217994
 21
-103.5178895349577
 31
0.0
  0
LINE
  8
DETAIL
  6
CONTINUOUS
 62
     5
 10
-94.115066657217994
 20
-103.5178895349577
 30
0.0
 11
-94.115066657217994
 21
-103.5178895349577
 31
0.0
  0
LINE
  8
DETAIL
  6
CONTINUOUS
 62
     5
 10
-94.115066657217994
 20
-103.5178895349577
 30
0.0
 11
-94.107841426134883
 21
-103.4988034596652
 31
0.0
  0
LINE
  8
DETAIL
  6
CONTINUOUS
 62
     5
 10
-94.107841426134883
 20
-103.4988034596652
 30
0.0
 11
-94.100542592688498
 21
-103.4794896593346
 31
0.0
  0
LINE
  8
DETAIL
  6
CONTINUOUS
 62
     5
 10
-94.100542592688498
 20
-103.4794896593346
 30
0.0
 11
-94.100542592688498
 21
-103.4794896593346
 31
0.0
  0
LINE
  8
DETAIL
  6
CONTINUOUS
 62
     5
 10
-94.100542592688498
 20
-103.4794896593346
 30
0.0
 11
-94.093279491652766
 21
-103.46024990412459
 31
0.0
  0
LINE
  8
DETAIL
  6
CONTINUOUS
 62
     5
 10
-94.093279491652766
 20
-103.46024990412459
 30
0.0
 11
-94.086035319150369
 21
-103.4410733745276
 31
0.0
  0
LINE
  8
DETAIL
  6
CONTINUOUS
 62
     5
 10
-94.086035319150369
 20
-103.4410733745276
 30
0.0
 11
-94.086035319150369
 21
-103.4410733745276
 31
0.0
  0
LINE
  8
DETAIL
  6
CONTINUOUS
 62
     5
 10
-94.086035319150369
 20
-103.4410733745276
 30
0.0
 11
-94.078772243892899
 21
-103.4218880765491
 31
0.0
  0
LINE
  8
DETAIL
  6
CONTINUOUS
 62
     5
 10
-94.078772243892899
 20
-103.4218880765491
 30
0.0
 11
-94.071494463628824
 21
-103.4026899079149
 31
0.0
  0
LINE
  8
DETAIL
  6
CONTINUOUS
 62
     5
 10
-94.890302399469647
 20
-104.7380245851912
 30
0.0
 11
-94.904518105258603
 21
-104.7511837583743
 31
0.0
  0
LINE
  8
DETAIL
  6
CONTINUOUS
 62
     5
 10
-94.904518105258603
 20
-104.7511837583743
 30
0.0
 11
-94.918712608238138
 21
-104.7643362848914
 31
0.0
  0
LINE
  8
DETAIL
  6
CONTINUOUS
 62
     5
 10
-94.918712608238138
 20
-104.7643362848914
 30
0.0
 11
-94.918712608238138
 21
-104.7643362848914
 31
0.0
  0
LINE
  8
DETAIL
  6
CONTINUOUS
 62
     5
 10
-94.918712608238138
 20
-104.7643362848914
 30
0.0
 11
-94.932882112042762
 21
-104.7774862502424
 31
0.0
  0
LINE
  8
DETAIL
  6
CONTINUOUS
 62
     5
 10
-94.932882112042762
 20
-104.7774862502424
 30
0.0
 11
-94.947092446094757
 21
-104.7906806685917
 31
0.0
  0
LINE
  8
DETAIL
  6
CONTINUOUS
 62
     5
 10
-94.947092446094757
 20
-104.7906806685917
 30
0.0
 11
-94.947092446094757
 21
-104.7906806685917
 31
0.0
  0
LINE
  8
DETAIL
  6
CONTINUOUS
 62
     5
 10
-94.947092446094757
 20
-104.7906806685917
 30
0.0
 11
-94.961366711376286
 21
-104.80392414384031
 31
0.0
  0
LINE
  8
DETAIL
  6
CONTINUOUS
 62
     5
 10
-94.961366711376286
 20
-104.80392414384031
 30
0.0
 11
-94.97548746933785
 21
-104.8170087101705
 31
0.0
  0
LINE
  8
DETAIL
  6
CONTINUOUS
 62
     5
 10
-94.97548746933785
 20
-104.8170087101705
 30
0.0
 11
-94.97548746933785
 21
-104.8170087101705
 31
0.0
  0
LINE
  8
DETAIL
  6
CONTINUOUS
 62
     5
 10
-94.97548746933785
 20
-104.8170087101705
 30
0.0
 11
-94.989400279632491
 21
-104.8298750968877
 31
0.0
  0
LINE
  8
DETAIL
  6
CONTINUOUS
 62
     5
 10
-94.989400279632491
 20
-104.8298750968877
 30
0.0
 11
-95.003943234264398
 21
-104.84327138350611
 31
0.0
  0
LINE
  8
DETAIL
  6
CONTINUOUS
 62
     5
 10
-95.003943234264398
 20
-104.84327138350611
 30
0.0
 11
-95.003943234264398
 21
-104.84327138350611
 31
0.0
  0
LINE
  8
DETAIL
  6
CONTINUOUS
 62
     5
 10
-95.003943234264398
 20
-104.84327138350611
 30
0.0
 11
-95.019345160857938
 21
-104.85739327931221
 31
0.0
  0
LINE
  8
DETAIL
  6
CONTINUOUS
 62
     5
 10
-95.019345160857938
 20
-104.85739327931221
 30
0.0
 11
-95.032505297172293
 21
-104.8694196624767
 31
0.0
  0
LINE
  8
DETAIL
  6
CONTINUOUS
 62
     5
 10
-95.032505297172293
 20
-104.8694196624767
 30
0.0
 11
-95.032505297172293
 21
-104.8694196624767
 31
0.0
  0
LINE
  8
DETAIL
  6
CONTINUOUS
 62
     5
 10
-95.032505297172293
 20
-104.8694196624767
 30
0.0
 11
-95.040800251491191
 21
-104.8769683592166
 31
0.0
  0
LINE
  8
DETAIL
  6
CONTINUOUS
 62
     5
 10
-95.040800251491191
 20
-104.8769683592166
 30
0.0
 11
-95.046845704064253
 21
-104.8824298190505
 31
0.0
  0
LINE
  8
DETAIL
  6
CONTINUOUS
 62
     5
 10
-95.046845704064253
 20
-104.8824298190505
 30
0.0
 11
-95.046845704064253
 21
-104.8824298190505
 31
0.0
  0
LINE
  8
DETAIL
  6
CONTINUOUS
 62
     5
 10
-95.046845704064253
 20
-104.8824298190505
 30
0.0
 11
-95.053738545161877
 21
-104.8886292669083
 31
0.0
  0
LINE
  8
DETAIL
  6
CONTINUOUS
 62
     5
 10
-95.053738545161877
 20
-104.8886292669083
 30
0.0
 11
-95.061261433176242
 21
-104.8953584060669
 31
0.0
  0
LINE
  8
DETAIL
  6
CONTINUOUS
 62
     5
 10
-95.061261433176242
 20
-104.8953584060669
 30
0.0
 11
-95.061261433176242
 21
-104.8953584060669
 31
0.0
  0
LINE
  8
DETAIL
  6
CONTINUOUS
 62
     5
 10
-95.061261433176242
 20
-104.8953584060669
 30
0.0
 11
-95.068590479969544
 21
-104.9018537668078
 31
0.0
  0
LINE
  8
DETAIL
  6
CONTINUOUS
 62
     5
 10
-95.068590479969544
 20
-104.9018537668078
 30
0.0
 11
-95.075789843158645
 21
-104.9081647090907
 31
0.0
  0
LINE
  8
DETAIL
  6
CONTINUOUS
 62
     5
 10
-95.075789843158645
 20
-104.9081647090907
 30
0.0
 11
-95.075789843158645
 21
-104.9081647090907
 31
0.0
  0
LINE
  8
DETAIL
  6
CONTINUOUS
 62
     5
 10
-95.075789843158645
 20
-104.9081647090907
 30
0.0
 11
-95.083086204014307
 21
-104.9144893510304
 31
0.0
  0
LINE
  8
DETAIL
  6
CONTINUOUS
 62
     5
 10
-95.083086204014307
 20
-104.9144893510304
 30
0.0
 11
-95.090468292662763
 21
-104.9208080136864
 31
0.0
  0
LINE
  8
DETAIL
  6
CONTINUOUS
 62
     5
 10
-95.090468292662763
 20
-104.9208080136864
 30
0.0
 11
-95.090468292662763
 21
-104.9208080136864
 31
0.0
  0
LINE
  8
DETAIL
  6
CONTINUOUS
 62
     5
 10
-95.090468292662763
 20
-104.9208080136864
 30
0.0
 11
-95.097881291149861
 21
-104.92706115849001
 31
0.0
  0
LINE
  8
DETAIL
  6
CONTINUOUS
 62
     5
 10
-95.097881291149861
 20
-104.92706115849001
 30
0.0
 11
-95.105334140337845
 21
-104.9332476054183
 31
0.0
  0
LINE
  8
DETAIL
  6
CONTINUOUS
 62
     5
 10
-95.105334140337845
 20
-104.9332476054183
 30
0.0
 11
-95.105334140337845
 21
-104.9332476054183
 31
0.0
  0
LINE
  8
DETAIL
  6
CONTINUOUS
 62
     5
 10
-95.105334140337845
 20
-104.9332476054183
 30
0.0
 11
-95.112845285630101
 21
-104.9393792262947
 31
0.0
  0
LINE
  8
DETAIL
  6
CONTINUOUS
 62
     5
 10
-95.112845285630101
 20
-104.9393792262947
 30
0.0
 11
-95.120407431777267
 21
-104.9454617417846
 31
0.0
  0
LINE
  8
DETAIL
  6
CONTINUOUS
 62
     5
 10
-95.120407431777267
 20
-104.9454617417846
 30
0.0
 11
-95.120407431777267
 21
-104.9454617417846
 31
0.0
  0
LINE
  8
DETAIL
  6
CONTINUOUS
 62
     5
 10
-95.120407431777267
 20
-104.9454617417846
 30
0.0
 11
-95.12800799278557
 21
-104.95150038225211
 31
0.0
  0
LINE
  8
DETAIL
  6
CONTINUOUS
 62
     5
 10
-95.12800799278557
 20
-104.95150038225211
 30
0.0
 11
-95.13563896033952
 21
-104.9575045680172
 31
0.0
  0
LINE
  8
DETAIL
  6
CONTINUOUS
 62
     5
 10
-95.13563896033952
 20
-104.9575045680172
 30
0.0
 11
-95.13563896033952
 21
-104.9575045680172
 31
0.0
  0
LINE
  8
DETAIL
  6
CONTINUOUS
 62
     5
 10
-95.13563896033952
 20
-104.9575045680172
 30
0.0
 11
-95.143293163895351
 21
-104.9634844862142
 31
0.0
  0
LINE
  8
DETAIL
  6
CONTINUOUS
 62
     5
 10
-95.143293163895351
 20
-104.9634844862142
 30
0.0
 11
-95.150962206325175
 21
-104.9694492012823
 31
0.0
  0
LINE
  8
DETAIL
  6
CONTINUOUS
 62
     5
 10
-95.150962206325175
 20
-104.9694492012823
 30
0.0
 11
-95.150962206325175
 21
-104.9694492012823
 31
0.0
  0
LINE
  8
DETAIL
  6
CONTINUOUS
 62
     5
 10
-95.150962206325175
 20
-104.9694492012823
 30
0.0
 11
-95.158637466020991
 21
-104.9754075721937
 31
0.0
  0
LINE
  8
DETAIL
  6
CONTINUOUS
 62
     5
 10
-95.158637466020991
 20
-104.9754075721937
 30
0.0
 11
-95.166310650036394
 21
-104.9813687587455
 31
0.0
  0
LINE
  8
DETAIL
  6
CONTINUOUS
 62
     5
 10
-95.166310650036394
 20
-104.9813687587455
 30
0.0
 11
-95.166310650036394
 21
-104.9813687587455
 31
0.0
  0
LINE
  8
DETAIL
  6
CONTINUOUS
 62
     5
 10
-95.166310650036394
 20
-104.9813687587455
 30
0.0
 11
-95.173973525573501
 21
-104.9873419757896
 31
0.0
  0
LINE
  8
DETAIL
  6
CONTINUOUS
 62
     5
 10
-95.173973525573501
 20
-104.9873419757896
 30
0.0
 11
-95.18161777177238
 21
-104.9933363575722
 31
0.0
  0
LINE
  8
DETAIL
  6
CONTINUOUS
 62
     5
 10
-95.18161777177238
 20
-104.9933363575722
 30
0.0
 11
-95.18161777177238
 21
-104.9933363575722
 31
0.0
  0
LINE
  8
DETAIL
  6
CONTINUOUS
 62
     5
 10
-95.18161777177238
 20
-104.9933363575722
 30
0.0
 11
-95.18923774769496
 21
-104.9993579946245
 31
0.0
  0
LINE
  8
DETAIL
  6
CONTINUOUS
 62
     5
 10
-95.18923774769496
 20
-104.9993579946245
 30
0.0
 11
-95.196838620169046
 21
-105.0054008832205
 31
0.0
  0
LINE
  8
DETAIL
  6
CONTINUOUS
 62
     5
 10
-95.196838620169046
 20
-105.0054008832205
 30
0.0
 11
-95.196838620169046
 21
-105.0054008832205
 31
0.0
  0
LINE
  8
DETAIL
  6
CONTINUOUS
 62
     5
 10
-95.196838620169046
 20
-105.0054008832205
 30
0.0
 11
-95.204428256380879
 21
-105.0114559946244
 31
0.0
  0
LINE
  8
DETAIL
  6
CONTINUOUS
 62
     5
 10
-95.204428256380879
 20
-105.0114559946244
 30
0.0
 11
-95.212014517195485
 21
-105.0175142943126
 31
0.0
  0
LINE
  8
DETAIL
  6
CONTINUOUS
 62
     5
 10
-95.212014517195485
 20
-105.0175142943126
 30
0.0
 11
-95.212014517195485
 21
-105.0175142943126
 31
0.0
  0
LINE
  8
DETAIL
  6
CONTINUOUS
 62
     5
 10
-95.212014517195485
 20
-105.0175142943126
 30
0.0
 11
-95.219605262320329
 21
-105.0235667467032
 31
0.0
  0
LINE
  8
DETAIL
  6
CONTINUOUS
 62
     5
 10
-95.219605262320329
 20
-105.0235667467032
 30
0.0
 11
-95.227208353157266
 21
-105.0296043177639
 31
0.0
  0
LINE
  8
DETAIL
  6
CONTINUOUS
 62
     5
 10
-95.227208353157266
 20
-105.0296043177639
 30
0.0
 11
-95.227208353157266
 21
-105.0296043177639
 31
0.0
  0
LINE
  8
DETAIL
  6
CONTINUOUS
 62
     5
 10
-95.227208353157266
 20
-105.0296043177639
 30
0.0
 11
-95.234831651416471
 21
-105.0356179737468
 31
0.0
  0
LINE
  8
DETAIL
  6
CONTINUOUS
 62
     5
 10
-95.234831651416471
 20
-105.0356179737468
 30
0.0
 11
-95.242483018356552
 21
-105.04159868048851
 31
0.0
  0
LINE
  8
DETAIL
  6
CONTINUOUS
 62
     5
 10
-95.242483018356552
 20
-105.04159868048851
 30
0.0
 11
-95.242483018356552
 21
-105.04159868048851
 31
0.0
  0
LINE
  8
DETAIL
  6
CONTINUOUS
 62
     5
 10
-95.242483018356552
 20
-105.04159868048851
 30
0.0
 11
-95.250170315151308
 21
-105.0475374037494
 31
0.0
  0
LINE
  8
DETAIL
  6
CONTINUOUS
 62
     5
 10
-95.250170315151308
 20
-105.0475374037494
 30
0.0
 11
-95.257901403098231
 21
-105.0534251094011
 31
0.0
  0
LINE
  8
DETAIL
  6
CONTINUOUS
 62
     5
 10
-95.257901403098231
 20
-105.0534251094011
 30
0.0
 11
-95.257901403098231
 21
-105.0534251094011
 31
0.0
  0
LINE
  8
DETAIL
  6
CONTINUOUS
 62
     5
 10
-95.257901403098231
 20
-105.0534251094011
 30
0.0
 11
-95.265682274464552
 21
-105.05925490439451
 31
0.0
  0
LINE
  8
DETAIL
  6
CONTINUOUS
 62
     5
 10
-95.265682274464552
 20
-105.05925490439451
 30
0.0
 11
-95.273511445287795
 21
-105.06502845988391
 31
0.0
  0
LINE
  8
DETAIL
  6
CONTINUOUS
 62
     5
 10
-95.273511445287795
 20
-105.06502845988391
 30
0.0
 11
-95.273511445287795
 21
-105.06502845988391
 31
0.0
  0
LINE
  8
DETAIL
  6
CONTINUOUS
 62
     5
 10
-95.273511445287795
 20
-105.06502845988391
 30
0.0
 11
-95.281385562549531
 21
-105.07074958807679
 31
0.0
  0
LINE
  8
DETAIL
  6
CONTINUOUS
 62
     5
 10
-95.281385562549531
 20
-105.07074958807679
 30
0.0
 11
-95.289301273239971
 21
-105.0764221011889
 31
0.0
  0
LINE
  8
DETAIL
  6
CONTINUOUS
 62
     5
 10
-95.289301273239971
 20
-105.0764221011889
 30
0.0
 11
-95.289301273239971
 21
-105.0764221011889
 31
0.0
  0
LINE
  8
DETAIL
  6
CONTINUOUS
 62
     5
 10
-95.289301273239971
 20
-105.0764221011889
 30
0.0
 11
-95.297255224351147
 21
-105.0820498114369
 31
0.0
  0
LINE
  8
DETAIL
  6
CONTINUOUS
 62
     5
 10
-95.297255224351147
 20
-105.0820498114369
 30
0.0
 11
-95.305244062871907
 21
-105.0876365310355
 31
0.0
  0
LINE
  8
DETAIL
  6
CONTINUOUS
 62
     5
 10
-95.305244062871907
 20
-105.0876365310355
 30
0.0
 11
-95.305244062871907
 21
-105.0876365310355
 31
0.0
  0
LINE
  8
DETAIL
  6
CONTINUOUS
 62
     5
 10
-95.305244062871907
 20
-105.0876365310355
 30
0.0
 11
-95.313264435791325
 21
-105.0931860721996
 31
0.0
  0
LINE
  8
DETAIL
  6
CONTINUOUS
 62
     5
 10
-95.313264435791325
 20
-105.0931860721996
 30
0.0
 11
-95.321312990099386
 21
-105.09870224714361
 31
0.0
  0
LINE
  8
DETAIL
  6
CONTINUOUS
 62
     5
 10
-95.321312990099386
 20
-105.09870224714361
 30
0.0
 11
-95.321312990099386
 21
-105.09870224714361
 31
0.0
  0
LINE
  8
DETAIL
  6
CONTINUOUS
 62
     5
 10
-95.321312990099386
 20
-105.09870224714361
 30
0.0
 11
-95.329386372785166
 21
-105.1041888680829
 31
0.0
  0
LINE
  8
DETAIL
  6
CONTINUOUS
 62
     5
 10
-95.329386372785166
 20
-105.1041888680829
 30
0.0
 11
-95.337481230838193
 21
-105.10964974723289
 31
0.0
  0
LINE
  8
DETAIL
  6
CONTINUOUS
 62
     5
 10
-95.337481230838193
 20
-105.10964974723289
 30
0.0
 11
-95.337481230838193
 21
-105.10964974723289
 31
0.0
  0
LINE
  8
DETAIL
  6
CONTINUOUS
 62
     5
 10
-95.337481230838193
 20
-105.10964974723289
 30
0.0
 11
-95.345594047111945
 21
-105.1150889577079
 31
0.0
  0
LINE
  8
DETAIL
  6
CONTINUOUS
 62
     5
 10
-95.345594047111945
 20
-105.1150889577079
 30
0.0
 11
-95.353720647904765
 21
-105.1205116162259
 31
0.0
  0
LINE
  8
DETAIL
  6
CONTINUOUS
 62
     5
 10
-95.353720647904765
 20
-105.1205116162259
 30
0.0
 11
-95.353720647904765
 21
-105.1205116162259
 31
0.0
  0
LINE
  8
DETAIL
  6
CONTINUOUS
 62
     5
 10
-95.353720647904765
 20
-105.1205116162259
 30
0.0
 11
-95.36185669538213
 21
-105.12592310040399
 31
0.0
  0
LINE
  8
DETAIL
  6
CONTINUOUS
 62
     5
 10
-95.36185669538213
 20
-105.12592310040399
 30
0.0
 11
-95.369997851705648
 21
-105.13132878786
 31
0.0
  0
LINE
  8
DETAIL
  6
CONTINUOUS
 62
     5
 10
-95.369997851705648
 20
-105.13132878786
 30
0.0
 11
-95.369997851705648
 21
-105.13132878786
 31
0.0
  0
LINE
  8
DETAIL
  6
CONTINUOUS
 62
     5
 10
-95.369997851705648
 20
-105.13132878786
 30
0.0
 11
-95.378139779039429
 21
-105.1367340562113
 31
0.0
  0
LINE
  8
DETAIL
  6
CONTINUOUS
 62
     5
 10
-95.378139779039429
 20
-105.1367340562113
 30
0.0
 11
-95.386278139546675
 21
-105.1421442830754
 31
0.0
  0
LINE
  8
DETAIL
  6
CONTINUOUS
 62
     5
 10
-95.386278139546675
 20
-105.1421442830754
 30
0.0
 11
-95.386278139546675
 21
-105.1421442830754
 31
0.0
  0
LINE
  8
DETAIL
  6
CONTINUOUS
 62
     5
 10
-95.386278139546675
 20
-105.1421442830754
 30
0.0
 11
-95.394408595389905
 21
-105.1475648460701
 31
0.0
  0
LINE
  8
DETAIL
  6
CONTINUOUS
 62
     5
 10
-95.394408595389905
 20
-105.1475648460701
 30
0.0
 11
-95.402526808732773
 21
-105.1530011228126
 31
0.0
  0
LINE
  8
DETAIL
  6
CONTINUOUS
 62
     5
 10
-95.402526808732773
 20
-105.1530011228126
 30
0.0
 11
-95.402526808732773
 21
-105.1530011228126
 31
0.0
  0
LINE
  8
DETAIL
  6
CONTINUOUS
 62
     5
 10
-95.402526808732773
 20
-105.1530011228126
 30
0.0
 11
-95.410628441738254
 21
-105.15845849092059
 31
0.0
  0
LINE
  8
DETAIL
  6
CONTINUOUS
 62
     5
 10
-95.410628441738254
 20
-105.15845849092059
 30
0.0
 11
-95.418709156569776
 21
-105.1639423280117
 31
0.0
  0
LINE
  8
DETAIL
  6
CONTINUOUS
 62
     5
 10
-95.418709156569776
 20
-105.1639423280117
 30
0.0
 11
-95.418709156569776
 21
-105.1639423280117
 31
0.0
  0
LINE
  8
DETAIL
  6
CONTINUOUS
 62
     5
 10
-95.418709156569776
 20
-105.1639423280117
 30
0.0
 11
-95.426767140991615
 21
-105.1694548270434
 31
0.0
  0
LINE
  8
DETAIL
  6
CONTINUOUS
 62
     5
 10
-95.426767140991615
 20
-105.1694548270434
 30
0.0
 11
-95.434810685170987
 21
-105.17498544233381
 31
0.0
  0
LINE
  8
DETAIL
  6
CONTINUOUS
 62
     5
 10
-95.434810685170987
 20
-105.17498544233381
 30
0.0
 11
-95.434810685170987
 21
-105.17498544233381
 31
0.0
  0
LINE
  8
DETAIL
  6
CONTINUOUS
 62
     5
 10
-95.434810685170987
 20
-105.17498544233381
 30
0.0
 11
-95.442850604876412
 21
-105.18052044354
 31
0.0
  0
LINE
  8
DETAIL
  6
CONTINUOUS
 62
     5
 10
-95.442850604876412
 20
-105.18052044354
 30
0.0
 11
-95.450897715875726
 21
-105.1860461003205
 31
0.0
  0
LINE
  8
DETAIL
  6
CONTINUOUS
 62
     5
 10
-95.450897715875726
 20
-105.1860461003205
 30
0.0
 11
-95.450897715875726
 21
-105.1860461003205
 31
0.0
  0
LINE
  8
DETAIL
  6
CONTINUOUS
 62
     5
 10
-95.450897715875726
 20
-105.1860461003205
 30
0.0
 11
-95.458962833937903
 21
-105.19154868233321
 31
0.0
  0
LINE
  8
DETAIL
  6
CONTINUOUS
 62
     5
 10
-95.458962833937903
 20
-105.19154868233321
 30
0.0
 11
-95.46705677483169
 21
-105.1970144592356
 31
0.0
  0
LINE
  8
DETAIL
  6
CONTINUOUS
 62
     5
 10
-95.46705677483169
 20
-105.1970144592356
 30
0.0
 11
-95.46705677483169
 21
-105.1970144592356
 31
0.0
  0
LINE
  8
DETAIL
  6
CONTINUOUS
 62
     5
 10
-95.46705677483169
 20
-105.1970144592356
 30
0.0
 11
-95.475190354324923
 21
-105.2024297006853
 31
0.0
  0
LINE
  8
DETAIL
  6
CONTINUOUS
 62
     5
 10
-95.475190354324923
 20
-105.2024297006853
 30
0.0
 11
-95.483374388185439
 21
-105.2077806763407
 31
0.0
  0
LINE
  8
DETAIL
  6
CONTINUOUS
 62
     5
 10
-95.483374388185439
 20
-105.2077806763407
 30
0.0
 11
-95.483374388185439
 21
-105.2077806763407
 31
0.0
  0
LINE
  8
DETAIL
  6
CONTINUOUS
 62
     5
 10
-95.483374388185439
 20
-105.2077806763407
 30
0.0
 11
-95.491619692182439
 21
-105.2130536558593
 31
0.0
  0
LINE
  8
DETAIL
  6
CONTINUOUS
 62
     5
 10
-95.491619692182439
 20
-105.2130536558593
 30
0.0
 11
-95.499937082083989
 21
-105.21823490889891
 31
0.0
  0
LINE
  8
DETAIL
  6
CONTINUOUS
 62
     5
 10
-95.499937082083989
 20
-105.21823490889891
 30
0.0
 11
-95.499937082083989
 21
-105.21823490889891
 31
0.0
  0
LINE
  8
DETAIL
  6
CONTINUOUS
 62
     5
 10
-95.499937082083989
 20
-105.21823490889891
 30
0.0
 11
-95.508333774479752
 21
-105.22331528531819
 31
0.0
  0
LINE
  8
DETAIL
  6
CONTINUOUS
 62
     5
 10
-95.508333774479752
 20
-105.22331528531819
 30
0.0
 11
-95.51680258923875
 21
-105.2283039557781
 31
0.0
  0
LINE
  8
DETAIL
  6
CONTINUOUS
 62
     5
 10
-95.51680258923875
 20
-105.2283039557781
 30
0.0
 11
-95.51680258923875
 21
-105.2283039557781
 31
0.0
  0
LINE
  8
DETAIL
  6
CONTINUOUS
 62
     5
 10
-95.51680258923875
 20
-105.2283039557781
 30
0.0
 11
-95.525332747051834
 21
-105.23321467113961
 31
0.0
  0
LINE
  8
DETAIL
  6
CONTINUOUS
 62
     5
 10
-95.525332747051834
 20
-105.23321467113961
 30
0.0
 11
-95.533913468609853
 21
-105.2380611822648
 31
0.0
  0
LINE
  8
DETAIL
  6
CONTINUOUS
 62
     5
 10
-95.533913468609853
 20
-105.2380611822648
 30
0.0
 11
-95.533913468609853
 21
-105.2380611822648
 31
0.0
  0
LINE
  8
DETAIL
  6
CONTINUOUS
 62
     5
 10
-95.533913468609853
 20
-105.2380611822648
 30
0.0
 11
-95.542533974605021
 21
-105.2428572400147
 31
0.0
  0
LINE
  8
DETAIL
  6
CONTINUOUS
 62
     5
 10
-95.542533974605021
 20
-105.2428572400147
 30
0.0
 11
-95.551183485726142
 21
-105.2476165952512
 31
0.0
  0
LINE
  8
DETAIL
  6
CONTINUOUS
 62
     5
 10
-95.551183485726142
 20
-105.2476165952512
 30
0.0
 11
-95.551183485726142
 21
-105.2476165952512
 31
0.0
  0
LINE
  8
DETAIL
  6
CONTINUOUS
 62
     5
 10
-95.551183485726142
 20
-105.2476165952512
 30
0.0
 11
-95.55985122266361
 21
-105.25235299883551
 31
0.0
  0
LINE
  8
DETAIL
  6
CONTINUOUS
 62
     5
 10
-95.55985122266361
 20
-105.25235299883551
 30
0.0
 11
-95.568526406108958
 21
-105.25708020162919
 31
0.0
  0
LINE
  8
DETAIL
  6
CONTINUOUS
 62
     5
 10
-95.568526406108958
 20
-105.25708020162919
 30
0.0
 11
-95.568526406108958
 21
-105.25708020162919
 31
0.0
  0
LINE
  8
DETAIL
  6
CONTINUOUS
 62
     5
 10
-95.568526406108958
 20
-105.25708020162919
 30
0.0
 11
-95.577198256753263
 21
-105.26181195449389
 31
0.0
  0
LINE
  8
DETAIL
  6
CONTINUOUS
 62
     5
 10
-95.577198256753263
 20
-105.26181195449389
 30
0.0
 11
-95.585855995287375
 21
-105.266562008291
 31
0.0
  0
LINE
  8
DETAIL
  6
CONTINUOUS
 62
     5
 10
-95.585855995287375
 20
-105.266562008291
 30
0.0
 11
-95.585855995287375
 21
-105.266562008291
 31
0.0
  0
LINE
  8
DETAIL
  6
CONTINUOUS
 62
     5
 10
-95.585855995287375
 20
-105.266562008291
 30
0.0
 11
-95.59449133154294
 21
-105.2713409087028
 31
0.0
  0
LINE
  8
DETAIL
  6
CONTINUOUS
 62
     5
 10
-95.59449133154294
 20
-105.2713409087028
 30
0.0
 11
-95.603105931920027
 21
-105.2761463806949
 31
0.0
  0
LINE
  8
DETAIL
  6
CONTINUOUS
 62
     5
 10
-95.603105931920027
 20
-105.2761463806949
 30
0.0
 11
-95.603105931920027
 21
-105.2761463806949
 31
0.0
  0
LINE
  8
DETAIL
  6
CONTINUOUS
 62
     5
 10
-95.603105931920027
 20
-105.2761463806949
 30
0.0
 11
-95.611703951958816
 21
-105.2809729440539
 31
0.0
  0
LINE
  8
DETAIL
  6
CONTINUOUS
 62
     5
 10
-95.611703951958816
 20
-105.2809729440539
 30
0.0
 11
-95.620289547202674
 21
-105.28581511856621
 31
0.0
  0
LINE
  8
DETAIL
  6
CONTINUOUS
 62
     5
 10
-95.620289547202674
 20
-105.28581511856621
 30
0.0
 11
-95.620289547202674
 21
-105.28581511856621
 31
0.0
  0
LINE
  8
DETAIL
  6
CONTINUOUS
 62
     5
 10
-95.620289547202674
 20
-105.28581511856621
 30
0.0
 11
-95.628866873192464
 21
-105.2906674240182
 31
0.0
  0
LINE
  8
DETAIL
  6
CONTINUOUS
 62
     5
 10
-95.628866873192464
 20
-105.2906674240182
 30
0.0
 11
-95.637440085469052
 21
-105.2955243801964
 31
0.0
  0
LINE
  8
DETAIL
  6
CONTINUOUS
 62
     5
 10
-95.637440085469052
 20
-105.2955243801964
 30
0.0
 11
-95.637440085469052
 21
-105.2955243801964
 31
0.0
  0
LINE
  8
DETAIL
  6
CONTINUOUS
 62
     5
 10
-95.637440085469052
 20
-105.2955243801964
 30
0.0
 11
-95.646013339573756
 21
-105.30038050688719
 31
0.0
  0
LINE
  8
DETAIL
  6
CONTINUOUS
 62
     5
 10
-95.646013339573756
 20
-105.30038050688719
 30
0.0
 11
-95.654590791048349
 21
-105.3052303238771
 31
0.0
  0
LINE
  8
DETAIL
  6
CONTINUOUS
 62
     5
 10
-95.654590791048349
 20
-105.3052303238771
 30
0.0
 11
-95.654590791048349
 21
-105.3052303238771
 31
0.0
  0
LINE
  8
DETAIL
  6
CONTINUOUS
 62
     5
 10
-95.654590791048349
 20
-105.3052303238771
 30
0.0
 11
-95.663176595434152
 21
-105.31006835095241
 31
0.0
  0
LINE
  8
DETAIL
  6
CONTINUOUS
 62
     5
 10
-95.663176595434152
 20
-105.31006835095241
 30
0.0
 11
-95.671774908273392
 21
-105.3148891078997
 31
0.0
  0
LINE
  8
DETAIL
  6
CONTINUOUS
 62
     5
 10
-95.671774908273392
 20
-105.3148891078997
 30
0.0
 11
-95.671774908273392
 21
-105.3148891078997
 31
0.0
  0
LINE
  8
DETAIL
  6
CONTINUOUS
 62
     5
 10
-95.671774908273392
 20
-105.3148891078997
 30
0.0
 11
-95.680389693057577
 21
-105.31968735081
 31
0.0
  0
LINE
  8
DETAIL
  6
CONTINUOUS
 62
     5
 10
-95.680389693057577
 20
-105.31968735081
 30
0.0
 11
-95.689024145082158
 21
-105.3244587809918
 31
0.0
  0
LINE
  8
DETAIL
  6
CONTINUOUS
 62
     5
 10
-95.689024145082158
 20
-105.3244587809918
 30
0.0
 11
-95.689024145082158
 21
-105.3244587809918
 31
0.0
  0
LINE
  8
DETAIL
  6
CONTINUOUS
 62
     5
 10
-95.689024145082158
 20
-105.3244587809918
 30
0.0
 11
-95.697681267592543
 21
-105.3291993360579
 31
0.0
  0
LINE
  8
DETAIL
  6
CONTINUOUS
 62
     5
 10
-95.697681267592543
 20
-105.3291993360579
 30
0.0
 11
-95.706364063836872
 21
-105.3339049536216
 31
0.0
  0
LINE
  8
DETAIL
  6
CONTINUOUS
 62
     5
 10
-95.706364063836872
 20
-105.3339049536216
 30
0.0
 11
-95.706364063836872
 21
-105.3339049536216
 31
0.0
  0
LINE
  8
DETAIL
  6
CONTINUOUS
 62
     5
 10
-95.706364063836872
 20
-105.3339049536216
 30
0.0
 11
-95.715075537060784
 21
-105.3385715712961
 31
0.0
  0
LINE
  8
DETAIL
  6
CONTINUOUS
 62
     5
 10
-95.715075537060784
 20
-105.3385715712961
 30
0.0
 11
-95.723818690509233
 21
-105.3431951266941
 31
0.0
  0
LINE
  8
DETAIL
  6
CONTINUOUS
 62
     5
 10
-95.723818690509233
 20
-105.3431951266941
 30
0.0
 11
-95.723818690509233
 21
-105.3431951266941
 31
0.0
  0
LINE
  8
DETAIL
  6
CONTINUOUS
 62
     5
 10
-95.723818690509233
 20
-105.3431951266941
 30
0.0
 11
-95.732596527428541
 21
-105.3477715574284
 31
0.0
  0
LINE
  8
DETAIL
  6
CONTINUOUS
 62
     5
 10
-95.732596527428541
 20
-105.3477715574284
 30
0.0
 11
-95.741412051067755
 21
-105.3522968011132
 31
0.0
  0
LINE
  8
DETAIL
  6
CONTINUOUS
 62
     5
 10
-95.741412051067755
 20
-105.3522968011132
 30
0.0
 11
-95.741412051067755
 21
-105.3522968011132
 31
0.0
  0
LINE
  8
DETAIL
  6
CONTINUOUS
 62
     5
 10
-95.741412051067755
 20
-105.3522968011132
 30
0.0
 11
-95.750268264673878
 21
-105.35676679536211
 31
0.0
  0
LINE
  8
DETAIL
  6
CONTINUOUS
 62
     5
 10
-95.750268264673878
 20
-105.35676679536211
 30
0.0
 11
-95.759168171483225
 21
-105.3611774777835
 31
0.0
  0
LINE
  8
DETAIL
  6
CONTINUOUS
 62
     5
 10
-95.759168171483225
 20
-105.3611774777835
 30
0.0
 11
-95.759168171483225
 21
-105.3611774777835
 31
0.0
  0
LINE
  8
DETAIL
  6
CONTINUOUS
 62
     5
 10
-95.759168171483225
 20
-105.3611774777835
 30
0.0
 11
-95.768113053793968
 21
-105.3655270459524
 31
0.0
  0
LINE
  8
DETAIL
  6
CONTINUOUS
 62
     5
 10
-95.768113053793968
 20
-105.3655270459524
 30
0.0
 11
-95.777097310169893
 21
-105.3698227373104
 31
0.0
  0
LINE
  8
DETAIL
  6
CONTINUOUS
 62
     5
 10
-95.777097310169893
 20
-105.3698227373104
 30
0.0
 11
-95.777097310169893
 21
-105.3698227373104
 31
0.0
  0
LINE
  8
DETAIL
  6
CONTINUOUS
 62
     5
 10
-95.777097310169893
 20
-105.3698227373104
 30
0.0
 11
-95.786113618200261
 21
-105.37407404925059
 31
0.0
  0
LINE
  8
DETAIL
  6
CONTINUOUS
 62
     5
 10
-95.786113618200261
 20
-105.37407404925059
 30
0.0
 11
-95.795154655312899
 21
-105.3782904791035
 31
0.0
  0
LINE
  8
DETAIL
  6
CONTINUOUS
 62
     5
 10
-95.795154655312899
 20
-105.3782904791035
 30
0.0
 11
-95.795154655312899
 21
-105.3782904791035
 31
0.0
  0
LINE
  8
DETAIL
  6
CONTINUOUS
 62
     5
 10
-95.795154655312899
 20
-105.3782904791035
 30
0.0
 11
-95.804213099046137
 21
-105.38248152424261
 31
0.0
  0
LINE
  8
DETAIL
  6
CONTINUOUS
 62
     5
 10
-95.804213099046137
 20
-105.38248152424261
 30
0.0
 11
-95.813281627544484
 21
-105.38665668227461
 31
0.0
  0
LINE
  8
DETAIL
  6
CONTINUOUS
 62
     5
 10
-95.813281627544484
 20
-105.38665668227461
 30
0.0
 11
-95.813281627544484
 21
-105.38665668227461
 31
0.0
  0
LINE
  8
DETAIL
  6
CONTINUOUS
 62
     5
 10
-95.813281627544484
 20
-105.38665668227461
 30
0.0
 11
-95.822352918539309
 21
-105.3908254506466
 31
0.0
  0
LINE
  8
DETAIL
  6
CONTINUOUS
 62
     5
 10
-95.822352918539309
 20
-105.3908254506466
 30
0.0
 11
-95.831419647493703
 21
-105.3949973259341
 31
0.0
  0
LINE
  8
DETAIL
  6
CONTINUOUS
 62
     5
 10
-95.831419647493703
 20
-105.3949973259341
 30
0.0
 11
-95.831419647493703
 21
-105.3949973259341
 31
0.0
  0
LINE
  8
DETAIL
  6
CONTINUOUS
 62
     5
 10
-95.831419647493703
 20
-105.3949973259341
 30
0.0
 11
-95.840474491420991
 21
-105.39918180530699
 31
0.0
  0
LINE
  8
DETAIL
  6
CONTINUOUS
 62
     5
 10
-95.840474491420991
 20
-105.39918180530699
 30
0.0
 11
-95.849510135792343
 21
-105.4033883891932
 31
0.0
  0
LINE
  8
DETAIL
  6
CONTINUOUS
 62
     5
 10
-95.849510135792343
 20
-105.4033883891932
 30
0.0
 11
-95.849510135792343
 21
-105.4033883891932
 31
0.0
  0
LINE
  8
DETAIL
  6
CONTINUOUS
 62
     5
 10
-95.849510135792343
 20
-105.4033883891932
 30
0.0
 11
-95.858521913076174
 21
-105.4076234158276
 31
0.0
  0
LINE
  8
DETAIL
  6
CONTINUOUS
 62
     5
 10
-95.858521913076174
 20
-105.4076234158276
 30
0.0
 11
-95.867515735275447
 21
-105.4118805714206
 31
0.0
  0
LINE
  8
DETAIL
  6
CONTINUOUS
 62
     5
 10
-95.867515735275447
 20
-105.4118805714206
 30
0.0
 11
-95.867515735275447
 21
-105.4118805714206
 31
0.0
  0
LINE
  8
DETAIL
  6
CONTINUOUS
 62
     5
 10
-95.867515735275447
 20
-105.4118805714206
 30
0.0
 11
-95.876500188729779
 21
-105.41615039051619
 31
0.0
  0
LINE
  8
DETAIL
  6
CONTINUOUS
 62
     5
 10
-95.876500188729779
 20
-105.41615039051619
 30
0.0
 11
-95.885483977601098
 21
-105.42042345301461
 31
0.0
  0
LINE
  8
DETAIL
  6
CONTINUOUS
 62
     5
 10
-95.885483977601098
 20
-105.42042345301461
 30
0.0
 11
-95.885483977601098
 21
-105.42042345301461
 31
0.0
  0
LINE
  8
DETAIL
  6
CONTINUOUS
 62
     5
 10
-95.885483977601098
 20
-105.42042345301461
 30
0.0
 11
-95.894475725576967
 21
-105.4246903078358
 31
0.0
  0
LINE
  8
DETAIL
  6
CONTINUOUS
 62
     5
 10
-95.894475725576967
 20
-105.4246903078358
 30
0.0
 11
-95.903483616632457
 21
-105.4289413346301
 31
0.0
  0
LINE
  8
DETAIL
  6
CONTINUOUS
 62
     5
 10
-95.903483616632457
 20
-105.4289413346301
 30
0.0
 11
-95.903483616632457
 21
-105.4289413346301
 31
0.0
  0
LINE
  8
DETAIL
  6
CONTINUOUS
 62
     5
 10
-95.903483616632457
 20
-105.4289413346301
 30
0.0
 11
-95.912516135070973
 21
-105.433167028661
 31
0.0
  0
LINE
  8
DETAIL
  6
CONTINUOUS
 62
     5
 10
-95.912516135070973
 20
-105.433167028661
 30
0.0
 11
-95.921583406231775
 21
-105.437358516923
 31
0.0
  0
LINE
  8
DETAIL
  6
CONTINUOUS
 62
     5
 10
-95.921583406231775
 20
-105.437358516923
 30
0.0
 11
-95.921583406231775
 21
-105.437358516923
 31
0.0
  0
LINE
  8
DETAIL
  6
CONTINUOUS
 62
     5
 10
-95.921583406231775
 20
-105.437358516923
 30
0.0
 11
-95.93069443460513
 21
-105.4415064949301
 31
0.0
  0
LINE
  8
DETAIL
  6
CONTINUOUS
 62
     5
 10
-95.93069443460513
 20
-105.4415064949301
 30
0.0
 11
-95.939852100263352
 21
-105.44559930054881
 31
0.0
  0
LINE
  8
DETAIL
  6
CONTINUOUS
 62
     5
 10
-95.939852100263352
 20
-105.44559930054881
 30
0.0
 11
-95.939852100263352
 21
-105.44559930054881
 31
0.0
  0
LINE
  8
DETAIL
  6
CONTINUOUS
 62
     5
 10
-95.939852100263352
 20
-105.44559930054881
 30
0.0
 11
-95.949061214647372
 21
-105.44962933452121
 31
0.0
  0
LINE
  8
DETAIL
  6
CONTINUOUS
 62
     5
 10
-95.949061214647372
 20
-105.44962933452121
 30
0.0
 11
-95.958340439097356
 21
-105.4536076067379
 31
0.0
  0
LINE
  8
DETAIL
  6
CONTINUOUS
 62
     5
 10
-95.958340439097356
 20
-105.4536076067379
 30
0.0
 11
-95.958340439097356
 21
-105.4536076067379
 31
0.0
  0
LINE
  8
DETAIL
  6
CONTINUOUS
 62
     5
 10
-95.958340439097356
 20
-105.4536076067379
 30
0.0
 11
-95.967690571888397
 21
-105.4575415699271
 31
0.0
  0
LINE
  8
DETAIL
  6
CONTINUOUS
 62
     5
 10
-95.967690571888397
 20
-105.4575415699271
 30
0.0
 11
-95.977027109133132
 21
-105.46140583902211
 31
0.0
  0
LINE
  8
DETAIL
  6
CONTINUOUS
 62
     5
 10
-95.977027109133132
 20
-105.46140583902211
 30
0.0
 11
-95.977027109133132
 21
-105.46140583902211
 31
0.0
  0
LINE
  8
DETAIL
  6
CONTINUOUS
 62
     5
 10
-95.977027109133132
 20
-105.46140583902211
 30
0.0
 11
-95.986323809404212
 21
-105.4651974575868
 31
0.0
  0
LINE
  8
DETAIL
  6
CONTINUOUS
 62
     5
 10
-95.986323809404212
 20
-105.4651974575868
 30
0.0
 11
-95.995872783277946
 21
-105.46903602150751
 31
0.0
  0
LINE
  8
DETAIL
  6
CONTINUOUS
 62
     5
 10
-95.995872783277946
 20
-105.46903602150751
 30
0.0
 11
-95.995872783277946
 21
-105.46903602150751
 31
0.0
  0
LINE
  8
DETAIL
  6
CONTINUOUS
 62
     5
 10
-95.995872783277946
 20
-105.46903602150751
 30
0.0
 11
-96.005748702867777
 21
-105.47295742187769
 31
0.0
  0
LINE
  8
DETAIL
  6
CONTINUOUS
 62
     5
 10
-96.005748702867777
 20
-105.47295742187769
 30
0.0
 11
-96.014838134437468
 21
-105.47654017830089
 31
0.0
  0
LINE
  8
DETAIL
  6
CONTINUOUS
 62
     5
 10
-96.014838134437468
 20
-105.47654017830089
 30
0.0
 11
-96.014838134437468
 21
-105.47654017830089
 31
0.0
  0
LINE
  8
DETAIL
  6
CONTINUOUS
 62
     5
 10
-96.014838134437468
 20
-105.47654017830089
 30
0.0
 11
-96.022839135637014
 21
-105.4796752009177
 31
0.0
  0
LINE
  8
DETAIL
  6
CONTINUOUS
 62
     5
 10
-96.022839135637014
 20
-105.4796752009177
 30
0.0
 11
-96.033883835520101
 21
-105.48396033350831
 31
0.0
  0
LINE
  8
DETAIL
  6
CONTINUOUS
 62
     5
 10
-96.033883835520101
 20
-105.48396033350831
 30
0.0
 11
-96.033883835520101
 21
-105.48396033350831
 31
0.0
  0
LINE
  8
DETAIL
  6
CONTINUOUS
 62
     5
 10
-96.033883835520101
 20
-105.48396033350831
 30
0.0
 11
-96.051467417451704
 21
-105.4907438859602
 31
0.0
  0
LINE
  8
DETAIL
  6
CONTINUOUS
 62
     5
 10
-96.051467417451704
 20
-105.4907438859602
 30
0.0
 11
-96.072103210641444
 21
-105.49866909894639
 31
0.0
  0
LINE
  8
DETAIL
  6
CONTINUOUS
 62
     5
 10
-96.072103210641444
 20
-105.49866909894639
 30
0.0
 11
-96.072103210641444
 21
-105.49866909894639
 31
0.0
  0
LINE
  8
DETAIL
  6
CONTINUOUS
 62
     5
 10
-96.072103210641444
 20
-105.49866909894639
 30
0.0
 11
-96.091663400286734
 21
-105.5061339367669
 31
0.0
  0
LINE
  8
DETAIL
  6
CONTINUOUS
 62
     5
 10
-96.091663400286734
 20
-105.5061339367669
 30
0.0
 11
-96.110437449703113
 21
-105.51326032744279
 31
0.0
  0
LINE
  8
DETAIL
  6
CONTINUOUS
 62
     5
 10
-96.110437449703113
 20
-105.51326032744279
 30
0.0
 11
-96.110437449703113
 21
-105.51326032744279
 31
0.0
  0
LINE
  8
DETAIL
  6
CONTINUOUS
 62
     5
 10
-96.110437449703113
 20
-105.51326032744279
 30
0.0
 11
-96.12952352499542
 21
-105.52048555852549
 31
0.0
  0
LINE
  8
DETAIL
  6
CONTINUOUS
 62
     5
 10
-96.12952352499542
 20
-105.52048555852549
 30
0.0
 11
-96.148837325326213
 21
-105.5277843919725
 31
0.0
  0
LINE
  8
DETAIL
  6
CONTINUOUS
 62
     5
 10
-96.148837325326213
 20
-105.5277843919725
 30
0.0
 11
-96.148837325326213
 21
-105.5277843919725
 31
0.0
  0
LINE
  8
DETAIL
  6
CONTINUOUS
 62
     5
 10
-96.148837325326213
 20
-105.5277843919725
 30
0.0
 11
-96.16807708053625
 21
-105.5350474930074
 31
0.0
  0
LINE
  8
DETAIL
  6
CONTINUOUS
 62
     5
 10
-96.16807708053625
 20
-105.5350474930074
 30
0.0
 11
-96.187253610132984
 21
-105.5422916655104
 31
0.0
  0
LINE
  8
DETAIL
  6
CONTINUOUS
 62
     5
 10
-96.187253610132984
 20
-105.5422916655104
 30
0.0
 11
-96.187253610132984
 21
-105.5422916655104
 31
0.0
  0
LINE
  8
DETAIL
  6
CONTINUOUS
 62
     5
 10
-96.187253610132984
 20
-105.5422916655104
 30
0.0
 11
-96.206438908111522
 21
-105.5495547407679
 31
0.0
  0
LINE
  8
DETAIL
  6
CONTINUOUS
 62
     5
 10
-96.206438908111522
 20
-105.5495547407679
 30
0.0
 11
-96.225637076745898
 21
-105.55683252103201
 31
0.0
  0
LINE
  8
DETAIL
  6
CONTINUOUS
 62
     5
 10
-83.97534720777935
 20
-93.332698989220489
 30
0.0
 11
-84.731559159592962
 21
-93.636709747418763
 31
0.0
  0
LINE
  8
DETAIL
  6
CONTINUOUS
 62
     5
 10
-84.731559159592962
 20
-93.636709747418763
 30
0.0
 11
-84.731559159592962
 21
-93.636709747418763
 31
0.0
  0
LINE
  8
DETAIL
  6
CONTINUOUS
 62
     5
 10
-84.731559159592962
 20
-93.636709747418763
 30
0.0
 11
-85.483116230075893
 21
-93.961675993092513
 31
0.0
  0
LINE
  8
DETAIL
  6
CONTINUOUS
 62
     5
 10
-85.483116230075893
 20
-93.961675993092513
 30
0.0
 11
-86.229291911269002
 21
-94.308240599625833
 31
0.0
  0
LINE
  8
DETAIL
  6
CONTINUOUS
 62
     5
 10
-86.229291911269002
 20
-94.308240599625833
 30
0.0
 11
-86.229291911269002
 21
-94.308240599625833
 31
0.0
  0
LINE
  8
DETAIL
  6
CONTINUOUS
 62
     5
 10
-86.229291911269002
 20
-94.308240599625833
 30
0.0
 11
-86.969710777184673
 21
-94.675208020777291
 31
0.0
  0
LINE
  8
DETAIL
  6
CONTINUOUS
 62
     5
 10
-86.969710777184673
 20
-94.675208020777291
 30
0.0
 11
-87.703978678414614
 21
-95.062771138792186
 31
0.0
  0
LINE
  8
DETAIL
  6
CONTINUOUS
 62
     5
 10
-87.703978678414614
 20
-95.062771138792186
 30
0.0
 11
-87.703978678414614
 21
-95.062771138792186
 31
0.0
  0
LINE
  8
DETAIL
  6
CONTINUOUS
 62
     5
 10
-87.703978678414614
 20
-95.062771138792186
 30
0.0
 11
-88.431359745291957
 21
-95.472267041296391
 31
0.0
  0
LINE
  8
DETAIL
  6
CONTINUOUS
 62
     5
 10
-88.431359745291957
 20
-95.472267041296391
 30
0.0
 11
-89.149769950525751
 21
-95.908221208955865
 31
0.0
  0
LINE
  8
DETAIL
  6
CONTINUOUS
 62
     5
 10
-89.149769950525751
 20
-95.908221208955865
 30
0.0
 11
-89.149769950525751
 21
-95.908221208955865
 31
0.0
  0
LINE
  8
DETAIL
  6
CONTINUOUS
 62
     5
 10
-89.149769950525751
 20
-95.908221208955865
 30
0.0
 11
-89.858141065898053
 21
-96.372420720535047
 31
0.0
  0
LINE
  8
DETAIL
  6
CONTINUOUS
 62
     5
 10
-89.858141065898053
 20
-96.372420720535047
 30
0.0
 11
-90.560816217100864
 21
-96.852510654154912
 31
0.0
  0
LINE
  8
DETAIL
  6
CONTINUOUS
 62
     5
 10
-86.573763850048408
 20
-104.14752806620911
 30
0.0
 11
-86.573763850048408
 21
-104.14752806620911
 31
0.0
  0
LINE
  8
DETAIL
  6
CONTINUOUS
 62
     5
 10
-86.573763850048408
 20
-104.14752806620911
 30
0.0
 11
-86.693309567877122
 21
-104.24693852390121
 31
0.0
  0
LINE
  8
DETAIL
  6
CONTINUOUS
 62
     5
 10
-86.693309567877122
 20
-104.24693852390121
 30
0.0
 11
-86.813342236092694
 21
-104.348609444414
 31
0.0
  0
LINE
  8
DETAIL
  6
CONTINUOUS
 62
     5
 10
-86.813342236092694
 20
-104.348609444414
 30
0.0
 11
-86.813342236092694
 21
-104.348609444414
 31
0.0
  0
LINE
  8
DETAIL
  6
CONTINUOUS
 62
     5
 10
-86.813342236092694
 20
-104.348609444414
 30
0.0
 11
-86.933841076039698
 21
-104.45222865286129
 31
0.0
  0
LINE
  8
DETAIL
  6
CONTINUOUS
 62
     5
 10
-86.933841076039698
 20
-104.45222865286129
 30
0.0
 11
-87.054813610853671
 21
-104.5577201887986
 31
0.0
  0
LINE
  8
DETAIL
  6
CONTINUOUS
 62
     5
 10
-87.054813610853671
 20
-104.5577201887986
 30
0.0
 11
-87.054813610853671
 21
-104.5577201887986
 31
0.0
  0
LINE
  8
DETAIL
  6
CONTINUOUS
 62
     5
 10
-87.054813610853671
 20
-104.5577201887986
 30
0.0
 11
-87.176293680051458
 21
-104.6651121099765
 31
0.0
  0
LINE
  8
DETAIL
  6
CONTINUOUS
 62
     5
 10
-87.176293680051458
 20
-104.6651121099765
 30
0.0
 11
-87.298392086885315
 21
-104.7746123324773
 31
0.0
  0
LINE
  8
DETAIL
  6
CONTINUOUS
 62
     5
 10
-87.298392086885315
 20
-104.7746123324773
 30
0.0
 11
-87.298392086885315
 21
-104.7746123324773
 31
0.0
  0
LINE
  8
DETAIL
  6
CONTINUOUS
 62
     5
 10
-87.298392086885315
 20
-104.7746123324773
 30
0.0
 11
-87.421154836358937
 21
-104.8862348250241
 31
0.0
  0
LINE
  8
DETAIL
  6
CONTINUOUS
 62
     5
 10
-87.421154836358937
 20
-104.8862348250241
 30
0.0
 11
-87.544291776743421
 21
-104.9990379085652
 31
0.0
  0
LINE
  8
DETAIL
  6
CONTINUOUS
 62
     5
 10
-90.560816217100864
 20
-96.852510654154912
 30
0.0
 11
-90.869801678123395
 21
-97.079482462476562
 31
0.0
  0
LINE
  8
DETAIL
  6
CONTINUOUS
 62
     5
 10
-90.869801678123395
 20
-97.079482462476562
 30
0.0
 11
-91.174079190927159
 21
-97.307925205993342
 31
0.0
  0
LINE
  8
DETAIL
  6
CONTINUOUS
 62
     5
 10
-91.174079190927159
 20
-97.307925205993342
 30
0.0
 11
-91.174079190927159
 21
-97.307925205993342
 31
0.0
  0
LINE
  8
DETAIL
  6
CONTINUOUS
 62
     5
 10
-91.174079190927159
 20
-97.307925205993342
 30
0.0
 11
-91.469989919754198
 21
-97.538917478281064
 31
0.0
  0
LINE
  8
DETAIL
  6
CONTINUOUS
 62
     5
 10
-91.469989919754198
 20
-97.538917478281064
 30
0.0
 11
-91.758071478691363
 21
-97.771968506436451
 31
0.0
  0
LINE
  8
DETAIL
  6
CONTINUOUS
 62
     5
 10
-91.758071478691363
 20
-97.771968506436451
 30
0.0
 11
-91.758071478691363
 21
-97.771968506436451
 31
0.0
  0
LINE
  8
DETAIL
  6
CONTINUOUS
 62
     5
 10
-91.758071478691363
 20
-97.771968506436451
 30
0.0
 11
-92.039673455826232
 21
-98.006308002975175
 31
0.0
  0
LINE
  8
DETAIL
  6
CONTINUOUS
 62
     5
 10
-92.039673455826232
 20
-98.006308002975175
 30
0.0
 11
-92.315196885413343
 21
-98.241616988568467
 31
0.0
  0
LINE
  8
DETAIL
  6
CONTINUOUS
 62
     5
 10
-92.315196885413343
 20
-98.241616988568467
 30
0.0
 11
-92.315196885413343
 21
-98.241616988568467
 31
0.0
  0
LINE
  8
DETAIL
  6
CONTINUOUS
 62
     5
 10
-92.315196885413343
 20
-98.241616988568467
 30
0.0
 11
-92.584705104622572
 21
-98.477630344390946
 31
0.0
  0
LINE
  8
DETAIL
  6
CONTINUOUS
 62
     5
 10
-92.584705104622572
 20
-98.477630344390946
 30
0.0
 11
-92.847859216112056
 21
-98.713847085474072
 31
0.0
  0
LINE
  8
DETAIL
  6
CONTINUOUS
 62
     5
 10
-92.847859216112056
 20
-98.713847085474072
 30
0.0
 11
-92.847859216112056
 21
-98.713847085474072
 31
0.0
  0
LINE
  8
DETAIL
  6
CONTINUOUS
 62
     5
 10
-92.847859216112056
 20
-98.713847085474072
 30
0.0
 11
-93.104859136880577
 21
-98.949830299417044
 31
0.0
  0
LINE
  8
DETAIL
  6
CONTINUOUS
 62
     5
 10
-93.104859136880577
 20
-98.949830299417044
 30
0.0
 11
-93.358462275805095
 21
-99.185635230237949
 31
0.0
  0
LINE
  8
DETAIL
  6
CONTINUOUS
 62
     5
 10
-94.834111989039684
 20
-111.8791202263594
 30
0.0
 11
-96.758828182487377
 21
-113.5987647503662
 31
0.0
  0
LINE
  8
DETAIL
  6
CONTINUOUS
 62
     5
 10
-96.758828182487377
 20
-113.5987647503662
 30
0.0
 11
-98.685424339744941
 21
-115.31031791253891
 31
0.0
  0
LINE
  8
DETAIL
  6
CONTINUOUS
 62
     5
 10
-98.685424339744941
 20
-115.31031791253891
 30
0.0
 11
-98.685424339744941
 21
-115.31031791253891
 31
0.0
  0
LINE
  8
DETAIL
  6
CONTINUOUS
 62
     5
 10
-98.685424339744941
 20
-115.31031791253891
 30
0.0
 11
-100.6148129696976
 21
-117.0079725936332
 31
0.0
  0
LINE
  8
DETAIL
  6
CONTINUOUS
 62
     5
 10
-100.6148129696976
 20
-117.0079725936332
 30
0.0
 11
-102.5440367615372
 21
-118.69505864476039
 31
0.0
  0
LINE
  8
DETAIL
  6
CONTINUOUS
 62
     5
 10
-102.5440367615372
 20
-118.69505864476039
 30
0.0
 11
-102.5440367615372
 21
-118.69505864476039
 31
0.0
  0
LINE
  8
DETAIL
  6
CONTINUOUS
 62
     5
 10
-102.5440367615372
 20
-118.69505864476039
 30
0.0
 11
-104.46959475883411
 21
-120.3764938942213
 31
0.0
  0
LINE
  8
DETAIL
  6
CONTINUOUS
 62
     5
 10
-104.46959475883411
 20
-120.3764938942213
 30
0.0
 11
-106.3896812423725
 21
-122.05441110871359
 31
0.0
  0
LINE
  8
DETAIL
  6
CONTINUOUS
 62
     5
 10
-106.3896812423725
 20
-122.05441110871359
 30
0.0
 11
-106.3896812423725
 21
-122.05441110871359
 31
0.0
  0
LINE
  8
DETAIL
  6
CONTINUOUS
 62
     5
 10
-106.3896812423725
 20
-122.05441110871359
 30
0.0
 11
-108.3021865199521
 21
-123.7307476085477
 31
0.0
  0
LINE
  8
DETAIL
  6
CONTINUOUS
 62
     5
 10
-108.3021865199521
 20
-123.7307476085477
 30
0.0
 11
-110.20208977021051
 21
-125.4094439900887
 31
0.0
  0
LINE
  8
DETAIL
  6
CONTINUOUS
 62
     5
 10
-110.20208977021051
 20
-125.4094439900887
 30
0.0
 11
-110.20208977021051
 21
-125.4094439900887
 31
0.0
  0
LINE
  8
DETAIL
  6
CONTINUOUS
 62
     5
 10
-110.20208977021051
 20
-125.4094439900887
 30
0.0
 11
-112.08612970935251
 21
-127.0936346580613
 31
0.0
  0
LINE
  8
DETAIL
  6
CONTINUOUS
 62
     5
 10
-112.08612970935251
 20
-127.0936346580613
 30
0.0
 11
-113.9609943330083
 21
-128.7812259745765
 31
0.0
  0
LINE
  8
DETAIL
  6
CONTINUOUS
 62
     5
 10
-100.6517863854565
 20
-106.0607375750569
 30
0.0
 11
-102.5122304281895
 21
-107.71915945600109
 31
0.0
  0
LINE
  8
DETAIL
  6
CONTINUOUS
 62
     5
 10
-102.5122304281895
 20
-107.71915945600109
 30
0.0
 11
-104.3794847738554
 21
-109.3748475754674
 31
0.0
  0
LINE
  8
DETAIL
  6
CONTINUOUS
 62
     5
 10
-104.3794847738554
 20
-109.3748475754674
 30
0.0
 11
-104.3794847738554
 21
-109.3748475754674
 31
0.0
  0
LINE
  8
DETAIL
  6
CONTINUOUS
 62
     5
 10
-104.3794847738554
 20
-109.3748475754674
 30
0.0
 11
-106.25840005214491
 21
-111.02620309225451
 31
0.0
  0
LINE
  8
DETAIL
  6
CONTINUOUS
 62
     5
 10
-106.25840005214491
 20
-111.02620309225451
 30
0.0
 11
-108.1459881997835
 21
-112.6761668462686
 31
0.0
  0
LINE
  8
DETAIL
  6
CONTINUOUS
 62
     5
 10
-108.1459881997835
 20
-112.6761668462686
 30
0.0
 11
-108.1459881997835
 21
-112.6761668462686
 31
0.0
  0
LINE
  8
DETAIL
  6
CONTINUOUS
 62
     5
 10
-108.1459881997835
 20
-112.6761668462686
 30
0.0
 11
-110.0379097589537
 21
-114.32836145898359
 31
0.0
  0
LINE
  8
DETAIL
  6
CONTINUOUS
 62
     5
 10
-110.0379097589537
 20
-114.32836145898359
 30
0.0
 11
-111.9322583866406
 21
-115.9845969970343
 31
0.0
  0
LINE
  8
DETAIL
  6
CONTINUOUS
 62
     5
 10
-111.9322583866406
 20
-115.9845969970343
 30
0.0
 11
-111.9322583866406
 21
-115.9845969970343
 31
0.0
  0
LINE
  8
DETAIL
  6
CONTINUOUS
 62
     5
 10
-111.9322583866406
 20
-115.9845969970343
 30
0.0
 11
-113.82726257697119
 21
-117.6469080229074
 31
0.0
  0
LINE
  8
DETAIL
  6
CONTINUOUS
 62
     5
 10
-113.82726257697119
 20
-117.6469080229074
 30
0.0
 11
-115.71925705782699
 21
-119.32003963733651
 31
0.0
  0
LINE
  8
DETAIL
  6
CONTINUOUS
 62
     5
 10
-115.71925705782699
 20
-119.32003963733651
 30
0.0
 11
-115.71925705782699
 21
-119.32003963733651
 31
0.0
  0
LINE
  8
DETAIL
  6
CONTINUOUS
 62
     5
 10
-115.71925705782699
 20
-119.32003963733651
 30
0.0
 11
-117.6053886030725
 21
-121.0071571760798
 31
0.0
  0
LINE
  8
DETAIL
  6
CONTINUOUS
 62
     5
 10
-117.6053886030725
 20
-121.0071571760798
 30
0.0
 11
-119.4879459367414
 21
-122.7023963767485
 31
0.0
  0
LINE
  8
DETAIL
  6
CONTINUOUS
 62
     5
 10
-113.9609943330083
 20
-128.7812259745765
 30
0.0
 11
-116.2314948597088
 21
-130.87061141109299
 31
0.0
  0
LINE
  8
DETAIL
  6
CONTINUOUS
 62
     5
 10
-116.2314948597088
 20
-130.87061141109299
 30
0.0
 11
-118.5020574908615
 21
-132.9809857180735
 31
0.0
  0
LINE
  8
DETAIL
  6
CONTINUOUS
 62
     5
 10
-118.5020574908615
 20
-132.9809857180735
 30
0.0
 11
-118.5020574908615
 21
-132.9809857180735
 31
0.0
  0
LINE
  8
DETAIL
  6
CONTINUOUS
 62
     5
 10
-118.5020574908615
 20
-132.9809857180735
 30
0.0
 11
-120.7722575798782
 21
-135.1279291659155
 31
0.0
  0
LINE
  8
DETAIL
  6
CONTINUOUS
 62
     5
 10
-120.7722575798782
 20
-135.1279291659155
 30
0.0
 11
-123.0397234760123
 21
-137.30538762475001
 31
0.0
  0
LINE
  8
DETAIL
  6
CONTINUOUS
 62
     5
 10
-123.0397234760123
 20
-137.30538762475001
 30
0.0
 11
-123.0397234760123
 21
-137.30538762475001
 31
0.0
  0
LINE
  8
DETAIL
  6
CONTINUOUS
 62
     5
 10
-123.0397234760123
 20
-137.30538762475001
 30
0.0
 11
-125.3018836527303
 21
-139.50339445214351
 31
0.0
  0
LINE
  8
DETAIL
  6
CONTINUOUS
 62
     5
 10
-125.3018836527303
 20
-139.50339445214351
 30
0.0
 11
-127.5573140845092
 21
-141.71796735566679
 31
0.0
  0
LINE
  8
DETAIL
  6
CONTINUOUS
 62
     5
 10
-127.5573140845092
 20
-141.71796735566679
 30
0.0
 11
-127.5573140845092
 21
-141.71796735566679
 31
0.0
  0
LINE
  8
DETAIL
  6
CONTINUOUS
 62
     5
 10
-127.5573140845092
 20
-141.71796735566679
 30
0.0
 11
-129.80421687110791
 21
-143.94604438045371
 31
0.0
  0
LINE
  8
DETAIL
  6
CONTINUOUS
 62
     5
 10
-129.80421687110791
 20
-143.94604438045371
 30
0.0
 11
-132.03815111239831
 21
-146.1822605718846
 31
0.0
  0
LINE
  8
DETAIL
  6
CONTINUOUS
 62
     5
 10
-132.03815111239831
 20
-146.1822605718846
 30
0.0
 11
-132.03815111239831
 21
-146.1822605718846
 31
0.0
  0
LINE
  8
DETAIL
  6
CONTINUOUS
 62
     5
 10
-132.03815111239831
 20
-146.1822605718846
 30
0.0
 11
-134.25637128291581
 21
-148.4214821376531
 31
0.0
  0
LINE
  8
DETAIL
  6
CONTINUOUS
 62
     5
 10
-134.25637128291581
 20
-148.4214821376531
 30
0.0
 11
-136.46555635572921
 21
-150.6618029344643
 31
0.0
  0
CIRCLE
  8
DETAIL
  6
CONTINUOUS
 62
     5
 10
-180.14184516102429
 20
-211.31449092945971
 30
0.0
 40
3.0057803468207558
  0
CIRCLE
  8
DETAIL
  6
CONTINUOUS
 62
     5
 10
-211.31449092880939
 20
180.14184516102409
 30
0.0
 40
3.0057803468207558
  0
CIRCLE
  8
DETAIL
  6
CONTINUOUS
 62
     5
 10
211.31449092880919
 20
-180.14184516102389
 30
0.0
 40
3.0057803468207558
  0
CIRCLE
  8
DETAIL
  6
CONTINUOUS
 62
     5
 10
180.14184516102389
 20
211.31449092880939
 30
0.0
 40
3.0057803468207558
  0
LINE
  8
DETAIL
  6
CONTINUOUS
 62
     5
 10
49.449385447989023
 20
-107.5363020490452
 30
0.0
 11
62.658850244776197
 21
-79.208513376523342
 31
0.0
  0
CIRCLE
  8
DETAIL
  6
CONTINUOUS
 62
     5
 10
-230.443159922929
 20
-230.4431599229284
 30
0.0
 40
8.0154142581887982
  0
CIRCLE
  8
DETAIL
  6
CONTINUOUS
 62
     5
 10
-230.443159922929
 20
-230.4431599229284
 30
0.0
 40
7.0134874759152117
  0
CIRCLE
  8
DETAIL
  6
CONTINUOUS
 62
     5
 10
-230.443159922929
 20
230.4431599229288
 30
0.0
 40
8.0154142581887982
  0
CIRCLE
  8
DETAIL
  6
CONTINUOUS
 62
     5
 10
-230.443159922929
 20
230.4431599229288
 30
0.0
 40
7.0134874759152117
  0
ARC
  8
DETAIL
  6
CONTINUOUS
 62
     5
 10
-0.0000000000002274
 20
-220.42389210019269
 30
0.0
 40
300.5780346820809
 50
76.428740497985913
 51
92.829129393106058
  0
CIRCLE
  8
DETAIL
  6
CONTINUOUS
 62
     5
 10
230.44315992292829
 20
-230.4431599229284
 30
0.0
 40
8.0154142581889118
  0
CIRCLE
  8
DETAIL
  6
CONTINUOUS
 62
     5
 10
230.44315992292829
 20
-230.4431599229284
 30
0.0
 40
7.0134874759153263
  0
ARC
  8
DETAIL
  6
CONTINUOUS
 62
     5
 10
-67.630057803468617
 20
-67.730250481695521
 30
0.0
 40
8.0154142581884855
 50
180.0
 51
206.2982817280824
  0
ARC
  8
DETAIL
  6
CONTINUOUS
 62
     5
 10
14.026974951830431
 20
-67.129094412331369
 30
0.0
 40
1.7032755298651461
 50
302.61009363229812
 51
170.87391735929401
  0
CIRCLE
  8
DETAIL
  6
CONTINUOUS
 62
     5
 10
-0.0000000000002274
 20
0.0
 30
0.0
 40
203.29094412331409
  0
ARC
  8
DETAIL
  6
CONTINUOUS
 62
     5
 10
-0.0000000000002274
 20
185.35645472061651
 30
0.0
 40
300.5780346820809
 50
277.7332867399976
 51
278.29044574509709
  0
ARC
  8
DETAIL
  6
CONTINUOUS
 62
     5
 10
42.184953089657483
 20
-104.14884160788731
 30
0.0
 40
8.015414258188823
 50
278.29044574510999
 51
335.00000000000648
  0
ARC
  8
DETAIL
  6
CONTINUOUS
 62
     5
 10
67.630057803468162
 20
-67.730250481695521
 30
0.0
 40
8.0154142581888195
 50
271.94924764279881
 51
0.0
  0
ARC
  8
DETAIL
  6
CONTINUOUS
 62
     5
 10
68.107174513525251
 20
-81.749108707554342
 30
0.0
 40
6.0115606936416368
 50
91.94924764281177
 51
155.00000000000659
  0
CIRCLE
  8
DETAIL
  6
CONTINUOUS
 62
     5
 10
230.44315992292829
 20
230.4431599229288
 30
0.0
 40
8.0154142581889118
  0
CIRCLE
  8
DETAIL
  6
CONTINUOUS
 62
     5
 10
230.44315992292829
 20
230.4431599229288
 30
0.0
 40
7.0134874759153263
  0
ARC
  8
DETAIL
  6
CONTINUOUS
 62
     5
 10
-0.0000000000002274
 20
0.0
 30
0.0
 40
56.709055876685973
 50
286.69432501029968
 51
342.50072151766562
  0
ARC
  8
DETAIL
  6
CONTINUOUS
 62
     5
 10
-0.0000000000002274
 20
0.0
 30
0.0
 40
56.709055876685937
 50
46.688740963093487
 51
102.0654797609012
  0
ARC
  8
DETAIL
  6
CONTINUOUS
 62
     5
 10
-0.0000000000002274
 20
0.0
 30
0.0
 40
56.709055876686023
 50
166.689333278997
 51
222.06414322019671
  0
ARC
  8
DETAIL
  6
CONTINUOUS
 62
     5
 10
-0.0000000000002274
 20
0.0
 30
0.0
 40
55.707129094412373
 50
47.560145601802162
 51
100.41131417929699
  0
ARC
  8
DETAIL
  6
CONTINUOUS
 62
     5
 10
-0.0000000000002274
 20
0.0
 30
0.0
 40
55.707129094412373
 50
167.56009006539651
 51
220.41236662370071
  0
ARC
  8
DETAIL
  6
CONTINUOUS
 62
     5
 10
-0.0000000000002274
 20
0.0
 30
0.0
 40
55.707129094412373
 50
287.55905015680202
 51
341.13849496296291
  0
LINE
  8
BASIS
  6
DASHDOT
 62
     6
 10
-275.82914195631088
 20
0.0
 30
0.0
 11
269.32312388959758
 21
0.0
 31
0.0
  0
LINE
  8
BASIS
  6
DASHDOT
 62
     6
 10
0.0
 20
-297.19490528739078
 30
0.0
 11
0.0
 21
284.18286915396737
 31
0.0
  0
LINE
  8
SIZE
  6
CONTINUOUS
 62
    30
 10
543.48861121836967
 20
159.65457901934161
 30
0.0
 11
202.1836831287392
 21
59.393242375651432
 31
0.0
  0
LINE
  8
SIZE
  6
CONTINUOUS
 62
    30
 10
-202.1836831287394
 20
-59.393242375651432
 30
0.0
 11
-213.69718684670471
 21
-62.775435766987812
 31
0.0
  0
TEXT
  8
SIZE
  6
CONTINUOUS
 62
    30
 10
306.6602538799221
 20
116.14051784876909
 30
0.0
 40
64.0
  1
φ400
 50
16.370616678520321
 41
0.9
 72
     1
 11
416.40039217458548
 21
148.3776525730498
 31
0.0
  0
LINE
  8
SIZE
  6
CONTINUOUS
 62
    30
 10
-190.67017941077421
 20
-56.011048984314932
 30
0.0
 11
190.6701794107739
 21
56.011048984315039
 31
0.0
  0
CIRCLE
  8
SIZE
  6
CONTINUOUS
 62
    30
 10
-190.67017941077421
 20
-56.011048984314932
 30
0.0
 40
6.0
  0
LINE
  8
SIZE
  6
CONTINUOUS
 62
    30
 10
-190.67017941077421
 20
-56.011048984314932
 30
0.0
 11
-202.1836831287394
 21
-59.393242375651432
 31
0.0
  0
CIRCLE
  8
SIZE
  6
CONTINUOUS
 62
    30
 10
190.6701794107739
 20
56.011048984315039
 30
0.0
 40
6.0
  0
LINE
  8
SIZE
  6
CONTINUOUS
 62
    30
 10
190.6701794107739
 20
56.011048984315039
 30
0.0
 11
202.1836831287392
 21
59.393242375651432
 31
0.0
  0
POINT
  8
DEFPOINTS
  6
CONTINUOUS
 62
    30
 10
190.6701794107739
 20
56.011048984315039
 30
0.0
  0
POINT
  8
DEFPOINTS
  6
CONTINUOUS
 62
    30
 10
-190.67017941077421
 20
-56.011048984314932
 30
0.0
  0
TEXT
  8
ETC
  6
CONTINUOUS
 62
    61
 10
373.94705195282341
 20
262.0856767473233
 30
0.0
 40
40.0
  1
EWF-40DSA2-Q
 41
0.9
  0
LINE
  8
DETAIL
  6
CONTINUOUS
 62
     5
 10
-191.89087189379671
 20
-350.67978498284538
 30
0.0
 11
-188.8749780497603
 21
-350.67978498284538
 31
0.0
  0
LINE
  8
DETAIL
  6
CONTINUOUS
 62
     5
 10
-189.10715414650281
 20
-300.53512319952551
 30
0.0
 11
-191.20212780610399
 21
-350.5857864704758
 31
0.0
  0
LINE
  8
DETAIL
  6
CONTINUOUS
 62
     5
 10
-191.86927549642161
 20
-300.80889325888143
 30
0.0
 11
-193.62092417989359
 21
-350.56423675181441
 31
0.0
  0
LINE
  8
DETAIL
  6
CONTINUOUS
 62
     5
 10
-194.48688438220071
 20
-300.52300289589613
 30
0.0
 11
-186.31654707819709
 21
-300.48592226671212
 31
0.0
  0
LINE
  8
DETAIL
  6
CONTINUOUS
 62
     5
 10
-188.86342106848701
 20
-300.57809991727368
 30
0.0
 11
-188.8749780497603
 21
-350.67978498284538
 31
0.0
  0
LINE
  8
DETAIL
  6
CONTINUOUS
 62
     5
 10
-191.20212780610399
 20
-350.5857864704758
 30
0.0
 11
-193.62092417989359
 21
-350.56423675181441
 31
0.0
  0
ARC
  8
DETAIL
  6
CONTINUOUS
 62
     5
 10
154336.28082936589
 20
1395.092103134717
 30
0.0
 40
154539.90774768079
 50
180.61363737265009
 51
180.624140520644
  0
ARC
  8
DETAIL
  6
CONTINUOUS
 62
     5
 10
-948.30625801531323
 20
-286.10769931743579
 30
0.0
 40
762.12535246454297
 50
358.91899624366351
 51
0.2568150840380224
  0
ARC
  8
DETAIL
  6
CONTINUOUS
 62
     5
 10
222.53225213500599
 20
-295.41720300976863
 30
0.0
 40
417.05039193607718
 50
179.025640098721
 51
180.70146941101359
  0
ARC
  8
DETAIL
  6
CONTINUOUS
 62
     5
 10
-122.0567831246876
 20
43.016065304449278
 30
0.0
 40
113.3512209005391
 50
15.406712243606529
 51
31.003319937878189
  0
ARC
  8
DETAIL
  6
CONTINUOUS
 62
     5
 10
-113.3857271506249
 20
47.533981501206647
 30
0.0
 40
103.59351309758181
 50
31.331786182026072
 51
98.281084011663083
  0
ARC
  8
DETAIL
  6
CONTINUOUS
 62
     5
 10
-85.861398346848318
 20
91.451155520922157
 30
0.0
 40
72.353861380841423
 50
125.9181332944184
 51
136.42159489369379
  0
ARC
  8
DETAIL
  6
CONTINUOUS
 62
     5
 10
1.5258689504416909
 20
-1.491062995652783
 30
0.0
 40
199.85517579646901
 50
134.38850926666049
 51
188.73419597900519
  0
ARC
  8
DETAIL
  6
CONTINUOUS
 62
     5
 10
-191.5002308797466
 20
-31.647731459068609
 30
0.0
 40
4.5155042823847031
 50
182.4305036884821
 51
350.47967172042672
  0
ARC
  8
DETAIL
  6
CONTINUOUS
 62
     5
 10
-16.855935313512191
 20
71.423242528776655
 30
0.0
 40
4.4198422875621564
 50
272.62235273454598
 51
22.715334955161939
  0
ARC
  8
DETAIL
  6
CONTINUOUS
 62
     5
 10
-17.93071878733895
 20
32.707371794301253
 30
0.0
 40
34.324419915802324
 50
87.867879899694955
 51
100.81067789272799
  0
ARC
  8
DETAIL
  6
CONTINUOUS
 62
     5
 10
1.2075770617082069
 20
82.252715878709523
 30
0.0
 40
30.078913549519381
 50
211.754838969199
 51
267.64156951612938
  0
ARC
  8
DETAIL
  6
CONTINUOUS
 62
     5
 10
-56.020662059426968
 20
-152.66329832285581
 30
0.0
 40
212.38032937179861
 50
67.933359984622072
 51
74.696640600449086
  0
ARC
  8
DETAIL
  6
CONTINUOUS
 62
     5
 10
-66.608881698309006
 20
24.122337030992409
 30
0.0
 40
2.940366119030565
 50
273.57640849651591
 51
350.57499283923772
  0
ARC
  8
DETAIL
  6
CONTINUOUS
 62
     5
 10
-88.204251441705992
 20
-5.7893355949386196
 30
0.0
 40
38.318388120285732
 50
6.4321435390698074
 51
50.639627851477442
  0
ARC
  8
DETAIL
  6
CONTINUOUS
 62
     5
 10
98.281396886844732
 20
84.196242237966771
 30
0.0
 40
113.3512209005391
 50
255.40671224365519
 51
271.00331993788609
  0
ARC
  8
DETAIL
  6
CONTINUOUS
 62
     5
 10
97.858499098374523
 20
74.427929388411485
 30
0.0
 40
103.59351309758181
 50
271.3317861818997
 51
338.28108401168367
  0
ARC
  8
DETAIL
  6
CONTINUOUS
 62
     5
 10
-1.3858690771103279
 20
0.3838717822786748
 30
0.0
 40
198.7185254582991
 50
10.352051039405509
 51
68.813412343089141
  0
ARC
  8
DETAIL
  6
CONTINUOUS
 62
     5
 10
68.342376024168971
 20
181.66793050198291
 30
0.0
 40
4.5155042823847023
 50
62.430503688517881
 51
230.47967172049479
  0
ARC
  8
DETAIL
  6
CONTINUOUS
 62
     5
 10
70.282310107331568
 20
-21.113953078338231
 30
0.0
 40
4.4198422875621546
 50
152.6223527344433
 51
262.71533495507163
  0
ARC
  8
DETAIL
  6
CONTINUOUS
 62
     5
 10
37.29077425855462
 20
-0.8252279191985963
 30
0.0
 40
34.324419915802324
 50
327.86787989979598
 51
340.81067789274198
  0
ARC
  8
DETAIL
  6
CONTINUOUS
 62
     5
 10
70.629152950371463
 20
-42.172150351820392
 30
0.0
 40
30.078913549519381
 50
91.754838969242357
 51
147.6415695161034
  0
ARC
  8
DETAIL
  6
CONTINUOUS
 62
     5
 10
-104.19996354335289
 20
124.846965641663
 30
0.0
 40
212.38032937172409
 50
307.93335998464738
 51
314.69664060038173
  0
ARC
  8
DETAIL
  6
CONTINUOUS
 62
     5
 10
54.194997516640797
 20
45.623815152914403
 30
0.0
 40
2.940366119030565
 50
153.57640849655661
 51
230.57499283904059
  0
ARC
  8
DETAIL
  6
CONTINUOUS
 62
     5
 10
39.088414024601889
 20
79.281790267780252
 30
0.0
 40
38.318388120285718
 50
246.43214353910861
 51
290.63962785159441
  0
ARC
  8
DETAIL
  6
CONTINUOUS
 62
     5
 10
23.775386237842671
 20
-127.21230754240869
 30
0.0
 40
113.3512209005391
 50
135.4067122435205
 51
151.00331993788049
  0
ARC
  8
DETAIL
  6
CONTINUOUS
 62
     5
 10
15.52722805224994
 20
-121.96191088961091
 30
0.0
 40
103.59351309758181
 50
151.3317861818573
 51
218.28108401162129
  0
ARC
  8
DETAIL
  6
CONTINUOUS
 62
     5
 10
1.025377253859006
 20
1.0082619358402101
 30
0.0
 40
198.71852545816961
 50
250.3520510393445
 51
308.8134123430973
  0
ARC
  8
DETAIL
  6
CONTINUOUS
 62
     5
 10
123.1578548555772
 20
-150.02019904290711
 30
0.0
 40
4.5155042823847031
 50
302.43050368843848
 51
110.47967172034819
  0
ARC
  8
DETAIL
  6
CONTINUOUS
 62
     5
 10
-53.426374793819832
 20
-50.30928945043479
 30
0.0
 40
4.4198422875621564
 50
32.622352734443339
 51
142.715334955141
  0
ARC
  8
DETAIL
  6
CONTINUOUS
 62
     5
 10
-19.360055471215901
 20
-31.882143875099128
 30
0.0
 40
34.324419915802324
 50
207.8678798996813
 51
220.810677892678
  0
ARC
  8
DETAIL
  6
CONTINUOUS
 62
     5
 10
-71.836730012079443
 20
-40.080565526885493
 30
0.0
 40
30.078913549519381
 50
331.7548389692659
 51
27.64156951608264
  0
ARC
  8
DETAIL
  6
CONTINUOUS
 62
     5
 10
160.2206256029408
 20
27.816332681168209
 30
0.0
 40
212.3803293719115
 50
187.9333599846523
 51
194.6966406003715
  0
ARC
  8
DETAIL
  6
CONTINUOUS
 62
     5
 10
12.413884181667751
 20
-69.74615218389954
 30
0.0
 40
2.940366119030565
 50
33.576408496578772
 51
110.5749928391284
  0
ARC
  8
DETAIL
  6
CONTINUOUS
 62
     5
 10
49.115837417103883
 20
-73.492454672834469
 30
0.0
 40
38.318388120285732
 50
126.4321435390697
 51
170.63962785152739
  0
CIRCLE
  8
DETAIL
  6
CONTINUOUS
 62
     5
 10
-0.0000000000002274
 20
0.0
 30
0.0
 40
198.72683493896861
  0
CIRCLE
  8
DETAIL
  6
CONTINUOUS
 62
     5
 10
-132.30114521301971
 20
-228.18153312048639
 30
0.0
 40
6.4288265865152461
  0
CIRCLE
  8
DETAIL
  6
CONTINUOUS
 62
     5
 10
-228.1820892926446
 20
132.3017063622851
 30
0.0
 40
6.4420491061499892
  0
CIRCLE
  8
DETAIL
  6
CONTINUOUS
 62
     5
 10
132.30170642474309
 20
228.1820892308385
 30
0.0
 40
6.4462774943771706
  0
CIRCLE
  8
DETAIL
  6
CONTINUOUS
 62
     5
 10
228.18208847874459
 20
-132.3017070623325
 30
0.0
 40
6.4781894423796889
  0
ARC
  8
DETAIL
  6
CONTINUOUS
 62
     5
 10
118.4360082900382
 20
-37.966133027216763
 30
0.0
 40
107.8697268538769
 50
196.28950482965189
 51
271.66912361520701
  0
ARC
  8
DETAIL
  6
CONTINUOUS
 62
     5
 10
-19.368740137395431
 20
120.8165767876792
 30
0.0
 40
102.413516569393
 50
313.89166804837561
 51
34.066960396496619
  0
ARC
  8
DETAIL
  6
CONTINUOUS
 62
     5
 10
-92.861210547875544
 20
-81.868849752522692
 30
0.0
 40
106.38914666254961
 50
75.670865173288121
 51
152.28776327150959
  0
ARC
  8
OUTLINE
  6
CONTINUOUS
 62
     2
 10
-756.34594195063266
 20
-280.35942925204199
 30
0.0
 40
570.16215056337501
 50
359.76563271396321
 51
2.0466231957143162
  0
ENDSEC
  0
EOF
