  0
SECTION
  2
HEADER
  9
$ACADVER
  1
AC1009
  9
$DWGCODEPAGE
  3
dos932
  9
$INSBASE
 10
0.0
 20
0.0
 30
0.0
  9
$EXTMIN
 10
-584.60996874446391
 20
-334.53367957209048
 30
-0.0015257624927045
  9
$EXTMAX
 10
1263.9358638947999
 20
558.83789860973775
 30
0.0022888765696933
  9
$LIMMIN
 10
-2970.0
 20
-2100.0
  9
$LIMMAX
 10
2970.0
 20
2100.0
  9
$ORTHOMODE
 70
     1
  9
$REGENMODE
 70
     1
  9
$FILLMODE
 70
     1
  9
$QTEXTMODE
 70
     0
  9
$MIRRTEXT
 70
     0
  9
$LTSCALE
 40
20.0
  9
$ATTMODE
 70
     1
  9
$TEXTSIZE
 40
64.0
  9
$TRACEWID
 40
0.05
  9
$TEXTSTYLE
  7
STANDARD
  9
$CLAYER
  8
SIZE
  9
$CELTYPE
  6
CONTINUOUS
  9
$CECOLOR
 62
     7
  9
$DIMSCALE
 40
1.0
  9
$DIMASZ
 40
12.0
  9
$DIMEXO
 40
20.0
  9
$DIMDLI
 40
200.0
  9
$DIMRND
 40
0.0
  9
$DIMDLE
 40
0.0
  9
$DIMEXE
 40
20.0
  9
$DIMTP
 40
0.0
  9
$DIMTM
 40
0.0
  9
$DIMTXT
 40
64.0
  9
$DIMCEN
 40
0.09
  9
$DIMTSZ
 40
0.0
  9
$DIMTOL
 70
     0
  9
$DIMLIM
 70
     0
  9
$DIMTIH
 70
     0
  9
$DIMTOH
 70
     0
  9
$DIMSE1
 70
     0
  9
$DIMSE2
 70
     0
  9
$DIMTAD
 70
     1
  9
$DIMZIN
 70
     8
  9
$DIMBLK
  1

  9
$DIMASO
 70
     1
  9
$DIMSHO
 70
     0
  9
$DIMPOST
  1

  9
$DIMAPOST
  1

  9
$DIMALT
 70
     0
  9
$DIMALTD
 70
     2
  9
$DIMALTF
 40
25.399999999999999
  9
$DIMLFAC
 40
1.0
  9
$DIMTOFL
 70
     1
  9
$DIMTVP
 40
0.0
  9
$DIMTIX
 70
     1
  9
$DIMSOXD
 70
     0
  9
$DIMSAH
 70
     0
  9
$DIMBLK1
  1

  9
$DIMBLK2
  1

  9
$DIMSTYLE
  2
STANDARD
  9
$DIMCLRD
 70
     7
  9
$DIMCLRE
 70
     7
  9
$DIMCLRT
 70
     7
  9
$DIMTFAC
 40
1.0
  9
$DIMGAP
 40
25.0
  9
$LUNITS
 70
     2
  9
$LUPREC
 70
     4
  9
$SKETCHINC
 40
0.1
  9
$FILLETRAD
 40
3.0
  9
$AUNITS
 70
     1
  9
$AUPREC
 70
     3
  9
$MENU
  1
ACAD
  9
$ELEVATION
 40
0.0
  9
$PELEVATION
 40
0.0
  9
$THICKNESS
 40
50.0
  9
$LIMCHECK
 70
     0
  9
$CHAMFERA
 40
0.0
  9
$CHAMFERB
 40
0.0
  9
$SKPOLY
 70
     0
  9
$TDCREATE
 40
2453019.62301037
  9
$TDUPDATE
 40
2458949.443740672
  9
$TDINDWG
 40
1.717076169
  9
$TDUSRTIMER
 40
1.717076169
  9
$USRTIMER
 70
     1
  9
$ANGBASE
 50
0.0
  9
$ANGDIR
 70
     0
  9
$PDMODE
 70
     3
  9
$PDSIZE
 40
-2.0
  9
$PLINEWID
 40
0.0
  9
$SPLFRAME
 70
     0
  9
$SPLINETYPE
 70
     6
  9
$SPLINESEGS
 70
     8
  9
$SURFTAB1
 70
     6
  9
$SURFTAB2
 70
     6
  9
$SURFTYPE
 70
     6
  9
$SURFU
 70
     6
  9
$SURFV
 70
     6
  9
$UCSNAME
  2

  9
$UCSORG
 10
0.0
 20
0.0
 30
0.0
  9
$UCSXDIR
 10
1.0
 20
0.0
 30
0.0
  9
$UCSYDIR
 10
0.0
 20
1.0
 30
0.0
  9
$PUCSNAME
  2

  9
$PUCSORG
 10
0.0
 20
0.0
 30
0.0
  9
$PUCSXDIR
 10
1.0
 20
0.0
 30
0.0
  9
$PUCSYDIR
 10
0.0
 20
1.0
 30
0.0
  9
$USERI1
 70
     0
  9
$USERI2
 70
     0
  9
$USERI3
 70
     0
  9
$USERI4
 70
     0
  9
$USERI5
 70
     0
  9
$USERR1
 40
20.0
  9
$USERR2
 40
0.0
  9
$USERR3
 40
0.0
  9
$USERR4
 40
0.0
  9
$USERR5
 40
0.0
  9
$WORLDVIEW
 70
     1
  9
$SHADEDGE
 70
     3
  9
$SHADEDIF
 70
    70
  9
$TILEMODE
 70
     1
  9
$MAXACTVP
 70
    48
  9
$PINSBASE
 10
0.0
 20
0.0
 30
0.0
  9
$PLIMCHECK
 70
     0
  9
$PEXTMIN
 10
-100000000000000000000.0
 20
-100000000000000000000.0
 30
-100000000000000000000.0
  9
$PEXTMAX
 10
100000000000000000000.0
 20
100000000000000000000.0
 30
100000000000000000000.0
  9
$PLIMMIN
 10
0.0
 20
0.0
  9
$PLIMMAX
 10
12.0
 20
9.0
  9
$UNITMODE
 70
     0
  9
$VISRETAIN
 70
     0
  9
$PLINEGEN
 70
     0
  9
$PSLTSCALE
 70
     0
  9
$TREEDEPTH
 70
  3020
  9
$ATTDIA
 70
     0
  9
$ATTREQ
 70
     1
  9
$BLIPMODE
 70
     1
  9
$COORDS
 70
     1
  9
$DRAGMODE
 70
     2
  9
$OSMODE
 70
     0
  9
$HANDLING
 70
     0
  9
$HANDSEED
  5
135E5
  0
ENDSEC
  0
SECTION
  2
TABLES
  0
TABLE
  2
LTYPE
 70
     2
  0
LTYPE
  2
CONTINUOUS
 70
     0
  3
実線
 72
    65
 73
     0
 40
0.0
  0
LTYPE
  2
DASHDOT
 70
     0
  3
____ _ ____ _ ____ _ ____ _ ____ _ ____ _ ____
 72
    65
 73
     4
 40
5.5
 49
4.0
 49
-0.6
 49
0.3
 49
-0.6
  0
ENDTAB
  0
TABLE
  2
LAYER
 70
    12
  0
LAYER
  2
0
 70
     0
 62
     7
  6
CONTINUOUS
  0
LAYER
  2
BASIS
 70
     0
 62
     6
  6
DASHDOT
  0
LAYER
  2
OUTLINE
 70
     0
 62
     3
  6
CONTINUOUS
  0
LAYER
  2
DETAIL
 70
     0
 62
     5
  6
CONTINUOUS
  0
LAYER
  2
SIZE
 70
     0
 62
    30
  6
CONTINUOUS
  0
LAYER
  2
ARRANGE
 70
     0
 62
     1
  6
CONTINUOUS
  0
LAYER
  2
DEFPOINTS
 70
     0
 62
     7
  6
CONTINUOUS
  0
LAYER
  2
ETC
 70
     0
 62
    61
  6
CONTINUOUS
  0
LAYER
  2
FIX
 70
     0
 62
    11
  6
CONTINUOUS
  0
LAYER
  2
NOTE
 70
     0
 62
     4
  6
CONTINUOUS
  0
LAYER
  2
SERVICESPACE
 70
    64
 62
     2
  6
DASHDOT
  0
LAYER
  2
SYMBOLLINE
 70
    64
 62
    15
  6
CONTINUOUS
  0
ENDTAB
  0
TABLE
  2
STYLE
 70
     1
  0
STYLE
  2
STANDARD
 70
     0
 40
64.0
 41
0.9
 50
0.0
 71
     0
 42
64.0
  3
SIMPLEX.shx
  4
BIGFONT.shx
  0
ENDTAB
  0
TABLE
  2
APPID
 70
    19
  0
APPID
  2
ACAD
 70
     0
  0
APPID
  2
AUTOCAD_POSTSCRIPT_FIGURE
 70
     0
  0
APPID
  2
ACAD_EXEMPT_FROM_CAD_STANDARDS
 70
     0
  0
APPID
  2
ACAD_PSEXT
 70
     0
  0
APPID
  2
ACAUTHENVIRON
 70
     0
  0
APPID
  2
GENIUS_GENOENT_13
 70
     0
  0
APPID
  2
GENIUS_GENCFG_13
 70
     0
  0
APPID
  2
GENIUS_GENCFG0_13
 70
     0
  0
APPID
  2
GENIUS_GENCFG1_13
 70
     0
  0
APPID
  2
GENIUS_GENCFG2_13
 70
     0
  0
APPID
  2
GENIUS_GENCFG3_13
 70
     0
  0
APPID
  2
GENIUS_GENCFG4_13
 70
     0
  0
APPID
  2
GENIUS_GEVCFG0_13
 70
     0
  0
APPID
  2
CONTENTBLOCKICON
 70
     0
  0
APPID
  2
CONTENTBLOCKDESCRIPTION
 70
     0
  0
APPID
  2
ACAD_NAV_VCDISPLAY
 70
     0
  0
APPID
  2
ACAD_MLEADERVER
 70
     0
  0
APPID
  2
ACDBDYNAMICBLOCKTRUENAME
 70
     0
  0
APPID
  2
ACDBDYNAMICBLOCKGUID
 70
     0
  0
ENDTAB
  0
TABLE
  2
DIMSTYLE
 70
     1
  0
DIMSTYLE
  2
STANDARD
 70
     0
  3

  4

  5
_ORIGIN
  6

  7

 40
1.0
 41
12.0
 42
20.0
 43
200.0
 44
20.0
 45
0.0
 46
0.0
 47
0.0
 48
0.0
140
64.0
141
0.09
142
0.0
143
25.399999999999999
144
1.0
145
0.0
146
1.0
147
25.0
 71
     0
 72
     0
 73
     0
 74
     0
 75
     0
 76
     0
 77
     1
 78
     8
170
     0
171
     2
172
     1
173
     0
174
     1
175
     0
176
     7
177
     7
178
     7
  0
ENDTAB
  0
TABLE
  2
VIEW
 70
     1
  0
VIEW
  2
ALL
 70
     0
 40
4282.6198079999986
 10
0.0
 20
41.309904000000003
 41
5940.0
 11
0.0
 21
0.0
 31
1.0
 12
0.0
 22
0.0
 32
0.0
 42
50.0
 43
0.0
 44
0.0
 50
0.0
 71
     0
  0
ENDTAB
  0
TABLE
  2
UCS
 70
     0
  0
ENDTAB
  0
TABLE
  2
VPORT
 70
     1
  0
VPORT
  2
*ACTIVE
 70
     0
 10
0.0
 20
0.0
 11
1.0
 21
1.0
 12
339.66294757516778
 22
112.15210951882371
 13
0.0
 23
0.0
 14
1.0
 24
1.0
 15
0.0
 25
0.0
 16
0.0
 26
0.0
 36
1.0
 17
0.0
 27
0.0
 37
0.0
 40
1061.6609586813429
 41
1.747787610619469
 42
50.0
 43
0.0
 44
0.0
 50
0.0
 51
0.0
 71
     0
 72
  1000
 73
     1
 74
     3
 75
     0
 76
     0
 77
     0
 78
     0
  0
ENDTAB
  0
ENDSEC
  0
SECTION
  2
BLOCKS
  0
BLOCK
  8
0
  2
_ORIGIN
 70
     0
 10
0.0
 20
0.0
 30
0.0
  3
_ORIGIN
  1
_ORIGIN
  0
CIRCLE
  8
0
  6
CONTINUOUS
 62
     7
 10
0.0
 20
0.0
 30
0.0
 40
0.5
  0
LINE
  8
0
  6
CONTINUOUS
 62
     7
 10
0.0
 20
0.0
 30
0.0
 11
-1.0
 21
0.0
 31
0.0
  0
ENDBLK
  8
0
  0
ENDSEC
  0
SECTION
  2
ENTITIES
  0
TEXT
  8
ETC
  6
CONTINUOUS
 62
    61
 10
344.87539504366401
 20
494.56101113953281
 30
0.0
 40
64.0
  1
EWF-40DTA40A2-Q_6
 41
0.9
  0
TEXT
  8
ETC
  6
CONTINUOUS
 62
    61
 10
340.68940104366362
 20
376.60570112470168
 30
0.0
 40
64.0
  1
産業扇
 41
0.9
  0
CIRCLE
  8
ARRANGE
  6
CONTINUOUS
 62
     1
 10
0.0
 20
0.0
 30
0.0
 40
40.0
  0
POINT
  8
ARRANGE
  6
CONTINUOUS
 62
     1
 10
0.0
 20
0.0
 30
0.0
  0
TEXT
  8
ETC
  6
CONTINUOUS
 62
    61
 10
445.63936396419717
 20
268.45692823847639
 30
0.0
 40
40.0
  1
EWF-40DTA40A2-Q
 41
0.9
  0
TEXT
  8
ETC
  6
CONTINUOUS
 62
    61
 10
451.25128261281128
 20
202.45692823847639
 30
0.0
 40
40.0
  1
EWF-40DTA2-Q
 41
0.9
  0
LINE
  8
SIZE
  6
CONTINUOUS
 62
    30
 10
-259.99999722098431
 20
18.5
 30
0.0
 11
-259.99999722098431
 21
264.96668498765212
 31
0.0
  0
LINE
  8
SIZE
  6
CONTINUOUS
 62
    30
 10
259.99124255832919
 20
18.659116781001391
 30
0.0
 11
259.99124255832919
 21
264.96668498765212
 31
0.0
  0
LINE
  8
SIZE
  6
CONTINUOUS
 62
    30
 10
-247.99999722098431
 20
244.96668498765209
 30
0.0
 11
247.99124255832919
 21
244.96668498765209
 31
0.0
  0
CIRCLE
  8
SIZE
  6
CONTINUOUS
 62
    30
 10
-259.99999722098431
 20
244.96668498765209
 30
0.0
 40
6.0
  0
LINE
  8
SIZE
  6
CONTINUOUS
 62
    30
 10
-259.99999722098431
 20
244.96668498765209
 30
0.0
 11
-247.99999722098431
 21
244.96668498765209
 31
0.0
  0
CIRCLE
  8
SIZE
  6
CONTINUOUS
 62
    30
 10
259.99124255832919
 20
244.96668498765209
 30
0.0
 40
6.0
  0
LINE
  8
SIZE
  6
CONTINUOUS
 62
    30
 10
259.99124255832919
 20
244.96668498765209
 30
0.0
 11
247.99124255832919
 21
244.96668498765209
 31
0.0
  0
TEXT
  8
SIZE
  6
CONTINUOUS
 62
    30
 10
-74.057142857371474
 20
269.96668498765212
 30
0.0
 40
64.0
  1
520
 41
0.9
 72
     1
 11
-0.0000000002286242
 21
269.96668498765212
 31
0.0
  0
POINT
  8
DEFPOINTS
  6
CONTINUOUS
 62
    30
 10
-259.99999722098431
 20
-1.5
 30
0.0
  0
POINT
  8
DEFPOINTS
  6
CONTINUOUS
 62
    30
 10
259.99124255832919
 20
-1.3408832189986131
 30
0.0
  0
POINT
  8
DEFPOINTS
  6
CONTINUOUS
 62
    30
 10
259.99124255832919
 20
244.96668498765209
 30
0.0
  0
LINE
  8
SIZE
  6
CONTINUOUS
 62
    30
 10
-230.44315992292869
 20
48.230086724924831
 30
0.0
 11
-230.44315992292869
 21
151.39419561661629
 31
0.0
  0
LINE
  8
SIZE
  6
CONTINUOUS
 62
    30
 10
230.4431599229288
 20
48.230086724924831
 30
0.0
 11
230.4431599229288
 21
151.39419561661629
 31
0.0
  0
LINE
  8
SIZE
  6
CONTINUOUS
 62
    30
 10
-218.44315992292869
 20
131.39419561661629
 30
0.0
 11
218.4431599229288
 21
131.39419561661629
 31
0.0
  0
CIRCLE
  8
SIZE
  6
CONTINUOUS
 62
    30
 10
-230.44315992292869
 20
131.39419561661629
 30
0.0
 40
6.0
  0
LINE
  8
SIZE
  6
CONTINUOUS
 62
    30
 10
-230.44315992292869
 20
131.39419561661629
 30
0.0
 11
-218.44315992292869
 21
131.39419561661629
 31
0.0
  0
CIRCLE
  8
SIZE
  6
CONTINUOUS
 62
    30
 10
230.4431599229288
 20
131.39419561661629
 30
0.0
 40
6.0
  0
LINE
  8
SIZE
  6
CONTINUOUS
 62
    30
 10
230.4431599229288
 20
131.39419561661629
 30
0.0
 11
218.4431599229288
 21
131.39419561661629
 31
0.0
  0
TEXT
  8
SIZE
  6
CONTINUOUS
 62
    30
 10
-74.05714285714285
 20
156.39419561661629
 30
0.0
 40
64.0
  1
460
 41
0.9
 72
     1
 11
0.0
 21
156.39419561661629
 31
0.0
  0
POINT
  8
DEFPOINTS
  6
CONTINUOUS
 62
    30
 10
-230.44315992292869
 20
28.230086724924831
 30
0.0
  0
POINT
  8
DEFPOINTS
  6
CONTINUOUS
 62
    30
 10
230.4431599229288
 20
28.230086724924831
 30
0.0
  0
POINT
  8
DEFPOINTS
  6
CONTINUOUS
 62
    30
 10
230.4431599229288
 20
131.39419561661629
 30
0.0
  0
CIRCLE
  8
FIX
  6
CONTINUOUS
 62
    11
 10
-230.44315992292869
 20
0.247200003400053
 30
0.0
 40
7.0
  0
CIRCLE
  8
FIX
  6
CONTINUOUS
 62
    11
 10
230.4431599229288
 20
0.0
 30
0.0
 40
7.0
  0
LINE
  8
SIZE
  6
CONTINUOUS
 62
    30
 10
278.49710982658962
 20
0.0
 30
0.0
 11
404.8145219075476
 21
-0.0000000000000568
 31
0.0
  0
LINE
  8
SIZE
  6
CONTINUOUS
 62
    30
 10
273.38728323699428
 20
-10.019267822735969
 30
0.0
 11
404.8145219075476
 21
-10.01926782273603
 31
0.0
  0
LINE
  8
SIZE
  6
CONTINUOUS
 62
    30
 10
384.8145219075476
 20
-22.01926782273603
 30
0.0
 11
384.8145219075476
 21
-34.019267822735969
 31
0.0
  0
LINE
  8
SIZE
  6
CONTINUOUS
 62
    30
 10
384.8145219075476
 20
11.99999999999994
 30
0.0
 11
384.81452190754783
 21
156.28571428571419
 31
0.0
  0
LINE
  8
SIZE
  6
CONTINUOUS
 62
    30
 10
384.8145219075476
 20
-10.01926782273603
 30
0.0
 11
384.8145219075476
 21
-0.0000000000000568
 31
0.0
  0
CIRCLE
  8
SIZE
  6
CONTINUOUS
 62
    30
 10
384.8145219075476
 20
-10.01926782273603
 30
0.0
 40
6.0
  0
LINE
  8
SIZE
  6
CONTINUOUS
 62
    30
 10
384.8145219075476
 20
-10.01926782273603
 30
0.0
 11
384.8145219075476
 21
-22.01926782273603
 31
0.0
  0
CIRCLE
  8
SIZE
  6
CONTINUOUS
 62
    30
 10
384.8145219075476
 20
-0.0000000000000568
 30
0.0
 40
6.0
  0
LINE
  8
SIZE
  6
CONTINUOUS
 62
    30
 10
384.8145219075476
 20
-0.0000000000000568
 30
0.0
 11
384.8145219075476
 21
11.99999999999994
 31
0.0
  0
TEXT
  8
SIZE
  6
CONTINUOUS
 62
    30
 10
359.81452190754771
 20
49.000000000000092
 30
0.0
 40
64.0
  1
10
 50
90.0
 41
0.9
 72
     1
 11
359.81452190754771
 21
90.142857142857224
 31
0.0
  0
POINT
  8
DEFPOINTS
  6
CONTINUOUS
 62
    30
 10
258.49710982658962
 20
0.0
 30
0.0
  0
POINT
  8
DEFPOINTS
  6
CONTINUOUS
 62
    30
 10
253.38728323699431
 20
-10.019267822735969
 30
0.0
  0
POINT
  8
DEFPOINTS
  6
CONTINUOUS
 62
    30
 10
384.8145219075476
 20
-10.01926782273603
 30
0.0
  0
LINE
  8
SIZE
  6
CONTINUOUS
 62
    30
 10
273.38728323699428
 20
-10.019267822735969
 30
0.0
 11
404.8145219075476
 21
-10.01926782273603
 31
0.0
  0
LINE
  8
SIZE
  6
CONTINUOUS
 62
    30
 10
263.36801541425802
 20
-20.038535645471939
 30
0.0
 11
404.8145219075476
 21
-20.038535645471999
 31
0.0
  0
LINE
  8
SIZE
  6
CONTINUOUS
 62
    30
 10
384.8145219075476
 20
1.9807321772639741
 30
0.0
 11
384.8145219075476
 21
13.98073217726397
 31
0.0
  0
LINE
  8
SIZE
  6
CONTINUOUS
 62
    30
 10
384.8145219075476
 20
-32.038535645472002
 30
0.0
 11
384.8145219075476
 21
-257.26694449511137
 31
0.0
  0
LINE
  8
SIZE
  6
CONTINUOUS
 62
    30
 10
384.8145219075476
 20
-10.01926782273603
 30
0.0
 11
384.8145219075476
 21
-20.038535645471999
 31
0.0
  0
CIRCLE
  8
SIZE
  6
CONTINUOUS
 62
    30
 10
384.8145219075476
 20
-10.01926782273603
 30
0.0
 40
6.0
  0
LINE
  8
SIZE
  6
CONTINUOUS
 62
    30
 10
384.8145219075476
 20
-10.01926782273603
 30
0.0
 11
384.8145219075476
 21
1.9807321772639741
 31
0.0
  0
CIRCLE
  8
SIZE
  6
CONTINUOUS
 62
    30
 10
384.8145219075476
 20
-20.038535645471999
 30
0.0
 40
6.0
  0
LINE
  8
SIZE
  6
CONTINUOUS
 62
    30
 10
384.8145219075476
 20
-20.038535645471999
 30
0.0
 11
384.8145219075476
 21
-32.038535645472002
 31
0.0
  0
TEXT
  8
SIZE
  6
CONTINUOUS
 62
    30
 10
359.81452190754771
 20
-232.2669444951112
 30
0.0
 40
64.0
  1
10
 50
90.0
 41
0.9
 72
     1
 11
359.81452190754771
 21
-191.12408735225409
 31
0.0
  0
POINT
  8
DEFPOINTS
  6
CONTINUOUS
 62
    30
 10
253.38728323699431
 20
-10.019267822735969
 30
0.0
  0
POINT
  8
DEFPOINTS
  6
CONTINUOUS
 62
    30
 10
243.368015414258
 20
-20.038535645471939
 30
0.0
  0
POINT
  8
DEFPOINTS
  6
CONTINUOUS
 62
    30
 10
384.8145219075476
 20
-20.038535645471999
 30
0.0
  0
LINE
  8
SIZE
  6
CONTINUOUS
 62
    30
 10
278.49710982658962
 20
0.0
 30
0.0
 11
531.55286783170322
 21
-0.0000000000000568
 31
0.0
  0
LINE
  8
SIZE
  6
CONTINUOUS
 62
    30
 10
200.67319707734671
 20
-135.26011560693661
 30
0.0
 11
531.55286783170322
 21
-135.26011560693669
 31
0.0
  0
LINE
  8
SIZE
  6
CONTINUOUS
 62
    30
 10
511.55286783170322
 20
-12.00000000000006
 30
0.0
 11
511.55286783170322
 21
-123.26011560693669
 31
0.0
  0
LINE
  8
SIZE
  6
CONTINUOUS
 62
    30
 10
511.55286783170322
 20
-135.26011560693669
 30
0.0
 11
511.55286783170322
 21
-334.40297274979372
 31
0.0
  0
CIRCLE
  8
SIZE
  6
CONTINUOUS
 62
    30
 10
511.55286783170322
 20
-0.0000000000000568
 30
0.0
 40
6.0
  0
LINE
  8
SIZE
  6
CONTINUOUS
 62
    30
 10
511.55286783170322
 20
-0.0000000000000568
 30
0.0
 11
511.55286783170322
 21
-12.00000000000006
 31
0.0
  0
CIRCLE
  8
SIZE
  6
CONTINUOUS
 62
    30
 10
511.55286783170322
 20
-135.26011560693669
 30
0.0
 40
6.0
  0
LINE
  8
SIZE
  6
CONTINUOUS
 62
    30
 10
511.55286783170322
 20
-135.26011560693669
 30
0.0
 11
511.55286783170322
 21
-123.26011560693669
 31
0.0
  0
TEXT
  8
SIZE
  6
CONTINUOUS
 62
    30
 10
486.55286783170322
 20
-309.40297274979372
 30
0.0
 40
64.0
  1
135
 50
90.0
 41
0.9
 72
     1
 11
486.55286783170322
 21
-240.83154417836511
 31
0.0
  0
POINT
  8
DEFPOINTS
  6
CONTINUOUS
 62
    30
 10
258.49710982658962
 20
0.0
 30
0.0
  0
POINT
  8
DEFPOINTS
  6
CONTINUOUS
 62
    30
 10
180.67319707734671
 20
-135.26011560693661
 30
0.0
  0
POINT
  8
DEFPOINTS
  6
CONTINUOUS
 62
    30
 10
511.55286783170322
 20
-135.26011560693669
 30
0.0
  0
LINE
  8
SIZE
  6
CONTINUOUS
 62
    30
 10
-278.49710982658962
 20
0.0
 30
0.0
 11
-317.09287833177268
 21
0.0
 31
0.0
  0
LINE
  8
SIZE
  6
CONTINUOUS
 62
    30
 10
-24.007707129094339
 20
-267.1136801541424
 30
0.0
 11
-317.09287833177268
 21
-267.1136801541424
 31
0.0
  0
LINE
  8
SIZE
  6
CONTINUOUS
 62
    30
 10
-297.09287833177268
 20
-12.0
 30
0.0
 11
-297.09287833177268
 21
-255.1136801541424
 31
0.0
  0
CIRCLE
  8
SIZE
  6
CONTINUOUS
 62
    30
 10
-297.09287833177268
 20
0.0
 30
0.0
 40
6.0
  0
LINE
  8
SIZE
  6
CONTINUOUS
 62
    30
 10
-297.09287833177268
 20
0.0
 30
0.0
 11
-297.09287833177268
 21
-12.0
 31
0.0
  0
CIRCLE
  8
SIZE
  6
CONTINUOUS
 62
    30
 10
-297.09287833177268
 20
-267.1136801541424
 30
0.0
 40
6.0
  0
LINE
  8
SIZE
  6
CONTINUOUS
 62
    30
 10
-297.09287833177268
 20
-267.1136801541424
 30
0.0
 11
-297.09287833177268
 21
-255.1136801541424
 31
0.0
  0
TEXT
  8
SIZE
  6
CONTINUOUS
 62
    30
 10
-322.09287833177268
 20
-203.15241791638749
 30
0.0
 40
64.0
  1
266
 50
90.0
 41
0.9
 72
     1
 11
-322.09287833177268
 21
-130.46670363067321
 31
0.0
  0
POINT
  8
DEFPOINTS
  6
CONTINUOUS
 62
    30
 10
-258.49710982658962
 20
0.0
 30
0.0
  0
POINT
  8
DEFPOINTS
  6
CONTINUOUS
 62
    30
 10
-4.0077071290943422
 20
-267.1136801541424
 30
0.0
  0
POINT
  8
DEFPOINTS
  6
CONTINUOUS
 62
    30
 10
-297.09287833177268
 20
-267.1136801541424
 30
0.0
  0
TEXT
  8
NOTE
  6
CONTINUOUS
 62
     4
 10
-577.23322031510793
 20
89.813382410917995
 30
0.0
 40
64.0
  1
4-φ14
 41
0.9
  0
LINE
  8
NOTE
  6
CONTINUOUS
 62
     4
 10
230.4431599229288
 20
-34.598834879786068
 30
0.0
 11
230.4431599229288
 21
28.230086724924831
 31
0.0
  0
LINE
  8
NOTE
  6
CONTINUOUS
 62
     4
 10
-230.44315992292869
 20
-34.598834879786068
 30
0.0
 11
-230.44315992292869
 21
28.230086724924831
 31
0.0
  0
LINE
  8
NOTE
  6
CONTINUOUS
 62
     4
 10
-233.14791443409021
 20
5.7438390598275646
 30
0.0
 11
-230.384515794458
 21
0.1807169823895265
 31
0.0
  0
LINE
  8
NOTE
  6
CONTINUOUS
 62
     4
 10
-230.384515794458
 20
0.1807169823895265
 30
0.0
 11
-235.55925543389401
 21
3.6168149079512659
 31
0.0
  0
LINE
  8
NOTE
  6
CONTINUOUS
 62
     4
 10
-230.384515794458
 20
0.1807169823895265
 30
0.0
 11
-238.32265407352631
 21
9.179936985389304
 31
0.0
  0
LINE
  8
NOTE
  6
CONTINUOUS
 62
     4
 10
-238.32265407352611
 20
9.179936985389304
 30
0.0
 11
-286.48810867395952
 21
63.783611960005032
 31
0.0
  0
LINE
  8
NOTE
  6
CONTINUOUS
 62
     4
 10
-286.48810867395952
 20
63.783611960005032
 30
0.0
 11
-584.35667091899359
 21
63.945066809185391
 31
0.0
  0
LINE
  8
OUTLINE
  6
CONTINUOUS
 62
     3
 10
258.49710982658962
 20
0.0
 30
0.0
 11
-258.49710982658962
 21
0.0
 31
0.0
  0
ARC
  8
OUTLINE
  6
CONTINUOUS
 62
     3
 10
-258.49710982658962
 20
-1.5028901734103779
 30
0.0
 40
1.502890173410377
 50
90.0
 51
270.0
  0
ARC
  8
OUTLINE
  6
CONTINUOUS
 62
     3
 10
258.49710982658962
 20
-1.5028901734103779
 30
0.0
 40
1.502890173410377
 50
270.0
 51
90.0
  0
ARC
  8
OUTLINE
  6
CONTINUOUS
 62
     3
 10
-253.38728323699431
 20
-6.412331406551175
 30
0.0
 40
3.606936416184908
 50
180.0
 51
270.0
  0
LINE
  8
OUTLINE
  6
CONTINUOUS
 62
     3
 10
-250.1758680125117
 20
-10.019267822736079
 30
0.0
 11
-253.38728323699431
 21
-10.019267822736079
 31
0.0
  0
LINE
  8
OUTLINE
  6
CONTINUOUS
 62
     3
 10
-246.97495183044339
 20
-16.431599229287261
 30
0.0
 11
-246.97495183044339
 21
-13.894357251557951
 31
0.0
  0
ARC
  8
OUTLINE
  6
CONTINUOUS
 62
     3
 10
-243.368015414258
 20
-16.431599229287261
 30
0.0
 40
3.606936416184908
 50
180.0
 51
270.0
  0
LINE
  8
OUTLINE
  6
CONTINUOUS
 62
     3
 10
-256.99421965317919
 20
-3.0057803468209841
 30
0.0
 11
-258.49710982658962
 21
-3.0057803468209841
 31
0.0
  0
LINE
  8
OUTLINE
  6
CONTINUOUS
 62
     3
 10
-256.99421965317919
 20
-6.412331406551175
 30
0.0
 11
-256.99421965317919
 21
-3.0057803468209841
 31
0.0
  0
LINE
  8
OUTLINE
  6
CONTINUOUS
 62
     3
 10
-233.34874759151941
 20
-20.038535645472169
 30
0.0
 11
-243.368015414258
 21
-20.038535645472169
 31
0.0
  0
LINE
  8
OUTLINE
  6
CONTINUOUS
 62
     3
 10
-209.7458110907082
 20
-131.25240847784221
 30
0.0
 11
-206.53232368060389
 21
-131.25240847784221
 31
0.0
  0
ARC
  8
OUTLINE
  6
CONTINUOUS
 62
     3
 10
-209.80346820809291
 20
-133.2562620423893
 30
0.0
 40
2.0038535645471711
 50
90.0
 51
270.0
  0
LINE
  8
OUTLINE
  6
CONTINUOUS
 62
     3
 10
-209.8034413798764
 20
-135.26011560693661
 30
0.0
 11
-206.53232368060389
 21
-135.26011560693661
 31
0.0
  0
LINE
  8
OUTLINE
  6
CONTINUOUS
 62
     3
 10
-206.530877564674
 20
-136.81524567199921
 30
0.0
 11
-206.53232368060389
 21
-136.26204238921031
 31
0.0
  0
LINE
  8
OUTLINE
  6
CONTINUOUS
 62
     3
 10
-206.53232368060389
 20
-136.26204238921031
 30
0.0
 11
-206.53232368060389
 21
-135.26011560693721
 31
0.0
  0
LINE
  8
OUTLINE
  6
CONTINUOUS
 62
     3
 10
-206.53232368060389
 20
-131.25240847784221
 30
0.0
 11
-206.53232368060389
 21
-54.984261742871922
 31
0.0
  0
LINE
  8
OUTLINE
  6
CONTINUOUS
 62
     3
 10
-81.256262042389153
 20
-238.95791552175771
 30
0.0
 11
-81.256262042389153
 21
-248.7784200385357
 31
0.0
  0
LINE
  8
OUTLINE
  6
CONTINUOUS
 62
     3
 10
-81.256262042389153
 20
-238.45857418111771
 30
0.0
 11
-81.256262042389153
 21
-238.95791552175771
 31
0.0
  0
ARC
  8
OUTLINE
  6
CONTINUOUS
 62
     3
 10
-79.653179190751416
 20
-248.7784200385357
 30
0.0
 40
1.603082851637736
 50
180.0
 51
270.0
  0
LINE
  8
OUTLINE
  6
CONTINUOUS
 62
     3
 10
-64.811317876385601
 20
-263.35807865200309
 30
0.0
 11
-72.302357653279614
 21
-252.12151838810919
 31
0.0
  0
ARC
  8
OUTLINE
  6
CONTINUOUS
 62
     3
 10
-75.553606255086379
 20
-254.2890173410409
 30
0.0
 40
3.9075144508672199
 50
33.690066116297118
 51
90.0
  0
ARC
  8
OUTLINE
  6
CONTINUOUS
 62
     3
 10
-60.976511833145203
 20
-260.80154142581921
 30
0.0
 40
4.6088631984589252
 50
213.69006611629709
 51
270.0
  0
LINE
  8
OUTLINE
  6
CONTINUOUS
 62
     3
 10
61.477490282461531
 20
-265.4104046242777
 30
0.0
 11
-60.976511833145203
 21
-265.4104046242777
 31
0.0
  0
LINE
  8
OUTLINE
  6
CONTINUOUS
 62
     3
 10
-131.08035153742139
 20
-238.45857418111771
 30
0.0
 11
-81.256262042389153
 21
-238.45857418111771
 31
0.0
  0
LINE
  8
OUTLINE
  6
CONTINUOUS
 62
     3
 10
-75.553606255086379
 20
-250.38150289017349
 30
0.0
 11
-79.653179190751416
 21
-250.38150289017349
 31
0.0
  0
LINE
  8
OUTLINE
  6
CONTINUOUS
 62
     3
 10
80.154116871406131
 20
-250.38150289017349
 30
0.0
 11
76.054585088256317
 21
-250.38150289017349
 31
0.0
  0
ARC
  8
OUTLINE
  6
CONTINUOUS
 62
     3
 10
61.477490282461531
 20
-260.80154142581921
 30
0.0
 40
4.6088631984584927
 50
270.0
 51
326.3099325304068
  0
LINE
  8
OUTLINE
  6
CONTINUOUS
 62
     3
 10
65.312296265845362
 20
-263.35807874243682
 30
0.0
 11
72.803336537197083
 21
-252.12151831133781
 31
0.0
  0
ARC
  8
OUTLINE
  6
CONTINUOUS
 62
     3
 10
76.054585088256317
 20
-254.2890173410409
 30
0.0
 40
3.9075144508674371
 50
90.0
 51
146.30993253039509
  0
ARC
  8
OUTLINE
  6
CONTINUOUS
 62
     3
 10
80.154142581887754
 20
-248.7784200385357
 30
0.0
 40
1.603082851637736
 50
270.0
 51
0.0
  0
LINE
  8
OUTLINE
  6
CONTINUOUS
 62
     3
 10
81.757225433525491
 20
-238.45857418111771
 30
0.0
 11
131.08035153807299
 21
-238.45857418111771
 31
0.0
  0
LINE
  8
OUTLINE
  6
CONTINUOUS
 62
     3
 10
81.757225433525491
 20
-238.45857418111771
 30
0.0
 11
81.757225433525491
 21
-248.7784200385357
 31
0.0
  0
LINE
  8
OUTLINE
  6
CONTINUOUS
 62
     3
 10
206.5323236806048
 20
-135.26011560693661
 30
0.0
 11
209.803468208092
 21
-135.26011560693661
 31
0.0
  0
ARC
  8
OUTLINE
  6
CONTINUOUS
 62
     3
 10
209.803468208092
 20
-133.2562620423893
 30
0.0
 40
2.0038535645471711
 50
270.0
 51
90.0
  0
LINE
  8
OUTLINE
  6
CONTINUOUS
 62
     3
 10
206.5323236806048
 20
-131.25240847784221
 30
0.0
 11
209.803468208092
 21
-131.25240847784221
 31
0.0
  0
LINE
  8
OUTLINE
  6
CONTINUOUS
 62
     3
 10
206.5323236806048
 20
-135.26011560693661
 30
0.0
 11
206.5323236806048
 21
-136.26204238921031
 31
0.0
  0
LINE
  8
OUTLINE
  6
CONTINUOUS
 62
     3
 10
246.97495183044339
 20
-13.894357251557951
 30
0.0
 11
246.97495183044339
 21
-16.431599229287261
 31
0.0
  0
ARC
  8
OUTLINE
  6
CONTINUOUS
 62
     3
 10
243.36801541425851
 20
-16.431599229287261
 30
0.0
 40
3.606936416184908
 50
270.0
 51
0.0
  0
LINE
  8
OUTLINE
  6
CONTINUOUS
 62
     3
 10
256.99421965317919
 20
-3.0057803468209841
 30
0.0
 11
256.99421965317919
 21
-6.412331406551175
 31
0.0
  0
ARC
  8
OUTLINE
  6
CONTINUOUS
 62
     3
 10
253.38728323699431
 20
-6.412331406551175
 30
0.0
 40
3.606936416184908
 50
270.0
 51
0.0
  0
LINE
  8
OUTLINE
  6
CONTINUOUS
 62
     3
 10
253.38728323699431
 20
-10.019267822736079
 30
0.0
 11
250.17586801251221
 21
-10.019267822736079
 31
0.0
  0
LINE
  8
OUTLINE
  6
CONTINUOUS
 62
     3
 10
206.5323236806048
 20
-54.984261745717731
 30
0.0
 11
206.5323236806048
 21
-131.25240847784221
 31
0.0
  0
LINE
  8
OUTLINE
  6
CONTINUOUS
 62
     3
 10
243.36801541425851
 20
-20.038535645472169
 30
0.0
 11
233.34874759161039
 21
-20.038535645472169
 31
0.0
  0
LINE
  8
OUTLINE
  6
CONTINUOUS
 62
     3
 10
258.49710982658962
 20
-3.0057803468209841
 30
0.0
 11
256.99421965317919
 21
-3.0057803468209841
 31
0.0
  0
LINE
  8
DETAIL
  6
CONTINUOUS
 62
     5
 10
-256.9942196531793
 20
-6.4123314065507202
 30
0.0
 11
-256.9942196531793
 21
-3.0057803468205289
 31
0.0
  0
LINE
  8
DETAIL
  6
CONTINUOUS
 62
     5
 10
-253.8226442489304
 20
-3.0057803468205289
 30
0.0
 11
-253.8226442489304
 21
-5.109826589595059
 31
0.0
  0
LINE
  8
DETAIL
  6
CONTINUOUS
 62
     5
 10
-246.97495183044319
 20
-16.431599229287261
 30
0.0
 11
-246.97495183044319
 21
-13.894357251557491
 31
0.0
  0
LINE
  8
DETAIL
  6
CONTINUOUS
 62
     5
 10
-206.532323679954
 20
-136.2620423892098
 30
0.0
 11
-206.532323679954
 21
-14.527938342966991
 31
0.0
  0
LINE
  8
DETAIL
  6
CONTINUOUS
 62
     5
 10
-204.22979870900591
 20
-5.109826589595059
 30
0.0
 11
-204.22979870900591
 21
-3.0057803468205289
 31
0.0
  0
LINE
  8
DETAIL
  6
CONTINUOUS
 62
     5
 10
-203.34421218136779
 20
-14.527938342966991
 30
0.0
 11
-203.34421218136779
 21
-136.2620423892098
 31
0.0
  0
LINE
  8
DETAIL
  6
CONTINUOUS
 62
     5
 10
-192.89429115666999
 20
-3.0057803468205289
 30
0.0
 11
-192.89429115666999
 21
-6.4123314065507202
 31
0.0
  0
LINE
  8
DETAIL
  6
CONTINUOUS
 62
     5
 10
-185.15147907239191
 20
-14.527938342966991
 30
0.0
 11
-185.15147907239191
 21
-18.535645472061791
 31
0.0
  0
LINE
  8
DETAIL
  6
CONTINUOUS
 62
     5
 10
-180.6731970773466
 20
-18.535645472061791
 30
0.0
 11
-180.6731970773466
 21
-136.2620423892098
 31
0.0
  0
LINE
  8
DETAIL
  6
CONTINUOUS
 62
     5
 10
-180.14184516102401
 20
-14.527938342966991
 30
0.0
 11
-180.14184516102401
 21
-18.088203018141481
 31
0.0
  0
LINE
  8
DETAIL
  6
CONTINUOUS
 62
     5
 10
-175.132211249656
 20
-18.535645472061791
 30
0.0
 11
-175.132211249656
 21
-14.527938342966991
 31
0.0
  0
LINE
  8
DETAIL
  6
CONTINUOUS
 62
     5
 10
-163.13858383284551
 20
-14.527938342966991
 30
0.0
 11
-163.13858383284551
 21
-10.01926782273563
 31
0.0
  0
LINE
  8
DETAIL
  6
CONTINUOUS
 62
     5
 10
-151.09460705917979
 20
-13.02504816955661
 30
0.0
 11
-151.09460705917979
 21
-16.431599229287261
 31
0.0
  0
LINE
  8
DETAIL
  6
CONTINUOUS
 62
     5
 10
-81.75722543352606
 20
-248.7784200385357
 30
0.0
 11
-81.75722543352606
 21
-238.45857418111731
 31
0.0
  0
LINE
  8
DETAIL
  6
CONTINUOUS
 62
     5
 10
-81.156069364161908
 20
-238.45857418111731
 30
0.0
 11
-81.156069364161908
 21
-240.77918719390411
 31
0.0
  0
LINE
  8
DETAIL
  6
CONTINUOUS
 62
     5
 10
-75.645472061657074
 20
-206.39691714836201
 30
0.0
 11
-75.645472061657074
 21
-238.45857418111731
 31
0.0
  0
LINE
  8
DETAIL
  6
CONTINUOUS
 62
     5
 10
-70.134874759152353
 20
-238.8593448940268
 30
0.0
 11
-70.134874759152353
 21
-230.24277456647391
 31
0.0
  0
LINE
  8
DETAIL
  6
CONTINUOUS
 62
     5
 10
-53.625727347446507
 20
-201.38728323699411
 30
0.0
 11
-53.625727347446507
 21
-198.18111753371869
 31
0.0
  0
LINE
  8
DETAIL
  6
CONTINUOUS
 62
     5
 10
-51.120910391762443
 20
-198.18111753371869
 30
0.0
 11
-51.120910391762443
 21
-194.17341040462401
 31
0.0
  0
LINE
  8
DETAIL
  6
CONTINUOUS
 62
     5
 10
-1.594055748967889
 20
-235.8445374451868
 30
0.0
 11
1.5940557977628489
 21
-232.65642589780541
 31
0.0
  0
LINE
  8
DETAIL
  6
CONTINUOUS
 62
     5
 10
-49.117056827215272
 20
-194.17341040462401
 30
0.0
 11
-49.117056827215272
 21
-191.36801541425791
 31
0.0
  0
LINE
  8
DETAIL
  6
CONTINUOUS
 62
     5
 10
-47.11320326266798
 20
-198.18111753371869
 30
0.0
 11
-47.11320326266798
 21
-194.53136436723941
 31
0.0
  0
LINE
  8
DETAIL
  6
CONTINUOUS
 62
     5
 10
-45.109349698120809
 20
-194.17341040462401
 30
0.0
 11
-45.109349698120809
 21
-191.36801541425791
 31
0.0
  0
LINE
  8
DETAIL
  6
CONTINUOUS
 62
     5
 10
-43.105496133573638
 20
-198.18111753371869
 30
0.0
 11
-43.105496133573638
 21
-194.17341040462401
 31
0.0
  0
LINE
  8
DETAIL
  6
CONTINUOUS
 62
     5
 10
-40.077071290944218
 20
-266.41233140655089
 30
0.0
 11
-40.077071290944218
 21
-265.41040462427719
 31
0.0
  0
LINE
  8
DETAIL
  6
CONTINUOUS
 62
     5
 10
-4.7090558766860804
 20
-197.68015414258181
 30
0.0
 11
-4.7090558766860804
 21
-198.18111753371869
 31
0.0
  0
LINE
  8
DETAIL
  6
CONTINUOUS
 62
     5
 10
-4.5086705202312487
 20
-266.41233140655089
 30
0.0
 11
-4.5086705202312487
 21
-266.61271676300578
 31
0.0
  0
LINE
  8
DETAIL
  6
CONTINUOUS
 62
     5
 10
4.508670520231135
 20
-266.41233140655089
 30
0.0
 11
4.508670520231135
 21
-266.61271676300578
 31
0.0
  0
LINE
  8
DETAIL
  6
CONTINUOUS
 62
     5
 10
4.7090558766858521
 20
-197.68015414258181
 30
0.0
 11
4.7090558766858521
 21
-198.18111753371869
 31
0.0
  0
LINE
  8
DETAIL
  6
CONTINUOUS
 62
     5
 10
40.077071290944097
 20
-266.41233140655089
 30
0.0
 11
40.077071290944097
 21
-265.41040462427719
 31
0.0
  0
LINE
  8
DETAIL
  6
CONTINUOUS
 62
     5
 10
43.10549613422404
 20
-198.18111753371869
 30
0.0
 11
43.10549613422404
 21
-194.17341040462401
 31
0.0
  0
LINE
  8
DETAIL
  6
CONTINUOUS
 62
     5
 10
45.109349698771332
 20
-194.17341040462401
 30
0.0
 11
45.109349698771332
 21
-191.36801541425791
 31
0.0
  0
LINE
  8
DETAIL
  6
CONTINUOUS
 62
     5
 10
47.113203263318503
 20
-198.18111753371869
 30
0.0
 11
47.113203263318503
 21
-194.53136436723941
 31
0.0
  0
LINE
  8
DETAIL
  6
CONTINUOUS
 62
     5
 10
49.117056827865667
 20
-194.17341040462401
 30
0.0
 11
49.117056827865667
 21
-191.36801541425791
 31
0.0
  0
LINE
  8
DETAIL
  6
CONTINUOUS
 62
     5
 10
51.120910392412952
 20
-198.18111753371869
 30
0.0
 11
51.120910392412952
 21
-194.17341040462401
 31
0.0
  0
LINE
  8
DETAIL
  6
CONTINUOUS
 62
     5
 10
55.711213350048638
 20
-201.38728323699411
 30
0.0
 11
55.711213350048638
 21
-200.18497109826589
 31
0.0
  0
LINE
  8
DETAIL
  6
CONTINUOUS
 62
     5
 10
206.6957674663563
 20
-78.901734104046
 30
0.0
 11
207.40423668833671
 21
-77.899807321772528
 31
0.0
  0
LINE
  8
DETAIL
  6
CONTINUOUS
 62
     5
 10
4.0077071290943422
 20
-267.11368015414263
 30
0.0
 11
-4.0077071290944559
 21
-267.11368015414263
 31
0.0
  0
LINE
  8
DETAIL
  6
CONTINUOUS
 62
     5
 10
40.077071290944097
 20
-266.41233140655089
 30
0.0
 11
-40.077071290944218
 21
-266.41233140655089
 31
0.0
  0
LINE
  8
DETAIL
  6
CONTINUOUS
 62
     5
 10
36.570327552986441
 20
-265.51059730250461
 30
0.0
 11
33.564547206165571
 21
-265.51059730250461
 31
0.0
  0
LINE
  8
DETAIL
  6
CONTINUOUS
 62
     5
 10
-33.564547206165798
 20
-265.51059730250461
 30
0.0
 11
-36.570327552986562
 21
-265.51059730250461
 31
0.0
  0
LINE
  8
DETAIL
  6
CONTINUOUS
 62
     5
 10
1.5940557496182921
 20
-235.8445374451868
 30
0.0
 11
-1.594055797112333
 21
-232.65642589780541
 31
0.0
  0
LINE
  8
DETAIL
  6
CONTINUOUS
 62
     5
 10
64.728554390511135
 20
-201.38728323699411
 30
0.0
 11
64.728554390511135
 21
-200.18497109826589
 31
0.0
  0
LINE
  8
DETAIL
  6
CONTINUOUS
 62
     5
 10
70.134874759152126
 20
-238.8593448940268
 30
0.0
 11
70.134874759152126
 21
-230.24277456647391
 31
0.0
  0
LINE
  8
DETAIL
  6
CONTINUOUS
 62
     5
 10
75.64547206165696
 20
-206.39691714836201
 30
0.0
 11
75.64547206165696
 21
-238.45857418111731
 31
0.0
  0
LINE
  8
DETAIL
  6
CONTINUOUS
 62
     5
 10
81.156069364161795
 20
-240.77918719390411
 30
0.0
 11
81.156069364161795
 21
-238.45857418111731
 31
0.0
  0
LINE
  8
DETAIL
  6
CONTINUOUS
 62
     5
 10
81.757225433525946
 20
-238.45857418111731
 30
0.0
 11
81.757225433525946
 21
-248.7784200385357
 31
0.0
  0
LINE
  8
DETAIL
  6
CONTINUOUS
 62
     5
 10
-81.655395047418949
 20
-241.8651252408475
 30
0.0
 11
-72.965360842529435
 21
-241.8651252408475
 31
0.0
  0
LINE
  8
DETAIL
  6
CONTINUOUS
 62
     5
 10
72.965360843179951
 20
-241.8651252408475
 30
0.0
 11
81.655395048069408
 21
-241.8651252408475
 31
0.0
  0
LINE
  8
DETAIL
  6
CONTINUOUS
 62
     5
 10
-134.268463036659
 20
-238.45857418111731
 30
0.0
 11
-75.645472061657074
 21
-238.45857418111731
 31
0.0
  0
LINE
  8
DETAIL
  6
CONTINUOUS
 62
     5
 10
75.64547206165696
 20
-238.45857418111731
 30
0.0
 11
134.26846303665889
 21
-238.45857418111731
 31
0.0
  0
LINE
  8
DETAIL
  6
CONTINUOUS
 62
     5
 10
-65.243431826439519
 20
-225.2331406551057
 30
0.0
 11
65.243431827090035
 21
-225.2331406551057
 31
0.0
  0
LINE
  8
DETAIL
  6
CONTINUOUS
 62
     5
 10
-131.08035153742219
 20
-206.39691714836201
 30
0.0
 11
-75.645472061657074
 21
-206.39691714836201
 31
0.0
  0
LINE
  8
DETAIL
  6
CONTINUOUS
 62
     5
 10
75.64547206165696
 20
-206.39691714836201
 30
0.0
 11
131.08035153807259
 21
-206.39691714836201
 31
0.0
  0
LINE
  8
DETAIL
  6
CONTINUOUS
 62
     5
 10
3.5269640439405521
 20
-201.38728323699411
 30
0.0
 11
-3.5269640432901501
 21
-201.38728323699411
 31
0.0
  0
LINE
  8
DETAIL
  6
CONTINUOUS
 62
     5
 10
56.212176741185537
 20
-199.6840077071291
 30
0.0
 11
64.227590999374343
 21
-199.6840077071291
 31
0.0
  0
LINE
  8
DETAIL
  6
CONTINUOUS
 62
     5
 10
-63.121332837624891
 20
-198.18111753371869
 30
0.0
 11
-15.529865125240921
 21
-198.18111753371869
 31
0.0
  0
LINE
  8
DETAIL
  6
CONTINUOUS
 62
     5
 10
-4.7090558766860804
 20
-197.68015414258181
 30
0.0
 11
4.7090558766858521
 21
-197.68015414258181
 31
0.0
  0
LINE
  8
DETAIL
  6
CONTINUOUS
 62
     5
 10
-51.120910391762443
 20
-194.17341040462401
 30
0.0
 11
-43.105496133573638
 21
-194.17341040462401
 31
0.0
  0
LINE
  8
DETAIL
  6
CONTINUOUS
 62
     5
 10
43.10549613422404
 20
-194.17341040462401
 30
0.0
 11
51.120910392412952
 21
-194.17341040462401
 31
0.0
  0
LINE
  8
DETAIL
  6
CONTINUOUS
 62
     5
 10
-49.117056827215272
 20
-191.36801541425791
 30
0.0
 11
-45.109349698120809
 21
-191.36801541425791
 31
0.0
  0
LINE
  8
DETAIL
  6
CONTINUOUS
 62
     5
 10
45.109349698771332
 20
-191.36801541425791
 30
0.0
 11
49.117056827865667
 21
-191.36801541425791
 31
0.0
  0
LINE
  8
DETAIL
  6
CONTINUOUS
 62
     5
 10
151.09460705917959
 20
-16.431599229287261
 30
0.0
 11
151.09460705917959
 21
-13.02504816955661
 31
0.0
  0
LINE
  8
DETAIL
  6
CONTINUOUS
 62
     5
 10
163.13858383349589
 20
-14.527938342966991
 30
0.0
 11
163.13858383349589
 21
-10.01926782273563
 31
0.0
  0
LINE
  8
DETAIL
  6
CONTINUOUS
 62
     5
 10
180.673197077997
 20
-136.2620423892098
 30
0.0
 11
180.673197077997
 21
-14.527938342966991
 31
0.0
  0
LINE
  8
DETAIL
  6
CONTINUOUS
 62
     5
 10
192.8942911573204
 20
-6.4123314065507202
 30
0.0
 11
192.8942911573204
 21
-3.0057803468205289
 31
0.0
  0
LINE
  8
DETAIL
  6
CONTINUOUS
 62
     5
 10
-209.8034682080926
 20
-135.26011560693621
 30
0.0
 11
-206.532323679954
 21
-135.26011560693621
 31
0.0
  0
LINE
  8
DETAIL
  6
CONTINUOUS
 62
     5
 10
-180.6731970773466
 20
-135.26011560693621
 30
0.0
 11
180.673197077997
 21
-135.26011560693621
 31
0.0
  0
LINE
  8
DETAIL
  6
CONTINUOUS
 62
     5
 10
206.53232368060449
 20
-135.26011560693621
 30
0.0
 11
209.80346820809251
 21
-135.26011560693621
 31
0.0
  0
LINE
  8
DETAIL
  6
CONTINUOUS
 62
     5
 10
-209.8034682080926
 20
-131.25240847784181
 30
0.0
 11
-206.532323679954
 21
-131.25240847784181
 31
0.0
  0
LINE
  8
DETAIL
  6
CONTINUOUS
 62
     5
 10
-180.6731970773466
 20
-131.25240847784181
 30
0.0
 11
180.673197077997
 21
-131.25240847784181
 31
0.0
  0
LINE
  8
DETAIL
  6
CONTINUOUS
 62
     5
 10
206.53232368060449
 20
-131.25240847784181
 30
0.0
 11
209.80346820809251
 21
-131.25240847784181
 31
0.0
  0
LINE
  8
DETAIL
  6
CONTINUOUS
 62
     5
 10
203.34421218201831
 20
-136.2620423892098
 30
0.0
 11
203.34421218201831
 21
-14.527938342966991
 31
0.0
  0
LINE
  8
DETAIL
  6
CONTINUOUS
 62
     5
 10
204.22979870900579
 20
-5.109826589595059
 30
0.0
 11
204.22979870900579
 21
-3.0057803468205289
 31
0.0
  0
LINE
  8
DETAIL
  6
CONTINUOUS
 62
     5
 10
206.53232368060449
 20
-14.527938342966991
 30
0.0
 11
206.53232368060449
 21
-136.2620423892098
 31
0.0
  0
LINE
  8
DETAIL
  6
CONTINUOUS
 62
     5
 10
207.40423668833671
 20
-76.396917148362149
 30
0.0
 11
207.40423668833671
 21
-77.899807321772528
 31
0.0
  0
LINE
  8
DETAIL
  6
CONTINUOUS
 62
     5
 10
207.92828921932781
 20
-75.394990366088678
 30
0.0
 11
207.92828921932781
 21
-78.901734104046
 31
0.0
  0
LINE
  8
DETAIL
  6
CONTINUOUS
 62
     5
 10
211.31449092945971
 20
-14.527938342966991
 30
0.0
 11
211.31449092945971
 21
-18.088203018141481
 31
0.0
  0
LINE
  8
DETAIL
  6
CONTINUOUS
 62
     5
 10
216.32412484082761
 20
-18.535645472061791
 30
0.0
 11
216.32412484082761
 21
-14.527938342966991
 31
0.0
  0
LINE
  8
DETAIL
  6
CONTINUOUS
 62
     5
 10
246.9749518304429
 20
-13.894357251557491
 30
0.0
 11
246.9749518304429
 21
-16.431599229287261
 31
0.0
  0
LINE
  8
DETAIL
  6
CONTINUOUS
 62
     5
 10
207.92802971703821
 20
-78.901734104046
 30
0.0
 11
206.53232368060449
 21
-78.901734104046
 31
0.0
  0
LINE
  8
DETAIL
  6
CONTINUOUS
 62
     5
 10
207.92802971703821
 20
-75.394990366088678
 30
0.0
 11
206.53232368060449
 21
-75.394990366088678
 31
0.0
  0
LINE
  8
DETAIL
  6
CONTINUOUS
 62
     5
 10
253.82264424893009
 20
-5.109826589595059
 30
0.0
 11
253.82264424893009
 21
-3.0057803468205289
 31
0.0
  0
LINE
  8
DETAIL
  6
CONTINUOUS
 62
     5
 10
256.99421965317902
 20
-3.0057803468205289
 30
0.0
 11
256.99421965317902
 21
-6.4123314065507202
 31
0.0
  0
LINE
  8
DETAIL
  6
CONTINUOUS
 62
     5
 10
243.368015414258
 20
-20.038535645471939
 30
0.0
 11
206.53232368060449
 21
-20.038535645471939
 31
0.0
  0
LINE
  8
DETAIL
  6
CONTINUOUS
 62
     5
 10
180.673197077997
 20
-20.038535645471939
 30
0.0
 11
-180.6731970773466
 21
-20.038535645471939
 31
0.0
  0
LINE
  8
DETAIL
  6
CONTINUOUS
 62
     5
 10
-206.532323679954
 20
-20.038535645471939
 30
0.0
 11
-243.36801541425831
 21
-20.038535645471939
 31
0.0
  0
LINE
  8
DETAIL
  6
CONTINUOUS
 62
     5
 10
216.32412484082761
 20
-18.535645472061791
 30
0.0
 11
206.53232368060449
 21
-18.535645472061791
 31
0.0
  0
LINE
  8
DETAIL
  6
CONTINUOUS
 62
     5
 10
-175.132211249656
 20
-18.535645472061791
 30
0.0
 11
-185.15147907239191
 21
-18.535645472061791
 31
0.0
  0
LINE
  8
DETAIL
  6
CONTINUOUS
 62
     5
 10
244.5005606345369
 20
-14.527938342966991
 30
0.0
 11
163.13858383349589
 21
-14.527938342966991
 31
0.0
  0
LINE
  8
DETAIL
  6
CONTINUOUS
 62
     5
 10
-163.13858383284551
 20
-14.527938342966991
 30
0.0
 11
-244.50056063388641
 21
-14.527938342966991
 31
0.0
  0
LINE
  8
DETAIL
  6
CONTINUOUS
 62
     5
 10
253.38728323699411
 20
-10.01926782273563
 30
0.0
 11
250.1758680125115
 21
-10.01926782273563
 31
0.0
  0
LINE
  8
DETAIL
  6
CONTINUOUS
 62
     5
 10
189.28735474113549
 20
-10.01926782273563
 30
0.0
 11
-189.287354740485
 21
-10.01926782273563
 31
0.0
  0
LINE
  8
DETAIL
  6
CONTINUOUS
 62
     5
 10
-189.287354740485
 20
-10.01926782273563
 30
0.0
 11
-194.90771509396211
 21
-10.01926782273563
 31
0.0
  0
LINE
  8
DETAIL
  6
CONTINUOUS
 62
     5
 10
-250.17586801251159
 20
-10.01926782273563
 30
0.0
 11
-253.38728323699431
 21
-10.01926782273563
 31
0.0
  0
LINE
  8
DETAIL
  6
CONTINUOUS
 62
     5
 10
189.28735474113549
 20
-10.01926782273563
 30
0.0
 11
194.9077150946124
 21
-10.01926782273563
 31
0.0
  0
LINE
  8
DETAIL
  6
CONTINUOUS
 62
     5
 10
253.82264424893009
 20
-5.109826589595059
 30
0.0
 11
203.82636743612821
 21
-5.109826589595059
 31
0.0
  0
LINE
  8
DETAIL
  6
CONTINUOUS
 62
     5
 10
-253.8226442489304
 20
-5.109826589595059
 30
0.0
 11
-203.82636743547781
 21
-5.109826589595059
 31
0.0
  0
LINE
  8
DETAIL
  6
CONTINUOUS
 62
     5
 10
258.49710982658962
 20
-3.0057803468205289
 30
0.0
 11
-258.49710982658962
 21
-3.0057803468205289
 31
0.0
  0
LINE
  8
DETAIL
  6
CONTINUOUS
 62
     5
 10
258.49710982658962
 20
0.0
 30
0.0
 11
-258.49710982658962
 21
0.0
 31
0.0
  0
LINE
  8
DETAIL
  6
CONTINUOUS
 62
     5
 10
207.40423668833671
 20
-76.396917148362149
 30
0.0
 11
206.6957674663563
 21
-75.394990366088678
 31
0.0
  0
ARC
  8
DETAIL
  6
CONTINUOUS
 62
     5
 10
-58.612716763005892
 20
-196.27745664739891
 30
0.0
 40
1.903660886319734
 50
275.62497980280477
 51
0.0
  0
ARC
  8
DETAIL
  6
CONTINUOUS
 62
     5
 10
-35.067437379576177
 20
-264.70905587668568
 30
0.0
 40
1.7032755298651321
 50
208.07248693589739
 51
331.92751306410253
  0
ARC
  8
DETAIL
  6
CONTINUOUS
 62
     5
 10
-4.0077071290944559
 20
-266.61271676300578
 30
0.0
 40
0.5009633911367791
 50
180.0
 51
270.0
  0
ARC
  8
DETAIL
  6
CONTINUOUS
 62
     5
 10
-33.46435452793844
 20
-265.51059730250461
 30
0.0
 40
0.100192678227359
 50
90.0
 51
180.0
  0
ARC
  8
DETAIL
  6
CONTINUOUS
 62
     5
 10
-36.670520231213906
 20
-265.51059730250461
 30
0.0
 40
0.100192678227359
 50
0.0
 51
90.0
  0
ARC
  8
DETAIL
  6
CONTINUOUS
 62
     5
 10
-189.287354740485
 20
-6.4123314065507202
 30
0.0
 40
3.606936416184964
 50
180.0
 51
270.0
  0
ARC
  8
DETAIL
  6
CONTINUOUS
 62
     5
 10
-147.4876706429948
 20
-16.431599229287261
 30
0.0
 40
3.606936416184964
 50
180.0
 51
270.0
  0
ARC
  8
DETAIL
  6
CONTINUOUS
 62
     5
 10
-243.36801541425831
 20
-16.431599229287261
 30
0.0
 40
3.606936416185023
 50
180.0
 51
270.0
  0
ARC
  8
DETAIL
  6
CONTINUOUS
 62
     5
 10
-253.38728323699431
 20
-6.4123314065507202
 30
0.0
 40
3.606936416185023
 50
180.0
 51
270.0
  0
ARC
  8
DETAIL
  6
CONTINUOUS
 62
     5
 10
-154.10038740600069
 20
-13.02504816955661
 30
0.0
 40
3.005780346820869
 50
0.0
 51
86.250004622398251
  0
ARC
  8
DETAIL
  6
CONTINUOUS
 62
     5
 10
-209.8034682080926
 20
-133.25626204238921
 30
0.0
 40
2.0038535645471711
 50
90.0
 51
270.0
  0
ARC
  8
DETAIL
  6
CONTINUOUS
 62
     5
 10
-258.49710982658962
 20
-1.5028901734103779
 30
0.0
 40
1.502890173410377
 50
90.0
 51
270.0
  0
ARC
  8
DETAIL
  6
CONTINUOUS
 62
     5
 10
-0.0000000000001137
 20
-202.21136801541411
 30
0.0
 40
6.5350674373798121
 50
43.897398167097009
 51
136.10260183290299
  0
CIRCLE
  8
DETAIL
  6
CONTINUOUS
 62
     5
 10
-0.0000000000001137
 20
-234.2504816955682
 30
0.0
 40
4.7090558766859374
  0
ARC
  8
DETAIL
  6
CONTINUOUS
 62
     5
 10
72.965807409754007
 20
-239.3230638046692
 30
0.0
 40
2.5420614752143522
 50
265.12946717539887
 51
269.98993479399883
  0
ARC
  8
DETAIL
  6
CONTINUOUS
 62
     5
 10
58.612716763005658
 20
-196.27745664739891
 30
0.0
 40
1.9036608863198541
 50
180.0
 51
270.0
  0
ARC
  8
DETAIL
  6
CONTINUOUS
 62
     5
 10
35.067437379576063
 20
-264.70905587668568
 30
0.0
 40
1.7032755298651321
 50
208.07248693589739
 51
331.92751306410253
  0
ARC
  8
DETAIL
  6
CONTINUOUS
 62
     5
 10
4.0077071290943422
 20
-266.61271676300578
 30
0.0
 40
0.500963391136793
 50
270.0
 51
0.0
  0
ARC
  8
DETAIL
  6
CONTINUOUS
 62
     5
 10
56.212176741185537
 20
-200.18497109826589
 30
0.0
 40
0.500963391136793
 50
90.0
 51
180.0
  0
ARC
  8
DETAIL
  6
CONTINUOUS
 62
     5
 10
64.227590999374343
 20
-200.18497109826589
 30
0.0
 40
0.5009633911367861
 50
0.0
 51
90.0
  0
ARC
  8
DETAIL
  6
CONTINUOUS
 62
     5
 10
36.6705202312138
 20
-265.51059730250461
 30
0.0
 40
0.100192678227359
 50
90.0
 51
180.0
  0
ARC
  8
DETAIL
  6
CONTINUOUS
 62
     5
 10
33.464354527938212
 20
-265.51059730250461
 30
0.0
 40
0.100192678227344
 50
0.0
 51
90.0
  0
ARC
  8
DETAIL
  6
CONTINUOUS
 62
     5
 10
189.28735474113549
 20
-6.4123314065507202
 30
0.0
 40
3.606936416184908
 50
270.0
 51
0.0
  0
ARC
  8
DETAIL
  6
CONTINUOUS
 62
     5
 10
147.48767064299469
 20
-16.431599229287261
 30
0.0
 40
3.606936416184908
 50
270.0
 51
0.0
  0
ARC
  8
DETAIL
  6
CONTINUOUS
 62
     5
 10
243.368015414258
 20
-16.431599229287261
 30
0.0
 40
3.606936416184908
 50
270.0
 51
0.0
  0
ARC
  8
DETAIL
  6
CONTINUOUS
 62
     5
 10
253.38728323699411
 20
-6.4123314065507202
 30
0.0
 40
3.606936416184908
 50
270.0
 51
0.0
  0
ARC
  8
DETAIL
  6
CONTINUOUS
 62
     5
 10
154.10038740600041
 20
-13.02504816955661
 30
0.0
 40
3.005780346820528
 50
90.0
 51
180.0
  0
ARC
  8
DETAIL
  6
CONTINUOUS
 62
     5
 10
209.80346820809251
 20
-133.25626204238921
 30
0.0
 40
2.0038535645470561
 50
270.0
 51
90.0
  0
ARC
  8
DETAIL
  6
CONTINUOUS
 62
     5
 10
258.49710982658962
 20
-1.5028901734103779
 30
0.0
 40
1.502890173410377
 50
270.0
 51
90.0
  0
LINE
  8
DETAIL
  6
CONTINUOUS
 62
     5
 10
-51.120910391762443
 20
-194.53136436723941
 30
0.0
 11
-51.020283615504127
 21
-194.49868182796291
 31
0.0
  0
LINE
  8
DETAIL
  6
CONTINUOUS
 62
     5
 10
-51.020283615504127
 20
-194.49868182796291
 30
0.0
 11
-50.919413840428767
 21
-194.4667720035188
 31
0.0
  0
LINE
  8
DETAIL
  6
CONTINUOUS
 62
     5
 10
-50.919413840428767
 20
-194.4667720035188
 30
0.0
 11
-50.919413840428767
 21
-194.4667720035188
 31
0.0
  0
LINE
  8
DETAIL
  6
CONTINUOUS
 62
     5
 10
-50.919413840428767
 20
-194.4667720035188
 30
0.0
 11
-50.818098655753367
 21
-194.43625763164741
 31
0.0
  0
LINE
  8
DETAIL
  6
CONTINUOUS
 62
     5
 10
-50.818098655753367
 20
-194.43625763164741
 30
0.0
 11
-50.716298002831763
 21
-194.40716154172861
 31
0.0
  0
LINE
  8
DETAIL
  6
CONTINUOUS
 62
     5
 10
-50.716298002831763
 20
-194.40716154172861
 30
0.0
 11
-50.716298002831763
 21
-194.40716154172861
 31
0.0
  0
LINE
  8
DETAIL
  6
CONTINUOUS
 62
     5
 10
-50.716298002831763
 20
-194.40716154172861
 30
0.0
 11
-50.614057312525922
 21
-194.37940575052511
 31
0.0
  0
LINE
  8
DETAIL
  6
CONTINUOUS
 62
     5
 10
-50.614057312525922
 20
-194.37940575052511
 30
0.0
 11
-50.511601621594536
 21
-194.35310893271489
 31
0.0
  0
LINE
  8
DETAIL
  6
CONTINUOUS
 62
     5
 10
-50.511601621594536
 20
-194.35310893271489
 30
0.0
 11
-50.511601621594536
 21
-194.35310893271489
 31
0.0
  0
LINE
  8
DETAIL
  6
CONTINUOUS
 62
     5
 10
-50.511601621594536
 20
-194.35310893271489
 30
0.0
 11
-50.408980674339553
 21
-194.32839224663209
 31
0.0
  0
LINE
  8
DETAIL
  6
CONTINUOUS
 62
     5
 10
-50.408980674339553
 20
-194.32839224663209
 30
0.0
 11
-50.305363439339772
 21
-194.30519012732341
 31
0.0
  0
LINE
  8
DETAIL
  6
CONTINUOUS
 62
     5
 10
-50.305363439339772
 20
-194.30519012732341
 30
0.0
 11
-50.305363439339772
 21
-194.30519012732341
 31
0.0
  0
LINE
  8
DETAIL
  6
CONTINUOUS
 62
     5
 10
-50.305363439339772
 20
-194.30519012732341
 30
0.0
 11
-50.200534565492383
 21
-194.28352788782169
 31
0.0
  0
LINE
  8
DETAIL
  6
CONTINUOUS
 62
     5
 10
-50.200534565492383
 20
-194.28352788782169
 30
0.0
 11
-50.097622198690601
 21
-194.2639810763971
 31
0.0
  0
LINE
  8
DETAIL
  6
CONTINUOUS
 62
     5
 10
-50.097622198690601
 20
-194.2639810763971
 30
0.0
 11
-50.097622198690601
 21
-194.2639810763971
 31
0.0
  0
LINE
  8
DETAIL
  6
CONTINUOUS
 62
     5
 10
-50.097622198690601
 20
-194.2639810763971
 30
0.0
 11
-49.999280643183063
 21
-194.24701696020671
 31
0.0
  0
LINE
  8
DETAIL
  6
CONTINUOUS
 62
     5
 10
-49.999280643183063
 20
-194.24701696020671
 30
0.0
 11
-49.902925339641342
 21
-194.23211944671951
 31
0.0
  0
LINE
  8
DETAIL
  6
CONTINUOUS
 62
     5
 10
-49.902925339641342
 20
-194.23211944671951
 30
0.0
 11
-49.902925339641342
 21
-194.23211944671951
 31
0.0
  0
LINE
  8
DETAIL
  6
CONTINUOUS
 62
     5
 10
-49.902925339641342
 20
-194.23211944671951
 30
0.0
 11
-49.805492430408783
 21
-194.2186986206207
 31
0.0
  0
LINE
  8
DETAIL
  6
CONTINUOUS
 62
     5
 10
-49.805492430408783
 20
-194.2186986206207
 30
0.0
 11
-49.707239728092652
 21
-194.20685263514301
 31
0.0
  0
LINE
  8
DETAIL
  6
CONTINUOUS
 62
     5
 10
-49.707239728092652
 20
-194.20685263514301
 30
0.0
 11
-49.707239728092652
 21
-194.20685263514301
 31
0.0
  0
LINE
  8
DETAIL
  6
CONTINUOUS
 62
     5
 10
-49.707239728092652
 20
-194.20685263514301
 30
0.0
 11
-49.609032730868421
 21
-194.19678837361781
 31
0.0
  0
LINE
  8
DETAIL
  6
CONTINUOUS
 62
     5
 10
-49.609032730868421
 20
-194.19678837361781
 30
0.0
 11
-49.510846008921249
 21
-194.18845957122809
 31
0.0
  0
LINE
  8
DETAIL
  6
CONTINUOUS
 62
     5
 10
-49.510846008921249
 20
-194.18845957122809
 30
0.0
 11
-49.510846008921249
 21
-194.18845957122809
 31
0.0
  0
LINE
  8
DETAIL
  6
CONTINUOUS
 62
     5
 10
-49.510846008921249
 20
-194.18845957122809
 30
0.0
 11
-49.412491910862968
 21
-194.18183780713079
 31
0.0
  0
LINE
  8
DETAIL
  6
CONTINUOUS
 62
     5
 10
-49.412491910862968
 20
-194.18183780713079
 30
0.0
 11
-49.314024827003209
 21
-194.17721918453501
 31
0.0
  0
LINE
  8
DETAIL
  6
CONTINUOUS
 62
     5
 10
-49.314024827003209
 20
-194.17721918453501
 30
0.0
 11
-49.314024827003209
 21
-194.17721918453501
 31
0.0
  0
LINE
  8
DETAIL
  6
CONTINUOUS
 62
     5
 10
-49.314024827003209
 20
-194.17721918453501
 30
0.0
 11
-49.215540348376067
 21
-194.17471970064861
 31
0.0
  0
LINE
  8
DETAIL
  6
CONTINUOUS
 62
     5
 10
-49.215540348376067
 20
-194.17471970064861
 30
0.0
 11
-49.117056827215272
 21
-194.17341040462401
 31
0.0
  0
LINE
  8
DETAIL
  6
CONTINUOUS
 62
     5
 10
-49.117056827215272
 20
-194.17341040462401
 30
0.0
 11
-49.018557913255108
 21
-194.1747201259075
 31
0.0
  0
LINE
  8
DETAIL
  6
CONTINUOUS
 62
     5
 10
-49.018557913255108
 20
-194.1747201259075
 30
0.0
 11
-48.920058110674518
 21
-194.17722039443191
 31
0.0
  0
LINE
  8
DETAIL
  6
CONTINUOUS
 62
     5
 10
-48.920058110674518
 20
-194.17722039443191
 30
0.0
 11
-48.920058110674518
 21
-194.17722039443191
 31
0.0
  0
LINE
  8
DETAIL
  6
CONTINUOUS
 62
     5
 10
-48.920058110674518
 20
-194.17722039443191
 30
0.0
 11
-48.821575780011472
 21
-194.1818404497287
 31
0.0
  0
LINE
  8
DETAIL
  6
CONTINUOUS
 62
     5
 10
-48.821575780011472
 20
-194.1818404497287
 30
0.0
 11
-48.723206278438852
 21
-194.1884643004995
 31
0.0
  0
LINE
  8
DETAIL
  6
CONTINUOUS
 62
     5
 10
-48.723206278438852
 20
-194.1884643004995
 30
0.0
 11
-48.723206278438852
 21
-194.1884643004995
 31
0.0
  0
LINE
  8
DETAIL
  6
CONTINUOUS
 62
     5
 10
-48.723206278438852
 20
-194.1884643004995
 30
0.0
 11
-48.625003951555641
 21
-194.19679575215611
 31
0.0
  0
LINE
  8
DETAIL
  6
CONTINUOUS
 62
     5
 10
-48.625003951555641
 20
-194.19679575215611
 30
0.0
 11
-48.526782102031461
 21
-194.20686302779291
 31
0.0
  0
LINE
  8
DETAIL
  6
CONTINUOUS
 62
     5
 10
-48.526782102031461
 20
-194.20686302779291
 30
0.0
 11
-48.526782102031461
 21
-194.20686302779291
 31
0.0
  0
LINE
  8
DETAIL
  6
CONTINUOUS
 62
     5
 10
-48.526782102031461
 20
-194.20686302779291
 30
0.0
 11
-48.428515565574457
 21
-194.21871234495151
 31
0.0
  0
LINE
  8
DETAIL
  6
CONTINUOUS
 62
     5
 10
-48.428515565574457
 20
-194.21871234495151
 30
0.0
 11
-48.331066352975768
 21
-194.2321374812793
 31
0.0
  0
LINE
  8
DETAIL
  6
CONTINUOUS
 62
     5
 10
-48.331066352975768
 20
-194.2321374812793
 30
0.0
 11
-48.331066352975768
 21
-194.2321374812793
 31
0.0
  0
LINE
  8
DETAIL
  6
CONTINUOUS
 62
     5
 10
-48.331066352975768
 20
-194.2321374812793
 30
0.0
 11
-48.234691354446227
 21
-194.2470404399235
 31
0.0
  0
LINE
  8
DETAIL
  6
CONTINUOUS
 62
     5
 10
-48.234691354446227
 20
-194.2470404399235
 30
0.0
 11
-48.136339802794737
 21
-194.26400856592471
 31
0.0
  0
LINE
  8
DETAIL
  6
CONTINUOUS
 62
     5
 10
-48.136339802794737
 20
-194.26400856592471
 30
0.0
 11
-48.136339802794737
 21
-194.26400856592471
 31
0.0
  0
LINE
  8
DETAIL
  6
CONTINUOUS
 62
     5
 10
-48.136339802794737
 20
-194.26400856592471
 30
0.0
 11
-48.033438181307822
 21
-194.28355567652591
 31
0.0
  0
LINE
  8
DETAIL
  6
CONTINUOUS
 62
     5
 10
-48.033438181307822
 20
-194.28355567652591
 30
0.0
 11
-47.928629632587104
 21
-194.30521613589531
 31
0.0
  0
LINE
  8
DETAIL
  6
CONTINUOUS
 62
     5
 10
-47.928629632587104
 20
-194.30521613589531
 30
0.0
 11
-47.928629632587104
 21
-194.30521613589531
 31
0.0
  0
LINE
  8
DETAIL
  6
CONTINUOUS
 62
     5
 10
-47.928629632587104
 20
-194.30521613589531
 30
0.0
 11
-47.825029119314188
 21
-194.32841645835151
 31
0.0
  0
LINE
  8
DETAIL
  6
CONTINUOUS
 62
     5
 10
-47.825029119314188
 20
-194.32841645835151
 30
0.0
 11
-47.722422225173318
 21
-194.3531312118927
 31
0.0
  0
LINE
  8
DETAIL
  6
CONTINUOUS
 62
     5
 10
-47.722422225173318
 20
-194.3531312118927
 30
0.0
 11
-47.722422225173318
 21
-194.3531312118927
 31
0.0
  0
LINE
  8
DETAIL
  6
CONTINUOUS
 62
     5
 10
-47.722422225173318
 20
-194.3531312118927
 30
0.0
 11
-47.619981438952891
 21
-194.37942544607961
 31
0.0
  0
LINE
  8
DETAIL
  6
CONTINUOUS
 62
     5
 10
-47.619981438952891
 20
-194.37942544607961
 30
0.0
 11
-47.517756248850787
 21
-194.40717808303569
 31
0.0
  0
LINE
  8
DETAIL
  6
CONTINUOUS
 62
     5
 10
-47.517756248850787
 20
-194.40717808303569
 30
0.0
 11
-47.517756248850787
 21
-194.40717808303569
 31
0.0
  0
LINE
  8
DETAIL
  6
CONTINUOUS
 62
     5
 10
-47.517756248850787
 20
-194.40717808303569
 30
0.0
 11
-47.415970738256533
 21
-194.43627062704169
 31
0.0
  0
LINE
  8
DETAIL
  6
CONTINUOUS
 62
     5
 10
-47.415970738256533
 20
-194.43627062704169
 30
0.0
 11
-47.314670371916577
 21
-194.46678103844511
 31
0.0
  0
LINE
  8
DETAIL
  6
CONTINUOUS
 62
     5
 10
-47.314670371916577
 20
-194.46678103844511
 30
0.0
 11
-47.314670371916577
 21
-194.46678103844511
 31
0.0
  0
LINE
  8
DETAIL
  6
CONTINUOUS
 62
     5
 10
-47.314670371916577
 20
-194.46678103844511
 30
0.0
 11
-47.213815328707369
 21
-194.49868646740191
 31
0.0
  0
LINE
  8
DETAIL
  6
CONTINUOUS
 62
     5
 10
-47.213815328707369
 20
-194.49868646740191
 30
0.0
 11
-47.11320326266798
 21
-194.53136436723941
 31
0.0
  0
LINE
  8
DETAIL
  6
CONTINUOUS
 62
     5
 10
-47.11320326266798
 20
-194.53136436723941
 30
0.0
 11
-47.012576486407063
 21
-194.4986818279624
 31
0.0
  0
LINE
  8
DETAIL
  6
CONTINUOUS
 62
     5
 10
-47.012576486407063
 20
-194.4986818279624
 30
0.0
 11
-46.911706711326929
 21
-194.46677200351689
 31
0.0
  0
LINE
  8
DETAIL
  6
CONTINUOUS
 62
     5
 10
-46.911706711326929
 20
-194.46677200351689
 30
0.0
 11
-46.911706711326929
 21
-194.46677200351689
 31
0.0
  0
LINE
  8
DETAIL
  6
CONTINUOUS
 62
     5
 10
-46.911706711326929
 20
-194.46677200351689
 30
0.0
 11
-46.81039152664323
 21
-194.436257631644
 31
0.0
  0
LINE
  8
DETAIL
  6
CONTINUOUS
 62
     5
 10
-46.81039152664323
 20
-194.436257631644
 30
0.0
 11
-46.708590873709802
 21
-194.40716154172171
 31
0.0
  0
LINE
  8
DETAIL
  6
CONTINUOUS
 62
     5
 10
-46.708590873709802
 20
-194.40716154172171
 30
0.0
 11
-46.708590873709802
 21
-194.40716154172171
 31
0.0
  0
LINE
  8
DETAIL
  6
CONTINUOUS
 62
     5
 10
-46.708590873709802
 20
-194.40716154172171
 30
0.0
 11
-46.606350183389509
 21
-194.3794057505157
 31
0.0
  0
LINE
  8
DETAIL
  6
CONTINUOUS
 62
     5
 10
-46.606350183389509
 20
-194.3794057505157
 30
0.0
 11
-46.503894492442669
 21
-194.3531089327025
 31
0.0
  0
LINE
  8
DETAIL
  6
CONTINUOUS
 62
     5
 10
-46.503894492442669
 20
-194.3531089327025
 30
0.0
 11
-46.503894492442669
 21
-194.3531089327025
 31
0.0
  0
LINE
  8
DETAIL
  6
CONTINUOUS
 62
     5
 10
-46.503894492442669
 20
-194.3531089327025
 30
0.0
 11
-46.401273545171762
 21
-194.32839224661589
 31
0.0
  0
LINE
  8
DETAIL
  6
CONTINUOUS
 62
     5
 10
-46.401273545171762
 20
-194.32839224661589
 30
0.0
 11
-46.297656310151297
 21
-194.30519012730349
 31
0.0
  0
LINE
  8
DETAIL
  6
CONTINUOUS
 62
     5
 10
-46.297656310151297
 20
-194.30519012730349
 30
0.0
 11
-46.297656310151297
 21
-194.30519012730349
 31
0.0
  0
LINE
  8
DETAIL
  6
CONTINUOUS
 62
     5
 10
-46.297656310151297
 20
-194.30519012730349
 30
0.0
 11
-46.192827436277533
 21
-194.2835278877985
 31
0.0
  0
LINE
  8
DETAIL
  6
CONTINUOUS
 62
     5
 10
-46.192827436277533
 20
-194.2835278877985
 30
0.0
 11
-46.089915069461988
 21
-194.2639810763728
 31
0.0
  0
LINE
  8
DETAIL
  6
CONTINUOUS
 62
     5
 10
-46.089915069461988
 20
-194.2639810763728
 30
0.0
 11
-46.089915069461988
 21
-194.2639810763728
 31
0.0
  0
LINE
  8
DETAIL
  6
CONTINUOUS
 62
     5
 10
-46.089915069461988
 20
-194.2639810763728
 30
0.0
 11
-45.991573513967857
 21
-194.2470169601861
 31
0.0
  0
LINE
  8
DETAIL
  6
CONTINUOUS
 62
     5
 10
-45.991573513967857
 20
-194.2470169601861
 30
0.0
 11
-45.895218210451958
 21
-194.2321194467041
 31
0.0
  0
LINE
  8
DETAIL
  6
CONTINUOUS
 62
     5
 10
-45.895218210451958
 20
-194.2321194467041
 30
0.0
 11
-45.895218210451958
 21
-194.2321194467041
 31
0.0
  0
LINE
  8
DETAIL
  6
CONTINUOUS
 62
     5
 10
-45.895218210451958
 20
-194.2321194467041
 30
0.0
 11
-45.797785301239969
 21
-194.2186986206099
 31
0.0
  0
LINE
  8
DETAIL
  6
CONTINUOUS
 62
     5
 10
-45.797785301239969
 20
-194.2186986206099
 30
0.0
 11
-45.699532598939747
 21
-194.20685263513451
 31
0.0
  0
LINE
  8
DETAIL
  6
CONTINUOUS
 62
     5
 10
-45.699532598939747
 20
-194.20685263513451
 30
0.0
 11
-45.699532598939747
 21
-194.20685263513451
 31
0.0
  0
LINE
  8
DETAIL
  6
CONTINUOUS
 62
     5
 10
-45.699532598939747
 20
-194.20685263513451
 30
0.0
 11
-45.601325601730991
 21
-194.19678837361209
 31
0.0
  0
LINE
  8
DETAIL
  6
CONTINUOUS
 62
     5
 10
-45.601325601730991
 20
-194.19678837361209
 30
0.0
 11
-45.503138879798477
 21
-194.1884595712246
 31
0.0
  0
LINE
  8
DETAIL
  6
CONTINUOUS
 62
     5
 10
-45.503138879798477
 20
-194.1884595712246
 30
0.0
 11
-45.503138879798477
 21
-194.1884595712246
 31
0.0
  0
LINE
  8
DETAIL
  6
CONTINUOUS
 62
     5
 10
-45.503138879798477
 20
-194.1884595712246
 30
0.0
 11
-45.404784781752369
 21
-194.18183780712869
 31
0.0
  0
LINE
  8
DETAIL
  6
CONTINUOUS
 62
     5
 10
-45.404784781752369
 20
-194.18183780712869
 30
0.0
 11
-45.30631769790125
 21
-194.17721918453421
 31
0.0
  0
LINE
  8
DETAIL
  6
CONTINUOUS
 62
     5
 10
-45.30631769790125
 20
-194.17721918453421
 30
0.0
 11
-45.30631769790125
 21
-194.17721918453421
 31
0.0
  0
LINE
  8
DETAIL
  6
CONTINUOUS
 62
     5
 10
-45.30631769790125
 20
-194.17721918453421
 30
0.0
 11
-45.207833219278882
 21
-194.1747197006483
 31
0.0
  0
LINE
  8
DETAIL
  6
CONTINUOUS
 62
     5
 10
-45.207833219278882
 20
-194.1747197006483
 30
0.0
 11
-45.109349698120809
 21
-194.17341040462401
 31
0.0
  0
LINE
  8
DETAIL
  6
CONTINUOUS
 62
     5
 10
-45.109349698120809
 20
-194.17341040462401
 30
0.0
 11
-45.010850784160773
 21
-194.1747201259075
 31
0.0
  0
LINE
  8
DETAIL
  6
CONTINUOUS
 62
     5
 10
-45.010850784160773
 20
-194.1747201259075
 30
0.0
 11
-44.912350981580062
 21
-194.17722039443191
 31
0.0
  0
LINE
  8
DETAIL
  6
CONTINUOUS
 62
     5
 10
-44.912350981580062
 20
-194.17722039443191
 30
0.0
 11
-44.912350981580062
 21
-194.17722039443191
 31
0.0
  0
LINE
  8
DETAIL
  6
CONTINUOUS
 62
     5
 10
-44.912350981580062
 20
-194.17722039443191
 30
0.0
 11
-44.813868650917129
 21
-194.1818404497287
 31
0.0
  0
LINE
  8
DETAIL
  6
CONTINUOUS
 62
     5
 10
-44.813868650917129
 20
-194.1818404497287
 30
0.0
 11
-44.715499149344403
 21
-194.1884643004995
 31
0.0
  0
LINE
  8
DETAIL
  6
CONTINUOUS
 62
     5
 10
-44.715499149344403
 20
-194.1884643004995
 30
0.0
 11
-44.715499149344403
 21
-194.1884643004995
 31
0.0
  0
LINE
  8
DETAIL
  6
CONTINUOUS
 62
     5
 10
-44.715499149344403
 20
-194.1884643004995
 30
0.0
 11
-44.617296822461192
 21
-194.19679575215611
 31
0.0
  0
LINE
  8
DETAIL
  6
CONTINUOUS
 62
     5
 10
-44.617296822461192
 20
-194.19679575215611
 30
0.0
 11
-44.519074972937013
 21
-194.20686302779291
 31
0.0
  0
LINE
  8
DETAIL
  6
CONTINUOUS
 62
     5
 10
-44.519074972937013
 20
-194.20686302779291
 30
0.0
 11
-44.519074972937013
 21
-194.20686302779291
 31
0.0
  0
LINE
  8
DETAIL
  6
CONTINUOUS
 62
     5
 10
-44.519074972937013
 20
-194.20686302779291
 30
0.0
 11
-44.420808436480122
 21
-194.21871234495151
 31
0.0
  0
LINE
  8
DETAIL
  6
CONTINUOUS
 62
     5
 10
-44.420808436480122
 20
-194.21871234495151
 30
0.0
 11
-44.323359223881312
 21
-194.2321374812793
 31
0.0
  0
LINE
  8
DETAIL
  6
CONTINUOUS
 62
     5
 10
-44.323359223881312
 20
-194.2321374812793
 30
0.0
 11
-44.323359223881312
 21
-194.2321374812793
 31
0.0
  0
LINE
  8
DETAIL
  6
CONTINUOUS
 62
     5
 10
-44.323359223881312
 20
-194.2321374812793
 30
0.0
 11
-44.226984225351877
 21
-194.2470404399235
 31
0.0
  0
LINE
  8
DETAIL
  6
CONTINUOUS
 62
     5
 10
-44.226984225351877
 20
-194.2470404399235
 30
0.0
 11
-44.128632673700388
 21
-194.26400856592471
 31
0.0
  0
LINE
  8
DETAIL
  6
CONTINUOUS
 62
     5
 10
-44.128632673700388
 20
-194.26400856592471
 30
0.0
 11
-44.128632673700388
 21
-194.26400856592471
 31
0.0
  0
LINE
  8
DETAIL
  6
CONTINUOUS
 62
     5
 10
-44.128632673700388
 20
-194.26400856592471
 30
0.0
 11
-44.025731052213359
 21
-194.28355567652591
 31
0.0
  0
LINE
  8
DETAIL
  6
CONTINUOUS
 62
     5
 10
-44.025731052213359
 20
-194.28355567652591
 30
0.0
 11
-43.920922503492648
 21
-194.30521613589531
 31
0.0
  0
LINE
  8
DETAIL
  6
CONTINUOUS
 62
     5
 10
-43.920922503492648
 20
-194.30521613589531
 30
0.0
 11
-43.920922503492648
 21
-194.30521613589531
 31
0.0
  0
LINE
  8
DETAIL
  6
CONTINUOUS
 62
     5
 10
-43.920922503492648
 20
-194.30521613589531
 30
0.0
 11
-43.817321990219739
 21
-194.32841645835151
 31
0.0
  0
LINE
  8
DETAIL
  6
CONTINUOUS
 62
     5
 10
-43.817321990219739
 20
-194.32841645835151
 30
0.0
 11
-43.714715096078862
 21
-194.3531312118927
 31
0.0
  0
LINE
  8
DETAIL
  6
CONTINUOUS
 62
     5
 10
-43.714715096078862
 20
-194.3531312118927
 30
0.0
 11
-43.714715096078862
 21
-194.3531312118927
 31
0.0
  0
LINE
  8
DETAIL
  6
CONTINUOUS
 62
     5
 10
-43.714715096078862
 20
-194.3531312118927
 30
0.0
 11
-43.612274309858442
 21
-194.37942544607961
 31
0.0
  0
LINE
  8
DETAIL
  6
CONTINUOUS
 62
     5
 10
-43.612274309858442
 20
-194.37942544607961
 30
0.0
 11
-43.510049119756331
 21
-194.40717808303569
 31
0.0
  0
LINE
  8
DETAIL
  6
CONTINUOUS
 62
     5
 10
-43.510049119756331
 20
-194.40717808303569
 30
0.0
 11
-43.510049119756331
 21
-194.40717808303569
 31
0.0
  0
LINE
  8
DETAIL
  6
CONTINUOUS
 62
     5
 10
-43.510049119756331
 20
-194.40717808303569
 30
0.0
 11
-43.408263609162077
 21
-194.43627062704169
 31
0.0
  0
LINE
  8
DETAIL
  6
CONTINUOUS
 62
     5
 10
-43.408263609162077
 20
-194.43627062704169
 30
0.0
 11
-43.306963242822228
 21
-194.46678103844511
 31
0.0
  0
LINE
  8
DETAIL
  6
CONTINUOUS
 62
     5
 10
-43.306963242822228
 20
-194.46678103844511
 30
0.0
 11
-43.306963242822228
 21
-194.46678103844511
 31
0.0
  0
LINE
  8
DETAIL
  6
CONTINUOUS
 62
     5
 10
-43.306963242822228
 20
-194.46678103844511
 30
0.0
 11
-43.206108199612913
 21
-194.49868646740191
 31
0.0
  0
LINE
  8
DETAIL
  6
CONTINUOUS
 62
     5
 10
-43.206108199612913
 20
-194.49868646740191
 30
0.0
 11
-43.105496133573638
 21
-194.53136436723941
 31
0.0
  0
LINE
  8
DETAIL
  6
CONTINUOUS
 62
     5
 10
43.10549613422404
 20
-194.53136436723941
 30
0.0
 11
43.206122910326371
 21
-194.49868182796291
 31
0.0
  0
LINE
  8
DETAIL
  6
CONTINUOUS
 62
     5
 10
43.206122910326371
 20
-194.49868182796291
 30
0.0
 11
43.306992685275191
 21
-194.4667720035188
 31
0.0
  0
LINE
  8
DETAIL
  6
CONTINUOUS
 62
     5
 10
43.306992685275191
 20
-194.4667720035188
 30
0.0
 11
43.306992685275191
 21
-194.4667720035188
 31
0.0
  0
LINE
  8
DETAIL
  6
CONTINUOUS
 62
     5
 10
43.306992685275191
 20
-194.4667720035188
 30
0.0
 11
43.408307869875223
 21
-194.43625763164741
 31
0.0
  0
LINE
  8
DETAIL
  6
CONTINUOUS
 62
     5
 10
43.408307869875223
 20
-194.43625763164741
 30
0.0
 11
43.510108522762494
 21
-194.40716154172861
 31
0.0
  0
LINE
  8
DETAIL
  6
CONTINUOUS
 62
     5
 10
43.510108522762494
 20
-194.40716154172861
 30
0.0
 11
43.510108522762494
 21
-194.40716154172861
 31
0.0
  0
LINE
  8
DETAIL
  6
CONTINUOUS
 62
     5
 10
43.510108522762494
 20
-194.40716154172861
 30
0.0
 11
43.612349213059019
 21
-194.37940575052511
 31
0.0
  0
LINE
  8
DETAIL
  6
CONTINUOUS
 62
     5
 10
43.612349213059019
 20
-194.37940575052511
 30
0.0
 11
43.714804903998811
 21
-194.35310893271489
 31
0.0
  0
LINE
  8
DETAIL
  6
CONTINUOUS
 62
     5
 10
43.714804903998811
 20
-194.35310893271489
 30
0.0
 11
43.714804903998811
 21
-194.35310893271489
 31
0.0
  0
LINE
  8
DETAIL
  6
CONTINUOUS
 62
     5
 10
43.714804903998811
 20
-194.35310893271489
 30
0.0
 11
43.817425851273811
 21
-194.32839224663209
 31
0.0
  0
LINE
  8
DETAIL
  6
CONTINUOUS
 62
     5
 10
43.817425851273811
 20
-194.32839224663209
 30
0.0
 11
43.921043086296997
 21
-194.30519012732341
 31
0.0
  0
LINE
  8
DETAIL
  6
CONTINUOUS
 62
     5
 10
43.921043086296997
 20
-194.30519012732341
 30
0.0
 11
43.921043086296997
 21
-194.30519012732341
 31
0.0
  0
LINE
  8
DETAIL
  6
CONTINUOUS
 62
     5
 10
43.921043086296997
 20
-194.30519012732341
 30
0.0
 11
44.025871960162704
 21
-194.28352788782169
 31
0.0
  0
LINE
  8
DETAIL
  6
CONTINUOUS
 62
     5
 10
44.025871960162704
 20
-194.28352788782169
 30
0.0
 11
44.128784326970163
 21
-194.2639810763971
 31
0.0
  0
LINE
  8
DETAIL
  6
CONTINUOUS
 62
     5
 10
44.128784326970163
 20
-194.2639810763971
 30
0.0
 11
44.128784326970163
 21
-194.2639810763971
 31
0.0
  0
LINE
  8
DETAIL
  6
CONTINUOUS
 62
     5
 10
44.128784326970163
 20
-194.2639810763971
 30
0.0
 11
44.227125882466908
 21
-194.24701696020671
 31
0.0
  0
LINE
  8
DETAIL
  6
CONTINUOUS
 62
     5
 10
44.227125882466908
 20
-194.24701696020671
 30
0.0
 11
44.32348118598668
 21
-194.23211944671951
 31
0.0
  0
LINE
  8
DETAIL
  6
CONTINUOUS
 62
     5
 10
44.32348118598668
 20
-194.23211944671951
 30
0.0
 11
44.32348118598668
 21
-194.23211944671951
 31
0.0
  0
LINE
  8
DETAIL
  6
CONTINUOUS
 62
     5
 10
44.32348118598668
 20
-194.23211944671951
 30
0.0
 11
44.420914095194227
 21
-194.2186986206207
 31
0.0
  0
LINE
  8
DETAIL
  6
CONTINUOUS
 62
     5
 10
44.420914095194227
 20
-194.2186986206207
 30
0.0
 11
44.519166797490577
 21
-194.20685263514301
 31
0.0
  0
LINE
  8
DETAIL
  6
CONTINUOUS
 62
     5
 10
44.519166797490577
 20
-194.20685263514301
 30
0.0
 11
44.519166797490577
 21
-194.20685263514301
 31
0.0
  0
LINE
  8
DETAIL
  6
CONTINUOUS
 62
     5
 10
44.519166797490577
 20
-194.20685263514301
 30
0.0
 11
44.617373794707873
 21
-194.19678837361781
 31
0.0
  0
LINE
  8
DETAIL
  6
CONTINUOUS
 62
     5
 10
44.617373794707873
 20
-194.19678837361781
 30
0.0
 11
44.715560516666407
 21
-194.18845957122809
 31
0.0
  0
LINE
  8
DETAIL
  6
CONTINUOUS
 62
     5
 10
44.715560516666407
 20
-194.18845957122809
 30
0.0
 11
44.715560516666407
 21
-194.18845957122809
 31
0.0
  0
LINE
  8
DETAIL
  6
CONTINUOUS
 62
     5
 10
44.715560516666407
 20
-194.18845957122809
 30
0.0
 11
44.813914614761423
 21
-194.18183780713079
 31
0.0
  0
LINE
  8
DETAIL
  6
CONTINUOUS
 62
     5
 10
44.813914614761423
 20
-194.18183780713079
 30
0.0
 11
44.912381698698482
 21
-194.17721918453501
 31
0.0
  0
LINE
  8
DETAIL
  6
CONTINUOUS
 62
     5
 10
44.912381698698482
 20
-194.17721918453501
 30
0.0
 11
44.912381698698482
 21
-194.17721918453501
 31
0.0
  0
LINE
  8
DETAIL
  6
CONTINUOUS
 62
     5
 10
44.912381698698482
 20
-194.17721918453501
 30
0.0
 11
45.010866177453522
 21
-194.17471970064861
 31
0.0
  0
LINE
  8
DETAIL
  6
CONTINUOUS
 62
     5
 10
45.010866177453522
 20
-194.17471970064861
 30
0.0
 11
45.109349698771332
 21
-194.17341040462401
 31
0.0
  0
LINE
  8
DETAIL
  6
CONTINUOUS
 62
     5
 10
45.109349698771332
 20
-194.17341040462401
 30
0.0
 11
45.207848612731368
 21
-194.1747201259075
 31
0.0
  0
LINE
  8
DETAIL
  6
CONTINUOUS
 62
     5
 10
45.207848612731368
 20
-194.1747201259075
 30
0.0
 11
45.306348415312073
 21
-194.17722039443191
 31
0.0
  0
LINE
  8
DETAIL
  6
CONTINUOUS
 62
     5
 10
45.306348415312073
 20
-194.17722039443191
 30
0.0
 11
45.306348415312073
 21
-194.17722039443191
 31
0.0
  0
LINE
  8
DETAIL
  6
CONTINUOUS
 62
     5
 10
45.306348415312073
 20
-194.17722039443191
 30
0.0
 11
45.404830745974998
 21
-194.1818404497287
 31
0.0
  0
LINE
  8
DETAIL
  6
CONTINUOUS
 62
     5
 10
45.404830745974998
 20
-194.1818404497287
 30
0.0
 11
45.503200247547738
 21
-194.1884643004995
 31
0.0
  0
LINE
  8
DETAIL
  6
CONTINUOUS
 62
     5
 10
45.503200247547738
 20
-194.1884643004995
 30
0.0
 11
45.503200247547738
 21
-194.1884643004995
 31
0.0
  0
LINE
  8
DETAIL
  6
CONTINUOUS
 62
     5
 10
45.503200247547738
 20
-194.1884643004995
 30
0.0
 11
45.601402574430949
 21
-194.19679575215611
 31
0.0
  0
LINE
  8
DETAIL
  6
CONTINUOUS
 62
     5
 10
45.601402574430949
 20
-194.19679575215611
 30
0.0
 11
45.699624423955129
 21
-194.20686302779291
 31
0.0
  0
LINE
  8
DETAIL
  6
CONTINUOUS
 62
     5
 10
45.699624423955129
 20
-194.20686302779291
 30
0.0
 11
45.699624423955129
 21
-194.20686302779291
 31
0.0
  0
LINE
  8
DETAIL
  6
CONTINUOUS
 62
     5
 10
45.699624423955129
 20
-194.20686302779291
 30
0.0
 11
45.797890960412133
 21
-194.21871234495151
 31
0.0
  0
LINE
  8
DETAIL
  6
CONTINUOUS
 62
     5
 10
45.797890960412133
 20
-194.21871234495151
 30
0.0
 11
45.895340173010823
 21
-194.2321374812793
 31
0.0
  0
LINE
  8
DETAIL
  6
CONTINUOUS
 62
     5
 10
45.895340173010823
 20
-194.2321374812793
 30
0.0
 11
45.895340173010823
 21
-194.2321374812793
 31
0.0
  0
LINE
  8
DETAIL
  6
CONTINUOUS
 62
     5
 10
45.895340173010823
 20
-194.2321374812793
 30
0.0
 11
45.99171517154025
 21
-194.2470404399235
 31
0.0
  0
LINE
  8
DETAIL
  6
CONTINUOUS
 62
     5
 10
45.99171517154025
 20
-194.2470404399235
 30
0.0
 11
46.090066723191853
 21
-194.26400856592471
 31
0.0
  0
LINE
  8
DETAIL
  6
CONTINUOUS
 62
     5
 10
46.090066723191853
 20
-194.26400856592471
 30
0.0
 11
46.090066723191853
 21
-194.26400856592471
 31
0.0
  0
LINE
  8
DETAIL
  6
CONTINUOUS
 62
     5
 10
46.090066723191853
 20
-194.26400856592471
 30
0.0
 11
46.192968344678661
 21
-194.28355567652591
 31
0.0
  0
LINE
  8
DETAIL
  6
CONTINUOUS
 62
     5
 10
46.192968344678661
 20
-194.28355567652591
 30
0.0
 11
46.297776893399373
 21
-194.30521613589531
 31
0.0
  0
LINE
  8
DETAIL
  6
CONTINUOUS
 62
     5
 10
46.297776893399373
 20
-194.30521613589531
 30
0.0
 11
46.297776893399373
 21
-194.30521613589531
 31
0.0
  0
LINE
  8
DETAIL
  6
CONTINUOUS
 62
     5
 10
46.297776893399373
 20
-194.30521613589531
 30
0.0
 11
46.401377406672403
 21
-194.32841645835151
 31
0.0
  0
LINE
  8
DETAIL
  6
CONTINUOUS
 62
     5
 10
46.401377406672403
 20
-194.32841645835151
 30
0.0
 11
46.503984300813158
 21
-194.3531312118927
 31
0.0
  0
LINE
  8
DETAIL
  6
CONTINUOUS
 62
     5
 10
46.503984300813158
 20
-194.3531312118927
 30
0.0
 11
46.503984300813158
 21
-194.3531312118927
 31
0.0
  0
LINE
  8
DETAIL
  6
CONTINUOUS
 62
     5
 10
46.503984300813158
 20
-194.3531312118927
 30
0.0
 11
46.606425087033593
 21
-194.37942544607961
 31
0.0
  0
LINE
  8
DETAIL
  6
CONTINUOUS
 62
     5
 10
46.606425087033593
 20
-194.37942544607961
 30
0.0
 11
46.708650277135803
 21
-194.40717808303569
 31
0.0
  0
LINE
  8
DETAIL
  6
CONTINUOUS
 62
     5
 10
46.708650277135803
 20
-194.40717808303569
 30
0.0
 11
46.708650277135803
 21
-194.40717808303569
 31
0.0
  0
LINE
  8
DETAIL
  6
CONTINUOUS
 62
     5
 10
46.708650277135803
 20
-194.40717808303569
 30
0.0
 11
46.810435787729944
 21
-194.43627062704169
 31
0.0
  0
LINE
  8
DETAIL
  6
CONTINUOUS
 62
     5
 10
46.810435787729944
 20
-194.43627062704169
 30
0.0
 11
46.911736154069899
 21
-194.46678103844511
 31
0.0
  0
LINE
  8
DETAIL
  6
CONTINUOUS
 62
     5
 10
46.911736154069899
 20
-194.46678103844511
 30
0.0
 11
46.911736154069899
 21
-194.46678103844511
 31
0.0
  0
LINE
  8
DETAIL
  6
CONTINUOUS
 62
     5
 10
46.911736154069899
 20
-194.46678103844511
 30
0.0
 11
47.012591197279107
 21
-194.49868646740191
 31
0.0
  0
LINE
  8
DETAIL
  6
CONTINUOUS
 62
     5
 10
47.012591197279107
 20
-194.49868646740191
 30
0.0
 11
47.113203263318503
 21
-194.53136436723941
 31
0.0
  0
LINE
  8
DETAIL
  6
CONTINUOUS
 62
     5
 10
47.113203263318503
 20
-194.53136436723941
 30
0.0
 11
47.213830039423442
 21
-194.4986818279624
 31
0.0
  0
LINE
  8
DETAIL
  6
CONTINUOUS
 62
     5
 10
47.213830039423442
 20
-194.4986818279624
 30
0.0
 11
47.314699814376922
 21
-194.46677200351689
 31
0.0
  0
LINE
  8
DETAIL
  6
CONTINUOUS
 62
     5
 10
47.314699814376922
 20
-194.46677200351689
 30
0.0
 11
47.314699814376922
 21
-194.46677200351689
 31
0.0
  0
LINE
  8
DETAIL
  6
CONTINUOUS
 62
     5
 10
47.314699814376922
 20
-194.46677200351689
 30
0.0
 11
47.416014998985361
 21
-194.436257631644
 31
0.0
  0
LINE
  8
DETAIL
  6
CONTINUOUS
 62
     5
 10
47.416014998985361
 20
-194.436257631644
 30
0.0
 11
47.517815651884462
 21
-194.40716154172171
 31
0.0
  0
LINE
  8
DETAIL
  6
CONTINUOUS
 62
     5
 10
47.517815651884462
 20
-194.40716154172171
 30
0.0
 11
47.517815651884462
 21
-194.40716154172171
 31
0.0
  0
LINE
  8
DETAIL
  6
CONTINUOUS
 62
     5
 10
47.517815651884462
 20
-194.40716154172171
 30
0.0
 11
47.620056342195312
 21
-194.3794057505157
 31
0.0
  0
LINE
  8
DETAIL
  6
CONTINUOUS
 62
     5
 10
47.620056342195312
 20
-194.3794057505157
 30
0.0
 11
47.722512033150572
 21
-194.3531089327025
 31
0.0
  0
LINE
  8
DETAIL
  6
CONTINUOUS
 62
     5
 10
47.722512033150572
 20
-194.3531089327025
 30
0.0
 11
47.722512033150572
 21
-194.3531089327025
 31
0.0
  0
LINE
  8
DETAIL
  6
CONTINUOUS
 62
     5
 10
47.722512033150572
 20
-194.3531089327025
 30
0.0
 11
47.825132980441587
 21
-194.32839224661589
 31
0.0
  0
LINE
  8
DETAIL
  6
CONTINUOUS
 62
     5
 10
47.825132980441587
 20
-194.32839224661589
 30
0.0
 11
47.928750215485479
 21
-194.30519012730349
 31
0.0
  0
LINE
  8
DETAIL
  6
CONTINUOUS
 62
     5
 10
47.928750215485479
 20
-194.30519012730349
 30
0.0
 11
47.928750215485479
 21
-194.30519012730349
 31
0.0
  0
LINE
  8
DETAIL
  6
CONTINUOUS
 62
     5
 10
47.928750215485479
 20
-194.30519012730349
 30
0.0
 11
48.033579089377326
 21
-194.2835278877985
 31
0.0
  0
LINE
  8
DETAIL
  6
CONTINUOUS
 62
     5
 10
48.033579089377326
 20
-194.2835278877985
 30
0.0
 11
48.136491456198883
 21
-194.2639810763728
 31
0.0
  0
LINE
  8
DETAIL
  6
CONTINUOUS
 62
     5
 10
48.136491456198883
 20
-194.2639810763728
 30
0.0
 11
48.136491456198883
 21
-194.2639810763728
 31
0.0
  0
LINE
  8
DETAIL
  6
CONTINUOUS
 62
     5
 10
48.136491456198883
 20
-194.2639810763728
 30
0.0
 11
48.234833011681992
 21
-194.2470169601861
 31
0.0
  0
LINE
  8
DETAIL
  6
CONTINUOUS
 62
     5
 10
48.234833011681992
 20
-194.2470169601861
 30
0.0
 11
48.33118831517595
 21
-194.2321194467041
 31
0.0
  0
LINE
  8
DETAIL
  6
CONTINUOUS
 62
     5
 10
48.33118831517595
 20
-194.2321194467041
 30
0.0
 11
48.33118831517595
 21
-194.2321194467041
 31
0.0
  0
LINE
  8
DETAIL
  6
CONTINUOUS
 62
     5
 10
48.33118831517595
 20
-194.2321194467041
 30
0.0
 11
48.428621224363042
 21
-194.2186986206099
 31
0.0
  0
LINE
  8
DETAIL
  6
CONTINUOUS
 62
     5
 10
48.428621224363042
 20
-194.2186986206099
 30
0.0
 11
48.526873926643468
 21
-194.20685263513451
 31
0.0
  0
LINE
  8
DETAIL
  6
CONTINUOUS
 62
     5
 10
48.526873926643468
 20
-194.20685263513451
 30
0.0
 11
48.526873926643468
 21
-194.20685263513451
 31
0.0
  0
LINE
  8
DETAIL
  6
CONTINUOUS
 62
     5
 10
48.526873926643468
 20
-194.20685263513451
 30
0.0
 11
48.625080923845189
 21
-194.19678837361209
 31
0.0
  0
LINE
  8
DETAIL
  6
CONTINUOUS
 62
     5
 10
48.625080923845189
 20
-194.19678837361209
 30
0.0
 11
48.723267645789058
 21
-194.1884595712246
 31
0.0
  0
LINE
  8
DETAIL
  6
CONTINUOUS
 62
     5
 10
48.723267645789058
 20
-194.1884595712246
 30
0.0
 11
48.723267645789058
 21
-194.1884595712246
 31
0.0
  0
LINE
  8
DETAIL
  6
CONTINUOUS
 62
     5
 10
48.723267645789058
 20
-194.1884595712246
 30
0.0
 11
48.821621743872022
 21
-194.18183780712869
 31
0.0
  0
LINE
  8
DETAIL
  6
CONTINUOUS
 62
     5
 10
48.821621743872022
 20
-194.18183780712869
 30
0.0
 11
48.920088827800562
 21
-194.17721918453421
 31
0.0
  0
LINE
  8
DETAIL
  6
CONTINUOUS
 62
     5
 10
48.920088827800562
 20
-194.17721918453421
 30
0.0
 11
48.920088827800562
 21
-194.17721918453421
 31
0.0
  0
LINE
  8
DETAIL
  6
CONTINUOUS
 62
     5
 10
48.920088827800562
 20
-194.17721918453421
 30
0.0
 11
49.018573306550707
 21
-194.1747197006483
 31
0.0
  0
LINE
  8
DETAIL
  6
CONTINUOUS
 62
     5
 10
49.018573306550707
 20
-194.1747197006483
 30
0.0
 11
49.117056827865667
 21
-194.17341040462401
 31
0.0
  0
LINE
  8
DETAIL
  6
CONTINUOUS
 62
     5
 10
49.117056827865667
 20
-194.17341040462401
 30
0.0
 11
49.215555741825938
 21
-194.1747201259075
 31
0.0
  0
LINE
  8
DETAIL
  6
CONTINUOUS
 62
     5
 10
49.215555741825938
 20
-194.1747201259075
 30
0.0
 11
49.314055544406528
 21
-194.17722039443191
 31
0.0
  0
LINE
  8
DETAIL
  6
CONTINUOUS
 62
     5
 10
49.314055544406528
 20
-194.17722039443191
 30
0.0
 11
49.314055544406528
 21
-194.17722039443191
 31
0.0
  0
LINE
  8
DETAIL
  6
CONTINUOUS
 62
     5
 10
49.314055544406528
 20
-194.17722039443191
 30
0.0
 11
49.412537875069567
 21
-194.1818404497287
 31
0.0
  0
LINE
  8
DETAIL
  6
CONTINUOUS
 62
     5
 10
49.412537875069567
 20
-194.1818404497287
 30
0.0
 11
49.510907376642187
 21
-194.1884643004995
 31
0.0
  0
LINE
  8
DETAIL
  6
CONTINUOUS
 62
     5
 10
49.510907376642187
 20
-194.1884643004995
 30
0.0
 11
49.510907376642187
 21
-194.1884643004995
 31
0.0
  0
LINE
  8
DETAIL
  6
CONTINUOUS
 62
     5
 10
49.510907376642187
 20
-194.1884643004995
 30
0.0
 11
49.609109703525291
 21
-194.19679575215611
 31
0.0
  0
LINE
  8
DETAIL
  6
CONTINUOUS
 62
     5
 10
49.609109703525291
 20
-194.19679575215611
 30
0.0
 11
49.707331553049357
 21
-194.20686302779291
 31
0.0
  0
LINE
  8
DETAIL
  6
CONTINUOUS
 62
     5
 10
49.707331553049357
 20
-194.20686302779291
 30
0.0
 11
49.707331553049357
 21
-194.20686302779291
 31
0.0
  0
LINE
  8
DETAIL
  6
CONTINUOUS
 62
     5
 10
49.707331553049357
 20
-194.20686302779291
 30
0.0
 11
49.805598089506361
 21
-194.21871234495151
 31
0.0
  0
LINE
  8
DETAIL
  6
CONTINUOUS
 62
     5
 10
49.805598089506361
 20
-194.21871234495151
 30
0.0
 11
49.903047302105279
 21
-194.2321374812793
 31
0.0
  0
LINE
  8
DETAIL
  6
CONTINUOUS
 62
     5
 10
49.903047302105279
 20
-194.2321374812793
 30
0.0
 11
49.903047302105279
 21
-194.2321374812793
 31
0.0
  0
LINE
  8
DETAIL
  6
CONTINUOUS
 62
     5
 10
49.903047302105279
 20
-194.2321374812793
 30
0.0
 11
49.999422300634713
 21
-194.2470404399235
 31
0.0
  0
LINE
  8
DETAIL
  6
CONTINUOUS
 62
     5
 10
49.999422300634713
 20
-194.2470404399235
 30
0.0
 11
50.097773852286082
 21
-194.26400856592471
 31
0.0
  0
LINE
  8
DETAIL
  6
CONTINUOUS
 62
     5
 10
50.097773852286082
 20
-194.26400856592471
 30
0.0
 11
50.097773852286082
 21
-194.26400856592471
 31
0.0
  0
LINE
  8
DETAIL
  6
CONTINUOUS
 62
     5
 10
50.097773852286082
 20
-194.26400856592471
 30
0.0
 11
50.200675473773117
 21
-194.28355567652591
 31
0.0
  0
LINE
  8
DETAIL
  6
CONTINUOUS
 62
     5
 10
50.200675473773117
 20
-194.28355567652591
 30
0.0
 11
50.305484022493829
 21
-194.30521613589531
 31
0.0
  0
LINE
  8
DETAIL
  6
CONTINUOUS
 62
     5
 10
50.305484022493829
 20
-194.30521613589531
 30
0.0
 11
50.305484022493829
 21
-194.30521613589531
 31
0.0
  0
LINE
  8
DETAIL
  6
CONTINUOUS
 62
     5
 10
50.305484022493829
 20
-194.30521613589531
 30
0.0
 11
50.409084535766851
 21
-194.32841645835151
 31
0.0
  0
LINE
  8
DETAIL
  6
CONTINUOUS
 62
     5
 10
50.409084535766851
 20
-194.32841645835151
 30
0.0
 11
50.511691429907501
 21
-194.3531312118927
 31
0.0
  0
LINE
  8
DETAIL
  6
CONTINUOUS
 62
     5
 10
50.511691429907501
 20
-194.3531312118927
 30
0.0
 11
50.511691429907501
 21
-194.3531312118927
 31
0.0
  0
LINE
  8
DETAIL
  6
CONTINUOUS
 62
     5
 10
50.511691429907501
 20
-194.3531312118927
 30
0.0
 11
50.614132216128041
 21
-194.37942544607961
 31
0.0
  0
LINE
  8
DETAIL
  6
CONTINUOUS
 62
     5
 10
50.614132216128041
 20
-194.37942544607961
 30
0.0
 11
50.716357406230138
 21
-194.40717808303569
 31
0.0
  0
LINE
  8
DETAIL
  6
CONTINUOUS
 62
     5
 10
50.716357406230138
 20
-194.40717808303569
 30
0.0
 11
50.716357406230138
 21
-194.40717808303569
 31
0.0
  0
LINE
  8
DETAIL
  6
CONTINUOUS
 62
     5
 10
50.716357406230138
 20
-194.40717808303569
 30
0.0
 11
50.818142916824399
 21
-194.43627062704169
 31
0.0
  0
LINE
  8
DETAIL
  6
CONTINUOUS
 62
     5
 10
50.818142916824399
 20
-194.43627062704169
 30
0.0
 11
50.919443283164242
 21
-194.46678103844511
 31
0.0
  0
LINE
  8
DETAIL
  6
CONTINUOUS
 62
     5
 10
50.919443283164242
 20
-194.46678103844511
 30
0.0
 11
50.919443283164242
 21
-194.46678103844511
 31
0.0
  0
LINE
  8
DETAIL
  6
CONTINUOUS
 62
     5
 10
50.919443283164242
 20
-194.46678103844511
 30
0.0
 11
51.020298326373563
 21
-194.49868646740191
 31
0.0
  0
LINE
  8
DETAIL
  6
CONTINUOUS
 62
     5
 10
51.020298326373563
 20
-194.49868646740191
 30
0.0
 11
51.120910392412952
 21
-194.53136436723941
 31
0.0
  0
LINE
  8
DETAIL
  6
CONTINUOUS
 62
     5
 10
208.80967397377569
 20
-18.535645472061791
 30
0.0
 11
208.72790554466249
 21
-18.534934560966349
 31
0.0
  0
LINE
  8
DETAIL
  6
CONTINUOUS
 62
     5
 10
208.72790554466249
 20
-18.534934560966349
 30
0.0
 11
208.64613618055719
 21
-18.533570194652381
 31
0.0
  0
LINE
  8
DETAIL
  6
CONTINUOUS
 62
     5
 10
208.64613618055719
 20
-18.533570194652381
 30
0.0
 11
208.64613618055719
 21
-18.533570194652381
 31
0.0
  0
LINE
  8
DETAIL
  6
CONTINUOUS
 62
     5
 10
208.64613618055719
 20
-18.533570194652381
 30
0.0
 11
208.56437193632561
 21
-18.531039366109329
 31
0.0
  0
LINE
  8
DETAIL
  6
CONTINUOUS
 62
     5
 10
208.56437193632561
 20
-18.531039366109329
 30
0.0
 11
208.48264682626939
 21
-18.52739086115389
 31
0.0
  0
LINE
  8
DETAIL
  6
CONTINUOUS
 62
     5
 10
208.48264682626939
 20
-18.52739086115389
 30
0.0
 11
208.48264682626939
 21
-18.52739086115389
 31
0.0
  0
LINE
  8
DETAIL
  6
CONTINUOUS
 62
     5
 10
208.48264682626939
 20
-18.52739086115389
 30
0.0
 11
208.40098237801109
 21
-18.522773845480291
 31
0.0
  0
LINE
  8
DETAIL
  6
CONTINUOUS
 62
     5
 10
208.40098237801109
 20
-18.522773845480291
 30
0.0
 11
208.3193222130291
 21
-18.51717721146133
 31
0.0
  0
LINE
  8
DETAIL
  6
CONTINUOUS
 62
     5
 10
208.3193222130291
 20
-18.51717721146133
 30
0.0
 11
208.3193222130291
 21
-18.51717721146133
 31
0.0
  0
LINE
  8
DETAIL
  6
CONTINUOUS
 62
     5
 10
208.3193222130291
 20
-18.51717721146133
 30
0.0
 11
208.2376613925509
 21
-18.510569608252581
 31
0.0
  0
LINE
  8
DETAIL
  6
CONTINUOUS
 62
     5
 10
208.2376613925509
 20
-18.510569608252581
 30
0.0
 11
208.15627864295291
 21
-18.502998985470409
 31
0.0
  0
LINE
  8
DETAIL
  6
CONTINUOUS
 62
     5
 10
208.15627864295291
 20
-18.502998985470409
 30
0.0
 11
208.15627864295291
 21
-18.502998985470409
 31
0.0
  0
LINE
  8
DETAIL
  6
CONTINUOUS
 62
     5
 10
208.15627864295291
 20
-18.502998985470409
 30
0.0
 11
208.07525941828609
 21
-18.49449388571702
 31
0.0
  0
LINE
  8
DETAIL
  6
CONTINUOUS
 62
     5
 10
208.07525941828609
 20
-18.49449388571702
 30
0.0
 11
207.9936324181572
 21
-18.48492592307662
 31
0.0
  0
LINE
  8
DETAIL
  6
CONTINUOUS
 62
     5
 10
207.9936324181572
 20
-18.48492592307662
 30
0.0
 11
207.9936324181572
 21
-18.48492592307662
 31
0.0
  0
LINE
  8
DETAIL
  6
CONTINUOUS
 62
     5
 10
207.9936324181572
 20
-18.48492592307662
 30
0.0
 11
207.9105842051093
 21
-18.47418375178222
 31
0.0
  0
LINE
  8
DETAIL
  6
CONTINUOUS
 62
     5
 10
207.9105842051093
 20
-18.47418375178222
 30
0.0
 11
207.82698954787961
 21
-18.46238111518619
 31
0.0
  0
LINE
  8
DETAIL
  6
CONTINUOUS
 62
     5
 10
207.82698954787961
 20
-18.46238111518619
 30
0.0
 11
207.82698954787961
 21
-18.46238111518619
 31
0.0
  0
LINE
  8
DETAIL
  6
CONTINUOUS
 62
     5
 10
207.82698954787961
 20
-18.46238111518619
 30
0.0
 11
207.74384351809991
 21
-18.449649478689711
 31
0.0
  0
LINE
  8
DETAIL
  6
CONTINUOUS
 62
     5
 10
207.74384351809991
 20
-18.449649478689711
 30
0.0
 11
207.66093419278761
 21
-18.435966106771279
 31
0.0
  0
LINE
  8
DETAIL
  6
CONTINUOUS
 62
     5
 10
207.66093419278761
 20
-18.435966106771279
 30
0.0
 11
207.66093419278761
 21
-18.435966106771279
 31
0.0
  0
LINE
  8
DETAIL
  6
CONTINUOUS
 62
     5
 10
207.66093419278761
 20
-18.435966106771279
 30
0.0
 11
207.57796543899639
 21
-18.42131375245685
 31
0.0
  0
LINE
  8
DETAIL
  6
CONTINUOUS
 62
     5
 10
207.57796543899639
 20
-18.42131375245685
 30
0.0
 11
207.4955112785353
 21
-18.405851323876501
 31
0.0
  0
LINE
  8
DETAIL
  6
CONTINUOUS
 62
     5
 10
207.4955112785353
 20
-18.405851323876501
 30
0.0
 11
207.4955112785353
 21
-18.405851323876501
 31
0.0
  0
LINE
  8
DETAIL
  6
CONTINUOUS
 62
     5
 10
207.4955112785353
 20
-18.405851323876501
 30
0.0
 11
207.41379486580081
 21
-18.389644163062261
 31
0.0
  0
LINE
  8
DETAIL
  6
CONTINUOUS
 62
     5
 10
207.41379486580081
 20
-18.389644163062261
 30
0.0
 11
207.3307657307771
 21
-18.372207192545599
 31
0.0
  0
LINE
  8
DETAIL
  6
CONTINUOUS
 62
     5
 10
207.3307657307771
 20
-18.372207192545599
 30
0.0
 11
207.3307657307771
 21
-18.372207192545599
 31
0.0
  0
LINE
  8
DETAIL
  6
CONTINUOUS
 62
     5
 10
207.3307657307771
 20
-18.372207192545599
 30
0.0
 11
207.24586108306821
 21
-18.35342411070587
 31
0.0
  0
LINE
  8
DETAIL
  6
CONTINUOUS
 62
     5
 10
207.24586108306821
 20
-18.35342411070587
 30
0.0
 11
207.1667424751673
 21
-18.335204138823201
 31
0.0
  0
LINE
  8
DETAIL
  6
CONTINUOUS
 62
     5
 10
207.1667424751673
 20
-18.335204138823201
 30
0.0
 11
207.1667424751673
 21
-18.335204138823201
 31
0.0
  0
LINE
  8
DETAIL
  6
CONTINUOUS
 62
     5
 10
207.1667424751673
 20
-18.335204138823201
 30
0.0
 11
207.09988225997949
 21
-18.319195751655801
 31
0.0
  0
LINE
  8
DETAIL
  6
CONTINUOUS
 62
     5
 10
207.09988225997949
 20
-18.319195751655801
 30
0.0
 11
207.03877164917219
 21
-18.303978914987969
 31
0.0
  0
LINE
  8
DETAIL
  6
CONTINUOUS
 62
     5
 10
207.03877164917219
 20
-18.303978914987969
 30
0.0
 11
207.03877164917219
 21
-18.303978914987969
 31
0.0
  0
LINE
  8
DETAIL
  6
CONTINUOUS
 62
     5
 10
207.03877164917219
 20
-18.303978914987969
 30
0.0
 11
206.97571813819181
 21
-18.287830155814849
 31
0.0
  0
LINE
  8
DETAIL
  6
CONTINUOUS
 62
     5
 10
206.97571813819181
 20
-18.287830155814849
 30
0.0
 11
206.91127549883859
 21
-18.270880754958629
 31
0.0
  0
LINE
  8
DETAIL
  6
CONTINUOUS
 62
     5
 10
206.91127549883859
 20
-18.270880754958629
 30
0.0
 11
206.91127549883859
 21
-18.270880754958629
 31
0.0
  0
LINE
  8
DETAIL
  6
CONTINUOUS
 62
     5
 10
206.91127549883859
 20
-18.270880754958629
 30
0.0
 11
206.8475057727012
 21
-18.253604909478781
 31
0.0
  0
LINE
  8
DETAIL
  6
CONTINUOUS
 62
     5
 10
206.8475057727012
 20
-18.253604909478781
 30
0.0
 11
206.7842578041693
 21
-18.235993727560071
 31
0.0
  0
LINE
  8
DETAIL
  6
CONTINUOUS
 62
     5
 10
206.7842578041693
 20
-18.235993727560071
 30
0.0
 11
206.7842578041693
 21
-18.235993727560071
 31
0.0
  0
LINE
  8
DETAIL
  6
CONTINUOUS
 62
     5
 10
206.7842578041693
 20
-18.235993727560071
 30
0.0
 11
206.72097876644389
 21
-18.217936945587098
 31
0.0
  0
LINE
  8
DETAIL
  6
CONTINUOUS
 62
     5
 10
206.72097876644389
 20
-18.217936945587098
 30
0.0
 11
206.657722345167
 21
-18.19940190161401
 31
0.0
  0
LINE
  8
DETAIL
  6
CONTINUOUS
 62
     5
 10
206.657722345167
 20
-18.19940190161401
 30
0.0
 11
206.657722345167
 21
-18.19940190161401
 31
0.0
  0
LINE
  8
DETAIL
  6
CONTINUOUS
 62
     5
 10
206.657722345167
 20
-18.19940190161401
 30
0.0
 11
206.59464064094999
 21
-18.180418504661699
 31
0.0
  0
LINE
  8
DETAIL
  6
CONTINUOUS
 62
     5
 10
206.59464064094999
 20
-18.180418504661699
 30
0.0
 11
206.53167290183421
 21
-18.161189345944649
 31
0.0
  0
LINE
  8
DETAIL
  6
CONTINUOUS
 62
     5
 10
213.8193078317943
 20
-18.535645475314372
 30
0.0
 11
213.7375393750518
 21
-18.534934556947061
 31
0.0
  0
LINE
  8
DETAIL
  6
CONTINUOUS
 62
     5
 10
213.7375393750518
 20
-18.534934556947061
 30
0.0
 11
213.655770049523
 21
-18.533570199385849
 31
0.0
  0
LINE
  8
DETAIL
  6
CONTINUOUS
 62
     5
 10
213.655770049523
 20
-18.533570199385849
 30
0.0
 11
213.655770049523
 21
-18.533570199385849
 31
0.0
  0
LINE
  8
DETAIL
  6
CONTINUOUS
 62
     5
 10
213.655770049523
 20
-18.533570199385849
 30
0.0
 11
213.57400591007681
 21
-18.5310393953805
 31
0.0
  0
LINE
  8
DETAIL
  6
CONTINUOUS
 62
     5
 10
213.57400591007681
 20
-18.5310393953805
 30
0.0
 11
213.49228070620151
 21
-18.527390865449888
 31
0.0
  0
LINE
  8
DETAIL
  6
CONTINUOUS
 62
     5
 10
213.49228070620151
 20
-18.527390865449888
 30
0.0
 11
213.49228070620151
 21
-18.527390865449888
 31
0.0
  0
LINE
  8
DETAIL
  6
CONTINUOUS
 62
     5
 10
213.49228070620151
 20
-18.527390865449888
 30
0.0
 11
213.4106158993136
 21
-18.522773759134221
 31
0.0
  0
LINE
  8
DETAIL
  6
CONTINUOUS
 62
     5
 10
213.4106158993136
 20
-18.522773759134221
 30
0.0
 11
213.3289561039237
 21
-18.517177214282359
 31
0.0
  0
LINE
  8
DETAIL
  6
CONTINUOUS
 62
     5
 10
213.3289561039237
 20
-18.517177214282359
 30
0.0
 11
213.3289561039237
 21
-18.517177214282359
 31
0.0
  0
LINE
  8
DETAIL
  6
CONTINUOUS
 62
     5
 10
213.3289561039237
 20
-18.517177214282359
 30
0.0
 11
213.24729664606721
 21
-18.51056994556825
 31
0.0
  0
LINE
  8
DETAIL
  6
CONTINUOUS
 62
     5
 10
213.24729664606721
 20
-18.51056994556825
 30
0.0
 11
213.1659125447832
 21
-18.502998986657079
 31
0.0
  0
LINE
  8
DETAIL
  6
CONTINUOUS
 62
     5
 10
213.1659125447832
 20
-18.502998986657079
 30
0.0
 11
213.1659125447832
 21
-18.502998986657079
 31
0.0
  0
LINE
  8
DETAIL
  6
CONTINUOUS
 62
     5
 10
213.1659125447832
 20
-18.502998986657079
 30
0.0
 11
213.0848882610845
 21
-18.49449263489419
 31
0.0
  0
LINE
  8
DETAIL
  6
CONTINUOUS
 62
     5
 10
213.0848882610845
 20
-18.49449263489419
 30
0.0
 11
213.00326633087309
 21
-18.484925923350371
 31
0.0
  0
LINE
  8
DETAIL
  6
CONTINUOUS
 62
     5
 10
213.00326633087309
 20
-18.484925923350371
 30
0.0
 11
213.00326633087309
 21
-18.484925923350371
 31
0.0
  0
LINE
  8
DETAIL
  6
CONTINUOUS
 62
     5
 10
213.00326633087309
 20
-18.484925923350371
 30
0.0
 11
212.92023702264621
 21
-18.47418842220122
 31
0.0
  0
LINE
  8
DETAIL
  6
CONTINUOUS
 62
     5
 10
212.92023702264621
 20
-18.47418842220122
 30
0.0
 11
212.83662346039361
 21
-18.462381114316031
 31
0.0
  0
LINE
  8
DETAIL
  6
CONTINUOUS
 62
     5
 10
212.83662346039361
 20
-18.462381114316031
 30
0.0
 11
212.83662346039361
 21
-18.462381114316031
 31
0.0
  0
LINE
  8
DETAIL
  6
CONTINUOUS
 62
     5
 10
212.83662346039361
 20
-18.462381114316031
 30
0.0
 11
212.75340687945851
 21
-18.44963204612441
 31
0.0
  0
LINE
  8
DETAIL
  6
CONTINUOUS
 62
     5
 10
212.75340687945851
 20
-18.44963204612441
 30
0.0
 11
212.67056810510681
 21
-18.43596610560348
 31
0.0
  0
LINE
  8
DETAIL
  6
CONTINUOUS
 62
     5
 10
212.67056810510681
 20
-18.43596610560348
 30
0.0
 11
212.67056810510681
 21
-18.43596610560348
 31
0.0
  0
LINE
  8
DETAIL
  6
CONTINUOUS
 62
     5
 10
212.67056810510681
 20
-18.43596610560348
 30
0.0
 11
212.58786265052709
 21
-18.42137880635914
 31
0.0
  0
LINE
  8
DETAIL
  6
CONTINUOUS
 62
     5
 10
212.58786265052709
 20
-18.42137880635914
 30
0.0
 11
212.50514519067721
 21
-18.40585132296178
 31
0.0
  0
LINE
  8
DETAIL
  6
CONTINUOUS
 62
     5
 10
212.50514519067721
 20
-18.40585132296178
 30
0.0
 11
212.50514519067721
 21
-18.40585132296178
 31
0.0
  0
LINE
  8
DETAIL
  6
CONTINUOUS
 62
     5
 10
212.50514519067721
 20
-18.40585132296178
 30
0.0
 11
212.42244613170811
 21
-18.389401373870669
 31
0.0
  0
LINE
  8
DETAIL
  6
CONTINUOUS
 62
     5
 10
212.42244613170811
 20
-18.389401373870669
 30
0.0
 11
212.34039964277011
 21
-18.372207192142699
 31
0.0
  0
LINE
  8
DETAIL
  6
CONTINUOUS
 62
     5
 10
212.34039964277011
 20
-18.372207192142699
 30
0.0
 11
212.34039964277011
 21
-18.372207192142699
 31
0.0
  0
LINE
  8
DETAIL
  6
CONTINUOUS
 62
     5
 10
212.34039964277011
 20
-18.372207192142699
 30
0.0
 11
212.2591622803217
 21
-18.35433020964479
 31
0.0
  0
LINE
  8
DETAIL
  6
CONTINUOUS
 62
     5
 10
212.2591622803217
 20
-18.35433020964479
 30
0.0
 11
212.1763763870498
 21
-18.335204138895278
 31
0.0
  0
LINE
  8
DETAIL
  6
CONTINUOUS
 62
     5
 10
212.1763763870498
 20
-18.335204138895278
 30
0.0
 11
212.1763763870498
 21
-18.335204138895278
 31
0.0
  0
LINE
  8
DETAIL
  6
CONTINUOUS
 62
     5
 10
212.1763763870498
 20
-18.335204138895278
 30
0.0
 11
212.09005578054141
 21
-18.314343498436759
 31
0.0
  0
LINE
  8
DETAIL
  6
CONTINUOUS
 62
     5
 10
212.09005578054141
 20
-18.314343498436759
 30
0.0
 11
212.00221439176079
 21
-18.292213750275099
 31
0.0
  0
LINE
  8
DETAIL
  6
CONTINUOUS
 62
     5
 10
212.00221439176079
 20
-18.292213750275099
 30
0.0
 11
212.00221439176079
 21
-18.292213750275099
 31
0.0
  0
LINE
  8
DETAIL
  6
CONTINUOUS
 62
     5
 10
212.00221439176079
 20
-18.292213750275099
 30
0.0
 11
211.9152299545382
 21
-18.269373889737839
 31
0.0
  0
LINE
  8
DETAIL
  6
CONTINUOUS
 62
     5
 10
211.9152299545382
 20
-18.269373889737839
 30
0.0
 11
211.82893530079491
 21
-18.245806101979952
 31
0.0
  0
LINE
  8
DETAIL
  6
CONTINUOUS
 62
     5
 10
211.82893530079491
 20
-18.245806101979952
 30
0.0
 11
211.82893530079491
 21
-18.245806101979952
 31
0.0
  0
LINE
  8
DETAIL
  6
CONTINUOUS
 62
     5
 10
211.82893530079491
 20
-18.245806101979952
 30
0.0
 11
211.74269539849919
 21
-18.221392727198459
 31
0.0
  0
LINE
  8
DETAIL
  6
CONTINUOUS
 62
     5
 10
211.74269539849919
 20
-18.221392727198459
 30
0.0
 11
211.65654866171451
 21
-18.196193535919971
 31
0.0
  0
LINE
  8
DETAIL
  6
CONTINUOUS
 62
     5
 10
211.65654866171451
 20
-18.196193535919971
 30
0.0
 11
211.65654866171451
 21
-18.196193535919971
 31
0.0
  0
LINE
  8
DETAIL
  6
CONTINUOUS
 62
     5
 10
211.65654866171451
 20
-18.196193535919971
 30
0.0
 11
211.57066464541001
 21
-18.17027942846698
 31
0.0
  0
LINE
  8
DETAIL
  6
CONTINUOUS
 62
     5
 10
211.57066464541001
 20
-18.17027942846698
 30
0.0
 11
211.4850640220819
 21
-18.143588394003931
 31
0.0
  0
LINE
  8
DETAIL
  6
CONTINUOUS
 62
     5
 10
211.4850640220819
 20
-18.143588394003931
 30
0.0
 11
211.4850640220819
 21
-18.143588394003931
 31
0.0
  0
LINE
  8
DETAIL
  6
CONTINUOUS
 62
     5
 10
211.4850640220819
 20
-18.143588394003931
 30
0.0
 11
211.39971076455731
 21
-18.116113747480771
 31
0.0
  0
LINE
  8
DETAIL
  6
CONTINUOUS
 62
     5
 10
211.39971076455731
 20
-18.116113747480771
 30
0.0
 11
211.31449092945971
 21
-18.088203018141481
 31
0.0
  0
LINE
  8
DETAIL
  6
CONTINUOUS
 62
     5
 10
216.32412484082761
 20
-18.088203018141481
 30
0.0
 11
216.23893176294129
 21
-18.116105148747469
 31
0.0
  0
LINE
  8
DETAIL
  6
CONTINUOUS
 62
     5
 10
216.23893176294129
 20
-18.116105148747469
 30
0.0
 11
216.1536052290617
 21
-18.143571503409699
 31
0.0
  0
LINE
  8
DETAIL
  6
CONTINUOUS
 62
     5
 10
216.1536052290617
 20
-18.143571503409699
 30
0.0
 11
216.1536052290617
 21
-18.143571503409699
 31
0.0
  0
LINE
  8
DETAIL
  6
CONTINUOUS
 62
     5
 10
216.1536052290617
 20
-18.143571503409699
 30
0.0
 11
216.06803137129009
 21
-18.17025477749576
 31
0.0
  0
LINE
  8
DETAIL
  6
CONTINUOUS
 62
     5
 10
216.06803137129009
 20
-18.17025477749576
 30
0.0
 11
215.98217467410609
 21
-18.196161551622939
 31
0.0
  0
LINE
  8
DETAIL
  6
CONTINUOUS
 62
     5
 10
215.98217467410609
 20
-18.196161551622939
 30
0.0
 11
215.98217467410609
 21
-18.196161551622939
 31
0.0
  0
LINE
  8
DETAIL
  6
CONTINUOUS
 62
     5
 10
215.98217467410609
 20
-18.196161551622939
 30
0.0
 11
215.89605591361189
 21
-18.221353779649689
 31
0.0
  0
LINE
  8
DETAIL
  6
CONTINUOUS
 62
     5
 10
215.89605591361189
 20
-18.221353779649689
 30
0.0
 11
215.8098426800274
 21
-18.24576102315223
 31
0.0
  0
LINE
  8
DETAIL
  6
CONTINUOUS
 62
     5
 10
215.8098426800274
 20
-18.24576102315223
 30
0.0
 11
215.8098426800274
 21
-18.24576102315223
 31
0.0
  0
LINE
  8
DETAIL
  6
CONTINUOUS
 62
     5
 10
215.8098426800274
 20
-18.24576102315223
 30
0.0
 11
215.72357286488989
 21
-18.269323666607079
 31
0.0
  0
LINE
  8
DETAIL
  6
CONTINUOUS
 62
     5
 10
215.72357286488989
 20
-18.269323666607079
 30
0.0
 11
215.6366187508921
 21
-18.292157778369301
 31
0.0
  0
LINE
  8
DETAIL
  6
CONTINUOUS
 62
     5
 10
215.6366187508921
 20
-18.292157778369301
 30
0.0
 11
215.6366187508921
 21
-18.292157778369301
 31
0.0
  0
LINE
  8
DETAIL
  6
CONTINUOUS
 62
     5
 10
215.6366187508921
 20
-18.292157778369301
 30
0.0
 11
215.5488151238317
 21
-18.314280761954929
 31
0.0
  0
LINE
  8
DETAIL
  6
CONTINUOUS
 62
     5
 10
215.5488151238317
 20
-18.314280761954929
 30
0.0
 11
215.46251239076631
 21
-18.33513967764566
 31
0.0
  0
LINE
  8
DETAIL
  6
CONTINUOUS
 62
     5
 10
215.46251239076631
 20
-18.33513967764566
 30
0.0
 11
215.46251239076631
 21
-18.33513967764566
 31
0.0
  0
LINE
  8
DETAIL
  6
CONTINUOUS
 62
     5
 10
215.46251239076631
 20
-18.33513967764566
 30
0.0
 11
215.37970136926171
 21
-18.354274042202182
 31
0.0
  0
LINE
  8
DETAIL
  6
CONTINUOUS
 62
     5
 10
215.37970136926171
 20
-18.354274042202182
 30
0.0
 11
215.2984188976537
 21
-18.37216354153497
 31
0.0
  0
LINE
  8
DETAIL
  6
CONTINUOUS
 62
     5
 10
215.2984188976537
 20
-18.37216354153497
 30
0.0
 11
215.2984188976537
 21
-18.37216354153497
 31
0.0
  0
LINE
  8
DETAIL
  6
CONTINUOUS
 62
     5
 10
215.2984188976537
 20
-18.37216354153497
 30
0.0
 11
215.21633449960859
 21
-18.389367769994809
 31
0.0
  0
LINE
  8
DETAIL
  6
CONTINUOUS
 62
     5
 10
215.21633449960859
 20
-18.389367769994809
 30
0.0
 11
215.1336024193445
 21
-18.405825786537889
 31
0.0
  0
LINE
  8
DETAIL
  6
CONTINUOUS
 62
     5
 10
215.1336024193445
 20
-18.405825786537889
 30
0.0
 11
215.1336024193445
 21
-18.405825786537889
 31
0.0
  0
LINE
  8
DETAIL
  6
CONTINUOUS
 62
     5
 10
215.1336024193445
 20
-18.405825786537889
 30
0.0
 11
215.05084946215791
 21
-18.421361126192551
 31
0.0
  0
LINE
  8
DETAIL
  6
CONTINUOUS
 62
     5
 10
215.05084946215791
 20
-18.421361126192551
 30
0.0
 11
214.9681079571094
 21
-18.435955763645101
 31
0.0
  0
LINE
  8
DETAIL
  6
CONTINUOUS
 62
     5
 10
214.9681079571094
 20
-18.435955763645101
 30
0.0
 11
214.9681079571094
 21
-18.435955763645101
 31
0.0
  0
LINE
  8
DETAIL
  6
CONTINUOUS
 62
     5
 10
214.9681079571094
 20
-18.435955763645101
 30
0.0
 11
214.88523491029949
 21
-18.44962797768585
 31
0.0
  0
LINE
  8
DETAIL
  6
CONTINUOUS
 62
     5
 10
214.88523491029949
 20
-18.44962797768585
 30
0.0
 11
214.8019805122203
 21
-18.46238282384525
 31
0.0
  0
LINE
  8
DETAIL
  6
CONTINUOUS
 62
     5
 10
214.8019805122203
 20
-18.46238282384525
 30
0.0
 11
214.8019805122203
 21
-18.46238282384525
 31
0.0
  0
LINE
  8
DETAIL
  6
CONTINUOUS
 62
     5
 10
214.8019805122203
 20
-18.46238282384525
 30
0.0
 11
214.7183236841295
 21
-18.4741956651817
 31
0.0
  0
LINE
  8
DETAIL
  6
CONTINUOUS
 62
     5
 10
214.7183236841295
 20
-18.4741956651817
 30
0.0
 11
214.6352650859487
 21
-18.484936318126302
 31
0.0
  0
LINE
  8
DETAIL
  6
CONTINUOUS
 62
     5
 10
214.6352650859487
 20
-18.484936318126302
 30
0.0
 11
214.6352650859487
 21
-18.484936318126302
 31
0.0
  0
LINE
  8
DETAIL
  6
CONTINUOUS
 62
     5
 10
214.6352650859487
 20
-18.484936318126302
 30
0.0
 11
214.55364438364481
 21
-18.49450208146482
 31
0.0
  0
LINE
  8
DETAIL
  6
CONTINUOUS
 62
     5
 10
214.55364438364481
 20
-18.49450208146482
 30
0.0
 11
214.47263552869941
 21
-18.503005730027098
 31
0.0
  0
LINE
  8
DETAIL
  6
CONTINUOUS
 62
     5
 10
214.47263552869941
 20
-18.503005730027098
 30
0.0
 11
214.47263552869941
 21
-18.503005730027098
 31
0.0
  0
LINE
  8
DETAIL
  6
CONTINUOUS
 62
     5
 10
214.47263552869941
 20
-18.503005730027098
 30
0.0
 11
214.3912617081622
 21
-18.510574882688161
 31
0.0
  0
LINE
  8
DETAIL
  6
CONTINUOUS
 62
     5
 10
214.3912617081622
 20
-18.510574882688161
 30
0.0
 11
214.30960876584189
 21
-18.517181058454071
 31
0.0
  0
LINE
  8
DETAIL
  6
CONTINUOUS
 62
     5
 10
214.30960876584189
 20
-18.517181058454071
 30
0.0
 11
214.30960876584189
 21
-18.517181058454071
 31
0.0
  0
LINE
  8
DETAIL
  6
CONTINUOUS
 62
     5
 10
214.30960876584189
 20
-18.517181058454071
 30
0.0
 11
214.2279568982801
 21
-18.522776519013629
 31
0.0
  0
LINE
  8
DETAIL
  6
CONTINUOUS
 62
     5
 10
214.2279568982801
 20
-18.522776519013629
 30
0.0
 11
214.14630105619381
 21
-18.527392596649179
 31
0.0
  0
LINE
  8
DETAIL
  6
CONTINUOUS
 62
     5
 10
214.14630105619381
 20
-18.527392596649179
 30
0.0
 11
214.14630105619381
 21
-18.527392596649179
 31
0.0
  0
LINE
  8
DETAIL
  6
CONTINUOUS
 62
     5
 10
214.14630105619381
 20
-18.527392596649179
 30
0.0
 11
214.0645844604785
 21
-18.53104034566422
 31
0.0
  0
LINE
  8
DETAIL
  6
CONTINUOUS
 62
     5
 10
214.0645844604785
 20
-18.53104034566422
 30
0.0
 11
213.98282865857209
 21
-18.53357063785506
 31
0.0
  0
LINE
  8
DETAIL
  6
CONTINUOUS
 62
     5
 10
213.98282865857209
 20
-18.53357063785506
 30
0.0
 11
213.98282865857209
 21
-18.53357063785506
 31
0.0
  0
LINE
  8
DETAIL
  6
CONTINUOUS
 62
     5
 10
213.98282865857209
 20
-18.53357063785506
 30
0.0
 11
213.9010677644626
 21
-18.534934714248951
 31
0.0
  0
LINE
  8
DETAIL
  6
CONTINUOUS
 62
     5
 10
213.9010677644626
 20
-18.534934714248951
 30
0.0
 11
213.8193078317943
 21
-18.535645475314372
 31
0.0
  0
LINE
  8
DETAIL
  6
CONTINUOUS
 62
     5
 10
211.31449092945971
 20
-18.088203018141481
 30
0.0
 11
211.2292978515726
 21
-18.11610514874792
 31
0.0
  0
LINE
  8
DETAIL
  6
CONTINUOUS
 62
     5
 10
211.2292978515726
 20
-18.11610514874792
 30
0.0
 11
211.14397131769161
 21
-18.143571503411071
 31
0.0
  0
LINE
  8
DETAIL
  6
CONTINUOUS
 62
     5
 10
211.14397131769161
 20
-18.143571503411071
 30
0.0
 11
211.14397131769161
 21
-18.143571503411071
 31
0.0
  0
LINE
  8
DETAIL
  6
CONTINUOUS
 62
     5
 10
211.14397131769161
 20
-18.143571503411071
 30
0.0
 11
211.05839745991759
 21
-18.170254777500531
 31
0.0
  0
LINE
  8
DETAIL
  6
CONTINUOUS
 62
     5
 10
211.05839745991759
 20
-18.170254777500531
 30
0.0
 11
210.97254076273009
 21
-18.196161551632262
 31
0.0
  0
LINE
  8
DETAIL
  6
CONTINUOUS
 62
     5
 10
210.97254076273009
 20
-18.196161551632262
 30
0.0
 11
210.97254076273009
 21
-18.196161551632262
 31
0.0
  0
LINE
  8
DETAIL
  6
CONTINUOUS
 62
     5
 10
210.97254076273009
 20
-18.196161551632262
 30
0.0
 11
210.88642200223151
 21
-18.22135377966811
 31
0.0
  0
LINE
  8
DETAIL
  6
CONTINUOUS
 62
     5
 10
210.88642200223151
 20
-18.22135377966811
 30
0.0
 11
210.8002087686416
 21
-18.24576102318224
 31
0.0
  0
LINE
  8
DETAIL
  6
CONTINUOUS
 62
     5
 10
210.8002087686416
 20
-18.24576102318224
 30
0.0
 11
210.8002087686416
 21
-18.24576102318224
 31
0.0
  0
LINE
  8
DETAIL
  6
CONTINUOUS
 62
     5
 10
210.8002087686416
 20
-18.24576102318224
 30
0.0
 11
210.71393895349769
 21
-18.269323666653008
 31
0.0
  0
LINE
  8
DETAIL
  6
CONTINUOUS
 62
     5
 10
210.71393895349769
 20
-18.269323666653008
 30
0.0
 11
210.62698483949259
 21
-18.292157778437058
 31
0.0
  0
LINE
  8
DETAIL
  6
CONTINUOUS
 62
     5
 10
210.62698483949259
 20
-18.292157778437058
 30
0.0
 11
210.62698483949259
 21
-18.292157778437058
 31
0.0
  0
LINE
  8
DETAIL
  6
CONTINUOUS
 62
     5
 10
210.62698483949259
 20
-18.292157778437058
 30
0.0
 11
210.5391812124235
 21
-18.314280762050881
 31
0.0
  0
LINE
  8
DETAIL
  6
CONTINUOUS
 62
     5
 10
210.5391812124235
 20
-18.314280762050881
 30
0.0
 11
210.45287847934969
 21
-18.335139677773899
 31
0.0
  0
LINE
  8
DETAIL
  6
CONTINUOUS
 62
     5
 10
210.45287847934969
 20
-18.335139677773899
 30
0.0
 11
210.45287847934969
 21
-18.335139677773899
 31
0.0
  0
LINE
  8
DETAIL
  6
CONTINUOUS
 62
     5
 10
210.45287847934969
 20
-18.335139677773899
 30
0.0
 11
210.37006745784021
 21
-18.3542740423668
 31
0.0
  0
LINE
  8
DETAIL
  6
CONTINUOUS
 62
     5
 10
210.37006745784021
 20
-18.3542740423668
 30
0.0
 11
210.28878498623871
 21
-18.372163541735969
 31
0.0
  0
LINE
  8
DETAIL
  6
CONTINUOUS
 62
     5
 10
210.28878498623871
 20
-18.372163541735969
 30
0.0
 11
210.28878498623871
 21
-18.372163541735969
 31
0.0
  0
LINE
  8
DETAIL
  6
CONTINUOUS
 62
     5
 10
210.28878498623871
 20
-18.372163541735969
 30
0.0
 11
210.20670058821031
 21
-18.389367770230141
 31
0.0
  0
LINE
  8
DETAIL
  6
CONTINUOUS
 62
     5
 10
210.20670058821031
 20
-18.389367770230141
 30
0.0
 11
210.12396850792911
 21
-18.405825786807551
 31
0.0
  0
LINE
  8
DETAIL
  6
CONTINUOUS
 62
     5
 10
210.12396850792911
 20
-18.405825786807551
 30
0.0
 11
210.12396850792911
 21
-18.405825786807551
 31
0.0
  0
LINE
  8
DETAIL
  6
CONTINUOUS
 62
     5
 10
210.12396850792911
 20
-18.405825786807551
 30
0.0
 11
210.0412155506809
 21
-18.421361126490861
 31
0.0
  0
LINE
  8
DETAIL
  6
CONTINUOUS
 62
     5
 10
210.0412155506809
 20
-18.421361126490861
 30
0.0
 11
209.95847404569301
 21
-18.435955763946819
 31
0.0
  0
LINE
  8
DETAIL
  6
CONTINUOUS
 62
     5
 10
209.95847404569301
 20
-18.435955763946819
 30
0.0
 11
209.95847404569301
 21
-18.435955763946819
 31
0.0
  0
LINE
  8
DETAIL
  6
CONTINUOUS
 62
     5
 10
209.95847404569301
 20
-18.435955763946819
 30
0.0
 11
209.87560099910959
 21
-18.449627977956201
 31
0.0
  0
LINE
  8
DETAIL
  6
CONTINUOUS
 62
     5
 10
209.87560099910959
 20
-18.449627977956201
 30
0.0
 11
209.7923466008034
 21
-18.46238282411332
 31
0.0
  0
LINE
  8
DETAIL
  6
CONTINUOUS
 62
     5
 10
209.7923466008034
 20
-18.46238282411332
 30
0.0
 11
209.7923466008034
 21
-18.46238282411332
 31
0.0
  0
LINE
  8
DETAIL
  6
CONTINUOUS
 62
     5
 10
209.7923466008034
 20
-18.46238282411332
 30
0.0
 11
209.70868977186609
 21
-18.474195665490701
 31
0.0
  0
LINE
  8
DETAIL
  6
CONTINUOUS
 62
     5
 10
209.70868977186609
 20
-18.474195665490701
 30
0.0
 11
209.6256311745324
 21
-18.484936318264769
 31
0.0
  0
LINE
  8
DETAIL
  6
CONTINUOUS
 62
     5
 10
209.6256311745324
 20
-18.484936318264769
 30
0.0
 11
209.6256311745324
 21
-18.484936318264769
 31
0.0
  0
LINE
  8
DETAIL
  6
CONTINUOUS
 62
     5
 10
209.6256311745324
 20
-18.484936318264769
 30
0.0
 11
209.54401047672431
 21
-18.494502081017799
 31
0.0
  0
LINE
  8
DETAIL
  6
CONTINUOUS
 62
     5
 10
209.54401047672431
 20
-18.494502081017799
 30
0.0
 11
209.46300162797399
 21
-18.5030057288559
 31
0.0
  0
LINE
  8
DETAIL
  6
CONTINUOUS
 62
     5
 10
209.46300162797399
 20
-18.5030057288559
 30
0.0
 11
209.46300162797399
 21
-18.5030057288559
 31
0.0
  0
LINE
  8
DETAIL
  6
CONTINUOUS
 62
     5
 10
209.46300162797399
 20
-18.5030057288559
 30
0.0
 11
209.38162781302279
 21
-18.510574880963759
 31
0.0
  0
LINE
  8
DETAIL
  6
CONTINUOUS
 62
     5
 10
209.38162781302279
 20
-18.510574880963759
 30
0.0
 11
209.29997487583961
 21
-18.51718105632176
 31
0.0
  0
LINE
  8
DETAIL
  6
CONTINUOUS
 62
     5
 10
209.29997487583961
 20
-18.51718105632176
 30
0.0
 11
209.29997487583961
 21
-18.51718105632176
 31
0.0
  0
LINE
  8
DETAIL
  6
CONTINUOUS
 62
     5
 10
209.29997487583961
 20
-18.51718105632176
 30
0.0
 11
209.21832301357841
 21
-18.522776516530481
 31
0.0
  0
LINE
  8
DETAIL
  6
CONTINUOUS
 62
     5
 10
209.21832301357841
 20
-18.522776516530481
 30
0.0
 11
209.13666717690839
 21
-18.52739259387204
 31
0.0
  0
LINE
  8
DETAIL
  6
CONTINUOUS
 62
     5
 10
209.13666717690839
 20
-18.52739259387204
 30
0.0
 11
209.13666717690839
 21
-18.52739259387204
 31
0.0
  0
LINE
  8
DETAIL
  6
CONTINUOUS
 62
     5
 10
209.13666717690839
 20
-18.52739259387204
 30
0.0
 11
209.0549505865558
 21
-18.531040342668121
 31
0.0
  0
LINE
  8
DETAIL
  6
CONTINUOUS
 62
     5
 10
209.0549505865558
 20
-18.531040342668121
 30
0.0
 11
208.9731947899605
 21
-18.533570634715488
 31
0.0
  0
LINE
  8
DETAIL
  6
CONTINUOUS
 62
     5
 10
208.9731947899605
 20
-18.533570634715488
 30
0.0
 11
208.9731947899605
 21
-18.533570634715488
 31
0.0
  0
LINE
  8
DETAIL
  6
CONTINUOUS
 62
     5
 10
208.9731947899605
 20
-18.533570634715488
 30
0.0
 11
208.8914339011491
 21
-18.53493471103388
 31
0.0
  0
LINE
  8
DETAIL
  6
CONTINUOUS
 62
     5
 10
208.8914339011491
 20
-18.53493471103388
 30
0.0
 11
208.80967397377569
 21
-18.535645472061791
 31
0.0
  0
LINE
  8
DETAIL
  6
CONTINUOUS
 62
     5
 10
-182.6466621160574
 20
-18.535645472061791
 30
0.0
 11
-182.72843057828709
 21
-18.53493455278635
 31
0.0
  0
LINE
  8
DETAIL
  6
CONTINUOUS
 62
     5
 10
-182.72843057828709
 20
-18.53493455278635
 30
0.0
 11
-182.8101999093021
 21
-18.533570194652839
 31
0.0
  0
LINE
  8
DETAIL
  6
CONTINUOUS
 62
     5
 10
-182.8101999093021
 20
-18.533570194652839
 30
0.0
 11
-182.8101999093021
 21
-18.533570194652839
 31
0.0
  0
LINE
  8
DETAIL
  6
CONTINUOUS
 62
     5
 10
-182.8101999093021
 20
-18.533570194652839
 30
0.0
 11
-182.8919640542407
 21
-18.53103939064863
 31
0.0
  0
LINE
  8
DETAIL
  6
CONTINUOUS
 62
     5
 10
-182.8919640542407
 20
-18.53103939064863
 30
0.0
 11
-182.9736892636534
 21
-18.527390861152298
 31
0.0
  0
LINE
  8
DETAIL
  6
CONTINUOUS
 62
     5
 10
-182.9736892636534
 20
-18.527390861152298
 30
0.0
 11
-182.9736892636534
 21
-18.527390861152298
 31
0.0
  0
LINE
  8
DETAIL
  6
CONTINUOUS
 62
     5
 10
-182.9736892636534
 20
-18.527390861152298
 30
0.0
 11
-183.05535407612609
 21
-18.52277375549852
 31
0.0
  0
LINE
  8
DETAIL
  6
CONTINUOUS
 62
     5
 10
-183.05535407612609
 20
-18.52277375549852
 30
0.0
 11
-183.1370138769727
 21
-18.51717721145496
 31
0.0
  0
LINE
  8
DETAIL
  6
CONTINUOUS
 62
     5
 10
-183.1370138769727
 20
-18.51717721145496
 30
0.0
 11
-183.1370138769727
 21
-18.51717721145496
 31
0.0
  0
LINE
  8
DETAIL
  6
CONTINUOUS
 62
     5
 10
-183.1370138769727
 20
-18.51717721145496
 30
0.0
 11
-183.21867334010781
 21
-18.510569943617838
 31
0.0
  0
LINE
  8
DETAIL
  6
CONTINUOUS
 62
     5
 10
-183.21867334010781
 20
-18.510569943617838
 30
0.0
 11
-183.3000574471213
 21
-18.50299898545245
 31
0.0
  0
LINE
  8
DETAIL
  6
CONTINUOUS
 62
     5
 10
-183.3000574471213
 20
-18.50299898545245
 30
0.0
 11
-183.3000574471213
 21
-18.50299898545245
 31
0.0
  0
LINE
  8
DETAIL
  6
CONTINUOUS
 62
     5
 10
-183.3000574471213
 20
-18.50299898545245
 30
0.0
 11
-183.38108173716489
 21
-18.494492634161588
 31
0.0
  0
LINE
  8
DETAIL
  6
CONTINUOUS
 62
     5
 10
-183.38108173716489
 20
-18.494492634161588
 30
0.0
 11
-183.46270367196061
 21
-18.484925923037739
 31
0.0
  0
LINE
  8
DETAIL
  6
CONTINUOUS
 62
     5
 10
-183.46270367196061
 20
-18.484925923037739
 30
0.0
 11
-183.46270367196061
 21
-18.484925923037739
 31
0.0
  0
LINE
  8
DETAIL
  6
CONTINUOUS
 62
     5
 10
-183.46270367196061
 20
-18.484925923037739
 30
0.0
 11
-183.5457329810055
 21
-18.474188422464071
 31
0.0
  0
LINE
  8
DETAIL
  6
CONTINUOUS
 62
     5
 10
-183.5457329810055
 20
-18.474188422464071
 30
0.0
 11
-183.62934654232339
 21
-18.462381115102971
 31
0.0
  0
LINE
  8
DETAIL
  6
CONTINUOUS
 62
     5
 10
-183.62934654232339
 20
-18.462381115102971
 30
0.0
 11
-183.62934654232339
 21
-18.462381115102971
 31
0.0
  0
LINE
  8
DETAIL
  6
CONTINUOUS
 62
     5
 10
-183.62934654232339
 20
-18.462381115102971
 30
0.0
 11
-183.71256312295171
 21
-18.449632047148501
 31
0.0
  0
LINE
  8
DETAIL
  6
CONTINUOUS
 62
     5
 10
-183.71256312295171
 20
-18.449632047148501
 30
0.0
 11
-183.795401897457
 21
-18.435966106635082
 31
0.0
  0
LINE
  8
DETAIL
  6
CONTINUOUS
 62
     5
 10
-183.795401897457
 20
-18.435966106635082
 30
0.0
 11
-183.795401897457
 21
-18.435966106635082
 31
0.0
  0
LINE
  8
DETAIL
  6
CONTINUOUS
 62
     5
 10
-183.795401897457
 20
-18.435966106635082
 30
0.0
 11
-183.87810735201541
 21
-18.42137880728092
 31
0.0
  0
LINE
  8
DETAIL
  6
CONTINUOUS
 62
     5
 10
-183.87810735201541
 20
-18.42137880728092
 30
0.0
 11
-183.9608248117174
 21
-18.40585132368733
 31
0.0
  0
LINE
  8
DETAIL
  6
CONTINUOUS
 62
     5
 10
-183.9608248117174
 20
-18.40585132368733
 30
0.0
 11
-183.9608248117174
 21
-18.40585132368733
 31
0.0
  0
LINE
  8
DETAIL
  6
CONTINUOUS
 62
     5
 10
-183.9608248117174
 20
-18.40585132368733
 30
0.0
 11
-184.0435238705858
 21
-18.389401374331332
 31
0.0
  0
LINE
  8
DETAIL
  6
CONTINUOUS
 62
     5
 10
-184.0435238705858
 20
-18.389401374331332
 30
0.0
 11
-184.1255703594608
 21
-18.372207192309361
 31
0.0
  0
LINE
  8
DETAIL
  6
CONTINUOUS
 62
     5
 10
-184.1255703594608
 20
-18.372207192309361
 30
0.0
 11
-184.1255703594608
 21
-18.372207192309361
 31
0.0
  0
LINE
  8
DETAIL
  6
CONTINUOUS
 62
     5
 10
-184.1255703594608
 20
-18.372207192309361
 30
0.0
 11
-184.2068077218413
 21
-18.354330209533149
 31
0.0
  0
LINE
  8
DETAIL
  6
CONTINUOUS
 62
     5
 10
-184.2068077218413
 20
-18.354330209533149
 30
0.0
 11
-184.2895936150428
 21
-18.335204138555131
 31
0.0
  0
LINE
  8
DETAIL
  6
CONTINUOUS
 62
     5
 10
-184.2895936150428
 20
-18.335204138555131
 30
0.0
 11
-184.2895936150428
 21
-18.335204138555131
 31
0.0
  0
LINE
  8
DETAIL
  6
CONTINUOUS
 62
     5
 10
-184.2895936150428
 20
-18.335204138555131
 30
0.0
 11
-184.3759142214887
 21
-18.314343497946538
 31
0.0
  0
LINE
  8
DETAIL
  6
CONTINUOUS
 62
     5
 10
-184.3759142214887
 20
-18.314343497946538
 30
0.0
 11
-184.46375561021799
 21
-18.292213749713259
 31
0.0
  0
LINE
  8
DETAIL
  6
CONTINUOUS
 62
     5
 10
-184.46375561021799
 20
-18.292213749713259
 30
0.0
 11
-184.46375561021799
 21
-18.292213749713259
 31
0.0
  0
LINE
  8
DETAIL
  6
CONTINUOUS
 62
     5
 10
-184.46375561021799
 20
-18.292213749713259
 30
0.0
 11
-184.55074004740041
 21
-18.269373889175089
 31
0.0
  0
LINE
  8
DETAIL
  6
CONTINUOUS
 62
     5
 10
-184.55074004740041
 20
-18.269373889175089
 30
0.0
 11
-184.63703470111309
 21
-18.245806101470631
 31
0.0
  0
LINE
  8
DETAIL
  6
CONTINUOUS
 62
     5
 10
-184.63703470111309
 20
-18.245806101470631
 30
0.0
 11
-184.63703470111309
 21
-18.245806101470631
 31
0.0
  0
LINE
  8
DETAIL
  6
CONTINUOUS
 62
     5
 10
-184.63703470111309
 20
-18.245806101470631
 30
0.0
 11
-184.7232746033863
 21
-18.22139272677623
 31
0.0
  0
LINE
  8
DETAIL
  6
CONTINUOUS
 62
     5
 10
-184.7232746033863
 20
-18.22139272677623
 30
0.0
 11
-184.80942134015541
 21
-18.196193535607339
 31
0.0
  0
LINE
  8
DETAIL
  6
CONTINUOUS
 62
     5
 10
-184.80942134015541
 20
-18.196193535607339
 30
0.0
 11
-184.80942134015541
 21
-18.196193535607339
 31
0.0
  0
LINE
  8
DETAIL
  6
CONTINUOUS
 62
     5
 10
-184.80942134015541
 20
-18.196193535607339
 30
0.0
 11
-184.89530535644991
 21
-18.170279428269168
 31
0.0
  0
LINE
  8
DETAIL
  6
CONTINUOUS
 62
     5
 10
-184.89530535644991
 20
-18.170279428269168
 30
0.0
 11
-184.9809059797727
 21
-18.14358839390411
 31
0.0
  0
LINE
  8
DETAIL
  6
CONTINUOUS
 62
     5
 10
-184.9809059797727
 20
-18.14358839390411
 30
0.0
 11
-184.9809059797727
 21
-18.14358839390411
 31
0.0
  0
LINE
  8
DETAIL
  6
CONTINUOUS
 62
     5
 10
-184.9809059797727
 20
-18.14358839390411
 30
0.0
 11
-185.0662592372951
 21
-18.11611374744189
 31
0.0
  0
LINE
  8
DETAIL
  6
CONTINUOUS
 62
     5
 10
-185.0662592372951
 20
-18.11611374744189
 30
0.0
 11
-185.15147907239191
 21
-18.088203018141481
 31
0.0
  0
LINE
  8
DETAIL
  6
CONTINUOUS
 62
     5
 10
-177.63702825868941
 20
-18.535645475314372
 30
0.0
 11
-177.7187967154193
 21
-18.534934556947061
 31
0.0
  0
LINE
  8
DETAIL
  6
CONTINUOUS
 62
     5
 10
-177.7187967154193
 20
-18.534934556947061
 30
0.0
 11
-177.8005660409261
 21
-18.533570199385849
 31
0.0
  0
LINE
  8
DETAIL
  6
CONTINUOUS
 62
     5
 10
-177.8005660409261
 20
-18.533570199385849
 30
0.0
 11
-177.8005660409261
 21
-18.533570199385849
 31
0.0
  0
LINE
  8
DETAIL
  6
CONTINUOUS
 62
     5
 10
-177.8005660409261
 20
-18.533570199385849
 30
0.0
 11
-177.88233018033409
 21
-18.5310393953805
 31
0.0
  0
LINE
  8
DETAIL
  6
CONTINUOUS
 62
     5
 10
-177.88233018033409
 20
-18.5310393953805
 30
0.0
 11
-177.9640553841588
 21
-18.527390865449888
 31
0.0
  0
LINE
  8
DETAIL
  6
CONTINUOUS
 62
     5
 10
-177.9640553841588
 20
-18.527390865449888
 30
0.0
 11
-177.9640553841588
 21
-18.527390865449888
 31
0.0
  0
LINE
  8
DETAIL
  6
CONTINUOUS
 62
     5
 10
-177.9640553841588
 20
-18.527390865449888
 30
0.0
 11
-178.04572019098899
 21
-18.522773759134221
 31
0.0
  0
LINE
  8
DETAIL
  6
CONTINUOUS
 62
     5
 10
-178.04572019098899
 20
-18.522773759134221
 30
0.0
 11
-178.1273799863169
 21
-18.517177214282359
 31
0.0
  0
LINE
  8
DETAIL
  6
CONTINUOUS
 62
     5
 10
-178.1273799863169
 20
-18.517177214282359
 30
0.0
 11
-178.1273799863169
 21
-18.517177214282359
 31
0.0
  0
LINE
  8
DETAIL
  6
CONTINUOUS
 62
     5
 10
-178.1273799863169
 20
-18.517177214282359
 30
0.0
 11
-178.20903944410921
 21
-18.51056994556825
 31
0.0
  0
LINE
  8
DETAIL
  6
CONTINUOUS
 62
     5
 10
-178.20903944410921
 20
-18.51056994556825
 30
0.0
 11
-178.29042354532979
 21
-18.502998986657079
 31
0.0
  0
LINE
  8
DETAIL
  6
CONTINUOUS
 62
     5
 10
-178.29042354532979
 20
-18.502998986657079
 30
0.0
 11
-178.29042354532979
 21
-18.502998986657079
 31
0.0
  0
LINE
  8
DETAIL
  6
CONTINUOUS
 62
     5
 10
-178.29042354532979
 20
-18.502998986657079
 30
0.0
 11
-178.3714478289688
 21
-18.49449263489419
 31
0.0
  0
LINE
  8
DETAIL
  6
CONTINUOUS
 62
     5
 10
-178.3714478289688
 20
-18.49449263489419
 30
0.0
 11
-178.453069759127
 21
-18.484925923350371
 31
0.0
  0
LINE
  8
DETAIL
  6
CONTINUOUS
 62
     5
 10
-178.453069759127
 20
-18.484925923350371
 30
0.0
 11
-178.453069759127
 21
-18.484925923350371
 31
0.0
  0
LINE
  8
DETAIL
  6
CONTINUOUS
 62
     5
 10
-178.453069759127
 20
-18.484925923350371
 30
0.0
 11
-178.5360990673091
 21
-18.47418842220122
 31
0.0
  0
LINE
  8
DETAIL
  6
CONTINUOUS
 62
     5
 10
-178.5360990673091
 20
-18.47418842220122
 30
0.0
 11
-178.61971262952639
 21
-18.462381114316031
 31
0.0
  0
LINE
  8
DETAIL
  6
CONTINUOUS
 62
     5
 10
-178.61971262952639
 20
-18.462381114316031
 30
0.0
 11
-178.61971262952639
 21
-18.462381114316031
 31
0.0
  0
LINE
  8
DETAIL
  6
CONTINUOUS
 62
     5
 10
-178.61971262952639
 20
-18.462381114316031
 30
0.0
 11
-178.70292921043591
 21
-18.44963204612441
 31
0.0
  0
LINE
  8
DETAIL
  6
CONTINUOUS
 62
     5
 10
-178.70292921043591
 20
-18.44963204612441
 30
0.0
 11
-178.78576798477221
 21
-18.43596610560348
 31
0.0
  0
LINE
  8
DETAIL
  6
CONTINUOUS
 62
     5
 10
-178.78576798477221
 20
-18.43596610560348
 30
0.0
 11
-178.78576798477221
 21
-18.43596610560348
 31
0.0
  0
LINE
  8
DETAIL
  6
CONTINUOUS
 62
     5
 10
-178.78576798477221
 20
-18.43596610560348
 30
0.0
 11
-178.86847343934591
 21
-18.42137880635914
 31
0.0
  0
LINE
  8
DETAIL
  6
CONTINUOUS
 62
     5
 10
-178.86847343934591
 20
-18.42137880635914
 30
0.0
 11
-178.95119089919939
 21
-18.40585132296178
 31
0.0
  0
LINE
  8
DETAIL
  6
CONTINUOUS
 62
     5
 10
-178.95119089919939
 20
-18.40585132296178
 30
0.0
 11
-178.95119089919939
 21
-18.40585132296178
 31
0.0
  0
LINE
  8
DETAIL
  6
CONTINUOUS
 62
     5
 10
-178.95119089919939
 20
-18.40585132296178
 30
0.0
 11
-179.0338899581821
 21
-18.389401373870669
 31
0.0
  0
LINE
  8
DETAIL
  6
CONTINUOUS
 62
     5
 10
-179.0338899581821
 20
-18.389401373870669
 30
0.0
 11
-179.11593644714239
 21
-18.372207192142699
 31
0.0
  0
LINE
  8
DETAIL
  6
CONTINUOUS
 62
     5
 10
-179.11593644714239
 20
-18.372207192142699
 30
0.0
 11
-179.11593644714239
 21
-18.372207192142699
 31
0.0
  0
LINE
  8
DETAIL
  6
CONTINUOUS
 62
     5
 10
-179.11593644714239
 20
-18.372207192142699
 30
0.0
 11
-179.1971738096218
 21
-18.35433020964479
 31
0.0
  0
LINE
  8
DETAIL
  6
CONTINUOUS
 62
     5
 10
-179.1971738096218
 20
-18.35433020964479
 30
0.0
 11
-179.2799597029356
 21
-18.335204138895278
 31
0.0
  0
LINE
  8
DETAIL
  6
CONTINUOUS
 62
     5
 10
-179.2799597029356
 20
-18.335204138895278
 30
0.0
 11
-179.2799597029356
 21
-18.335204138895278
 31
0.0
  0
LINE
  8
DETAIL
  6
CONTINUOUS
 62
     5
 10
-179.2799597029356
 20
-18.335204138895278
 30
0.0
 11
-179.36628030949689
 21
-18.314343498436759
 31
0.0
  0
LINE
  8
DETAIL
  6
CONTINUOUS
 62
     5
 10
-179.36628030949689
 20
-18.314343498436759
 30
0.0
 11
-179.45412169833881
 21
-18.292213750275099
 31
0.0
  0
LINE
  8
DETAIL
  6
CONTINUOUS
 62
     5
 10
-179.45412169833881
 20
-18.292213750275099
 30
0.0
 11
-179.45412169833881
 21
-18.292213750275099
 31
0.0
  0
LINE
  8
DETAIL
  6
CONTINUOUS
 62
     5
 10
-179.45412169833881
 20
-18.292213750275099
 30
0.0
 11
-179.54110613562671
 21
-18.269373889737839
 31
0.0
  0
LINE
  8
DETAIL
  6
CONTINUOUS
 62
     5
 10
-179.54110613562671
 20
-18.269373889737839
 30
0.0
 11
-179.62740078943619
 21
-18.245806101979952
 31
0.0
  0
LINE
  8
DETAIL
  6
CONTINUOUS
 62
     5
 10
-179.62740078943619
 20
-18.245806101979952
 30
0.0
 11
-179.62740078943619
 21
-18.245806101979952
 31
0.0
  0
LINE
  8
DETAIL
  6
CONTINUOUS
 62
     5
 10
-179.62740078943619
 20
-18.245806101979952
 30
0.0
 11
-179.713640691796
 21
-18.221392727198459
 31
0.0
  0
LINE
  8
DETAIL
  6
CONTINUOUS
 62
     5
 10
-179.713640691796
 20
-18.221392727198459
 30
0.0
 11
-179.79978742864071
 21
-18.196193535919971
 31
0.0
  0
LINE
  8
DETAIL
  6
CONTINUOUS
 62
     5
 10
-179.79978742864071
 20
-18.196193535919971
 30
0.0
 11
-179.79978742864071
 21
-18.196193535919971
 31
0.0
  0
LINE
  8
DETAIL
  6
CONTINUOUS
 62
     5
 10
-179.79978742864071
 20
-18.196193535919971
 30
0.0
 11
-179.88567144499771
 21
-18.17027942846698
 31
0.0
  0
LINE
  8
DETAIL
  6
CONTINUOUS
 62
     5
 10
-179.88567144499771
 20
-18.17027942846698
 30
0.0
 11
-179.97127206836541
 21
-18.143588394003931
 31
0.0
  0
LINE
  8
DETAIL
  6
CONTINUOUS
 62
     5
 10
-179.97127206836541
 20
-18.143588394003931
 30
0.0
 11
-179.97127206836541
 21
-18.143588394003931
 31
0.0
  0
LINE
  8
DETAIL
  6
CONTINUOUS
 62
     5
 10
-179.97127206836541
 20
-18.143588394003931
 30
0.0
 11
-180.05662532591299
 21
-18.116113747480771
 31
0.0
  0
LINE
  8
DETAIL
  6
CONTINUOUS
 62
     5
 10
-180.05662532591299
 20
-18.116113747480771
 30
0.0
 11
-180.14184516102401
 21
-18.088203018141481
 31
0.0
  0
LINE
  8
DETAIL
  6
CONTINUOUS
 62
     5
 10
-175.132211249656
 20
-18.088203018141481
 30
0.0
 11
-175.21740432737329
 21
-18.116105148747469
 31
0.0
  0
LINE
  8
DETAIL
  6
CONTINUOUS
 62
     5
 10
-175.21740432737329
 20
-18.116105148747469
 30
0.0
 11
-175.30273086110449
 21
-18.143571503409699
 31
0.0
  0
LINE
  8
DETAIL
  6
CONTINUOUS
 62
     5
 10
-175.30273086110449
 20
-18.143571503409699
 30
0.0
 11
-175.30273086110449
 21
-18.143571503409699
 31
0.0
  0
LINE
  8
DETAIL
  6
CONTINUOUS
 62
     5
 10
-175.30273086110449
 20
-18.143571503409699
 30
0.0
 11
-175.38830471876409
 21
-18.17025477749576
 31
0.0
  0
LINE
  8
DETAIL
  6
CONTINUOUS
 62
     5
 10
-175.38830471876409
 20
-18.17025477749576
 30
0.0
 11
-175.4741614158676
 21
-18.196161551622939
 31
0.0
  0
LINE
  8
DETAIL
  6
CONTINUOUS
 62
     5
 10
-175.4741614158676
 20
-18.196161551622939
 30
0.0
 11
-175.4741614158676
 21
-18.196161551622939
 31
0.0
  0
LINE
  8
DETAIL
  6
CONTINUOUS
 62
     5
 10
-175.4741614158676
 20
-18.196161551622939
 30
0.0
 11
-175.56028017630291
 21
-18.221353779649689
 31
0.0
  0
LINE
  8
DETAIL
  6
CONTINUOUS
 62
     5
 10
-175.56028017630291
 20
-18.221353779649689
 30
0.0
 11
-175.64649340984721
 21
-18.24576102315223
 31
0.0
  0
LINE
  8
DETAIL
  6
CONTINUOUS
 62
     5
 10
-175.64649340984721
 20
-18.24576102315223
 30
0.0
 11
-175.64649340984721
 21
-18.24576102315223
 31
0.0
  0
LINE
  8
DETAIL
  6
CONTINUOUS
 62
     5
 10
-175.64649340984721
 20
-18.24576102315223
 30
0.0
 11
-175.73276322496059
 21
-18.269323666607079
 31
0.0
  0
LINE
  8
DETAIL
  6
CONTINUOUS
 62
     5
 10
-175.73276322496059
 20
-18.269323666607079
 30
0.0
 11
-175.81971733894611
 21
-18.292157778369301
 31
0.0
  0
LINE
  8
DETAIL
  6
CONTINUOUS
 62
     5
 10
-175.81971733894611
 20
-18.292157778369301
 30
0.0
 11
-175.81971733894611
 21
-18.292157778369301
 31
0.0
  0
LINE
  8
DETAIL
  6
CONTINUOUS
 62
     5
 10
-175.81971733894611
 20
-18.292157778369301
 30
0.0
 11
-175.90752096600201
 21
-18.314280761954929
 31
0.0
  0
LINE
  8
DETAIL
  6
CONTINUOUS
 62
     5
 10
-175.90752096600201
 20
-18.314280761954929
 30
0.0
 11
-175.9938236990667
 21
-18.33513967764566
 31
0.0
  0
LINE
  8
DETAIL
  6
CONTINUOUS
 62
     5
 10
-175.9938236990667
 20
-18.33513967764566
 30
0.0
 11
-175.9938236990667
 21
-18.33513967764566
 31
0.0
  0
LINE
  8
DETAIL
  6
CONTINUOUS
 62
     5
 10
-175.9938236990667
 20
-18.33513967764566
 30
0.0
 11
-176.07663472057129
 21
-18.354274042202182
 31
0.0
  0
LINE
  8
DETAIL
  6
CONTINUOUS
 62
     5
 10
-176.07663472057129
 20
-18.354274042202182
 30
0.0
 11
-176.15791719217941
 21
-18.37216354153497
 31
0.0
  0
LINE
  8
DETAIL
  6
CONTINUOUS
 62
     5
 10
-176.15791719217941
 20
-18.37216354153497
 30
0.0
 11
-176.15791719217941
 21
-18.37216354153497
 31
0.0
  0
LINE
  8
DETAIL
  6
CONTINUOUS
 62
     5
 10
-176.15791719217941
 20
-18.37216354153497
 30
0.0
 11
-176.24000159022441
 21
-18.389367769994809
 31
0.0
  0
LINE
  8
DETAIL
  6
CONTINUOUS
 62
     5
 10
-176.24000159022441
 20
-18.389367769994809
 30
0.0
 11
-176.3227336704887
 21
-18.405825786537889
 31
0.0
  0
LINE
  8
DETAIL
  6
CONTINUOUS
 62
     5
 10
-176.3227336704887
 20
-18.405825786537889
 30
0.0
 11
-176.3227336704887
 21
-18.405825786537889
 31
0.0
  0
LINE
  8
DETAIL
  6
CONTINUOUS
 62
     5
 10
-176.3227336704887
 20
-18.405825786537889
 30
0.0
 11
-176.4054866276754
 21
-18.421361126192551
 31
0.0
  0
LINE
  8
DETAIL
  6
CONTINUOUS
 62
     5
 10
-176.4054866276754
 20
-18.421361126192551
 30
0.0
 11
-176.48822813272369
 21
-18.435955763645101
 31
0.0
  0
LINE
  8
DETAIL
  6
CONTINUOUS
 62
     5
 10
-176.48822813272369
 20
-18.435955763645101
 30
0.0
 11
-176.48822813272369
 21
-18.435955763645101
 31
0.0
  0
LINE
  8
DETAIL
  6
CONTINUOUS
 62
     5
 10
-176.48822813272369
 20
-18.435955763645101
 30
0.0
 11
-176.5711011795338
 21
-18.44962797768585
 31
0.0
  0
LINE
  8
DETAIL
  6
CONTINUOUS
 62
     5
 10
-176.5711011795338
 20
-18.44962797768585
 30
0.0
 11
-176.65435557761271
 21
-18.46238282384525
 31
0.0
  0
LINE
  8
DETAIL
  6
CONTINUOUS
 62
     5
 10
-176.65435557761271
 20
-18.46238282384525
 30
0.0
 11
-176.65435557761271
 21
-18.46238282384525
 31
0.0
  0
LINE
  8
DETAIL
  6
CONTINUOUS
 62
     5
 10
-176.65435557761271
 20
-18.46238282384525
 30
0.0
 11
-176.73801240570361
 21
-18.4741956651817
 31
0.0
  0
LINE
  8
DETAIL
  6
CONTINUOUS
 62
     5
 10
-176.73801240570361
 20
-18.4741956651817
 30
0.0
 11
-176.82107100388441
 21
-18.484936318126302
 31
0.0
  0
LINE
  8
DETAIL
  6
CONTINUOUS
 62
     5
 10
-176.82107100388441
 20
-18.484936318126302
 30
0.0
 11
-176.82107100388441
 21
-18.484936318126302
 31
0.0
  0
LINE
  8
DETAIL
  6
CONTINUOUS
 62
     5
 10
-176.82107100388441
 20
-18.484936318126302
 30
0.0
 11
-176.90269170618899
 21
-18.49450208146482
 31
0.0
  0
LINE
  8
DETAIL
  6
CONTINUOUS
 62
     5
 10
-176.90269170618899
 20
-18.49450208146482
 30
0.0
 11
-176.98370056113899
 21
-18.503005730027098
 31
0.0
  0
LINE
  8
DETAIL
  6
CONTINUOUS
 62
     5
 10
-176.98370056113899
 20
-18.503005730027098
 30
0.0
 11
-176.98370056113899
 21
-18.503005730027098
 31
0.0
  0
LINE
  8
DETAIL
  6
CONTINUOUS
 62
     5
 10
-176.98370056113899
 20
-18.503005730027098
 30
0.0
 11
-177.06507438168831
 21
-18.510574882688161
 31
0.0
  0
LINE
  8
DETAIL
  6
CONTINUOUS
 62
     5
 10
-177.06507438168831
 20
-18.510574882688161
 30
0.0
 11
-177.14672732403261
 21
-18.517181058454071
 31
0.0
  0
LINE
  8
DETAIL
  6
CONTINUOUS
 62
     5
 10
-177.14672732403261
 20
-18.517181058454071
 30
0.0
 11
-177.14672732403261
 21
-18.517181058454071
 31
0.0
  0
LINE
  8
DETAIL
  6
CONTINUOUS
 62
     5
 10
-177.14672732403261
 20
-18.517181058454071
 30
0.0
 11
-177.22837919163459
 21
-18.522776519013629
 31
0.0
  0
LINE
  8
DETAIL
  6
CONTINUOUS
 62
     5
 10
-177.22837919163459
 20
-18.522776519013629
 30
0.0
 11
-177.31003503377991
 21
-18.527392596649179
 31
0.0
  0
LINE
  8
DETAIL
  6
CONTINUOUS
 62
     5
 10
-177.31003503377991
 20
-18.527392596649179
 30
0.0
 11
-177.31003503377991
 21
-18.527392596649179
 31
0.0
  0
LINE
  8
DETAIL
  6
CONTINUOUS
 62
     5
 10
-177.31003503377991
 20
-18.527392596649179
 30
0.0
 11
-177.39175162957591
 21
-18.53104034566422
 31
0.0
  0
LINE
  8
DETAIL
  6
CONTINUOUS
 62
     5
 10
-177.39175162957591
 20
-18.53104034566422
 30
0.0
 11
-177.47350743159399
 21
-18.53357063785506
 31
0.0
  0
LINE
  8
DETAIL
  6
CONTINUOUS
 62
     5
 10
-177.47350743159399
 20
-18.53357063785506
 30
0.0
 11
-177.47350743159399
 21
-18.53357063785506
 31
0.0
  0
LINE
  8
DETAIL
  6
CONTINUOUS
 62
     5
 10
-177.47350743159399
 20
-18.53357063785506
 30
0.0
 11
-177.5552683258519
 21
-18.534934714248951
 31
0.0
  0
LINE
  8
DETAIL
  6
CONTINUOUS
 62
     5
 10
-177.5552683258519
 20
-18.534934714248951
 30
0.0
 11
-177.63702825868941
 21
-18.535645475314372
 31
0.0
  0
LINE
  8
DETAIL
  6
CONTINUOUS
 62
     5
 10
-180.14184516102401
 20
-18.088203018141481
 30
0.0
 11
-180.2270382387419
 21
-18.11610514874792
 31
0.0
  0
LINE
  8
DETAIL
  6
CONTINUOUS
 62
     5
 10
-180.2270382387419
 20
-18.11610514874792
 30
0.0
 11
-180.31236477247461
 21
-18.143571503411071
 31
0.0
  0
LINE
  8
DETAIL
  6
CONTINUOUS
 62
     5
 10
-180.31236477247461
 20
-18.143571503411071
 30
0.0
 11
-180.31236477247461
 21
-18.143571503411071
 31
0.0
  0
LINE
  8
DETAIL
  6
CONTINUOUS
 62
     5
 10
-180.31236477247461
 20
-18.143571503411071
 30
0.0
 11
-180.39793863013639
 21
-18.170254777500531
 31
0.0
  0
LINE
  8
DETAIL
  6
CONTINUOUS
 62
     5
 10
-180.39793863013639
 20
-18.170254777500531
 30
0.0
 11
-180.4837953272436
 21
-18.196161551632262
 31
0.0
  0
LINE
  8
DETAIL
  6
CONTINUOUS
 62
     5
 10
-180.4837953272436
 20
-18.196161551632262
 30
0.0
 11
-180.4837953272436
 21
-18.196161551632262
 31
0.0
  0
LINE
  8
DETAIL
  6
CONTINUOUS
 62
     5
 10
-180.4837953272436
 20
-18.196161551632262
 30
0.0
 11
-180.56991408768349
 21
-18.22135377966811
 31
0.0
  0
LINE
  8
DETAIL
  6
CONTINUOUS
 62
     5
 10
-180.56991408768349
 20
-18.22135377966811
 30
0.0
 11
-180.65612732123321
 21
-18.24576102318224
 31
0.0
  0
LINE
  8
DETAIL
  6
CONTINUOUS
 62
     5
 10
-180.65612732123321
 20
-18.24576102318224
 30
0.0
 11
-180.65612732123321
 21
-18.24576102318224
 31
0.0
  0
LINE
  8
DETAIL
  6
CONTINUOUS
 62
     5
 10
-180.65612732123321
 20
-18.24576102318224
 30
0.0
 11
-180.74239713635271
 21
-18.269323666653008
 31
0.0
  0
LINE
  8
DETAIL
  6
CONTINUOUS
 62
     5
 10
-180.74239713635271
 20
-18.269323666653008
 30
0.0
 11
-180.8293512503457
 21
-18.292157778437058
 31
0.0
  0
LINE
  8
DETAIL
  6
CONTINUOUS
 62
     5
 10
-180.8293512503457
 20
-18.292157778437058
 30
0.0
 11
-180.8293512503457
 21
-18.292157778437058
 31
0.0
  0
LINE
  8
DETAIL
  6
CONTINUOUS
 62
     5
 10
-180.8293512503457
 20
-18.292157778437058
 30
0.0
 11
-180.9171548774103
 21
-18.314280762050881
 31
0.0
  0
LINE
  8
DETAIL
  6
CONTINUOUS
 62
     5
 10
-180.9171548774103
 20
-18.314280762050881
 30
0.0
 11
-181.00345761048331
 21
-18.335139677773899
 31
0.0
  0
LINE
  8
DETAIL
  6
CONTINUOUS
 62
     5
 10
-181.00345761048331
 20
-18.335139677773899
 30
0.0
 11
-181.00345761048331
 21
-18.335139677773899
 31
0.0
  0
LINE
  8
DETAIL
  6
CONTINUOUS
 62
     5
 10
-181.00345761048331
 20
-18.335139677773899
 30
0.0
 11
-181.08626863199319
 21
-18.3542740423668
 31
0.0
  0
LINE
  8
DETAIL
  6
CONTINUOUS
 62
     5
 10
-181.08626863199319
 20
-18.3542740423668
 30
0.0
 11
-181.16755110359551
 21
-18.372163541735969
 31
0.0
  0
LINE
  8
DETAIL
  6
CONTINUOUS
 62
     5
 10
-181.16755110359551
 20
-18.372163541735969
 30
0.0
 11
-181.16755110359551
 21
-18.372163541735969
 31
0.0
  0
LINE
  8
DETAIL
  6
CONTINUOUS
 62
     5
 10
-181.16755110359551
 20
-18.372163541735969
 30
0.0
 11
-181.24963550162721
 21
-18.389367770230141
 31
0.0
  0
LINE
  8
DETAIL
  6
CONTINUOUS
 62
     5
 10
-181.24963550162721
 20
-18.389367770230141
 30
0.0
 11
-181.33236758191461
 21
-18.405825786807551
 31
0.0
  0
LINE
  8
DETAIL
  6
CONTINUOUS
 62
     5
 10
-181.33236758191461
 20
-18.405825786807551
 30
0.0
 11
-181.33236758191461
 21
-18.405825786807551
 31
0.0
  0
LINE
  8
DETAIL
  6
CONTINUOUS
 62
     5
 10
-181.33236758191461
 20
-18.405825786807551
 30
0.0
 11
-181.4151205391729
 21
-18.421361126490861
 31
0.0
  0
LINE
  8
DETAIL
  6
CONTINUOUS
 62
     5
 10
-181.4151205391729
 20
-18.421361126490861
 30
0.0
 11
-181.49786204417589
 21
-18.435955763946819
 31
0.0
  0
LINE
  8
DETAIL
  6
CONTINUOUS
 62
     5
 10
-181.49786204417589
 20
-18.435955763946819
 30
0.0
 11
-181.49786204417589
 21
-18.435955763946819
 31
0.0
  0
LINE
  8
DETAIL
  6
CONTINUOUS
 62
     5
 10
-181.49786204417589
 20
-18.435955763946819
 30
0.0
 11
-181.58073509078079
 21
-18.449627977956201
 31
0.0
  0
LINE
  8
DETAIL
  6
CONTINUOUS
 62
     5
 10
-181.58073509078079
 20
-18.449627977956201
 30
0.0
 11
-181.6639894891151
 21
-18.46238282411332
 31
0.0
  0
LINE
  8
DETAIL
  6
CONTINUOUS
 62
     5
 10
-181.6639894891151
 20
-18.46238282411332
 30
0.0
 11
-181.6639894891151
 21
-18.46238282411332
 31
0.0
  0
LINE
  8
DETAIL
  6
CONTINUOUS
 62
     5
 10
-181.6639894891151
 20
-18.46238282411332
 30
0.0
 11
-181.74764631808901
 21
-18.474195665490701
 31
0.0
  0
LINE
  8
DETAIL
  6
CONTINUOUS
 62
     5
 10
-181.74764631808901
 20
-18.474195665490701
 30
0.0
 11
-181.83070491546781
 21
-18.484936318264769
 31
0.0
  0
LINE
  8
DETAIL
  6
CONTINUOUS
 62
     5
 10
-181.83070491546781
 20
-18.484936318264769
 30
0.0
 11
-181.83070491546781
 21
-18.484936318264769
 31
0.0
  0
LINE
  8
DETAIL
  6
CONTINUOUS
 62
     5
 10
-181.83070491546781
 20
-18.484936318264769
 30
0.0
 11
-181.91232561332859
 21
-18.494502081017799
 31
0.0
  0
LINE
  8
DETAIL
  6
CONTINUOUS
 62
     5
 10
-181.91232561332859
 20
-18.494502081017799
 30
0.0
 11
-181.99333446213379
 21
-18.5030057288559
 31
0.0
  0
LINE
  8
DETAIL
  6
CONTINUOUS
 62
     5
 10
-181.99333446213379
 20
-18.5030057288559
 30
0.0
 11
-181.99333446213379
 21
-18.5030057288559
 31
0.0
  0
LINE
  8
DETAIL
  6
CONTINUOUS
 62
     5
 10
-181.99333446213379
 20
-18.5030057288559
 30
0.0
 11
-182.0747082771363
 21
-18.510574880963759
 31
0.0
  0
LINE
  8
DETAIL
  6
CONTINUOUS
 62
     5
 10
-182.0747082771363
 20
-18.510574880963759
 30
0.0
 11
-182.15636121435941
 21
-18.51718105632176
 31
0.0
  0
LINE
  8
DETAIL
  6
CONTINUOUS
 62
     5
 10
-182.15636121435941
 20
-18.51718105632176
 30
0.0
 11
-182.15636121435941
 21
-18.51718105632176
 31
0.0
  0
LINE
  8
DETAIL
  6
CONTINUOUS
 62
     5
 10
-182.15636121435941
 20
-18.51718105632176
 30
0.0
 11
-182.23801307664249
 21
-18.522776516530481
 31
0.0
  0
LINE
  8
DETAIL
  6
CONTINUOUS
 62
     5
 10
-182.23801307664249
 20
-18.522776516530481
 30
0.0
 11
-182.3196689133114
 21
-18.52739259387204
 31
0.0
  0
LINE
  8
DETAIL
  6
CONTINUOUS
 62
     5
 10
-182.3196689133114
 20
-18.52739259387204
 30
0.0
 11
-182.3196689133114
 21
-18.52739259387204
 31
0.0
  0
LINE
  8
DETAIL
  6
CONTINUOUS
 62
     5
 10
-182.3196689133114
 20
-18.52739259387204
 30
0.0
 11
-182.40138550363389
 21
-18.531040342668121
 31
0.0
  0
LINE
  8
DETAIL
  6
CONTINUOUS
 62
     5
 10
-182.40138550363389
 20
-18.531040342668121
 30
0.0
 11
-182.48314130015521
 21
-18.533570634715488
 31
0.0
  0
LINE
  8
DETAIL
  6
CONTINUOUS
 62
     5
 10
-182.48314130015521
 20
-18.533570634715488
 30
0.0
 11
-182.48314130015521
 21
-18.533570634715488
 31
0.0
  0
LINE
  8
DETAIL
  6
CONTINUOUS
 62
     5
 10
-182.48314130015521
 20
-18.533570634715488
 30
0.0
 11
-182.56490218884051
 21
-18.53493471103388
 31
0.0
  0
LINE
  8
DETAIL
  6
CONTINUOUS
 62
     5
 10
-182.56490218884051
 20
-18.53493471103388
 30
0.0
 11
-182.6466621160574
 21
-18.535645472061791
 31
0.0
  0
LINE
  8
DETAIL
  6
CONTINUOUS
 62
     5
 10
-81.156069364161908
 20
-240.77918719390411
 30
0.0
 11
-81.156061668134726
 21
-240.809977606709
 31
0.0
  0
LINE
  8
DETAIL
  6
CONTINUOUS
 62
     5
 10
-81.156061668134726
 20
-240.809977606709
 30
0.0
 11
-81.156043042788269
 21
-240.84075916472111
 31
0.0
  0
LINE
  8
DETAIL
  6
CONTINUOUS
 62
     5
 10
-81.156043042788269
 20
-240.84075916472111
 30
0.0
 11
-81.156043042788269
 21
-240.84075916472111
 31
0.0
  0
LINE
  8
DETAIL
  6
CONTINUOUS
 62
     5
 10
-81.156043042788269
 20
-240.84075916472111
 30
0.0
 11
-81.1560038039446
 21
-240.87153135090821
 31
0.0
  0
LINE
  8
DETAIL
  6
CONTINUOUS
 62
     5
 10
-81.1560038039446
 20
-240.87153135090821
 30
0.0
 11
-81.155939247992649
 21
-240.9023269992858
 31
0.0
  0
LINE
  8
DETAIL
  6
CONTINUOUS
 62
     5
 10
-81.155939247992649
 20
-240.9023269992858
 30
0.0
 11
-81.155939247992649
 21
-240.9023269992858
 31
0.0
  0
LINE
  8
DETAIL
  6
CONTINUOUS
 62
     5
 10
-81.155939247992649
 20
-240.9023269992858
 30
0.0
 11
-81.155845964322566
 21
-240.93315518332761
 31
0.0
  0
LINE
  8
DETAIL
  6
CONTINUOUS
 62
     5
 10
-81.155845964322566
 20
-240.93315518332761
 30
0.0
 11
-81.155720733763587
 21
-240.96389658329139
 31
0.0
  0
LINE
  8
DETAIL
  6
CONTINUOUS
 62
     5
 10
-81.155720733763587
 20
-240.96389658329139
 30
0.0
 11
-81.155720733763587
 21
-240.96389658329139
 31
0.0
  0
LINE
  8
DETAIL
  6
CONTINUOUS
 62
     5
 10
-81.155720733763587
 20
-240.96389658329139
 30
0.0
 11
-81.155558948424186
 21
-240.99451983658591
 31
0.0
  0
LINE
  8
DETAIL
  6
CONTINUOUS
 62
     5
 10
-81.155558948424186
 20
-240.99451983658591
 30
0.0
 11
-81.155350254089512
 21
-241.02547380243109
 31
0.0
  0
LINE
  8
DETAIL
  6
CONTINUOUS
 62
     5
 10
-81.155350254089512
 20
-241.02547380243109
 30
0.0
 11
-81.155350254089512
 21
-241.02547380243109
 31
0.0
  0
LINE
  8
DETAIL
  6
CONTINUOUS
 62
     5
 10
-81.155350254089512
 20
-241.02547380243109
 30
0.0
 11
-81.155088558427224
 21
-241.05687927199239
 31
0.0
  0
LINE
  8
DETAIL
  6
CONTINUOUS
 62
     5
 10
-81.155088558427224
 20
-241.05687927199239
 30
0.0
 11
-81.154790562958681
 21
-241.08706454239871
 31
0.0
  0
LINE
  8
DETAIL
  6
CONTINUOUS
 62
     5
 10
-81.154790562958681
 20
-241.08706454239871
 30
0.0
 11
-81.154790562958681
 21
-241.08706454239871
 31
0.0
  0
LINE
  8
DETAIL
  6
CONTINUOUS
 62
     5
 10
-81.154790562958681
 20
-241.08706454239871
 30
0.0
 11
-81.154471599623491
 21
-241.11461428359871
 31
0.0
  0
LINE
  8
DETAIL
  6
CONTINUOUS
 62
     5
 10
-81.154471599623491
 20
-241.11461428359871
 30
0.0
 11
-81.154118728183676
 21
-241.1409311508539
 31
0.0
  0
LINE
  8
DETAIL
  6
CONTINUOUS
 62
     5
 10
-81.154118728183676
 20
-241.1409311508539
 30
0.0
 11
-81.154118728183676
 21
-241.1409311508539
 31
0.0
  0
LINE
  8
DETAIL
  6
CONTINUOUS
 62
     5
 10
-81.154118728183676
 20
-241.1409311508539
 30
0.0
 11
-81.153715531977696
 21
-241.1676849624109
 31
0.0
  0
LINE
  8
DETAIL
  6
CONTINUOUS
 62
     5
 10
-81.153715531977696
 20
-241.1676849624109
 30
0.0
 11
-81.153259960828791
 21
-241.19479620314209
 31
0.0
  0
LINE
  8
DETAIL
  6
CONTINUOUS
 62
     5
 10
-81.153259960828791
 20
-241.19479620314209
 30
0.0
 11
-81.153259960828791
 21
-241.19479620314209
 31
0.0
  0
LINE
  8
DETAIL
  6
CONTINUOUS
 62
     5
 10
-81.153259960828791
 20
-241.19479620314209
 30
0.0
 11
-81.152753882240233
 21
-241.2218254905101
 31
0.0
  0
LINE
  8
DETAIL
  6
CONTINUOUS
 62
     5
 10
-81.152753882240233
 20
-241.2218254905101
 30
0.0
 11
-81.15220046794991
 21
-241.24864330570651
 31
0.0
  0
LINE
  8
DETAIL
  6
CONTINUOUS
 62
     5
 10
-81.15220046794991
 20
-241.24864330570651
 30
0.0
 11
-81.15220046794991
 21
-241.24864330570651
 31
0.0
  0
LINE
  8
DETAIL
  6
CONTINUOUS
 62
     5
 10
-81.15220046794991
 20
-241.24864330570651
 30
0.0
 11
-81.151598319898312
 21
-241.27532506546871
 31
0.0
  0
LINE
  8
DETAIL
  6
CONTINUOUS
 62
     5
 10
-81.151598319898312
 20
-241.27532506546871
 30
0.0
 11
-81.150926456602747
 21
-241.30245606499031
 31
0.0
  0
LINE
  8
DETAIL
  6
CONTINUOUS
 62
     5
 10
-81.150926456602747
 20
-241.30245606499031
 30
0.0
 11
-81.150926456602747
 21
-241.30245606499031
 31
0.0
  0
LINE
  8
DETAIL
  6
CONTINUOUS
 62
     5
 10
-81.150926456602747
 20
-241.30245606499031
 30
0.0
 11
-81.15017825808934
 21
-241.3301617246901
 31
0.0
  0
LINE
  8
DETAIL
  6
CONTINUOUS
 62
     5
 10
-81.15017825808934
 20
-241.3301617246901
 30
0.0
 11
-81.149424133843127
 21
-241.35621808743639
 31
0.0
  0
LINE
  8
DETAIL
  6
CONTINUOUS
 62
     5
 10
-81.149424133843127
 20
-241.35621808743639
 30
0.0
 11
-81.149424133843127
 21
-241.35621808743639
 31
0.0
  0
LINE
  8
DETAIL
  6
CONTINUOUS
 62
     5
 10
-81.149424133843127
 20
-241.35621808743639
 30
0.0
 11
-81.148722906465878
 21
-241.37875128989739
 31
0.0
  0
LINE
  8
DETAIL
  6
CONTINUOUS
 62
     5
 10
-81.148722906465878
 20
-241.37875128989739
 30
0.0
 11
-81.148010021567529
 21
-241.3996372214921
 31
0.0
  0
LINE
  8
DETAIL
  6
CONTINUOUS
 62
     5
 10
-81.148010021567529
 20
-241.3996372214921
 30
0.0
 11
-81.148010021567529
 21
-241.3996372214921
 31
0.0
  0
LINE
  8
DETAIL
  6
CONTINUOUS
 62
     5
 10
-81.148010021567529
 20
-241.3996372214921
 30
0.0
 11
-81.147205420118894
 21
-241.42110480515731
 31
0.0
  0
LINE
  8
DETAIL
  6
CONTINUOUS
 62
     5
 10
-81.147205420118894
 20
-241.42110480515731
 30
0.0
 11
-81.146290401526358
 21
-241.44304534514851
 31
0.0
  0
LINE
  8
DETAIL
  6
CONTINUOUS
 62
     5
 10
-81.146290401526358
 20
-241.44304534514851
 30
0.0
 11
-81.146290401526358
 21
-241.44304534514851
 31
0.0
  0
LINE
  8
DETAIL
  6
CONTINUOUS
 62
     5
 10
-81.146290401526358
 20
-241.44304534514851
 30
0.0
 11
-81.145261893508518
 21
-241.46487854412271
 31
0.0
  0
LINE
  8
DETAIL
  6
CONTINUOUS
 62
     5
 10
-81.145261893508518
 20
-241.46487854412271
 30
0.0
 11
-81.144117978597478
 21
-241.48647531701511
 31
0.0
  0
LINE
  8
DETAIL
  6
CONTINUOUS
 62
     5
 10
-81.144117978597478
 20
-241.48647531701511
 30
0.0
 11
-81.144117978597478
 21
-241.48647531701511
 31
0.0
  0
LINE
  8
DETAIL
  6
CONTINUOUS
 62
     5
 10
-81.144117978597478
 20
-241.48647531701511
 30
0.0
 11
-81.142840533606147
 21
-241.50795257422311
 31
0.0
  0
LINE
  8
DETAIL
  6
CONTINUOUS
 62
     5
 10
-81.142840533606147
 20
-241.50795257422311
 30
0.0
 11
-81.141345457658758
 21
-241.52995999569711
 31
0.0
  0
LINE
  8
DETAIL
  6
CONTINUOUS
 62
     5
 10
-81.141345457658758
 20
-241.52995999569711
 30
0.0
 11
-81.141345457658758
 21
-241.52995999569711
 31
0.0
  0
LINE
  8
DETAIL
  6
CONTINUOUS
 62
     5
 10
-81.141345457658758
 20
-241.52995999569711
 30
0.0
 11
-81.139597844442733
 21
-241.5526348811504
 31
0.0
  0
LINE
  8
DETAIL
  6
CONTINUOUS
 62
     5
 10
-81.139597844442733
 20
-241.5526348811504
 30
0.0
 11
-81.137825543588178
 21
-241.57353223980209
 31
0.0
  0
LINE
  8
DETAIL
  6
CONTINUOUS
 62
     5
 10
-81.137825543588178
 20
-241.57353223980209
 30
0.0
 11
-81.137825543588178
 21
-241.57353223980209
 31
0.0
  0
LINE
  8
DETAIL
  6
CONTINUOUS
 62
     5
 10
-81.137825543588178
 20
-241.57353223980209
 30
0.0
 11
-81.136233165821068
 21
-241.590588379986
 31
0.0
  0
LINE
  8
DETAIL
  6
CONTINUOUS
 62
     5
 10
-81.136233165821068
 20
-241.590588379986
 30
0.0
 11
-81.134669610310084
 21
-241.60584709699859
 31
0.0
  0
LINE
  8
DETAIL
  6
CONTINUOUS
 62
     5
 10
-81.134669610310084
 20
-241.60584709699859
 30
0.0
 11
-81.134669610310084
 21
-241.60584709699859
 31
0.0
  0
LINE
  8
DETAIL
  6
CONTINUOUS
 62
     5
 10
-81.134669610310084
 20
-241.60584709699859
 30
0.0
 11
-81.132945481079901
 21
-241.62173623348639
 31
0.0
  0
LINE
  8
DETAIL
  6
CONTINUOUS
 62
     5
 10
-81.132945481079901
 20
-241.62173623348639
 30
0.0
 11
-81.131073913138152
 21
-241.63811233454109
 31
0.0
  0
LINE
  8
DETAIL
  6
CONTINUOUS
 62
     5
 10
-81.131073913138152
 20
-241.63811233454109
 30
0.0
 11
-81.131073913138152
 21
-241.63811233454109
 31
0.0
  0
LINE
  8
DETAIL
  6
CONTINUOUS
 62
     5
 10
-81.131073913138152
 20
-241.63811233454109
 30
0.0
 11
-81.129111875265778
 21
-241.65431812152789
 31
0.0
  0
LINE
  8
DETAIL
  6
CONTINUOUS
 62
     5
 10
-81.129111875265778
 20
-241.65431812152789
 30
0.0
 11
-81.127089140355338
 21
-241.6702123184657
 31
0.0
  0
LINE
  8
DETAIL
  6
CONTINUOUS
 62
     5
 10
-81.127089140355338
 20
-241.6702123184657
 30
0.0
 11
-81.127089140355338
 21
-241.6702123184657
 31
0.0
  0
LINE
  8
DETAIL
  6
CONTINUOUS
 62
     5
 10
-81.127089140355338
 20
-241.6702123184657
 30
0.0
 11
-81.125005245469652
 21
-241.6859094717727
 31
0.0
  0
LINE
  8
DETAIL
  6
CONTINUOUS
 62
     5
 10
-81.125005245469652
 20
-241.6859094717727
 30
0.0
 11
-81.122765980244367
 21
-241.7020314148086
 31
0.0
  0
LINE
  8
DETAIL
  6
CONTINUOUS
 62
     5
 10
-81.122765980244367
 20
-241.7020314148086
 30
0.0
 11
-81.122765980244367
 21
-241.7020314148086
 31
0.0
  0
LINE
  8
DETAIL
  6
CONTINUOUS
 62
     5
 10
-81.122765980244367
 20
-241.7020314148086
 30
0.0
 11
-81.120354243857946
 21
-241.7186905150636
 31
0.0
  0
LINE
  8
DETAIL
  6
CONTINUOUS
 62
     5
 10
-81.120354243857946
 20
-241.7186905150636
 30
0.0
 11
-81.118155121088762
 21
-241.7334539896066
 31
0.0
  0
LINE
  8
DETAIL
  6
CONTINUOUS
 62
     5
 10
-81.118155121088762
 20
-241.7334539896066
 30
0.0
 11
-81.118155121088762
 21
-241.7334539896066
 31
0.0
  0
LINE
  8
DETAIL
  6
CONTINUOUS
 62
     5
 10
-81.118155121088762
 20
-241.7334539896066
 30
0.0
 11
-81.116484405720712
 21
-241.74428501582781
 31
0.0
  0
LINE
  8
DETAIL
  6
CONTINUOUS
 62
     5
 10
-81.116484405720712
 20
-241.74428501582781
 30
0.0
 11
-81.114978541960681
 21
-241.75327576282589
 31
0.0
  0
LINE
  8
DETAIL
  6
CONTINUOUS
 62
     5
 10
-81.114978541960681
 20
-241.75327576282589
 30
0.0
 11
-81.114978541960681
 21
-241.75327576282589
 31
0.0
  0
LINE
  8
DETAIL
  6
CONTINUOUS
 62
     5
 10
-81.114978541960681
 20
-241.75327576282589
 30
0.0
 11
-81.11319901027997
 21
-241.76289263246611
 31
0.0
  0
LINE
  8
DETAIL
  6
CONTINUOUS
 62
     5
 10
-81.11319901027997
 20
-241.76289263246611
 30
0.0
 11
-81.111086785788984
 21
-241.7729699659719
 31
0.0
  0
LINE
  8
DETAIL
  6
CONTINUOUS
 62
     5
 10
-81.111086785788984
 20
-241.7729699659719
 30
0.0
 11
-81.111086785788984
 21
-241.7729699659719
 31
0.0
  0
LINE
  8
DETAIL
  6
CONTINUOUS
 62
     5
 10
-81.111086785788984
 20
-241.7729699659719
 30
0.0
 11
-81.108659423787117
 21
-241.78285990288381
 31
0.0
  0
LINE
  8
DETAIL
  6
CONTINUOUS
 62
     5
 10
-81.108659423787117
 20
-241.78285990288381
 30
0.0
 11
-81.105861305693793
 21
-241.7926178366636
 31
0.0
  0
LINE
  8
DETAIL
  6
CONTINUOUS
 62
     5
 10
-81.105861305693793
 20
-241.7926178366636
 30
0.0
 11
-81.105861305693793
 21
-241.7926178366636
 31
0.0
  0
LINE
  8
DETAIL
  6
CONTINUOUS
 62
     5
 10
-81.105861305693793
 20
-241.7926178366636
 30
0.0
 11
-81.102596819678752
 21
-241.80242973549261
 31
0.0
  0
LINE
  8
DETAIL
  6
CONTINUOUS
 62
     5
 10
-81.102596819678752
 20
-241.80242973549261
 30
0.0
 11
-81.098683554794889
 21
-241.81230061252151
 31
0.0
  0
LINE
  8
DETAIL
  6
CONTINUOUS
 62
     5
 10
-81.098683554794889
 20
-241.81230061252151
 30
0.0
 11
-81.098683554794889
 21
-241.81230061252151
 31
0.0
  0
LINE
  8
DETAIL
  6
CONTINUOUS
 62
     5
 10
-81.098683554794889
 20
-241.81230061252151
 30
0.0
 11
-81.094022492902582
 21
-241.82219538369571
 31
0.0
  0
LINE
  8
DETAIL
  6
CONTINUOUS
 62
     5
 10
-81.094022492902582
 20
-241.82219538369571
 30
0.0
 11
-81.08893498621228
 21
-241.83209953116639
 31
0.0
  0
LINE
  8
DETAIL
  6
CONTINUOUS
 62
     5
 10
-81.08893498621228
 20
-241.83209953116639
 30
0.0
 11
-81.087363211243257
 21
-241.834807537042
 31
0.0
  0
LINE
  8
DETAIL
  6
CONTINUOUS
 62
     5
 10
-81.087363211243257
 20
-241.834807537042
 30
0.0
 11
-81.085752903539401
 21
-241.83750146210801
 31
0.0
  0
LINE
  8
DETAIL
  6
CONTINUOUS
 62
     5
 10
-81.085752903539401
 20
-241.83750146210801
 30
0.0
 11
-81.085752903539401
 21
-241.83750146210801
 31
0.0
  0
LINE
  8
DETAIL
  6
CONTINUOUS
 62
     5
 10
-81.085752903539401
 20
-241.83750146210801
 30
0.0
 11
-81.084073288410991
 21
-241.84016634186369
 31
0.0
  0
LINE
  8
DETAIL
  6
CONTINUOUS
 62
     5
 10
-81.084073288410991
 20
-241.84016634186369
 30
0.0
 11
-81.082324623347517
 21
-241.84278367704999
 31
0.0
  0
LINE
  8
DETAIL
  6
CONTINUOUS
 62
     5
 10
-81.082324623347517
 20
-241.84278367704999
 30
0.0
 11
-81.082324623347517
 21
-241.84278367704999
 31
0.0
  0
LINE
  8
DETAIL
  6
CONTINUOUS
 62
     5
 10
-81.082324623347517
 20
-241.84278367704999
 30
0.0
 11
-81.080513480117645
 21
-241.84533578833211
 31
0.0
  0
LINE
  8
DETAIL
  6
CONTINUOUS
 62
     5
 10
-81.080513480117645
 20
-241.84533578833211
 30
0.0
 11
-81.078640655427535
 21
-241.84781181083429
 31
0.0
  0
LINE
  8
DETAIL
  6
CONTINUOUS
 62
     5
 10
-81.078640655427535
 20
-241.84781181083429
 30
0.0
 11
-81.078640655427535
 21
-241.84781181083429
 31
0.0
  0
LINE
  8
DETAIL
  6
CONTINUOUS
 62
     5
 10
-81.078640655427535
 20
-241.84781181083429
 30
0.0
 11
-81.076703519235309
 21
-241.85019665252631
 31
0.0
  0
LINE
  8
DETAIL
  6
CONTINUOUS
 62
     5
 10
-81.076703519235309
 20
-241.85019665252631
 30
0.0
 11
-81.074691509570812
 21
-241.85245149830189
 31
0.0
  0
LINE
  8
DETAIL
  6
CONTINUOUS
 62
     5
 10
-81.074691509570812
 20
-241.85245149830189
 30
0.0
 11
-81.074691509570812
 21
-241.85245149830189
 31
0.0
  0
LINE
  8
DETAIL
  6
CONTINUOUS
 62
     5
 10
-81.074691509570812
 20
-241.85245149830189
 30
0.0
 11
-81.072601457175779
 21
-241.85455362174741
 31
0.0
  0
LINE
  8
DETAIL
  6
CONTINUOUS
 62
     5
 10
-81.072601457175779
 20
-241.85455362174741
 30
0.0
 11
-81.070467695568482
 21
-241.8565683742961
 31
0.0
  0
LINE
  8
DETAIL
  6
CONTINUOUS
 62
     5
 10
81.050137412506501
 20
-241.8651252408475
 30
0.0
 11
81.055051153163163
 21
-241.86446053839759
 31
0.0
  0
LINE
  8
DETAIL
  6
CONTINUOUS
 62
     5
 10
81.055051153163163
 20
-241.86446053839759
 30
0.0
 11
81.05980203980846
 21
-241.86326656551029
 31
0.0
  0
LINE
  8
DETAIL
  6
CONTINUOUS
 62
     5
 10
81.05980203980846
 20
-241.86326656551029
 30
0.0
 11
81.05980203980846
 21
-241.86326656551029
 31
0.0
  0
LINE
  8
DETAIL
  6
CONTINUOUS
 62
     5
 10
81.05980203980846
 20
-241.86326656551029
 30
0.0
 11
81.064263831591006
 21
-241.86114589528461
 31
0.0
  0
LINE
  8
DETAIL
  6
CONTINUOUS
 62
     5
 10
81.064263831591006
 20
-241.86114589528461
 30
0.0
 11
81.068456740298984
 21
-241.85822847496601
 31
0.0
  0
LINE
  8
DETAIL
  6
CONTINUOUS
 62
     5
 10
81.068456740298984
 20
-241.85822847496601
 30
0.0
 11
81.068456740298984
 21
-241.85822847496601
 31
0.0
  0
LINE
  8
DETAIL
  6
CONTINUOUS
 62
     5
 10
81.068456740298984
 20
-241.85822847496601
 30
0.0
 11
81.072424503900265
 21
-241.85474701099159
 31
0.0
  0
LINE
  8
DETAIL
  6
CONTINUOUS
 62
     5
 10
81.072424503900265
 20
-241.85474701099159
 30
0.0
 11
81.076158512442589
 21
-241.85081787241629
 31
0.0
  0
LINE
  8
DETAIL
  6
CONTINUOUS
 62
     5
 10
81.076158512442589
 20
-241.85081787241629
 30
0.0
 11
81.076158512442589
 21
-241.85081787241629
 31
0.0
  0
LINE
  8
DETAIL
  6
CONTINUOUS
 62
     5
 10
81.076158512442589
 20
-241.85081787241629
 30
0.0
 11
81.079652803753561
 21
-241.8465128377953
 31
0.0
  0
LINE
  8
DETAIL
  6
CONTINUOUS
 62
     5
 10
81.079652803753561
 20
-241.8465128377953
 30
0.0
 11
81.082964354704018
 21
-241.84184166106189
 31
0.0
  0
LINE
  8
DETAIL
  6
CONTINUOUS
 62
     5
 10
81.082964354704018
 20
-241.84184166106189
 30
0.0
 11
81.082964354704018
 21
-241.84184166106189
 31
0.0
  0
LINE
  8
DETAIL
  6
CONTINUOUS
 62
     5
 10
81.082964354704018
 20
-241.84184166106189
 30
0.0
 11
81.086116024862235
 21
-241.83688969896079
 31
0.0
  0
LINE
  8
DETAIL
  6
CONTINUOUS
 62
     5
 10
81.086116024862235
 20
-241.83688969896079
 30
0.0
 11
81.088931265547785
 21
-241.8321067441052
 31
0.0
  0
LINE
  8
DETAIL
  6
CONTINUOUS
 62
     5
 10
81.088931265547785
 20
-241.8321067441052
 30
0.0
 11
81.088931265547785
 21
-241.8321067441052
 31
0.0
  0
LINE
  8
DETAIL
  6
CONTINUOUS
 62
     5
 10
81.088931265547785
 20
-241.8321067441052
 30
0.0
 11
81.091267403570782
 21
-241.82786930637289
 31
0.0
  0
LINE
  8
DETAIL
  6
CONTINUOUS
 62
     5
 10
81.091267403570782
 20
-241.82786930637289
 30
0.0
 11
81.09331667595518
 21
-241.8238963288405
 31
0.0
  0
LINE
  8
DETAIL
  6
CONTINUOUS
 62
     5
 10
81.09331667595518
 20
-241.8238963288405
 30
0.0
 11
81.09331667595518
 21
-241.8238963288405
 31
0.0
  0
LINE
  8
DETAIL
  6
CONTINUOUS
 62
     5
 10
81.09331667595518
 20
-241.8238963288405
 30
0.0
 11
81.095297732597487
 21
-241.8198363462534
 31
0.0
  0
LINE
  8
DETAIL
  6
CONTINUOUS
 62
     5
 10
81.095297732597487
 20
-241.8198363462534
 30
0.0
 11
81.09719996467345
 21
-241.8157138268258
 31
0.0
  0
LINE
  8
DETAIL
  6
CONTINUOUS
 62
     5
 10
81.09719996467345
 20
-241.8157138268258
 30
0.0
 11
81.09719996467345
 21
-241.8157138268258
 31
0.0
  0
LINE
  8
DETAIL
  6
CONTINUOUS
 62
     5
 10
81.09719996467345
 20
-241.8157138268258
 30
0.0
 11
81.098971530689823
 21
-241.8116220369325
 31
0.0
  0
LINE
  8
DETAIL
  6
CONTINUOUS
 62
     5
 10
81.098971530689823
 20
-241.8116220369325
 30
0.0
 11
81.100624917201571
 21
-241.80755350211359
 31
0.0
  0
LINE
  8
DETAIL
  6
CONTINUOUS
 62
     5
 10
81.100624917201571
 20
-241.80755350211359
 30
0.0
 11
81.100624917201571
 21
-241.80755350211359
 31
0.0
  0
LINE
  8
DETAIL
  6
CONTINUOUS
 62
     5
 10
81.100624917201571
 20
-241.80755350211359
 30
0.0
 11
81.102181679407863
 21
-241.8034823201651
 31
0.0
  0
LINE
  8
DETAIL
  6
CONTINUOUS
 62
     5
 10
81.102181679407863
 20
-241.8034823201651
 30
0.0
 11
81.103635319038744
 21
-241.79940961875661
 31
0.0
  0
LINE
  8
DETAIL
  6
CONTINUOUS
 62
     5
 10
81.103635319038744
 20
-241.79940961875661
 30
0.0
 11
81.103635319038744
 21
-241.79940961875661
 31
0.0
  0
LINE
  8
DETAIL
  6
CONTINUOUS
 62
     5
 10
81.103635319038744
 20
-241.79940961875661
 30
0.0
 11
81.104984295914392
 21
-241.79534143836281
 31
0.0
  0
LINE
  8
DETAIL
  6
CONTINUOUS
 62
     5
 10
81.104984295914392
 20
-241.79534143836281
 30
0.0
 11
81.106274955683944
 21
-241.79127644080759
 31
0.0
  0
LINE
  8
DETAIL
  6
CONTINUOUS
 62
     5
 10
81.106274955683944
 20
-241.79127644080759
 30
0.0
 11
81.107914447210987
 21
-241.78552306568059
 31
0.0
  0
LINE
  8
DETAIL
  6
CONTINUOUS
 62
     5
 10
81.107914447210987
 20
-241.78552306568059
 30
0.0
 11
81.109468320329938
 21
-241.7797489074301
 31
0.0
  0
LINE
  8
DETAIL
  6
CONTINUOUS
 62
     5
 10
81.109468320329938
 20
-241.7797489074301
 30
0.0
 11
81.109468320329938
 21
-241.7797489074301
 31
0.0
  0
LINE
  8
DETAIL
  6
CONTINUOUS
 62
     5
 10
81.109468320329938
 20
-241.7797489074301
 30
0.0
 11
81.11086997825214
 21
-241.77395317023371
 31
0.0
  0
LINE
  8
DETAIL
  6
CONTINUOUS
 62
     5
 10
81.11086997825214
 20
-241.77395317023371
 30
0.0
 11
81.112128910669071
 21
-241.7682150074755
 31
0.0
  0
LINE
  8
DETAIL
  6
CONTINUOUS
 62
     5
 10
81.112128910669071
 20
-241.7682150074755
 30
0.0
 11
81.112128910669071
 21
-241.7682150074755
 31
0.0
  0
LINE
  8
DETAIL
  6
CONTINUOUS
 62
     5
 10
81.112128910669071
 20
-241.7682150074755
 30
0.0
 11
81.113279751842583
 21
-241.76255236119249
 31
0.0
  0
LINE
  8
DETAIL
  6
CONTINUOUS
 62
     5
 10
81.113279751842583
 20
-241.76255236119249
 30
0.0
 11
81.114381627838497
 21
-241.75665837882681
 31
0.0
  0
LINE
  8
DETAIL
  6
CONTINUOUS
 62
     5
 10
81.114381627838497
 20
-241.75665837882681
 30
0.0
 11
81.114381627838497
 21
-241.75665837882681
 31
0.0
  0
LINE
  8
DETAIL
  6
CONTINUOUS
 62
     5
 10
81.114381627838497
 20
-241.75665837882681
 30
0.0
 11
81.115456274249937
 21
-241.75044981646519
 31
0.0
  0
LINE
  8
DETAIL
  6
CONTINUOUS
 62
     5
 10
81.115456274249937
 20
-241.75044981646519
 30
0.0
 11
81.116351372975714
 21
-241.74506265936469
 31
0.0
  0
LINE
  8
DETAIL
  6
CONTINUOUS
 62
     5
 10
81.116351372975714
 20
-241.74506265936469
 30
0.0
 11
81.116351372975714
 21
-241.74506265936469
 31
0.0
  0
LINE
  8
DETAIL
  6
CONTINUOUS
 62
     5
 10
81.116351372975714
 20
-241.74506265936469
 30
0.0
 11
81.117039023234383
 21
-241.74079966955421
 31
0.0
  0
LINE
  8
DETAIL
  6
CONTINUOUS
 62
     5
 10
81.117039023234383
 20
-241.74079966955421
 30
0.0
 11
81.118163047217308
 21
-241.7334114869717
 31
0.0
  0
LINE
  8
DETAIL
  6
CONTINUOUS
 62
     5
 10
81.118163047217308
 20
-241.7334114869717
 30
0.0
 11
81.118163047217308
 21
-241.7334114869717
 31
0.0
  0
LINE
  8
DETAIL
  6
CONTINUOUS
 62
     5
 10
81.118163047217308
 20
-241.7334114869717
 30
0.0
 11
81.120260878819295
 21
-241.7192950224846
 31
0.0
  0
LINE
  8
DETAIL
  6
CONTINUOUS
 62
     5
 10
81.120260878819295
 20
-241.7192950224846
 30
0.0
 11
81.122772675776105
 21
-241.7019843927641
 31
0.0
  0
LINE
  8
DETAIL
  6
CONTINUOUS
 62
     5
 10
81.122772675776105
 20
-241.7019843927641
 30
0.0
 11
81.122772675776105
 21
-241.7019843927641
 31
0.0
  0
LINE
  8
DETAIL
  6
CONTINUOUS
 62
     5
 10
81.122772675776105
 20
-241.7019843927641
 30
0.0
 11
81.12503847371147
 21
-241.6856863644642
 31
0.0
  0
LINE
  8
DETAIL
  6
CONTINUOUS
 62
     5
 10
81.12503847371147
 20
-241.6856863644642
 30
0.0
 11
81.127095095960271
 21
-241.6701610983645
 31
0.0
  0
LINE
  8
DETAIL
  6
CONTINUOUS
 62
     5
 10
81.127095095960271
 20
-241.6701610983645
 30
0.0
 11
81.127095095960271
 21
-241.6701610983645
 31
0.0
  0
LINE
  8
DETAIL
  6
CONTINUOUS
 62
     5
 10
81.127095095960271
 20
-241.6701610983645
 30
0.0
 11
81.12911038361608
 21
-241.65431138560501
 31
0.0
  0
LINE
  8
DETAIL
  6
CONTINUOUS
 62
     5
 10
81.12911038361608
 20
-241.65431138560501
 30
0.0
 11
81.131079461096078
 21
-241.6380571446384
 31
0.0
  0
LINE
  8
DETAIL
  6
CONTINUOUS
 62
     5
 10
81.131079461096078
 20
-241.6380571446384
 30
0.0
 11
81.131079461096078
 21
-241.6380571446384
 31
0.0
  0
LINE
  8
DETAIL
  6
CONTINUOUS
 62
     5
 10
81.131079461096078
 20
-241.6380571446384
 30
0.0
 11
81.132952793396953
 21
-241.62166709990109
 31
0.0
  0
LINE
  8
DETAIL
  6
CONTINUOUS
 62
     5
 10
81.132952793396953
 20
-241.62166709990109
 30
0.0
 11
81.134674924510136
 21
-241.60578807245159
 31
0.0
  0
LINE
  8
DETAIL
  6
CONTINUOUS
 62
     5
 10
81.134674924510136
 20
-241.60578807245159
 30
0.0
 11
81.134674924510136
 21
-241.60578807245159
 31
0.0
  0
LINE
  8
DETAIL
  6
CONTINUOUS
 62
     5
 10
81.134674924510136
 20
-241.60578807245159
 30
0.0
 11
81.136238018350468
 21
-241.59052902905441
 31
0.0
  0
LINE
  8
DETAIL
  6
CONTINUOUS
 62
     5
 10
81.136238018350468
 20
-241.59052902905441
 30
0.0
 11
81.137830639529056
 21
-241.57346942267151
 31
0.0
  0
LINE
  8
DETAIL
  6
CONTINUOUS
 62
     5
 10
81.137830639529056
 20
-241.57346942267151
 30
0.0
 11
81.137830639529056
 21
-241.57346942267151
 31
0.0
  0
LINE
  8
DETAIL
  6
CONTINUOUS
 62
     5
 10
81.137830639529056
 20
-241.57346942267151
 30
0.0
 11
81.139602110727424
 21
-241.5525786916921
 31
0.0
  0
LINE
  8
DETAIL
  6
CONTINUOUS
 62
     5
 10
81.139602110727424
 20
-241.5525786916921
 30
0.0
 11
81.141348386210211
 21
-241.52991573002419
 31
0.0
  0
LINE
  8
DETAIL
  6
CONTINUOUS
 62
     5
 10
81.141348386210211
 20
-241.52991573002419
 30
0.0
 11
81.141348386210211
 21
-241.52991573002419
 31
0.0
  0
LINE
  8
DETAIL
  6
CONTINUOUS
 62
     5
 10
81.141348386210211
 20
-241.52991573002419
 30
0.0
 11
81.142842520327463
 21
-241.50791820702759
 31
0.0
  0
LINE
  8
DETAIL
  6
CONTINUOUS
 62
     5
 10
81.142842520327463
 20
-241.50791820702759
 30
0.0
 11
81.144119336186577
 21
-241.48644943835819
 31
0.0
  0
LINE
  8
DETAIL
  6
CONTINUOUS
 62
     5
 10
81.144119336186577
 20
-241.48644943835819
 30
0.0
 11
81.144119336186577
 21
-241.48644943835819
 31
0.0
  0
LINE
  8
DETAIL
  6
CONTINUOUS
 62
     5
 10
81.144119336186577
 20
-241.48644943835819
 30
0.0
 11
81.145262673048592
 21
-241.46486173574479
 31
0.0
  0
LINE
  8
DETAIL
  6
CONTINUOUS
 62
     5
 10
81.145262673048592
 20
-241.46486173574479
 30
0.0
 11
81.146290666032769
 21
-241.44303774890921
 31
0.0
  0
LINE
  8
DETAIL
  6
CONTINUOUS
 62
     5
 10
81.146290666032769
 20
-241.44303774890921
 30
0.0
 11
81.146290666032769
 21
-241.44303774890921
 31
0.0
  0
LINE
  8
DETAIL
  6
CONTINUOUS
 62
     5
 10
81.146290666032769
 20
-241.44303774890921
 30
0.0
 11
81.147205286175677
 21
-241.4211059625051
 31
0.0
  0
LINE
  8
DETAIL
  6
CONTINUOUS
 62
     5
 10
81.147205286175677
 20
-241.4211059625051
 30
0.0
 11
81.148009552323288
 21
-241.39964786291279
 31
0.0
  0
LINE
  8
DETAIL
  6
CONTINUOUS
 62
     5
 10
81.148009552323288
 20
-241.39964786291279
 30
0.0
 11
81.148009552323288
 21
-241.39964786291279
 31
0.0
  0
LINE
  8
DETAIL
  6
CONTINUOUS
 62
     5
 10
81.148009552323288
 20
-241.39964786291279
 30
0.0
 11
81.148722123499965
 21
-241.3787726007188
 31
0.0
  0
LINE
  8
DETAIL
  6
CONTINUOUS
 62
     5
 10
81.148722123499965
 20
-241.3787726007188
 30
0.0
 11
81.149423171632407
 21
-241.35624698160581
 31
0.0
  0
LINE
  8
DETAIL
  6
CONTINUOUS
 62
     5
 10
81.149423171632407
 20
-241.35624698160581
 30
0.0
 11
81.149423171632407
 21
-241.35624698160581
 31
0.0
  0
LINE
  8
DETAIL
  6
CONTINUOUS
 62
     5
 10
81.149423171632407
 20
-241.35624698160581
 30
0.0
 11
81.150177346408782
 21
-241.33019147491149
 31
0.0
  0
LINE
  8
DETAIL
  6
CONTINUOUS
 62
     5
 10
81.150177346408782
 20
-241.33019147491149
 30
0.0
 11
81.150925695657179
 21
-241.30248354950311
 31
0.0
  0
LINE
  8
DETAIL
  6
CONTINUOUS
 62
     5
 10
81.150925695657179
 20
-241.30248354950311
 30
0.0
 11
81.150925695657179
 21
-241.30248354950311
 31
0.0
  0
LINE
  8
DETAIL
  6
CONTINUOUS
 62
     5
 10
81.150925695657179
 20
-241.30248354950311
 30
0.0
 11
81.151597663377402
 21
-241.27535143707391
 31
0.0
  0
LINE
  8
DETAIL
  6
CONTINUOUS
 62
     5
 10
81.151597663377402
 20
-241.27535143707391
 30
0.0
 11
81.152199880113699
 21
-241.24866942110239
 31
0.0
  0
LINE
  8
DETAIL
  6
CONTINUOUS
 62
     5
 10
81.152199880113699
 20
-241.24866942110239
 30
0.0
 11
81.152199880113699
 21
-241.24866942110239
 31
0.0
  0
LINE
  8
DETAIL
  6
CONTINUOUS
 62
     5
 10
81.152199880113699
 20
-241.24866942110239
 30
0.0
 11
81.152753366804973
 21
-241.22185106196699
 31
0.0
  0
LINE
  8
DETAIL
  6
CONTINUOUS
 62
     5
 10
81.152753366804973
 20
-241.22185106196699
 30
0.0
 11
81.153259519422136
 21
-241.1948209758641
 31
0.0
  0
LINE
  8
DETAIL
  6
CONTINUOUS
 62
     5
 10
81.153259519422136
 20
-241.1948209758641
 30
0.0
 11
81.153259519422136
 21
-241.1948209758641
 31
0.0
  0
LINE
  8
DETAIL
  6
CONTINUOUS
 62
     5
 10
81.153259519422136
 20
-241.1948209758641
 30
0.0
 11
81.153715156026124
 21
-241.16770897418061
 31
0.0
  0
LINE
  8
DETAIL
  6
CONTINUOUS
 62
     5
 10
81.153715156026124
 20
-241.16770897418061
 30
0.0
 11
81.154118408003342
 21
-241.14095459324881
 31
0.0
  0
LINE
  8
DETAIL
  6
CONTINUOUS
 62
     5
 10
81.154118408003342
 20
-241.14095459324881
 30
0.0
 11
81.154118408003342
 21
-241.14095459324881
 31
0.0
  0
LINE
  8
DETAIL
  6
CONTINUOUS
 62
     5
 10
81.154118408003342
 20
-241.14095459324881
 30
0.0
 11
81.154471327987835
 21
-241.11463731173669
 31
0.0
  0
LINE
  8
DETAIL
  6
CONTINUOUS
 62
     5
 10
81.154471327987835
 20
-241.11463731173669
 30
0.0
 11
81.154790340277259
 21
-241.08708665271661
 31
0.0
  0
LINE
  8
DETAIL
  6
CONTINUOUS
 62
     5
 10
81.154790340277259
 20
-241.08708665271661
 30
0.0
 11
81.154790340277259
 21
-241.08708665271661
 31
0.0
  0
LINE
  8
DETAIL
  6
CONTINUOUS
 62
     5
 10
81.154790340277259
 20
-241.08708665271661
 30
0.0
 11
81.155088390442074
 21
-241.056899421254
 31
0.0
  0
LINE
  8
DETAIL
  6
CONTINUOUS
 62
     5
 10
81.155088390442074
 20
-241.056899421254
 30
0.0
 11
81.155350137478763
 21
-241.02549150598381
 31
0.0
  0
LINE
  8
DETAIL
  6
CONTINUOUS
 62
     5
 10
81.155350137478763
 20
-241.02549150598381
 30
0.0
 11
81.155350137478763
 21
-241.02549150598381
 31
0.0
  0
LINE
  8
DETAIL
  6
CONTINUOUS
 62
     5
 10
81.155350137478763
 20
-241.02549150598381
 30
0.0
 11
81.155558870136133
 21
-240.99453526701669
 31
0.0
  0
LINE
  8
DETAIL
  6
CONTINUOUS
 62
     5
 10
81.155558870136133
 20
-240.99453526701669
 30
0.0
 11
81.155720682741958
 21
-240.9639098667939
 31
0.0
  0
LINE
  8
DETAIL
  6
CONTINUOUS
 62
     5
 10
81.155720682741958
 20
-240.9639098667939
 30
0.0
 11
81.155720682741958
 21
-240.9639098667939
 31
0.0
  0
LINE
  8
DETAIL
  6
CONTINUOUS
 62
     5
 10
81.155720682741958
 20
-240.9639098667939
 30
0.0
 11
81.155845933657133
 21
-240.9331662708918
 31
0.0
  0
LINE
  8
DETAIL
  6
CONTINUOUS
 62
     5
 10
81.155845933657133
 20
-240.9331662708918
 30
0.0
 11
81.155939231792672
 21
-240.90233585508921
 31
0.0
  0
LINE
  8
DETAIL
  6
CONTINUOUS
 62
     5
 10
81.155939231792672
 20
-240.90233585508921
 30
0.0
 11
81.155939231792672
 21
-240.90233585508921
 31
0.0
  0
LINE
  8
DETAIL
  6
CONTINUOUS
 62
     5
 10
81.155939231792672
 20
-240.90233585508921
 30
0.0
 11
81.156003796751975
 21
-240.87153798692901
 31
0.0
  0
LINE
  8
DETAIL
  6
CONTINUOUS
 62
     5
 10
81.156003796751975
 20
-240.87153798692901
 30
0.0
 11
81.15604304035719
 21
-240.84076359081169
 31
0.0
  0
LINE
  8
DETAIL
  6
CONTINUOUS
 62
     5
 10
81.15604304035719
 20
-240.84076359081169
 30
0.0
 11
81.15604304035719
 21
-240.84076359081169
 31
0.0
  0
LINE
  8
DETAIL
  6
CONTINUOUS
 62
     5
 10
81.15604304035719
 20
-240.84076359081169
 30
0.0
 11
81.156061667628819
 21
-240.80997982094371
 31
0.0
  0
LINE
  8
DETAIL
  6
CONTINUOUS
 62
     5
 10
81.156061667628819
 20
-240.80997982094371
 30
0.0
 11
81.156069364161795
 21
-240.77918719390411
 31
0.0
  0
LINE
  8
DETAIL
  6
CONTINUOUS
 62
     5
 10
-203.34421218136779
 20
-136.2620423892098
 30
0.0
 11
-203.34286087011299
 21
-136.7968033417616
 31
0.0
  0
LINE
  8
DETAIL
  6
CONTINUOUS
 62
     5
 10
69.624061918324401
 20
-228.0079064106296
 30
0.0
 11
69.593596535956863
 21
-227.94668187693719
 31
0.0
  0
LINE
  8
DETAIL
  6
CONTINUOUS
 62
     5
 10
69.593596535956863
 20
-227.94668187693719
 30
0.0
 11
69.562603464225958
 21
-227.8857163472172
 31
0.0
  0
LINE
  8
DETAIL
  6
CONTINUOUS
 62
     5
 10
69.562603464225958
 20
-227.8857163472172
 30
0.0
 11
69.562603464225958
 21
-227.8857163472172
 31
0.0
  0
LINE
  8
DETAIL
  6
CONTINUOUS
 62
     5
 10
69.562603464225958
 20
-227.8857163472172
 30
0.0
 11
69.530668390887854
 21
-227.82521763832301
 31
0.0
  0
LINE
  8
DETAIL
  6
CONTINUOUS
 62
     5
 10
69.530668390887854
 20
-227.82521763832301
 30
0.0
 11
69.497830512175824
 21
-227.7651888186293
 31
0.0
  0
LINE
  8
DETAIL
  6
CONTINUOUS
 62
     5
 10
69.497830512175824
 20
-227.7651888186293
 30
0.0
 11
69.497830512175824
 21
-227.7651888186293
 31
0.0
  0
LINE
  8
DETAIL
  6
CONTINUOUS
 62
     5
 10
69.497830512175824
 20
-227.7651888186293
 30
0.0
 11
69.464209714265735
 21
-227.70559214160389
 31
0.0
  0
LINE
  8
DETAIL
  6
CONTINUOUS
 62
     5
 10
69.464209714265735
 20
-227.70559214160389
 30
0.0
 11
69.429795134624783
 21
-227.64643134956481
 31
0.0
  0
LINE
  8
DETAIL
  6
CONTINUOUS
 62
     5
 10
69.429795134624783
 20
-227.64643134956481
 30
0.0
 11
69.429795134624783
 21
-227.64643134956481
 31
0.0
  0
LINE
  8
DETAIL
  6
CONTINUOUS
 62
     5
 10
69.429795134624783
 20
-227.64643134956481
 30
0.0
 11
69.394560595132134
 21
-227.58773025531249
 31
0.0
  0
LINE
  8
DETAIL
  6
CONTINUOUS
 62
     5
 10
69.394560595132134
 20
-227.58773025531249
 30
0.0
 11
69.358549404023279
 21
-227.5295514647228
 31
0.0
  0
LINE
  8
DETAIL
  6
CONTINUOUS
 62
     5
 10
69.358549404023279
 20
-227.5295514647228
 30
0.0
 11
69.358549404023279
 21
-227.5295514647228
 31
0.0
  0
LINE
  8
DETAIL
  6
CONTINUOUS
 62
     5
 10
69.358549404023279
 20
-227.5295514647228
 30
0.0
 11
69.321785441943803
 21
-227.47191811665201
 31
0.0
  0
LINE
  8
DETAIL
  6
CONTINUOUS
 62
     5
 10
69.321785441943803
 20
-227.47191811665201
 30
0.0
 11
69.284145392822211
 21
-227.41465668880389
 31
0.0
  0
LINE
  8
DETAIL
  6
CONTINUOUS
 62
     5
 10
69.284145392822211
 20
-227.41465668880389
 30
0.0
 11
69.284145392822211
 21
-227.41465668880389
 31
0.0
  0
LINE
  8
DETAIL
  6
CONTINUOUS
 62
     5
 10
69.284145392822211
 20
-227.41465668880389
 30
0.0
 11
69.245523157608204
 21
-227.35762371068381
 31
0.0
  0
LINE
  8
DETAIL
  6
CONTINUOUS
 62
     5
 10
69.245523157608204
 20
-227.35762371068381
 30
0.0
 11
69.206028702049139
 21
-227.3009925801492
 31
0.0
  0
LINE
  8
DETAIL
  6
CONTINUOUS
 62
     5
 10
69.206028702049139
 20
-227.3009925801492
 30
0.0
 11
69.206028702049139
 21
-227.3009925801492
 31
0.0
  0
LINE
  8
DETAIL
  6
CONTINUOUS
 62
     5
 10
69.206028702049139
 20
-227.3009925801492
 30
0.0
 11
69.165792881068228
 21
-227.24496479582129
 31
0.0
  0
LINE
  8
DETAIL
  6
CONTINUOUS
 62
     5
 10
69.165792881068228
 20
-227.24496479582129
 30
0.0
 11
69.124814041493664
 21
-227.18953739101599
 31
0.0
  0
LINE
  8
DETAIL
  6
CONTINUOUS
 62
     5
 10
69.124814041493664
 20
-227.18953739101599
 30
0.0
 11
69.124814041493664
 21
-227.18953739101599
 31
0.0
  0
LINE
  8
DETAIL
  6
CONTINUOUS
 62
     5
 10
69.124814041493664
 20
-227.18953739101599
 30
0.0
 11
69.083066070749055
 21
-227.13466975332179
 31
0.0
  0
LINE
  8
DETAIL
  6
CONTINUOUS
 62
     5
 10
69.083066070749055
 20
-227.13466975332179
 30
0.0
 11
69.040557526734005
 21
-227.08037515271499
 31
0.0
  0
LINE
  8
DETAIL
  6
CONTINUOUS
 62
     5
 10
69.040557526734005
 20
-227.08037515271499
 30
0.0
 11
69.040557526734005
 21
-227.08037515271499
 31
0.0
  0
LINE
  8
DETAIL
  6
CONTINUOUS
 62
     5
 10
69.040557526734005
 20
-227.08037515271499
 30
0.0
 11
68.99730409151482
 21
-227.0266775637065
 31
0.0
  0
LINE
  8
DETAIL
  6
CONTINUOUS
 62
     5
 10
68.99730409151482
 20
-227.0266775637065
 30
0.0
 11
68.95331527334838
 21
-226.97358989655831
 31
0.0
  0
LINE
  8
DETAIL
  6
CONTINUOUS
 62
     5
 10
68.95331527334838
 20
-226.97358989655831
 30
0.0
 11
68.95331527334838
 21
-226.97358989655831
 31
0.0
  0
LINE
  8
DETAIL
  6
CONTINUOUS
 62
     5
 10
68.95331527334838
 20
-226.97358989655831
 30
0.0
 11
68.908596543229919
 21
-226.92111988912049
 31
0.0
  0
LINE
  8
DETAIL
  6
CONTINUOUS
 62
     5
 10
68.908596543229919
 20
-226.92111988912049
 30
0.0
 11
68.863143396915348
 21
-226.8692656538561
 31
0.0
  0
LINE
  8
DETAIL
  6
CONTINUOUS
 62
     5
 10
68.863143396915348
 20
-226.8692656538561
 30
0.0
 11
68.863143396915348
 21
-226.8692656538561
 31
0.0
  0
LINE
  8
DETAIL
  6
CONTINUOUS
 62
     5
 10
68.863143396915348
 20
-226.8692656538561
 30
0.0
 11
68.81695402387686
 21
-226.8180281604119
 31
0.0
  0
LINE
  8
DETAIL
  6
CONTINUOUS
 62
     5
 10
68.81695402387686
 20
-226.8180281604119
 30
0.0
 11
68.77004736369247
 21
-226.7674294325615
 31
0.0
  0
LINE
  8
DETAIL
  6
CONTINUOUS
 62
     5
 10
68.77004736369247
 20
-226.7674294325615
 30
0.0
 11
68.77004736369247
 21
-226.7674294325615
 31
0.0
  0
LINE
  8
DETAIL
  6
CONTINUOUS
 62
     5
 10
68.77004736369247
 20
-226.7674294325615
 30
0.0
 11
68.722443565366007
 21
-226.71749251811181
 31
0.0
  0
LINE
  8
DETAIL
  6
CONTINUOUS
 62
     5
 10
68.722443565366007
 20
-226.71749251811181
 30
0.0
 11
68.674146865500802
 21
-226.66822350687659
 31
0.0
  0
LINE
  8
DETAIL
  6
CONTINUOUS
 62
     5
 10
68.674146865500802
 20
-226.66822350687659
 30
0.0
 11
68.674146865500802
 21
-226.66822350687659
 31
0.0
  0
LINE
  8
DETAIL
  6
CONTINUOUS
 62
     5
 10
68.674146865500802
 20
-226.66822350687659
 30
0.0
 11
68.625162321976291
 21
-226.6196284564179
 31
0.0
  0
LINE
  8
DETAIL
  6
CONTINUOUS
 62
     5
 10
68.625162321976291
 20
-226.6196284564179
 30
0.0
 11
68.575514190177273
 21
-226.57173025327509
 31
0.0
  0
LINE
  8
DETAIL
  6
CONTINUOUS
 62
     5
 10
68.575514190177273
 20
-226.57173025327509
 30
0.0
 11
68.575514190177273
 21
-226.57173025327509
 31
0.0
  0
LINE
  8
DETAIL
  6
CONTINUOUS
 62
     5
 10
68.575514190177273
 20
-226.57173025327509
 30
0.0
 11
68.525216305459594
 21
-226.52454340175339
 31
0.0
  0
LINE
  8
DETAIL
  6
CONTINUOUS
 62
     5
 10
68.525216305459594
 20
-226.52454340175339
 30
0.0
 11
68.474221625558812
 21
-226.47803204822941
 31
0.0
  0
LINE
  8
DETAIL
  6
CONTINUOUS
 62
     5
 10
68.474221625558812
 20
-226.47803204822941
 30
0.0
 11
68.474221625558812
 21
-226.47803204822941
 31
0.0
  0
LINE
  8
DETAIL
  6
CONTINUOUS
 62
     5
 10
68.474221625558812
 20
-226.47803204822941
 30
0.0
 11
68.422523967049301
 21
-226.432193900279
 31
0.0
  0
LINE
  8
DETAIL
  6
CONTINUOUS
 62
     5
 10
68.422523967049301
 20
-226.432193900279
 30
0.0
 11
68.370341459482574
 21
-226.3872112682113
 31
0.0
  0
LINE
  8
DETAIL
  6
CONTINUOUS
 62
     5
 10
68.370341459482574
 20
-226.3872112682113
 30
0.0
 11
68.370341459482574
 21
-226.3872112682113
 31
0.0
  0
LINE
  8
DETAIL
  6
CONTINUOUS
 62
     5
 10
68.370341459482574
 20
-226.3872112682113
 30
0.0
 11
68.317861527180412
 21
-226.34323832307999
 31
0.0
  0
LINE
  8
DETAIL
  6
CONTINUOUS
 62
     5
 10
68.317861527180412
 20
-226.34323832307999
 30
0.0
 11
68.264924460568068
 21
-226.30013207618441
 31
0.0
  0
LINE
  8
DETAIL
  6
CONTINUOUS
 62
     5
 10
68.264924460568068
 20
-226.30013207618441
 30
0.0
 11
68.264924460568068
 21
-226.30013207618441
 31
0.0
  0
LINE
  8
DETAIL
  6
CONTINUOUS
 62
     5
 10
68.264924460568068
 20
-226.30013207618441
 30
0.0
 11
68.211337116824325
 21
-226.2577224257868
 31
0.0
  0
LINE
  8
DETAIL
  6
CONTINUOUS
 62
     5
 10
68.211337116824325
 20
-226.2577224257868
 30
0.0
 11
68.157119754038263
 21
-226.2160279777556
 31
0.0
  0
LINE
  8
DETAIL
  6
CONTINUOUS
 62
     5
 10
68.157119754038263
 20
-226.2160279777556
 30
0.0
 11
68.157119754038263
 21
-226.2160279777556
 31
0.0
  0
LINE
  8
DETAIL
  6
CONTINUOUS
 62
     5
 10
68.157119754038263
 20
-226.2160279777556
 30
0.0
 11
68.102335993179395
 21
-226.1751045042428
 31
0.0
  0
LINE
  8
DETAIL
  6
CONTINUOUS
 62
     5
 10
68.102335993179395
 20
-226.1751045042428
 30
0.0
 11
68.047009505827987
 21
-226.13496773493279
 31
0.0
  0
LINE
  8
DETAIL
  6
CONTINUOUS
 62
     5
 10
68.047009505827987
 20
-226.13496773493279
 30
0.0
 11
68.047009505827987
 21
-226.13496773493279
 31
0.0
  0
LINE
  8
DETAIL
  6
CONTINUOUS
 62
     5
 10
68.047009505827987
 20
-226.13496773493279
 30
0.0
 11
67.99114057537895
 21
-226.0956162544596
 31
0.0
  0
LINE
  8
DETAIL
  6
CONTINUOUS
 62
     5
 10
67.99114057537895
 20
-226.0956162544596
 30
0.0
 11
67.934675881871954
 21
-226.05702010972161
 31
0.0
  0
LINE
  8
DETAIL
  6
CONTINUOUS
 62
     5
 10
67.934675881871954
 20
-226.05702010972161
 30
0.0
 11
67.934675881871954
 21
-226.05702010972161
 31
0.0
  0
LINE
  8
DETAIL
  6
CONTINUOUS
 62
     5
 10
67.934675881871954
 20
-226.05702010972161
 30
0.0
 11
67.877612295210838
 21
-226.01918076153481
 31
0.0
  0
LINE
  8
DETAIL
  6
CONTINUOUS
 62
     5
 10
67.877612295210838
 20
-226.01918076153481
 30
0.0
 11
67.820201048105559
 21
-225.98225386412821
 31
0.0
  0
LINE
  8
DETAIL
  6
CONTINUOUS
 62
     5
 10
67.820201048105559
 20
-225.98225386412821
 30
0.0
 11
67.820201048105559
 21
-225.98225386412821
 31
0.0
  0
LINE
  8
DETAIL
  6
CONTINUOUS
 62
     5
 10
67.820201048105559
 20
-225.98225386412821
 30
0.0
 11
67.762656303221092
 21
-225.94636961722989
 31
0.0
  0
LINE
  8
DETAIL
  6
CONTINUOUS
 62
     5
 10
67.762656303221092
 20
-225.94636961722989
 30
0.0
 11
67.704789580231591
 21
-225.91140220915
 31
0.0
  0
LINE
  8
DETAIL
  6
CONTINUOUS
 62
     5
 10
67.704789580231591
 20
-225.91140220915
 30
0.0
 11
67.704789580231591
 21
-225.91140220915
 31
0.0
  0
LINE
  8
DETAIL
  6
CONTINUOUS
 62
     5
 10
67.704789580231591
 20
-225.91140220915
 30
0.0
 11
67.64637604092286
 21
-225.87720374894971
 31
0.0
  0
LINE
  8
DETAIL
  6
CONTINUOUS
 62
     5
 10
67.64637604092286
 20
-225.87720374894971
 30
0.0
 11
67.587448058515974
 21
-225.84379404011821
 31
0.0
  0
LINE
  8
DETAIL
  6
CONTINUOUS
 62
     5
 10
67.587448058515974
 20
-225.84379404011821
 30
0.0
 11
67.587448058515974
 21
-225.84379404011821
 31
0.0
  0
LINE
  8
DETAIL
  6
CONTINUOUS
 62
     5
 10
67.587448058515974
 20
-225.84379404011821
 30
0.0
 11
67.528081174277304
 21
-225.81122188568179
 31
0.0
  0
LINE
  8
DETAIL
  6
CONTINUOUS
 62
     5
 10
67.528081174277304
 20
-225.81122188568179
 30
0.0
 11
67.468266390216968
 21
-225.7794843923937
 31
0.0
  0
LINE
  8
DETAIL
  6
CONTINUOUS
 62
     5
 10
67.468266390216968
 20
-225.7794843923937
 30
0.0
 11
67.468266390216968
 21
-225.7794843923937
 31
0.0
  0
LINE
  8
DETAIL
  6
CONTINUOUS
 62
     5
 10
67.468266390216968
 20
-225.7794843923937
 30
0.0
 11
67.407993809928712
 21
-225.7485755156049
 31
0.0
  0
LINE
  8
DETAIL
  6
CONTINUOUS
 62
     5
 10
67.407993809928712
 20
-225.7485755156049
 30
0.0
 11
67.347334482593169
 21
-225.71852830133739
 31
0.0
  0
LINE
  8
DETAIL
  6
CONTINUOUS
 62
     5
 10
67.347334482593169
 20
-225.71852830133739
 30
0.0
 11
67.347334482593169
 21
-225.71852830133739
 31
0.0
  0
LINE
  8
DETAIL
  6
CONTINUOUS
 62
     5
 10
67.347334482593169
 20
-225.71852830133739
 30
0.0
 11
67.286319883015267
 21
-225.6893594016785
 31
0.0
  0
LINE
  8
DETAIL
  6
CONTINUOUS
 62
     5
 10
67.286319883015267
 20
-225.6893594016785
 30
0.0
 11
67.224742242902948
 21
-225.66098080231001
 31
0.0
  0
LINE
  8
DETAIL
  6
CONTINUOUS
 62
     5
 10
67.224742242902948
 20
-225.66098080231001
 30
0.0
 11
67.224742242902948
 21
-225.66098080231001
 31
0.0
  0
LINE
  8
DETAIL
  6
CONTINUOUS
 62
     5
 10
67.224742242902948
 20
-225.66098080231001
 30
0.0
 11
67.162426325724482
 21
-225.63331976697091
 31
0.0
  0
LINE
  8
DETAIL
  6
CONTINUOUS
 62
     5
 10
67.162426325724482
 20
-225.63331976697091
 30
0.0
 11
67.099566265081421
 21
-225.60646933802741
 31
0.0
  0
LINE
  8
DETAIL
  6
CONTINUOUS
 62
     5
 10
67.099566265081421
 20
-225.60646933802741
 30
0.0
 11
67.099566265081421
 21
-225.60646933802741
 31
0.0
  0
LINE
  8
DETAIL
  6
CONTINUOUS
 62
     5
 10
67.099566265081421
 20
-225.60646933802741
 30
0.0
 11
67.036390754626041
 21
-225.58053669391381
 31
0.0
  0
LINE
  8
DETAIL
  6
CONTINUOUS
 62
     5
 10
67.036390754626041
 20
-225.58053669391381
 30
0.0
 11
66.972897358076693
 21
-225.55551977871531
 31
0.0
  0
LINE
  8
DETAIL
  6
CONTINUOUS
 62
     5
 10
66.972897358076693
 20
-225.55551977871531
 30
0.0
 11
66.972897358076693
 21
-225.55551977871531
 31
0.0
  0
LINE
  8
DETAIL
  6
CONTINUOUS
 62
     5
 10
66.972897358076693
 20
-225.55551977871531
 30
0.0
 11
66.909041183233626
 21
-225.53139650348351
 31
0.0
  0
LINE
  8
DETAIL
  6
CONTINUOUS
 62
     5
 10
66.909041183233626
 20
-225.53139650348351
 30
0.0
 11
66.844838644154834
 21
-225.5081738814936
 31
0.0
  0
LINE
  8
DETAIL
  6
CONTINUOUS
 62
     5
 10
66.844838644154834
 20
-225.5081738814936
 30
0.0
 11
66.844838644154834
 21
-225.5081738814936
 31
0.0
  0
LINE
  8
DETAIL
  6
CONTINUOUS
 62
     5
 10
66.844838644154834
 20
-225.5081738814936
 30
0.0
 11
66.780317957688339
 21
-225.4858644079417
 31
0.0
  0
LINE
  8
DETAIL
  6
CONTINUOUS
 62
     5
 10
66.780317957688339
 20
-225.4858644079417
 30
0.0
 11
66.715493245582024
 21
-225.46447340348061
 31
0.0
  0
LINE
  8
DETAIL
  6
CONTINUOUS
 62
     5
 10
66.715493245582024
 20
-225.46447340348061
 30
0.0
 11
66.715493245582024
 21
-225.46447340348061
 31
0.0
  0
LINE
  8
DETAIL
  6
CONTINUOUS
 62
     5
 10
66.715493245582024
 20
-225.46447340348061
 30
0.0
 11
66.650373874344723
 21
-225.44400429411431
 31
0.0
  0
LINE
  8
DETAIL
  6
CONTINUOUS
 62
     5
 10
66.650373874344723
 20
-225.44400429411431
 30
0.0
 11
66.584964284624675
 21
-225.42446010179449
 31
0.0
  0
LINE
  8
DETAIL
  6
CONTINUOUS
 62
     5
 10
66.584964284624675
 20
-225.42446010179449
 30
0.0
 11
66.584964284624675
 21
-225.42446010179449
 31
0.0
  0
LINE
  8
DETAIL
  6
CONTINUOUS
 62
     5
 10
66.584964284624675
 20
-225.42446010179449
 30
0.0
 11
66.519271266422493
 21
-225.40584433034559
 31
0.0
  0
LINE
  8
DETAIL
  6
CONTINUOUS
 62
     5
 10
66.519271266422493
 20
-225.40584433034559
 30
0.0
 11
66.453315933007502
 21
-225.38816281513721
 31
0.0
  0
LINE
  8
DETAIL
  6
CONTINUOUS
 62
     5
 10
66.453315933007502
 20
-225.38816281513721
 30
0.0
 11
66.453315933007502
 21
-225.38816281513721
 31
0.0
  0
LINE
  8
DETAIL
  6
CONTINUOUS
 62
     5
 10
66.453315933007502
 20
-225.38816281513721
 30
0.0
 11
66.387119482946446
 21
-225.371421152012
 31
0.0
  0
LINE
  8
DETAIL
  6
CONTINUOUS
 62
     5
 10
66.387119482946446
 20
-225.371421152012
 30
0.0
 11
66.320689132729512
 21
-225.35562164716401
 31
0.0
  0
LINE
  8
DETAIL
  6
CONTINUOUS
 62
     5
 10
66.320689132729512
 20
-225.35562164716401
 30
0.0
 11
66.320689132729512
 21
-225.35562164716401
 31
0.0
  0
LINE
  8
DETAIL
  6
CONTINUOUS
 62
     5
 10
66.320689132729512
 20
-225.35562164716401
 30
0.0
 11
66.254034215215597
 21
-225.34076660214129
 31
0.0
  0
LINE
  8
DETAIL
  6
CONTINUOUS
 62
     5
 10
66.254034215215597
 20
-225.34076660214129
 30
0.0
 11
66.187186510818606
 21
-225.32686158956309
 31
0.0
  0
LINE
  8
DETAIL
  6
CONTINUOUS
 62
     5
 10
66.187186510818606
 20
-225.32686158956309
 30
0.0
 11
66.187186510818606
 21
-225.32686158956309
 31
0.0
  0
LINE
  8
DETAIL
  6
CONTINUOUS
 62
     5
 10
66.187186510818606
 20
-225.32686158956309
 30
0.0
 11
66.120164459805892
 21
-225.3139105511577
 31
0.0
  0
LINE
  8
DETAIL
  6
CONTINUOUS
 62
     5
 10
66.120164459805892
 20
-225.3139105511577
 30
0.0
 11
66.052910694303478
 21
-225.30190763402189
 31
0.0
  0
LINE
  8
DETAIL
  6
CONTINUOUS
 62
     5
 10
66.052910694303478
 20
-225.30190763402189
 30
0.0
 11
66.052910694303478
 21
-225.30190763402189
 31
0.0
  0
LINE
  8
DETAIL
  6
CONTINUOUS
 62
     5
 10
66.052910694303478
 20
-225.30190763402189
 30
0.0
 11
65.985419090655114
 21
-225.29085351345941
 31
0.0
  0
LINE
  8
DETAIL
  6
CONTINUOUS
 62
     5
 10
65.985419090655114
 20
-225.29085351345941
 30
0.0
 11
65.917964310212028
 21
-225.28078477222809
 31
0.0
  0
LINE
  8
DETAIL
  6
CONTINUOUS
 62
     5
 10
65.917964310212028
 20
-225.28078477222809
 30
0.0
 11
65.917964310212028
 21
-225.28078477222809
 31
0.0
  0
LINE
  8
DETAIL
  6
CONTINUOUS
 62
     5
 10
65.917964310212028
 20
-225.28078477222809
 30
0.0
 11
65.85078130783927
 21
-225.27173026547331
 31
0.0
  0
LINE
  8
DETAIL
  6
CONTINUOUS
 62
     5
 10
65.85078130783927
 20
-225.27173026547331
 30
0.0
 11
65.783665427447318
 21
-225.26365203043451
 31
0.0
  0
LINE
  8
DETAIL
  6
CONTINUOUS
 62
     5
 10
65.783665427447318
 20
-225.26365203043451
 30
0.0
 11
65.783665427447318
 21
-225.26365203043451
 31
0.0
  0
LINE
  8
DETAIL
  6
CONTINUOUS
 62
     5
 10
65.783665427447318
 20
-225.26365203043451
 30
0.0
 11
65.716371974804701
 21
-225.25650894532779
 31
0.0
  0
LINE
  8
DETAIL
  6
CONTINUOUS
 62
     5
 10
65.716371974804701
 20
-225.25650894532779
 30
0.0
 11
65.648935714067989
 21
-225.25031407018631
 31
0.0
  0
LINE
  8
DETAIL
  6
CONTINUOUS
 62
     5
 10
65.648935714067989
 20
-225.25031407018631
 30
0.0
 11
65.648935714067989
 21
-225.25031407018631
 31
0.0
  0
LINE
  8
DETAIL
  6
CONTINUOUS
 62
     5
 10
65.648935714067989
 20
-225.25031407018631
 30
0.0
 11
65.581442387794709
 21
-225.24508184766799
 31
0.0
  0
LINE
  8
DETAIL
  6
CONTINUOUS
 62
     5
 10
65.581442387794709
 20
-225.24508184766799
 30
0.0
 11
65.513902193758781
 21
-225.24077806912311
 31
0.0
  0
LINE
  8
DETAIL
  6
CONTINUOUS
 62
     5
 10
65.513902193758781
 20
-225.24077806912311
 30
0.0
 11
65.513902193758781
 21
-225.24077806912311
 31
0.0
  0
LINE
  8
DETAIL
  6
CONTINUOUS
 62
     5
 10
65.513902193758781
 20
-225.24077806912311
 30
0.0
 11
65.446312123725079
 21
-225.23739146892891
 31
0.0
  0
LINE
  8
DETAIL
  6
CONTINUOUS
 62
     5
 10
65.446312123725079
 20
-225.23739146892891
 30
0.0
 11
65.37869189020455
 21
-225.23505120488301
 31
0.0
  0
LINE
  8
DETAIL
  6
CONTINUOUS
 62
     5
 10
65.37869189020455
 20
-225.23505120488301
 30
0.0
 11
65.37869189020455
 21
-225.23505120488301
 31
0.0
  0
LINE
  8
DETAIL
  6
CONTINUOUS
 62
     5
 10
65.37869189020455
 20
-225.23505120488301
 30
0.0
 11
65.31106305134449
 21
-225.23379328004441
 31
0.0
  0
LINE
  8
DETAIL
  6
CONTINUOUS
 62
     5
 10
65.31106305134449
 20
-225.23379328004441
 30
0.0
 11
65.243431827090035
 21
-225.2331406551057
 31
0.0
  0
LINE
  8
DETAIL
  6
CONTINUOUS
 62
     5
 10
70.134874759152126
 20
-230.24277456647391
 30
0.0
 11
70.134091218304661
 21
-230.16576413404329
 31
0.0
  0
LINE
  8
DETAIL
  6
CONTINUOUS
 62
     5
 10
70.134091218304661
 20
-230.16576413404329
 30
0.0
 11
70.132580888230905
 21
-230.08875732698019
 31
0.0
  0
LINE
  8
DETAIL
  6
CONTINUOUS
 62
     5
 10
70.132580888230905
 20
-230.08875732698019
 30
0.0
 11
70.132580888230905
 21
-230.08875732698019
 31
0.0
  0
LINE
  8
DETAIL
  6
CONTINUOUS
 62
     5
 10
70.132580888230905
 20
-230.08875732698019
 30
0.0
 11
70.12977081790666
 21
-230.011761832323
 31
0.0
  0
LINE
  8
DETAIL
  6
CONTINUOUS
 62
     5
 10
70.12977081790666
 20
-230.011761832323
 30
0.0
 11
70.125703409113385
 21
-229.93480158379941
 31
0.0
  0
LINE
  8
DETAIL
  6
CONTINUOUS
 62
     5
 10
70.125703409113385
 20
-229.93480158379941
 30
0.0
 11
70.125703409113385
 21
-229.93480158379941
 31
0.0
  0
LINE
  8
DETAIL
  6
CONTINUOUS
 62
     5
 10
70.125703409113385
 20
-229.93480158379941
 30
0.0
 11
70.120533275111029
 21
-229.85790107510209
 31
0.0
  0
LINE
  8
DETAIL
  6
CONTINUOUS
 62
     5
 10
70.120533275111029
 20
-229.85790107510209
 30
0.0
 11
70.114248522267872
 21
-229.78107079310541
 31
0.0
  0
LINE
  8
DETAIL
  6
CONTINUOUS
 62
     5
 10
70.114248522267872
 20
-229.78107079310541
 30
0.0
 11
70.114248522267872
 21
-229.78107079310541
 31
0.0
  0
LINE
  8
DETAIL
  6
CONTINUOUS
 62
     5
 10
70.114248522267872
 20
-229.78107079310541
 30
0.0
 11
70.106808298919532
 21
-229.70432766812559
 31
0.0
  0
LINE
  8
DETAIL
  6
CONTINUOUS
 62
     5
 10
70.106808298919532
 20
-229.70432766812559
 30
0.0
 11
70.098222428163353
 21
-229.6277284110694
 31
0.0
  0
LINE
  8
DETAIL
  6
CONTINUOUS
 62
     5
 10
70.098222428163353
 20
-229.6277284110694
 30
0.0
 11
70.098222428163353
 21
-229.6277284110694
 31
0.0
  0
LINE
  8
DETAIL
  6
CONTINUOUS
 62
     5
 10
70.098222428163353
 20
-229.6277284110694
 30
0.0
 11
70.088504353748817
 21
-229.55130339910531
 31
0.0
  0
LINE
  8
DETAIL
  6
CONTINUOUS
 62
     5
 10
70.088504353748817
 20
-229.55130339910531
 30
0.0
 11
70.077631327268705
 21
-229.47493789386459
 31
0.0
  0
LINE
  8
DETAIL
  6
CONTINUOUS
 62
     5
 10
70.077631327268705
 20
-229.47493789386459
 30
0.0
 11
70.077631327268705
 21
-229.47493789386459
 31
0.0
  0
LINE
  8
DETAIL
  6
CONTINUOUS
 62
     5
 10
70.077631327268705
 20
-229.47493789386459
 30
0.0
 11
70.065581208441017
 21
-229.39853762962929
 31
0.0
  0
LINE
  8
DETAIL
  6
CONTINUOUS
 62
     5
 10
70.065581208441017
 20
-229.39853762962929
 30
0.0
 11
70.052370481638491
 21
-229.32223534682001
 31
0.0
  0
LINE
  8
DETAIL
  6
CONTINUOUS
 62
     5
 10
70.052370481638491
 20
-229.32223534682001
 30
0.0
 11
70.052370481638491
 21
-229.32223534682001
 31
0.0
  0
LINE
  8
DETAIL
  6
CONTINUOUS
 62
     5
 10
70.052370481638491
 20
-229.32223534682001
 30
0.0
 11
70.038019834789452
 21
-229.24618288518809
 31
0.0
  0
LINE
  8
DETAIL
  6
CONTINUOUS
 62
     5
 10
70.038019834789452
 20
-229.24618288518809
 30
0.0
 11
70.022528145390197
 21
-229.17038147566339
 31
0.0
  0
LINE
  8
DETAIL
  6
CONTINUOUS
 62
     5
 10
70.022528145390197
 20
-229.17038147566339
 30
0.0
 11
70.022528145390197
 21
-229.17038147566339
 31
0.0
  0
LINE
  8
DETAIL
  6
CONTINUOUS
 62
     5
 10
70.022528145390197
 20
-229.17038147566339
 30
0.0
 11
70.005891801678217
 21
-229.09480940163141
 31
0.0
  0
LINE
  8
DETAIL
  6
CONTINUOUS
 62
     5
 10
70.005891801678217
 20
-229.09480940163141
 30
0.0
 11
69.988119045290546
 21
-229.0195037651182
 31
0.0
  0
LINE
  8
DETAIL
  6
CONTINUOUS
 62
     5
 10
69.988119045290546
 20
-229.0195037651182
 30
0.0
 11
69.988119045290546
 21
-229.0195037651182
 31
0.0
  0
LINE
  8
DETAIL
  6
CONTINUOUS
 62
     5
 10
69.988119045290546
 20
-229.0195037651182
 30
0.0
 11
69.969214680422851
 21
-228.94449520637531
 31
0.0
  0
LINE
  8
DETAIL
  6
CONTINUOUS
 62
     5
 10
69.969214680422851
 20
-228.94449520637531
 30
0.0
 11
69.949157908106258
 21
-228.8697296999101
 31
0.0
  0
LINE
  8
DETAIL
  6
CONTINUOUS
 62
     5
 10
69.949157908106258
 20
-228.8697296999101
 30
0.0
 11
69.949157908106258
 21
-228.8697296999101
 31
0.0
  0
LINE
  8
DETAIL
  6
CONTINUOUS
 62
     5
 10
69.949157908106258
 20
-228.8697296999101
 30
0.0
 11
69.927944168395243
 21
-228.79520201487679
 31
0.0
  0
LINE
  8
DETAIL
  6
CONTINUOUS
 62
     5
 10
69.927944168395243
 20
-228.79520201487679
 30
0.0
 11
69.905659460604284
 21
-228.72118676476239
 31
0.0
  0
LINE
  8
DETAIL
  6
CONTINUOUS
 62
     5
 10
69.905659460604284
 20
-228.72118676476239
 30
0.0
 11
69.905659460604284
 21
-228.72118676476239
 31
0.0
  0
LINE
  8
DETAIL
  6
CONTINUOUS
 62
     5
 10
69.905659460604284
 20
-228.72118676476239
 30
0.0
 11
69.88237986006925
 21
-228.6479190781516
 31
0.0
  0
LINE
  8
DETAIL
  6
CONTINUOUS
 62
     5
 10
69.88237986006925
 20
-228.6479190781516
 30
0.0
 11
69.85805118695248
 21
-228.57519629970679
 31
0.0
  0
LINE
  8
DETAIL
  6
CONTINUOUS
 62
     5
 10
69.85805118695248
 20
-228.57519629970679
 30
0.0
 11
69.85805118695248
 21
-228.57519629970679
 31
0.0
  0
LINE
  8
DETAIL
  6
CONTINUOUS
 62
     5
 10
69.85805118695248
 20
-228.57519629970679
 30
0.0
 11
69.832604281237309
 21
-228.5027776671526
 31
0.0
  0
LINE
  8
DETAIL
  6
CONTINUOUS
 62
     5
 10
69.832604281237309
 20
-228.5027776671526
 30
0.0
 11
69.806040317365273
 21
-228.4307077743895
 31
0.0
  0
LINE
  8
DETAIL
  6
CONTINUOUS
 62
     5
 10
69.806040317365273
 20
-228.4307077743895
 30
0.0
 11
69.806040317365273
 21
-228.4307077743895
 31
0.0
  0
LINE
  8
DETAIL
  6
CONTINUOUS
 62
     5
 10
69.806040317365273
 20
-228.4307077743895
 30
0.0
 11
69.7783827512676
 21
-228.35907861763391
 31
0.0
  0
LINE
  8
DETAIL
  6
CONTINUOUS
 62
     5
 10
69.7783827512676
 20
-228.35907861763391
 30
0.0
 11
69.749673830375968
 21
-228.28788644618629
 31
0.0
  0
LINE
  8
DETAIL
  6
CONTINUOUS
 62
     5
 10
69.749673830375968
 20
-228.28788644618629
 30
0.0
 11
69.749673830375968
 21
-228.28788644618629
 31
0.0
  0
LINE
  8
DETAIL
  6
CONTINUOUS
 62
     5
 10
69.749673830375968
 20
-228.28788644618629
 30
0.0
 11
69.719924124882255
 21
-228.21712798048989
 31
0.0
  0
LINE
  8
DETAIL
  6
CONTINUOUS
 62
     5
 10
69.719924124882255
 20
-228.21712798048989
 30
0.0
 11
69.688998704517871
 21
-228.14689757247379
 31
0.0
  0
LINE
  8
DETAIL
  6
CONTINUOUS
 62
     5
 10
69.688998704517871
 20
-228.14689757247379
 30
0.0
 11
69.688998704517871
 21
-228.14689757247379
 31
0.0
  0
LINE
  8
DETAIL
  6
CONTINUOUS
 62
     5
 10
69.688998704517871
 20
-228.14689757247379
 30
0.0
 11
69.656867066484665
 21
-228.0772402871813
 31
0.0
  0
LINE
  8
DETAIL
  6
CONTINUOUS
 62
     5
 10
69.656867066484665
 20
-228.0772402871813
 30
0.0
 11
69.624061918324401
 21
-228.0079064106296
 31
0.0
  0
LINE
  8
DETAIL
  6
CONTINUOUS
 62
     5
 10
-69.624061918324514
 20
-228.0079064106296
 30
0.0
 11
-69.656868296147991
 21
-228.07724296105329
 31
0.0
  0
LINE
  8
DETAIL
  6
CONTINUOUS
 62
     5
 10
-69.656868296147991
 20
-228.07724296105329
 30
0.0
 11
-69.68900110943116
 21
-228.14690293552221
 31
0.0
  0
LINE
  8
DETAIL
  6
CONTINUOUS
 62
     5
 10
-69.68900110943116
 20
-228.14690293552221
 30
0.0
 11
-69.68900110943116
 21
-228.14690293552221
 31
0.0
  0
LINE
  8
DETAIL
  6
CONTINUOUS
 62
     5
 10
-69.68900110943116
 20
-228.14690293552221
 30
0.0
 11
-69.719927609753995
 21
-228.2171360670153
 31
0.0
  0
LINE
  8
DETAIL
  6
CONTINUOUS
 62
     5
 10
-69.719927609753995
 20
-228.2171360670153
 30
0.0
 11
-69.749678313176901
 21
-228.2878973242579
 31
0.0
  0
LINE
  8
DETAIL
  6
CONTINUOUS
 62
     5
 10
-69.749678313176901
 20
-228.2878973242579
 30
0.0
 11
-69.749678313176901
 21
-228.2878973242579
 31
0.0
  0
LINE
  8
DETAIL
  6
CONTINUOUS
 62
     5
 10
-69.749678313176901
 20
-228.2878973242579
 30
0.0
 11
-69.778388162827468
 21
-228.3590923563747
 31
0.0
  0
LINE
  8
DETAIL
  6
CONTINUOUS
 62
     5
 10
-69.778388162827468
 20
-228.3590923563747
 30
0.0
 11
-69.806046545623531
 21
-228.43072429835229
 31
0.0
  0
LINE
  8
DETAIL
  6
CONTINUOUS
 62
     5
 10
-69.806046545623531
 20
-228.43072429835229
 30
0.0
 11
-69.806046545623531
 21
-228.43072429835229
 31
0.0
  0
LINE
  8
DETAIL
  6
CONTINUOUS
 62
     5
 10
-69.806046545623531
 20
-228.43072429835229
 30
0.0
 11
-69.832611199520443
 21
-228.5027968618451
 31
0.0
  0
LINE
  8
DETAIL
  6
CONTINUOUS
 62
     5
 10
-69.832611199520443
 20
-228.5027968618451
 30
0.0
 11
-69.85805882283239
 21
-228.57521857931971
 31
0.0
  0
LINE
  8
DETAIL
  6
CONTINUOUS
 62
     5
 10
-69.85805882283239
 20
-228.57521857931971
 30
0.0
 11
-69.85805882283239
 21
-228.57521857931971
 31
0.0
  0
LINE
  8
DETAIL
  6
CONTINUOUS
 62
     5
 10
-69.85805882283239
 20
-228.57521857931971
 30
0.0
 11
-69.882388282657075
 21
-228.6479449961669
 31
0.0
  0
LINE
  8
DETAIL
  6
CONTINUOUS
 62
     5
 10
-69.882388282657075
 20
-228.6479449961669
 30
0.0
 11
-69.905668160865162
 21
-228.72121488867521
 31
0.0
  0
LINE
  8
DETAIL
  6
CONTINUOUS
 62
     5
 10
-69.905668160865162
 20
-228.72121488867521
 30
0.0
 11
-69.905668160865162
 21
-228.72121488867521
 31
0.0
  0
LINE
  8
DETAIL
  6
CONTINUOUS
 62
     5
 10
-69.905668160865162
 20
-228.72121488867521
 30
0.0
 11
-69.927952163171312
 21
-228.79522922963281
 31
0.0
  0
LINE
  8
DETAIL
  6
CONTINUOUS
 62
     5
 10
-69.927952163171312
 20
-228.79522922963281
 30
0.0
 11
-69.9491647758922
 21
-228.86975454693541
 31
0.0
  0
LINE
  8
DETAIL
  6
CONTINUOUS
 62
     5
 10
-69.9491647758922
 20
-228.86975454693541
 30
0.0
 11
-69.9491647758922
 21
-228.86975454693541
 31
0.0
  0
LINE
  8
DETAIL
  6
CONTINUOUS
 62
     5
 10
-69.9491647758922
 20
-228.86975454693541
 30
0.0
 11
-69.969220646808822
 21
-228.94451819101539
 31
0.0
  0
LINE
  8
DETAIL
  6
CONTINUOUS
 62
     5
 10
-69.969220646808822
 20
-228.94451819101539
 30
0.0
 11
-69.988124288956897
 21
-229.01952524734881
 31
0.0
  0
LINE
  8
DETAIL
  6
CONTINUOUS
 62
     5
 10
-69.988124288956897
 20
-229.01952524734881
 30
0.0
 11
-69.988124288956897
 21
-229.01952524734881
 31
0.0
  0
LINE
  8
DETAIL
  6
CONTINUOUS
 62
     5
 10
-69.988124288956897
 20
-229.01952524734881
 30
0.0
 11
-70.00589632812148
 21
-229.09482921557111
 31
0.0
  0
LINE
  8
DETAIL
  6
CONTINUOUS
 62
     5
 10
-70.00589632812148
 20
-229.09482921557111
 30
0.0
 11
-70.022531975833203
 21
-229.170399516912
 31
0.0
  0
LINE
  8
DETAIL
  6
CONTINUOUS
 62
     5
 10
-70.022531975833203
 20
-229.170399516912
 30
0.0
 11
-70.022531975833203
 21
-229.170399516912
 31
0.0
  0
LINE
  8
DETAIL
  6
CONTINUOUS
 62
     5
 10
-70.022531975833203
 20
-229.170399516912
 30
0.0
 11
-70.038023038000006
 21
-229.24619919764459
 31
0.0
  0
LINE
  8
DETAIL
  6
CONTINUOUS
 62
     5
 10
-70.038023038000006
 20
-229.24619919764459
 30
0.0
 11
-70.052373112294504
 21
-229.322249882622
 31
0.0
  0
LINE
  8
DETAIL
  6
CONTINUOUS
 62
     5
 10
-70.052373112294504
 20
-229.322249882622
 30
0.0
 11
-70.052373112294504
 21
-229.322249882622
 31
0.0
  0
LINE
  8
DETAIL
  6
CONTINUOUS
 62
     5
 10
-70.052373112294504
 20
-229.322249882622
 30
0.0
 11
-70.065583306129383
 21
-229.39855028236511
 31
0.0
  0
LINE
  8
DETAIL
  6
CONTINUOUS
 62
     5
 10
-70.065583306129383
 20
-229.39855028236511
 30
0.0
 11
-70.077632974114749
 21
-229.47494887147391
 31
0.0
  0
LINE
  8
DETAIL
  6
CONTINUOUS
 62
     5
 10
-70.077632974114749
 20
-229.47494887147391
 30
0.0
 11
-70.077632974114749
 21
-229.47494887147391
 31
0.0
  0
LINE
  8
DETAIL
  6
CONTINUOUS
 62
     5
 10
-70.077632974114749
 20
-229.47494887147391
 30
0.0
 11
-70.088505668114067
 21
-229.55131318353881
 31
0.0
  0
LINE
  8
DETAIL
  6
CONTINUOUS
 62
     5
 10
-70.088505668114067
 20
-229.55131318353881
 30
0.0
 11
-70.09822348180569
 21
-229.6277372240252
 31
0.0
  0
LINE
  8
DETAIL
  6
CONTINUOUS
 62
     5
 10
-70.09822348180569
 20
-229.6277372240252
 30
0.0
 11
-70.09822348180569
 21
-229.6277372240252
 31
0.0
  0
LINE
  8
DETAIL
  6
CONTINUOUS
 62
     5
 10
-70.09822348180569
 20
-229.6277372240252
 30
0.0
 11
-70.106809110566473
 21
-229.70433542086499
 31
0.0
  0
LINE
  8
DETAIL
  6
CONTINUOUS
 62
     5
 10
-70.106809110566473
 20
-229.70433542086499
 30
0.0
 11
-70.114249114750805
 21
-229.78107741997911
 31
0.0
  0
LINE
  8
DETAIL
  6
CONTINUOUS
 62
     5
 10
-70.114249114750805
 20
-229.78107741997911
 30
0.0
 11
-70.114249114750805
 21
-229.78107741997911
 31
0.0
  0
LINE
  8
DETAIL
  6
CONTINUOUS
 62
     5
 10
-70.114249114750805
 20
-229.78107741997911
 30
0.0
 11
-70.120533685528812
 21
-229.85790659459221
 31
0.0
  0
LINE
  8
DETAIL
  6
CONTINUOUS
 62
     5
 10
-70.120533685528812
 20
-229.85790659459221
 30
0.0
 11
-70.125703672354234
 21
-229.93480600915831
 31
0.0
  0
LINE
  8
DETAIL
  6
CONTINUOUS
 62
     5
 10
-70.125703672354234
 20
-229.93480600915831
 30
0.0
 11
-70.125703672354234
 21
-229.93480600915831
 31
0.0
  0
LINE
  8
DETAIL
  6
CONTINUOUS
 62
     5
 10
-70.125703672354234
 20
-229.93480600915831
 30
0.0
 11
-70.129770964723775
 21
-230.01176515521161
 31
0.0
  0
LINE
  8
DETAIL
  6
CONTINUOUS
 62
     5
 10
-70.129770964723775
 20
-230.01176515521161
 30
0.0
 11
-70.132580954020113
 21
-230.08875954138281
 31
0.0
  0
LINE
  8
DETAIL
  6
CONTINUOUS
 62
     5
 10
-70.132580954020113
 20
-230.08875954138281
 30
0.0
 11
-70.132580954020113
 21
-230.08875954138281
 31
0.0
  0
LINE
  8
DETAIL
  6
CONTINUOUS
 62
     5
 10
-70.132580954020113
 20
-230.08875954138281
 30
0.0
 11
-70.134091240640828
 21
-230.16576524067281
 31
0.0
  0
LINE
  8
DETAIL
  6
CONTINUOUS
 62
     5
 10
-70.134091240640828
 20
-230.16576524067281
 30
0.0
 11
-70.134874759152353
 21
-230.24277456647391
 31
0.0
  0
LINE
  8
DETAIL
  6
CONTINUOUS
 62
     5
 10
-65.243431826439519
 20
-225.2331406551057
 30
0.0
 11
-65.311065067180266
 21
-225.2337933200676
 31
0.0
  0
LINE
  8
DETAIL
  6
CONTINUOUS
 62
     5
 10
-65.311065067180266
 20
-225.2337933200676
 30
0.0
 11
-65.378695910068018
 21
-225.23505131905401
 31
0.0
  0
LINE
  8
DETAIL
  6
CONTINUOUS
 62
     5
 10
-65.378695910068018
 20
-225.23505131905401
 30
0.0
 11
-65.378695910068018
 21
-225.23505131905401
 31
0.0
  0
LINE
  8
DETAIL
  6
CONTINUOUS
 62
     5
 10
-65.378695910068018
 20
-225.23505131905401
 30
0.0
 11
-65.446318134770763
 21
-225.23739171979679
 31
0.0
  0
LINE
  8
DETAIL
  6
CONTINUOUS
 62
     5
 10
-65.446318134770763
 20
-225.23739171979679
 30
0.0
 11
-65.513910231041564
 21
-225.2407785248665
 31
0.0
  0
LINE
  8
DETAIL
  6
CONTINUOUS
 62
     5
 10
-65.513910231041564
 20
-225.2407785248665
 30
0.0
 11
-65.513910231041564
 21
-225.2407785248665
 31
0.0
  0
LINE
  8
DETAIL
  6
CONTINUOUS
 62
     5
 10
-65.513910231041564
 20
-225.2407785248665
 30
0.0
 11
-65.581452496766246
 21
-225.2450825705904
 31
0.0
  0
LINE
  8
DETAIL
  6
CONTINUOUS
 62
     5
 10
-65.581452496766246
 20
-225.2450825705904
 30
0.0
 11
-65.648947752280378
 21
-225.2503150934966
 31
0.0
  0
LINE
  8
DETAIL
  6
CONTINUOUS
 62
     5
 10
-65.648947752280378
 20
-225.2503150934966
 30
0.0
 11
-65.648947752280378
 21
-225.2503150934966
 31
0.0
  0
LINE
  8
DETAIL
  6
CONTINUOUS
 62
     5
 10
-65.648947752280378
 20
-225.2503150934966
 30
0.0
 11
-65.716385748561152
 21
-225.25651029625359
 31
0.0
  0
LINE
  8
DETAIL
  6
CONTINUOUS
 62
     5
 10
-65.716385748561152
 20
-225.25651029625359
 30
0.0
 11
-65.783681436705137
 21
-225.26365384589531
 31
0.0
  0
LINE
  8
DETAIL
  6
CONTINUOUS
 62
     5
 10
-65.783681436705137
 20
-225.26365384589531
 30
0.0
 11
-65.783681436705137
 21
-225.26365384589531
 31
0.0
  0
LINE
  8
DETAIL
  6
CONTINUOUS
 62
     5
 10
-65.783681436705137
 20
-225.26365384589531
 30
0.0
 11
-65.850800237107478
 21
-225.2717327111325
 31
0.0
  0
LINE
  8
DETAIL
  6
CONTINUOUS
 62
     5
 10
-65.850800237107478
 20
-225.2717327111325
 30
0.0
 11
-65.917984247236518
 21
-225.2807876030173
 31
0.0
  0
LINE
  8
DETAIL
  6
CONTINUOUS
 62
     5
 10
-65.917984247236518
 20
-225.2807876030173
 30
0.0
 11
-65.917984247236518
 21
-225.2807876030173
 31
0.0
  0
LINE
  8
DETAIL
  6
CONTINUOUS
 62
     5
 10
-65.917984247236518
 20
-225.2807876030173
 30
0.0
 11
-65.985435930210315
 21
-225.29085611894081
 31
0.0
  0
LINE
  8
DETAIL
  6
CONTINUOUS
 62
     5
 10
-65.985435930210315
 20
-225.29085611894081
 30
0.0
 11
-66.052922534671325
 21
-225.30190965931561
 31
0.0
  0
LINE
  8
DETAIL
  6
CONTINUOUS
 62
     5
 10
-66.052922534671325
 20
-225.30190965931561
 30
0.0
 11
-66.052922534671325
 21
-225.30190965931561
 31
0.0
  0
LINE
  8
DETAIL
  6
CONTINUOUS
 62
     5
 10
-66.052922534671325
 20
-225.30190965931561
 30
0.0
 11
-66.120172009373846
 21
-225.3139119669751
 31
0.0
  0
LINE
  8
DETAIL
  6
CONTINUOUS
 62
     5
 10
-66.120172009373846
 20
-225.3139119669751
 30
0.0
 11
-66.18719031799435
 21
-225.32686235141841
 31
0.0
  0
LINE
  8
DETAIL
  6
CONTINUOUS
 62
     5
 10
-66.18719031799435
 20
-225.32686235141841
 30
0.0
 11
-66.18719031799435
 21
-225.32686235141841
 31
0.0
  0
LINE
  8
DETAIL
  6
CONTINUOUS
 62
     5
 10
-66.18719031799435
 20
-225.32686235141841
 30
0.0
 11
-66.254034138370798
 21
-225.34076658083561
 31
0.0
  0
LINE
  8
DETAIL
  6
CONTINUOUS
 62
     5
 10
-66.254034138370798
 20
-225.34076658083561
 30
0.0
 11
-66.320684990063228
 21
-225.35562069151371
 31
0.0
  0
LINE
  8
DETAIL
  6
CONTINUOUS
 62
     5
 10
-66.320684990063228
 20
-225.35562069151371
 30
0.0
 11
-66.320684990063228
 21
-225.35562069151371
 31
0.0
  0
LINE
  8
DETAIL
  6
CONTINUOUS
 62
     5
 10
-66.320684990063228
 20
-225.35562069151371
 30
0.0
 11
-66.387111257609149
 21
-225.37141912700079
 31
0.0
  0
LINE
  8
DETAIL
  6
CONTINUOUS
 62
     5
 10
-66.387111257609149
 20
-225.37141912700079
 30
0.0
 11
-66.453303943735591
 21
-225.3881596917937
 31
0.0
  0
LINE
  8
DETAIL
  6
CONTINUOUS
 62
     5
 10
-66.453303943735591
 20
-225.3881596917937
 30
0.0
 11
-66.453303943735591
 21
-225.3881596917937
 31
0.0
  0
LINE
  8
DETAIL
  6
CONTINUOUS
 62
     5
 10
-66.453303943735591
 20
-225.3881596917937
 30
0.0
 11
-66.519255877096612
 21
-225.4058401026542
 31
0.0
  0
LINE
  8
DETAIL
  6
CONTINUOUS
 62
     5
 10
-66.519255877096612
 20
-225.4058401026542
 30
0.0
 11
-66.584944571869073
 21
-225.42445436444791
 31
0.0
  0
LINE
  8
DETAIL
  6
CONTINUOUS
 62
     5
 10
-66.584944571869073
 20
-225.42445436444791
 30
0.0
 11
-66.584944571869073
 21
-225.42445436444791
 31
0.0
  0
LINE
  8
DETAIL
  6
CONTINUOUS
 62
     5
 10
-66.584944571869073
 20
-225.42445436444791
 30
0.0
 11
-66.650347842719043
 21
-225.44399629803581
 31
0.0
  0
LINE
  8
DETAIL
  6
CONTINUOUS
 62
     5
 10
-66.650347842719043
 20
-225.44399629803581
 30
0.0
 11
-66.715460020747514
 21
-225.4644627001488
 31
0.0
  0
LINE
  8
DETAIL
  6
CONTINUOUS
 62
     5
 10
-66.715460020747514
 20
-225.4644627001488
 30
0.0
 11
-66.715460020747514
 21
-225.4644627001488
 31
0.0
  0
LINE
  8
DETAIL
  6
CONTINUOUS
 62
     5
 10
-66.715460020747514
 20
-225.4644627001488
 30
0.0
 11
-66.780277971523105
 21
-225.48585090798309
 31
0.0
  0
LINE
  8
DETAIL
  6
CONTINUOUS
 62
     5
 10
-66.780277971523105
 20
-225.48585090798309
 30
0.0
 11
-66.844792182046945
 21
-225.5081574447199
 31
0.0
  0
LINE
  8
DETAIL
  6
CONTINUOUS
 62
     5
 10
-66.844792182046945
 20
-225.5081574447199
 30
0.0
 11
-66.844792182046945
 21
-225.5081574447199
 31
0.0
  0
LINE
  8
DETAIL
  6
CONTINUOUS
 62
     5
 10
-66.844792182046945
 20
-225.5081574447199
 30
0.0
 11
-66.908988171547435
 21
-225.5313768891169
 31
0.0
  0
LINE
  8
DETAIL
  6
CONTINUOUS
 62
     5
 10
-66.908988171547435
 20
-225.5313768891169
 30
0.0
 11
-66.972837966727184
 21
-225.5554968562528
 31
0.0
  0
LINE
  8
DETAIL
  6
CONTINUOUS
 62
     5
 10
-66.972837966727184
 20
-225.5554968562528
 30
0.0
 11
-66.972837966727184
 21
-225.5554968562528
 31
0.0
  0
LINE
  8
DETAIL
  6
CONTINUOUS
 62
     5
 10
-66.972837966727184
 20
-225.5554968562528
 30
0.0
 11
-67.036325308324535
 21
-225.58051038746979
 31
0.0
  0
LINE
  8
DETAIL
  6
CONTINUOUS
 62
     5
 10
-67.036325308324535
 20
-225.58051038746979
 30
0.0
 11
-67.099494285747937
 21
-225.6064391928401
 31
0.0
  0
LINE
  8
DETAIL
  6
CONTINUOUS
 62
     5
 10
-67.099494285747937
 20
-225.6064391928401
 30
0.0
 11
-67.099494285747937
 21
-225.6064391928401
 31
0.0
  0
LINE
  8
DETAIL
  6
CONTINUOUS
 62
     5
 10
-67.099494285747937
 20
-225.6064391928401
 30
0.0
 11
-67.162347100034822
 21
-225.63328522180879
 31
0.0
  0
LINE
  8
DETAIL
  6
CONTINUOUS
 62
     5
 10
-67.162347100034822
 20
-225.63328522180879
 30
0.0
 11
-67.224658050069252
 21
-225.6609427125733
 31
0.0
  0
LINE
  8
DETAIL
  6
CONTINUOUS
 62
     5
 10
-67.224658050069252
 20
-225.6609427125733
 30
0.0
 11
-67.224658050069252
 21
-225.6609427125733
 31
0.0
  0
LINE
  8
DETAIL
  6
CONTINUOUS
 62
     5
 10
-67.224658050069252
 20
-225.6609427125733
 30
0.0
 11
-67.28623553097998
 21
-225.68931984481881
 31
0.0
  0
LINE
  8
DETAIL
  6
CONTINUOUS
 62
     5
 10
-67.28623553097998
 20
-225.68931984481881
 30
0.0
 11
-67.347252225024704
 21
-225.71848827543701
 31
0.0
  0
LINE
  8
DETAIL
  6
CONTINUOUS
 62
     5
 10
-67.347252225024704
 20
-225.71848827543701
 30
0.0
 11
-67.347252225024704
 21
-225.71848827543701
 31
0.0
  0
LINE
  8
DETAIL
  6
CONTINUOUS
 62
     5
 10
-67.347252225024704
 20
-225.71848827543701
 30
0.0
 11
-67.407912866947413
 21
-225.74853470278339
 31
0.0
  0
LINE
  8
DETAIL
  6
CONTINUOUS
 62
     5
 10
-67.407912866947413
 20
-225.74853470278339
 30
0.0
 11
-67.468186114307628
 21
-225.7794425138685
 31
0.0
  0
LINE
  8
DETAIL
  6
CONTINUOUS
 62
     5
 10
-67.468186114307628
 20
-225.7794425138685
 30
0.0
 11
-67.468186114307628
 21
-225.7794425138685
 31
0.0
  0
LINE
  8
DETAIL
  6
CONTINUOUS
 62
     5
 10
-67.468186114307628
 20
-225.7794425138685
 30
0.0
 11
-67.528001709053342
 21
-225.81117900174189
 31
0.0
  0
LINE
  8
DETAIL
  6
CONTINUOUS
 62
     5
 10
-67.528001709053342
 20
-225.81117900174189
 30
0.0
 11
-67.587369807871482
 21
-225.84375039496391
 31
0.0
  0
LINE
  8
DETAIL
  6
CONTINUOUS
 62
     5
 10
-67.587369807871482
 20
-225.84375039496391
 30
0.0
 11
-67.587369807871482
 21
-225.84375039496391
 31
0.0
  0
LINE
  8
DETAIL
  6
CONTINUOUS
 62
     5
 10
-67.587369807871482
 20
-225.84375039496391
 30
0.0
 11
-67.646299275691149
 21
-225.87715954829901
 31
0.0
  0
LINE
  8
DETAIL
  6
CONTINUOUS
 62
     5
 10
-67.646299275691149
 20
-225.87715954829901
 30
0.0
 11
-67.704713395669501
 21
-225.91135688582119
 31
0.0
  0
LINE
  8
DETAIL
  6
CONTINUOUS
 62
     5
 10
-67.704713395669501
 20
-225.91135688582119
 30
0.0
 11
-67.704713395669501
 21
-225.91135688582119
 31
0.0
  0
LINE
  8
DETAIL
  6
CONTINUOUS
 62
     5
 10
-67.704713395669501
 20
-225.91135688582119
 30
0.0
 11
-67.76257953360755
 21
-225.946322420744
 31
0.0
  0
LINE
  8
DETAIL
  6
CONTINUOUS
 62
     5
 10
-67.76257953360755
 20
-225.946322420744
 30
0.0
 11
-67.820126967654915
 21
-225.98220695353669
 31
0.0
  0
LINE
  8
DETAIL
  6
CONTINUOUS
 62
     5
 10
-67.820126967654915
 20
-225.98220695353669
 30
0.0
 11
-67.820126967654915
 21
-225.98220695353669
 31
0.0
  0
LINE
  8
DETAIL
  6
CONTINUOUS
 62
     5
 10
-67.820126967654915
 20
-225.98220695353669
 30
0.0
 11
-67.877547897336967
 21
-226.0191387789624
 31
0.0
  0
LINE
  8
DETAIL
  6
CONTINUOUS
 62
     5
 10
-67.877547897336967
 20
-226.0191387789624
 30
0.0
 11
-67.934624295334743
 21
-226.05698538171961
 31
0.0
  0
LINE
  8
DETAIL
  6
CONTINUOUS
 62
     5
 10
-67.934624295334743
 20
-226.05698538171961
 30
0.0
 11
-67.934624295334743
 21
-226.05698538171961
 31
0.0
  0
LINE
  8
DETAIL
  6
CONTINUOUS
 62
     5
 10
-67.934624295334743
 20
-226.05698538171961
 30
0.0
 11
-67.991100390233669
 21
-226.09558833926971
 31
0.0
  0
LINE
  8
DETAIL
  6
CONTINUOUS
 62
     5
 10
-67.991100390233669
 20
-226.09558833926971
 30
0.0
 11
-68.046979661081195
 21
-226.1349464102137
 31
0.0
  0
LINE
  8
DETAIL
  6
CONTINUOUS
 62
     5
 10
-68.046979661081195
 20
-226.1349464102137
 30
0.0
 11
-68.046979661081195
 21
-226.1349464102137
 31
0.0
  0
LINE
  8
DETAIL
  6
CONTINUOUS
 62
     5
 10
-68.046979661081195
 20
-226.1349464102137
 30
0.0
 11
-68.10231664353978
 21
-226.1750902895823
 31
0.0
  0
LINE
  8
DETAIL
  6
CONTINUOUS
 62
     5
 10
-68.10231664353978
 20
-226.1750902895823
 30
0.0
 11
-68.157110849269657
 21
-226.21602123700251
 31
0.0
  0
LINE
  8
DETAIL
  6
CONTINUOUS
 62
     5
 10
-68.157110849269657
 20
-226.21602123700251
 30
0.0
 11
-68.157110849269657
 21
-226.21602123700251
 31
0.0
  0
LINE
  8
DETAIL
  6
CONTINUOUS
 62
     5
 10
-68.157110849269657
 20
-226.21602123700251
 30
0.0
 11
-68.211338245317279
 21
-226.25772329337039
 31
0.0
  0
LINE
  8
DETAIL
  6
CONTINUOUS
 62
     5
 10
-68.211338245317279
 20
-226.25772329337039
 30
0.0
 11
-68.264935644275624
 21
-226.300141060069
 31
0.0
  0
LINE
  8
DETAIL
  6
CONTINUOUS
 62
     5
 10
-68.264935644275624
 20
-226.300141060069
 30
0.0
 11
-68.264935644275624
 21
-226.300141060069
 31
0.0
  0
LINE
  8
DETAIL
  6
CONTINUOUS
 62
     5
 10
-68.264935644275624
 20
-226.300141060069
 30
0.0
 11
-68.317882980578361
 21
-226.34325607696641
 31
0.0
  0
LINE
  8
DETAIL
  6
CONTINUOUS
 62
     5
 10
-68.317882980578361
 20
-226.34325607696641
 30
0.0
 11
-68.370371830474255
 21
-226.38723707739589
 31
0.0
  0
LINE
  8
DETAIL
  6
CONTINUOUS
 62
     5
 10
-68.370371830474255
 20
-226.38723707739589
 30
0.0
 11
-68.370371830474255
 21
-226.38723707739589
 31
0.0
  0
LINE
  8
DETAIL
  6
CONTINUOUS
 62
     5
 10
-68.370371830474255
 20
-226.38723707739589
 30
0.0
 11
-68.422560567414848
 21
-226.4322258683703
 31
0.0
  0
LINE
  8
DETAIL
  6
CONTINUOUS
 62
     5
 10
-68.422560567414848
 20
-226.4322258683703
 30
0.0
 11
-68.474263111846312
 21
-226.4780693581672
 31
0.0
  0
LINE
  8
DETAIL
  6
CONTINUOUS
 62
     5
 10
-68.474263111846312
 20
-226.4780693581672
 30
0.0
 11
-68.474263111846312
 21
-226.4780693581672
 31
0.0
  0
LINE
  8
DETAIL
  6
CONTINUOUS
 62
     5
 10
-68.474263111846312
 20
-226.4780693581672
 30
0.0
 11
-68.525262934215789
 21
-226.52458654600031
 31
0.0
  0
LINE
  8
DETAIL
  6
CONTINUOUS
 62
     5
 10
-68.525262934215789
 20
-226.52458654600031
 30
0.0
 11
-68.57556615797921
 21
-226.57177969357281
 31
0.0
  0
LINE
  8
DETAIL
  6
CONTINUOUS
 62
     5
 10
-68.57556615797921
 20
-226.57177969357281
 30
0.0
 11
-68.57556615797921
 21
-226.57177969357281
 31
0.0
  0
LINE
  8
DETAIL
  6
CONTINUOUS
 62
     5
 10
-68.57556615797921
 20
-226.57177969357281
 30
0.0
 11
-68.625219407570853
 21
-226.61968431568059
 31
0.0
  0
LINE
  8
DETAIL
  6
CONTINUOUS
 62
     5
 10
-68.625219407570853
 20
-226.61968431568059
 30
0.0
 11
-68.674208658333782
 21
-226.6682856770087
 31
0.0
  0
LINE
  8
DETAIL
  6
CONTINUOUS
 62
     5
 10
-68.674208658333782
 20
-226.6682856770087
 30
0.0
 11
-68.674208658333782
 21
-226.6682856770087
 31
0.0
  0
LINE
  8
DETAIL
  6
CONTINUOUS
 62
     5
 10
-68.674208658333782
 20
-226.6682856770087
 30
0.0
 11
-68.722509709177416
 21
-226.71756091420289
 31
0.0
  0
LINE
  8
DETAIL
  6
CONTINUOUS
 62
     5
 10
-68.722509709177416
 20
-226.71756091420289
 30
0.0
 11
-68.770118302371429
 21
-226.76750490187061
 31
0.0
  0
LINE
  8
DETAIL
  6
CONTINUOUS
 62
     5
 10
-68.770118302371429
 20
-226.76750490187061
 30
0.0
 11
-68.770118302371429
 21
-226.76750490187061
 31
0.0
  0
LINE
  8
DETAIL
  6
CONTINUOUS
 62
     5
 10
-68.770118302371429
 20
-226.76750490187061
 30
0.0
 11
-68.81703038493788
 21
-226.81811177367771
 31
0.0
  0
LINE
  8
DETAIL
  6
CONTINUOUS
 62
     5
 10
-68.81703038493788
 20
-226.81811177367771
 30
0.0
 11
-68.863222779552757
 21
-226.8693549615549
 31
0.0
  0
LINE
  8
DETAIL
  6
CONTINUOUS
 62
     5
 10
-68.863222779552757
 20
-226.8693549615549
 30
0.0
 11
-68.863222779552757
 21
-226.8693549615549
 31
0.0
  0
LINE
  8
DETAIL
  6
CONTINUOUS
 62
     5
 10
-68.863222779552757
 20
-226.8693549615549
 30
0.0
 11
-68.908674015883435
 21
-226.9212094487543
 31
0.0
  0
LINE
  8
DETAIL
  6
CONTINUOUS
 62
     5
 10
-68.908674015883435
 20
-226.9212094487543
 30
0.0
 11
-68.95338857591139
 21
-226.97367712554481
 31
0.0
  0
LINE
  8
DETAIL
  6
CONTINUOUS
 62
     5
 10
-68.95338857591139
 20
-226.97367712554481
 30
0.0
 11
-68.95338857591139
 21
-226.97367712554481
 31
0.0
  0
LINE
  8
DETAIL
  6
CONTINUOUS
 62
     5
 10
-68.95338857591139
 20
-226.97367712554481
 30
0.0
 11
-68.997374102388562
 21
-227.02676329800889
 31
0.0
  0
LINE
  8
DETAIL
  6
CONTINUOUS
 62
     5
 10
-68.997374102388562
 20
-227.02676329800889
 30
0.0
 11
-69.040624928836564
 21
-227.08046002847249
 31
0.0
  0
LINE
  8
DETAIL
  6
CONTINUOUS
 62
     5
 10
-69.040624928836564
 20
-227.08046002847249
 30
0.0
 11
-69.040624928836564
 21
-227.08046002847249
 31
0.0
  0
LINE
  8
DETAIL
  6
CONTINUOUS
 62
     5
 10
-69.040624928836564
 20
-227.08046002847249
 30
0.0
 11
-69.083130714698541
 21
-227.1347535031511
 31
0.0
  0
LINE
  8
DETAIL
  6
CONTINUOUS
 62
     5
 10
-69.083130714698541
 20
-227.1347535031511
 30
0.0
 11
-69.124875732337159
 21
-227.18961964759319
 31
0.0
  0
LINE
  8
DETAIL
  6
CONTINUOUS
 62
     5
 10
-69.124875732337159
 20
-227.18961964759319
 30
0.0
 11
-69.124875732337159
 21
-227.18961964759319
 31
0.0
  0
LINE
  8
DETAIL
  6
CONTINUOUS
 62
     5
 10
-69.124875732337159
 20
-227.18961964759319
 30
0.0
 11
-69.165851621733054
 21
-227.245045393786
 31
0.0
  0
LINE
  8
DETAIL
  6
CONTINUOUS
 62
     5
 10
-69.165851621733054
 20
-227.245045393786
 30
0.0
 11
-69.206084880422168
 21
-227.3010719601601
 31
0.0
  0
LINE
  8
DETAIL
  6
CONTINUOUS
 62
     5
 10
-69.206084880422168
 20
-227.3010719601601
 30
0.0
 11
-69.206084880422168
 21
-227.3010719601601
 31
0.0
  0
LINE
  8
DETAIL
  6
CONTINUOUS
 62
     5
 10
-69.206084880422168
 20
-227.3010719601601
 30
0.0
 11
-69.245577209543853
 21
-227.35770241548289
 31
0.0
  0
LINE
  8
DETAIL
  6
CONTINUOUS
 62
     5
 10
-69.245577209543853
 20
-227.35770241548289
 30
0.0
 11
-69.284196267100583
 21
-227.41473294343129
 31
0.0
  0
LINE
  8
DETAIL
  6
CONTINUOUS
 62
     5
 10
-69.284196267100583
 20
-227.41473294343129
 30
0.0
 11
-69.284196267100583
 21
-227.41473294343129
 31
0.0
  0
LINE
  8
DETAIL
  6
CONTINUOUS
 62
     5
 10
-69.284196267100583
 20
-227.41473294343129
 30
0.0
 11
-69.321830858458611
 21
-227.4719881913453
 31
0.0
  0
LINE
  8
DETAIL
  6
CONTINUOUS
 62
     5
 10
-69.321830858458611
 20
-227.4719881913453
 30
0.0
 11
-69.358588421580635
 21
-227.52961354631691
 31
0.0
  0
LINE
  8
DETAIL
  6
CONTINUOUS
 62
     5
 10
-69.358588421580635
 20
-227.52961354631691
 30
0.0
 11
-69.358588421580635
 21
-227.52961354631691
 31
0.0
  0
LINE
  8
DETAIL
  6
CONTINUOUS
 62
     5
 10
-69.358588421580635
 20
-227.52961354631691
 30
0.0
 11
-69.394593835832779
 21
-227.58778480652481
 31
0.0
  0
LINE
  8
DETAIL
  6
CONTINUOUS
 62
     5
 10
-69.394593835832779
 20
-227.58778480652481
 30
0.0
 11
-69.429823113600605
 21
-227.64647867475381
 31
0.0
  0
LINE
  8
DETAIL
  6
CONTINUOUS
 62
     5
 10
-69.429823113600605
 20
-227.64647867475381
 30
0.0
 11
-69.429823113600605
 21
-227.64647867475381
 31
0.0
  0
LINE
  8
DETAIL
  6
CONTINUOUS
 62
     5
 10
-69.429823113600605
 20
-227.64647867475381
 30
0.0
 11
-69.46423253193143
 21
-227.70563194212019
 31
0.0
  0
LINE
  8
DETAIL
  6
CONTINUOUS
 62
     5
 10
-69.46423253193143
 20
-227.70563194212019
 30
0.0
 11
-69.497848293502784
 21
-227.76522084846809
 31
0.0
  0
LINE
  8
DETAIL
  6
CONTINUOUS
 62
     5
 10
-69.497848293502784
 20
-227.76522084846809
 30
0.0
 11
-69.497848293502784
 21
-227.76522084846809
 31
0.0
  0
LINE
  8
DETAIL
  6
CONTINUOUS
 62
     5
 10
-69.497848293502784
 20
-227.76522084846809
 30
0.0
 11
-69.530681373514881
 21
-227.82524182094409
 31
0.0
  0
LINE
  8
DETAIL
  6
CONTINUOUS
 62
     5
 10
-69.530681373514881
 20
-227.82524182094409
 30
0.0
 11
-69.562611911630142
 21
-227.88573258718461
 31
0.0
  0
LINE
  8
DETAIL
  6
CONTINUOUS
 62
     5
 10
-69.562611911630142
 20
-227.88573258718461
 30
0.0
 11
-69.562611911630142
 21
-227.88573258718461
 31
0.0
  0
LINE
  8
DETAIL
  6
CONTINUOUS
 62
     5
 10
-69.562611911630142
 20
-227.88573258718461
 30
0.0
 11
-69.593600692757036
 21
-227.94669003727671
 31
0.0
  0
LINE
  8
DETAIL
  6
CONTINUOUS
 62
     5
 10
-69.593600692757036
 20
-227.94669003727671
 30
0.0
 11
-69.624061918324514
 21
-228.0079064106296
 31
0.0
  0
LINE
  8
DETAIL
  6
CONTINUOUS
 62
     5
 10
72.749974970747871
 20
-241.85594613547551
 30
0.0
 11
72.728390445539048
 21
-241.85398694865191
 31
0.0
  0
LINE
  8
DETAIL
  6
CONTINUOUS
 62
     5
 10
72.728390445539048
 20
-241.85398694865191
 30
0.0
 11
72.70677131886282
 21
-241.85190398709591
 31
0.0
  0
LINE
  8
DETAIL
  6
CONTINUOUS
 62
     5
 10
72.70677131886282
 20
-241.85190398709591
 30
0.0
 11
72.70677131886282
 21
-241.85190398709591
 31
0.0
  0
LINE
  8
DETAIL
  6
CONTINUOUS
 62
     5
 10
72.70677131886282
 20
-241.85190398709591
 30
0.0
 11
72.685126303961511
 21
-241.84960632846719
 31
0.0
  0
LINE
  8
DETAIL
  6
CONTINUOUS
 62
     5
 10
72.685126303961511
 20
-241.84960632846719
 30
0.0
 11
72.663637372913513
 21
-241.84713445999969
 31
0.0
  0
LINE
  8
DETAIL
  6
CONTINUOUS
 62
     5
 10
72.663637372913513
 20
-241.84713445999969
 30
0.0
 11
72.663637372913513
 21
-241.84713445999969
 31
0.0
  0
LINE
  8
DETAIL
  6
CONTINUOUS
 62
     5
 10
72.663637372913513
 20
-241.84713445999969
 30
0.0
 11
72.642349654186546
 21
-241.8445216670452
 31
0.0
  0
LINE
  8
DETAIL
  6
CONTINUOUS
 62
     5
 10
72.642349654186546
 20
-241.8445216670452
 30
0.0
 11
72.620587642969326
 21
-241.84164101785069
 31
0.0
  0
LINE
  8
DETAIL
  6
CONTINUOUS
 62
     5
 10
72.620587642969326
 20
-241.84164101785069
 30
0.0
 11
72.620587642969326
 21
-241.84164101785069
 31
0.0
  0
LINE
  8
DETAIL
  6
CONTINUOUS
 62
     5
 10
72.620587642969326
 20
-241.84164101785069
 30
0.0
 11
72.598172994700349
 21
-241.83845289109851
 31
0.0
  0
LINE
  8
DETAIL
  6
CONTINUOUS
 62
     5
 10
72.598172994700349
 20
-241.83845289109851
 30
0.0
 11
72.577636639099296
 21
-241.83542712431131
 31
0.0
  0
LINE
  8
DETAIL
  6
CONTINUOUS
 62
     5
 10
72.577636639099296
 20
-241.83542712431131
 30
0.0
 11
72.577636639099296
 21
-241.83542712431131
 31
0.0
  0
LINE
  8
DETAIL
  6
CONTINUOUS
 62
     5
 10
72.577636639099296
 20
-241.83542712431131
 30
0.0
 11
72.559657708495024
 21
-241.83269151515739
 31
0.0
  0
LINE
  8
DETAIL
  6
CONTINUOUS
 62
     5
 10
72.559657708495024
 20
-241.83269151515739
 30
0.0
 11
72.534798871373027
 21
-241.82849624304521
 31
0.0
  0
LINE
  8
DETAIL
  6
CONTINUOUS
 62
     5
 10
72.534798871373027
 20
-241.82849624304521
 30
0.0
 11
72.534798871373027
 21
-241.82849624304521
 31
0.0
  0
LINE
  8
DETAIL
  6
CONTINUOUS
 62
     5
 10
72.534798871373027
 20
-241.82849624304521
 30
0.0
 11
72.495094876274379
 21
-241.82130455893861
 31
0.0
  0
LINE
  8
DETAIL
  6
CONTINUOUS
 62
     5
 10
72.495094876274379
 20
-241.82130455893861
 30
0.0
 11
72.448585255805483
 21
-241.81230961828649
 31
0.0
  0
LINE
  8
DETAIL
  6
CONTINUOUS
 62
     5
 10
72.448585255805483
 20
-241.81230961828649
 30
0.0
 11
72.448585255805483
 21
-241.81230961828649
 31
0.0
  0
LINE
  8
DETAIL
  6
CONTINUOUS
 62
     5
 10
72.448585255805483
 20
-241.81230961828649
 30
0.0
 11
72.404768737600079
 21
-241.80299202724049
 31
0.0
  0
LINE
  8
DETAIL
  6
CONTINUOUS
 62
     5
 10
72.404768737600079
 20
-241.80299202724049
 30
0.0
 11
72.362976045338542
 21
-241.79325229027069
 31
0.0
  0
LINE
  8
DETAIL
  6
CONTINUOUS
 62
     5
 10
72.362976045338542
 20
-241.79325229027069
 30
0.0
 11
72.362976045338542
 21
-241.79325229027069
 31
0.0
  0
LINE
  8
DETAIL
  6
CONTINUOUS
 62
     5
 10
72.362976045338542
 20
-241.79325229027069
 30
0.0
 11
72.32067545059715
 21
-241.7827011534948
 31
0.0
  0
LINE
  8
DETAIL
  6
CONTINUOUS
 62
     5
 10
72.32067545059715
 20
-241.7827011534948
 30
0.0
 11
72.278053420491915
 21
-241.77137043129139
 31
0.0
  0
LINE
  8
DETAIL
  6
CONTINUOUS
 62
     5
 10
72.278053420491915
 20
-241.77137043129139
 30
0.0
 11
72.278053420491915
 21
-241.77137043129139
 31
0.0
  0
LINE
  8
DETAIL
  6
CONTINUOUS
 62
     5
 10
72.278053420491915
 20
-241.77137043129139
 30
0.0
 11
72.235799776472504
 21
-241.7593711622624
 31
0.0
  0
LINE
  8
DETAIL
  6
CONTINUOUS
 62
     5
 10
72.235799776472504
 20
-241.7593711622624
 30
0.0
 11
72.193899561784406
 21
-241.74671021364449
 31
0.0
  0
LINE
  8
DETAIL
  6
CONTINUOUS
 62
     5
 10
72.193899561784406
 20
-241.74671021364449
 30
0.0
 11
72.193899561784406
 21
-241.74671021364449
 31
0.0
  0
LINE
  8
DETAIL
  6
CONTINUOUS
 62
     5
 10
72.193899561784406
 20
-241.74671021364449
 30
0.0
 11
72.152186854441197
 21
-241.7333673141321
 31
0.0
  0
LINE
  8
DETAIL
  6
CONTINUOUS
 62
     5
 10
72.152186854441197
 20
-241.7333673141321
 30
0.0
 11
72.110596649735498
 21
-241.7193178096235
 31
0.0
  0
LINE
  8
DETAIL
  6
CONTINUOUS
 62
     5
 10
72.110596649735498
 20
-241.7193178096235
 30
0.0
 11
72.110596649735498
 21
-241.7193178096235
 31
0.0
  0
LINE
  8
DETAIL
  6
CONTINUOUS
 62
     5
 10
72.110596649735498
 20
-241.7193178096235
 30
0.0
 11
72.069113296046453
 21
-241.70454701675021
 31
0.0
  0
LINE
  8
DETAIL
  6
CONTINUOUS
 62
     5
 10
72.069113296046453
 20
-241.70454701675021
 30
0.0
 11
72.027817636821965
 21
-241.68908451787789
 31
0.0
  0
LINE
  8
DETAIL
  6
CONTINUOUS
 62
     5
 10
72.027817636821965
 20
-241.68908451787789
 30
0.0
 11
72.027817636821965
 21
-241.68908451787789
 31
0.0
  0
LINE
  8
DETAIL
  6
CONTINUOUS
 62
     5
 10
72.027817636821965
 20
-241.68908451787789
 30
0.0
 11
71.98679542107152
 21
-241.67296441697181
 31
0.0
  0
LINE
  8
DETAIL
  6
CONTINUOUS
 62
     5
 10
71.98679542107152
 20
-241.67296441697181
 30
0.0
 11
71.946055524984217
 21
-241.656194638664
 31
0.0
  0
LINE
  8
DETAIL
  6
CONTINUOUS
 62
     5
 10
71.946055524984217
 20
-241.656194638664
 30
0.0
 11
71.946055524984217
 21
-241.656194638664
 31
0.0
  0
LINE
  8
DETAIL
  6
CONTINUOUS
 62
     5
 10
71.946055524984217
 20
-241.656194638664
 30
0.0
 11
71.905588037438974
 21
-241.63877566891131
 31
0.0
  0
LINE
  8
DETAIL
  6
CONTINUOUS
 62
     5
 10
71.905588037438974
 20
-241.63877566891131
 30
0.0
 11
71.865384770893002
 21
-241.6207044183046
 31
0.0
  0
LINE
  8
DETAIL
  6
CONTINUOUS
 62
     5
 10
71.865384770893002
 20
-241.6207044183046
 30
0.0
 11
71.865384770893002
 21
-241.6207044183046
 31
0.0
  0
LINE
  8
DETAIL
  6
CONTINUOUS
 62
     5
 10
71.865384770893002
 20
-241.6207044183046
 30
0.0
 11
71.825455463324943
 21
-241.60198702379259
 31
0.0
  0
LINE
  8
DETAIL
  6
CONTINUOUS
 62
     5
 10
71.825455463324943
 20
-241.60198702379259
 30
0.0
 11
71.785879831218836
 21
-241.58267010312429
 31
0.0
  0
LINE
  8
DETAIL
  6
CONTINUOUS
 62
     5
 10
71.785879831218836
 20
-241.58267010312429
 30
0.0
 11
71.785879831218836
 21
-241.58267010312429
 31
0.0
  0
LINE
  8
DETAIL
  6
CONTINUOUS
 62
     5
 10
71.785879831218836
 20
-241.58267010312429
 30
0.0
 11
71.746684676285213
 21
-241.56277080728881
 31
0.0
  0
LINE
  8
DETAIL
  6
CONTINUOUS
 62
     5
 10
71.746684676285213
 20
-241.56277080728881
 30
0.0
 11
71.707615162632692
 21
-241.5421479394457
 31
0.0
  0
LINE
  8
DETAIL
  6
CONTINUOUS
 62
     5
 10
71.707615162632692
 20
-241.5421479394457
 30
0.0
 11
71.707615162632692
 21
-241.5421479394457
 31
0.0
  0
LINE
  8
DETAIL
  6
CONTINUOUS
 62
     5
 10
71.707615162632692
 20
-241.5421479394457
 30
0.0
 11
71.668458134722414
 21
-241.52068114861609
 31
0.0
  0
LINE
  8
DETAIL
  6
CONTINUOUS
 62
     5
 10
71.668458134722414
 20
-241.52068114861609
 30
0.0
 11
71.629448796027759
 21
-241.49849181510299
 31
0.0
  0
LINE
  8
DETAIL
  6
CONTINUOUS
 62
     5
 10
71.629448796027759
 20
-241.49849181510299
 30
0.0
 11
71.629448796027759
 21
-241.49849181510299
 31
0.0
  0
LINE
  8
DETAIL
  6
CONTINUOUS
 62
     5
 10
71.629448796027759
 20
-241.49849181510299
 30
0.0
 11
71.590864385274358
 21
-241.47572633183549
 31
0.0
  0
LINE
  8
DETAIL
  6
CONTINUOUS
 62
     5
 10
71.590864385274358
 20
-241.47572633183549
 30
0.0
 11
71.552701923188579
 21
-241.45238941096741
 31
0.0
  0
LINE
  8
DETAIL
  6
CONTINUOUS
 62
     5
 10
71.552701923188579
 20
-241.45238941096741
 30
0.0
 11
71.552701923188579
 21
-241.45238941096741
 31
0.0
  0
LINE
  8
DETAIL
  6
CONTINUOUS
 62
     5
 10
71.552701923188579
 20
-241.45238941096741
 30
0.0
 11
71.514899177466191
 21
-241.428453551095
 31
0.0
  0
LINE
  8
DETAIL
  6
CONTINUOUS
 62
     5
 10
71.514899177466191
 20
-241.428453551095
 30
0.0
 11
71.477437121680168
 21
-241.40390407736581
 31
0.0
  0
LINE
  8
DETAIL
  6
CONTINUOUS
 62
     5
 10
71.477437121680168
 20
-241.40390407736581
 30
0.0
 11
71.477437121680168
 21
-241.40390407736581
 31
0.0
  0
LINE
  8
DETAIL
  6
CONTINUOUS
 62
     5
 10
71.477437121680168
 20
-241.40390407736581
 30
0.0
 11
71.440334379495653
 21
-241.37875211520799
 31
0.0
  0
LINE
  8
DETAIL
  6
CONTINUOUS
 62
     5
 10
71.440334379495653
 20
-241.37875211520799
 30
0.0
 11
71.403716969067318
 21
-241.35309916462759
 31
0.0
  0
LINE
  8
DETAIL
  6
CONTINUOUS
 62
     5
 10
71.403716969067318
 20
-241.35309916462759
 30
0.0
 11
71.403716969067318
 21
-241.35309916462759
 31
0.0
  0
LINE
  8
DETAIL
  6
CONTINUOUS
 62
     5
 10
71.403716969067318
 20
-241.35309916462759
 30
0.0
 11
71.367619561213473
 21
-241.32697573805891
 31
0.0
  0
LINE
  8
DETAIL
  6
CONTINUOUS
 62
     5
 10
71.367619561213473
 20
-241.32697573805891
 30
0.0
 11
71.331604042915387
 21
-241.30003802307931
 31
0.0
  0
LINE
  8
DETAIL
  6
CONTINUOUS
 62
     5
 10
71.331604042915387
 20
-241.30003802307931
 30
0.0
 11
71.331604042915387
 21
-241.30003802307931
 31
0.0
  0
LINE
  8
DETAIL
  6
CONTINUOUS
 62
     5
 10
71.331604042915387
 20
-241.30003802307931
 30
0.0
 11
71.295304720974741
 21
-241.2719937332603
 31
0.0
  0
LINE
  8
DETAIL
  6
CONTINUOUS
 62
     5
 10
71.295304720974741
 20
-241.2719937332603
 30
0.0
 11
71.259118365306904
 21
-241.24313101100881
 31
0.0
  0
LINE
  8
DETAIL
  6
CONTINUOUS
 62
     5
 10
71.259118365306904
 20
-241.24313101100881
 30
0.0
 11
71.259118365306904
 21
-241.24313101100881
 31
0.0
  0
LINE
  8
DETAIL
  6
CONTINUOUS
 62
     5
 10
71.259118365306904
 20
-241.24313101100881
 30
0.0
 11
71.223510427504038
 21
-241.21379418614279
 31
0.0
  0
LINE
  8
DETAIL
  6
CONTINUOUS
 62
     5
 10
71.223510427504038
 20
-241.21379418614279
 30
0.0
 11
71.188458622750773
 21
-241.18397190928741
 31
0.0
  0
LINE
  8
DETAIL
  6
CONTINUOUS
 62
     5
 10
71.188458622750773
 20
-241.18397190928741
 30
0.0
 11
71.188458622750773
 21
-241.18397190928741
 31
0.0
  0
LINE
  8
DETAIL
  6
CONTINUOUS
 62
     5
 10
71.188458622750773
 20
-241.18397190928741
 30
0.0
 11
71.153848107562339
 21
-241.1535841774398
 31
0.0
  0
LINE
  8
DETAIL
  6
CONTINUOUS
 62
     5
 10
71.153848107562339
 20
-241.1535841774398
 30
0.0
 11
71.11968154018416
 21
-241.12263205228851
 31
0.0
  0
LINE
  8
DETAIL
  6
CONTINUOUS
 62
     5
 10
71.11968154018416
 20
-241.12263205228851
 30
0.0
 11
71.11968154018416
 21
-241.12263205228851
 31
0.0
  0
LINE
  8
DETAIL
  6
CONTINUOUS
 62
     5
 10
71.11968154018416
 20
-241.12263205228851
 30
0.0
 11
71.085995386666241
 21
-241.09114471680161
 31
0.0
  0
LINE
  8
DETAIL
  6
CONTINUOUS
 62
     5
 10
71.085995386666241
 20
-241.09114471680161
 30
0.0
 11
71.052843842544462
 21
-241.0591827743859
 31
0.0
  0
LINE
  8
DETAIL
  6
CONTINUOUS
 62
     5
 10
71.052843842544462
 20
-241.0591827743859
 30
0.0
 11
71.052843842544462
 21
-241.0591827743859
 31
0.0
  0
LINE
  8
DETAIL
  6
CONTINUOUS
 62
     5
 10
71.052843842544462
 20
-241.0591827743859
 30
0.0
 11
71.020238430807353
 21
-241.0267629969461
 31
0.0
  0
LINE
  8
DETAIL
  6
CONTINUOUS
 62
     5
 10
71.020238430807353
 20
-241.0267629969461
 30
0.0
 11
70.988002254768844
 21
-240.99369540995329
 31
0.0
  0
LINE
  8
DETAIL
  6
CONTINUOUS
 62
     5
 10
70.988002254768844
 20
-240.99369540995329
 30
0.0
 11
70.988002254768844
 21
-240.99369540995329
 31
0.0
  0
LINE
  8
DETAIL
  6
CONTINUOUS
 62
     5
 10
70.988002254768844
 20
-240.99369540995329
 30
0.0
 11
70.955990034887691
 21
-240.9598208435784
 31
0.0
  0
LINE
  8
DETAIL
  6
CONTINUOUS
 62
     5
 10
70.955990034887691
 20
-240.9598208435784
 30
0.0
 11
70.924371379876675
 21
-240.92531009323369
 31
0.0
  0
LINE
  8
DETAIL
  6
CONTINUOUS
 62
     5
 10
70.924371379876675
 20
-240.92531009323369
 30
0.0
 11
70.924371379876675
 21
-240.92531009323369
 31
0.0
  0
LINE
  8
DETAIL
  6
CONTINUOUS
 62
     5
 10
70.924371379876675
 20
-240.92531009323369
 30
0.0
 11
70.89334333737736
 21
-240.8903648108159
 31
0.0
  0
LINE
  8
DETAIL
  6
CONTINUOUS
 62
     5
 10
70.89334333737736
 20
-240.8903648108159
 30
0.0
 11
70.862897822488776
 21
-240.8549801089213
 31
0.0
  0
LINE
  8
DETAIL
  6
CONTINUOUS
 62
     5
 10
70.862897822488776
 20
-240.8549801089213
 30
0.0
 11
70.862897822488776
 21
-240.8549801089213
 31
0.0
  0
LINE
  8
DETAIL
  6
CONTINUOUS
 62
     5
 10
70.862897822488776
 20
-240.8549801089213
 30
0.0
 11
70.83298957860211
 21
-240.81911385215321
 31
0.0
  0
LINE
  8
DETAIL
  6
CONTINUOUS
 62
     5
 10
70.83298957860211
 20
-240.81911385215321
 30
0.0
 11
70.80362979481572
 21
-240.78278145244909
 31
0.0
  0
LINE
  8
DETAIL
  6
CONTINUOUS
 62
     5
 10
70.80362979481572
 20
-240.78278145244909
 30
0.0
 11
70.80362979481572
 21
-240.78278145244909
 31
0.0
  0
LINE
  8
DETAIL
  6
CONTINUOUS
 62
     5
 10
70.80362979481572
 20
-240.78278145244909
 30
0.0
 11
70.774838609083417
 21
-240.74600679607019
 31
0.0
  0
LINE
  8
DETAIL
  6
CONTINUOUS
 62
     5
 10
70.774838609083417
 20
-240.74600679607019
 30
0.0
 11
70.746615509068079
 21
-240.70879011925189
 31
0.0
  0
LINE
  8
DETAIL
  6
CONTINUOUS
 62
     5
 10
70.746615509068079
 20
-240.70879011925189
 30
0.0
 11
70.746615509068079
 21
-240.70879011925189
 31
0.0
  0
LINE
  8
DETAIL
  6
CONTINUOUS
 62
     5
 10
70.746615509068079
 20
-240.70879011925189
 30
0.0
 11
70.718961358724073
 21
-240.671135008915
 31
0.0
  0
LINE
  8
DETAIL
  6
CONTINUOUS
 62
     5
 10
70.718961358724073
 20
-240.671135008915
 30
0.0
 11
70.691903177456538
 21
-240.63308210476251
 31
0.0
  0
LINE
  8
DETAIL
  6
CONTINUOUS
 62
     5
 10
70.691903177456538
 20
-240.63308210476251
 30
0.0
 11
70.691903177456538
 21
-240.63308210476251
 31
0.0
  0
LINE
  8
DETAIL
  6
CONTINUOUS
 62
     5
 10
70.691903177456538
 20
-240.63308210476251
 30
0.0
 11
70.665464976908652
 21
-240.594667980791
 31
0.0
  0
LINE
  8
DETAIL
  6
CONTINUOUS
 62
     5
 10
70.665464976908652
 20
-240.594667980791
 30
0.0
 11
70.639632582222475
 21
-240.55587589540141
 31
0.0
  0
LINE
  8
DETAIL
  6
CONTINUOUS
 62
     5
 10
70.639632582222475
 20
-240.55587589540141
 30
0.0
 11
70.639632582222475
 21
-240.55587589540141
 31
0.0
  0
LINE
  8
DETAIL
  6
CONTINUOUS
 62
     5
 10
70.639632582222475
 20
-240.55587589540141
 30
0.0
 11
70.614388718050009
 21
-240.516685055181
 31
0.0
  0
LINE
  8
DETAIL
  6
CONTINUOUS
 62
     5
 10
70.614388718050009
 20
-240.516685055181
 30
0.0
 11
70.589741893585256
 21
-240.47711177507341
 31
0.0
  0
LINE
  8
DETAIL
  6
CONTINUOUS
 62
     5
 10
70.589741893585256
 20
-240.47711177507341
 30
0.0
 11
70.589741893585256
 21
-240.47711177507341
 31
0.0
  0
LINE
  8
DETAIL
  6
CONTINUOUS
 62
     5
 10
70.589741893585256
 20
-240.47711177507341
 30
0.0
 11
70.565703341358017
 21
-240.43717493283771
 31
0.0
  0
LINE
  8
DETAIL
  6
CONTINUOUS
 62
     5
 10
70.565703341358017
 20
-240.43717493283771
 30
0.0
 11
70.542269402696775
 21
-240.39686654915721
 31
0.0
  0
LINE
  8
DETAIL
  6
CONTINUOUS
 62
     5
 10
70.542269402696775
 20
-240.39686654915721
 30
0.0
 11
70.542269402696775
 21
-240.39686654915721
 31
0.0
  0
LINE
  8
DETAIL
  6
CONTINUOUS
 62
     5
 10
70.542269402696775
 20
-240.39686654915721
 30
0.0
 11
70.519441141195671
 21
-240.35618951043389
 31
0.0
  0
LINE
  8
DETAIL
  6
CONTINUOUS
 62
     5
 10
70.519441141195671
 20
-240.35618951043389
 30
0.0
 11
70.497253400708814
 21
-240.3152170230334
 31
0.0
  0
LINE
  8
DETAIL
  6
CONTINUOUS
 62
     5
 10
70.497253400708814
 20
-240.3152170230334
 30
0.0
 11
70.497253400708814
 21
-240.3152170230334
 31
0.0
  0
LINE
  8
DETAIL
  6
CONTINUOUS
 62
     5
 10
70.497253400708814
 20
-240.3152170230334
 30
0.0
 11
70.475719412695639
 21
-240.27397626761831
 31
0.0
  0
LINE
  8
DETAIL
  6
CONTINUOUS
 62
     5
 10
70.475719412695639
 20
-240.27397626761831
 30
0.0
 11
70.454732178773384
 21
-240.2322400020814
 31
0.0
  0
LINE
  8
DETAIL
  6
CONTINUOUS
 62
     5
 10
70.454732178773384
 20
-240.2322400020814
 30
0.0
 11
70.454732178773384
 21
-240.2322400020814
 31
0.0
  0
LINE
  8
DETAIL
  6
CONTINUOUS
 62
     5
 10
70.454732178773384
 20
-240.2322400020814
 30
0.0
 11
70.434203439585303
 21
-240.1898166571639
 31
0.0
  0
LINE
  8
DETAIL
  6
CONTINUOUS
 62
     5
 10
70.434203439585303
 20
-240.1898166571639
 30
0.0
 11
70.41424012171683
 21
-240.14691177776959
 31
0.0
  0
LINE
  8
DETAIL
  6
CONTINUOUS
 62
     5
 10
70.41424012171683
 20
-240.14691177776959
 30
0.0
 11
70.41424012171683
 21
-240.14691177776959
 31
0.0
  0
LINE
  8
DETAIL
  6
CONTINUOUS
 62
     5
 10
70.41424012171683
 20
-240.14691177776959
 30
0.0
 11
70.394966019824324
 21
-240.1037686344533
 31
0.0
  0
LINE
  8
DETAIL
  6
CONTINUOUS
 62
     5
 10
70.394966019824324
 20
-240.1037686344533
 30
0.0
 11
70.376377214900913
 21
-240.0603842862121
 31
0.0
  0
LINE
  8
DETAIL
  6
CONTINUOUS
 62
     5
 10
70.376377214900913
 20
-240.0603842862121
 30
0.0
 11
70.376377214900913
 21
-240.0603842862121
 31
0.0
  0
LINE
  8
DETAIL
  6
CONTINUOUS
 62
     5
 10
70.376377214900913
 20
-240.0603842862121
 30
0.0
 11
70.358445514749519
 21
-240.01670769300341
 31
0.0
  0
LINE
  8
DETAIL
  6
CONTINUOUS
 62
     5
 10
70.358445514749519
 20
-240.01670769300341
 30
0.0
 11
70.341173348071607
 21
-239.972741630196
 31
0.0
  0
LINE
  8
DETAIL
  6
CONTINUOUS
 62
     5
 10
70.341173348071607
 20
-239.972741630196
 30
0.0
 11
70.341173348071607
 21
-239.972741630196
 31
0.0
  0
LINE
  8
DETAIL
  6
CONTINUOUS
 62
     5
 10
70.341173348071607
 20
-239.972741630196
 30
0.0
 11
70.32457210631037
 21
-239.92851006449109
 31
0.0
  0
LINE
  8
DETAIL
  6
CONTINUOUS
 62
     5
 10
70.32457210631037
 20
-239.92851006449109
 30
0.0
 11
70.308658410974886
 21
-239.88406791250961
 31
0.0
  0
LINE
  8
DETAIL
  6
CONTINUOUS
 62
     5
 10
70.308658410974886
 20
-239.88406791250961
 30
0.0
 11
70.308658410974886
 21
-239.88406791250961
 31
0.0
  0
LINE
  8
DETAIL
  6
CONTINUOUS
 62
     5
 10
70.308658410974886
 20
-239.88406791250961
 30
0.0
 11
70.293437305800126
 21
-239.83943342457911
 31
0.0
  0
LINE
  8
DETAIL
  6
CONTINUOUS
 62
     5
 10
70.293437305800126
 20
-239.83943342457911
 30
0.0
 11
70.278862293356724
 21
-239.79444723593821
 31
0.0
  0
LINE
  8
DETAIL
  6
CONTINUOUS
 62
     5
 10
70.278862293356724
 20
-239.79444723593821
 30
0.0
 11
70.278862293356724
 21
-239.79444723593821
 31
0.0
  0
LINE
  8
DETAIL
  6
CONTINUOUS
 62
     5
 10
70.278862293356724
 20
-239.79444723593821
 30
0.0
 11
70.264896179689458
 21
-239.74897688100449
 31
0.0
  0
LINE
  8
DETAIL
  6
CONTINUOUS
 62
     5
 10
70.264896179689458
 20
-239.74897688100449
 30
0.0
 11
70.251590525901179
 21
-239.7031751060068
 31
0.0
  0
LINE
  8
DETAIL
  6
CONTINUOUS
 62
     5
 10
70.251590525901179
 20
-239.7031751060068
 30
0.0
 11
70.251590525901179
 21
-239.7031751060068
 31
0.0
  0
LINE
  8
DETAIL
  6
CONTINUOUS
 62
     5
 10
70.251590525901179
 20
-239.7031751060068
 30
0.0
 11
70.239003935559367
 21
-239.65722035173559
 31
0.0
  0
LINE
  8
DETAIL
  6
CONTINUOUS
 62
     5
 10
70.239003935559367
 20
-239.65722035173559
 30
0.0
 11
70.227134427030592
 21
-239.61110862543211
 31
0.0
  0
LINE
  8
DETAIL
  6
CONTINUOUS
 62
     5
 10
70.227134427030592
 20
-239.61110862543211
 30
0.0
 11
70.227134427030592
 21
-239.61110862543211
 31
0.0
  0
LINE
  8
DETAIL
  6
CONTINUOUS
 62
     5
 10
70.227134427030592
 20
-239.61110862543211
 30
0.0
 11
70.215969239397054
 21
-239.56480476051439
 31
0.0
  0
LINE
  8
DETAIL
  6
CONTINUOUS
 62
     5
 10
70.215969239397054
 20
-239.56480476051439
 30
0.0
 11
70.205513079804746
 21
-239.51833132867259
 31
0.0
  0
LINE
  8
DETAIL
  6
CONTINUOUS
 62
     5
 10
70.205513079804746
 20
-239.51833132867259
 30
0.0
 11
70.205513079804746
 21
-239.51833132867259
 31
0.0
  0
LINE
  8
DETAIL
  6
CONTINUOUS
 62
     5
 10
70.205513079804746
 20
-239.51833132867259
 30
0.0
 11
70.195772700652242
 21
-239.47171320627911
 31
0.0
  0
LINE
  8
DETAIL
  6
CONTINUOUS
 62
     5
 10
70.195772700652242
 20
-239.47171320627911
 30
0.0
 11
70.186745567283538
 21
-239.42492675018369
 31
0.0
  0
LINE
  8
DETAIL
  6
CONTINUOUS
 62
     5
 10
70.186745567283538
 20
-239.42492675018369
 30
0.0
 11
70.186745567283538
 21
-239.42492675018369
 31
0.0
  0
LINE
  8
DETAIL
  6
CONTINUOUS
 62
     5
 10
70.186745567283538
 20
-239.42492675018369
 30
0.0
 11
70.178431743317446
 21
-239.3779702723111
 31
0.0
  0
LINE
  8
DETAIL
  6
CONTINUOUS
 62
     5
 10
70.178431743317446
 20
-239.3779702723111
 30
0.0
 11
70.170850972526296
 21
-239.33097842442291
 31
0.0
  0
LINE
  8
DETAIL
  6
CONTINUOUS
 62
     5
 10
70.170850972526296
 20
-239.33097842442291
 30
0.0
 11
70.170850972526296
 21
-239.33097842442291
 31
0.0
  0
LINE
  8
DETAIL
  6
CONTINUOUS
 62
     5
 10
70.170850972526296
 20
-239.33097842442291
 30
0.0
 11
70.16401906011788
 21
-239.2840678690948
 31
0.0
  0
LINE
  8
DETAIL
  6
CONTINUOUS
 62
     5
 10
70.16401906011788
 20
-239.2840678690948
 30
0.0
 11
70.157916376886533
 21
-239.23714697233331
 31
0.0
  0
LINE
  8
DETAIL
  6
CONTINUOUS
 62
     5
 10
70.157916376886533
 20
-239.23714697233331
 30
0.0
 11
70.157916376886533
 21
-239.23714697233331
 31
0.0
  0
LINE
  8
DETAIL
  6
CONTINUOUS
 62
     5
 10
70.157916376886533
 20
-239.23714697233331
 30
0.0
 11
70.152521984469558
 21
-239.19010515845619
 31
0.0
  0
LINE
  8
DETAIL
  6
CONTINUOUS
 62
     5
 10
70.152521984469558
 20
-239.19010515845619
 30
0.0
 11
70.147845142288588
 21
-239.14296438160409
 31
0.0
  0
LINE
  8
DETAIL
  6
CONTINUOUS
 62
     5
 10
70.147845142288588
 20
-239.14296438160409
 30
0.0
 11
70.147845142288588
 21
-239.14296438160409
 31
0.0
  0
LINE
  8
DETAIL
  6
CONTINUOUS
 62
     5
 10
70.147845142288588
 20
-239.14296438160409
 30
0.0
 11
70.143894189220305
 21
-239.09577071318691
 31
0.0
  0
LINE
  8
DETAIL
  6
CONTINUOUS
 62
     5
 10
70.143894189220305
 20
-239.09577071318691
 30
0.0
 11
70.140643584173176
 21
-239.04853416387959
 31
0.0
  0
LINE
  8
DETAIL
  6
CONTINUOUS
 62
     5
 10
70.140643584173176
 20
-239.04853416387959
 30
0.0
 11
70.140643584173176
 21
-239.04853416387959
 31
0.0
  0
LINE
  8
DETAIL
  6
CONTINUOUS
 62
     5
 10
70.140643584173176
 20
-239.04853416387959
 30
0.0
 11
70.138085646585751
 21
-239.00125865745289
 31
0.0
  0
LINE
  8
DETAIL
  6
CONTINUOUS
 62
     5
 10
70.138085646585751
 20
-239.00125865745289
 30
0.0
 11
70.136318017980784
 21
-238.9539598308057
 31
0.0
  0
LINE
  8
DETAIL
  6
CONTINUOUS
 62
     5
 10
70.136318017980784
 20
-238.9539598308057
 30
0.0
 11
70.136318017980784
 21
-238.9539598308057
 31
0.0
  0
LINE
  8
DETAIL
  6
CONTINUOUS
 62
     5
 10
70.136318017980784
 20
-238.9539598308057
 30
0.0
 11
70.13536781830976
 21
-238.90665355117599
 31
0.0
  0
LINE
  8
DETAIL
  6
CONTINUOUS
 62
     5
 10
70.13536781830976
 20
-238.90665355117599
 30
0.0
 11
70.134874759152126
 21
-238.8593448940268
 31
0.0
  0
LINE
  8
DETAIL
  6
CONTINUOUS
 62
     5
 10
-70.134874759152353
 20
-238.8593448940268
 30
0.0
 11
-70.135367812788445
 21
-238.9066531929534
 31
0.0
  0
LINE
  8
DETAIL
  6
CONTINUOUS
 62
     5
 10
-70.135367812788445
 20
-238.9066531929534
 30
0.0
 11
-70.136317996097773
 21
-238.9539590927904
 31
0.0
  0
LINE
  8
DETAIL
  6
CONTINUOUS
 62
     5
 10
-70.136317996097773
 20
-238.9539590927904
 30
0.0
 11
-70.136317996097773
 21
-238.9539590927904
 31
0.0
  0
LINE
  8
DETAIL
  6
CONTINUOUS
 62
     5
 10
-70.136317996097773
 20
-238.9539590927904
 30
0.0
 11
-70.138085591946947
 21
-239.0012575186029
 31
0.0
  0
LINE
  8
DETAIL
  6
CONTINUOUS
 62
     5
 10
-70.138085591946947
 20
-239.0012575186029
 30
0.0
 11
-70.140643495976747
 21
-239.04853269207331
 31
0.0
  0
LINE
  8
DETAIL
  6
CONTINUOUS
 62
     5
 10
-70.140643495976747
 20
-239.04853269207331
 30
0.0
 11
-70.140643495976747
 21
-239.04853269207331
 31
0.0
  0
LINE
  8
DETAIL
  6
CONTINUOUS
 62
     5
 10
-70.140643495976747
 20
-239.04853269207331
 30
0.0
 11
-70.143894071825798
 21
-239.09576899810759
 31
0.0
  0
LINE
  8
DETAIL
  6
CONTINUOUS
 62
     5
 10
-70.143894071825798
 20
-239.09576899810759
 30
0.0
 11
-70.147844942352776
 21
-239.14296217789209
 31
0.0
  0
LINE
  8
DETAIL
  6
CONTINUOUS
 62
     5
 10
-70.147844942352776
 20
-239.14296217789209
 30
0.0
 11
-70.147844942352776
 21
-239.14296217789209
 31
0.0
  0
LINE
  8
DETAIL
  6
CONTINUOUS
 62
     5
 10
-70.147844942352776
 20
-239.14296217789209
 30
0.0
 11
-70.152521632808202
 21
-239.1901021312481
 31
0.0
  0
LINE
  8
DETAIL
  6
CONTINUOUS
 62
     5
 10
-70.152521632808202
 20
-239.1901021312481
 30
0.0
 11
-70.157916018790047
 21
-239.23714403626411
 31
0.0
  0
LINE
  8
DETAIL
  6
CONTINUOUS
 62
     5
 10
-70.157916018790047
 20
-239.23714403626411
 30
0.0
 11
-70.157916018790047
 21
-239.23714403626411
 31
0.0
  0
LINE
  8
DETAIL
  6
CONTINUOUS
 62
     5
 10
-70.157916018790047
 20
-239.23714403626411
 30
0.0
 11
-70.164018898330824
 21
-239.28406627325839
 31
0.0
  0
LINE
  8
DETAIL
  6
CONTINUOUS
 62
     5
 10
-70.164018898330824
 20
-239.28406627325839
 30
0.0
 11
-70.170850408852175
 21
-239.33097475320881
 31
0.0
  0
LINE
  8
DETAIL
  6
CONTINUOUS
 62
     5
 10
-70.170850408852175
 20
-239.33097475320881
 30
0.0
 11
-70.170850408852175
 21
-239.33097475320881
 31
0.0
  0
LINE
  8
DETAIL
  6
CONTINUOUS
 62
     5
 10
-70.170850408852175
 20
-239.33097475320881
 30
0.0
 11
-70.178429467823207
 21
-239.3779571741436
 31
0.0
  0
LINE
  8
DETAIL
  6
CONTINUOUS
 62
     5
 10
-70.178429467823207
 20
-239.3779571741436
 30
0.0
 11
-70.186740773511815
 21
-239.4249008516264
 31
0.0
  0
LINE
  8
DETAIL
  6
CONTINUOUS
 62
     5
 10
-70.186740773511815
 20
-239.4249008516264
 30
0.0
 11
-70.186740773511815
 21
-239.4249008516264
 31
0.0
  0
LINE
  8
DETAIL
  6
CONTINUOUS
 62
     5
 10
-70.186740773511815
 20
-239.4249008516264
 30
0.0
 11
-70.195765218902125
 21
-239.47167583262359
 31
0.0
  0
LINE
  8
DETAIL
  6
CONTINUOUS
 62
     5
 10
-70.195765218902125
 20
-239.47167583262359
 30
0.0
 11
-70.205502695045993
 21
-239.51828347217079
 31
0.0
  0
LINE
  8
DETAIL
  6
CONTINUOUS
 62
     5
 10
-70.205502695045993
 20
-239.51828347217079
 30
0.0
 11
-70.205502695045993
 21
-239.51828347217079
 31
0.0
  0
LINE
  8
DETAIL
  6
CONTINUOUS
 62
     5
 10
-70.205502695045993
 20
-239.51828347217079
 30
0.0
 11
-70.215955567860874
 21
-239.56474616342231
 31
0.0
  0
LINE
  8
DETAIL
  6
CONTINUOUS
 62
     5
 10
-70.215955567860874
 20
-239.56474616342231
 30
0.0
 11
-70.227117104663193
 21
-239.61103914393331
 31
0.0
  0
LINE
  8
DETAIL
  6
CONTINUOUS
 62
     5
 10
-70.227117104663193
 20
-239.61103914393331
 30
0.0
 11
-70.227117104663193
 21
-239.61103914393331
 31
0.0
  0
LINE
  8
DETAIL
  6
CONTINUOUS
 62
     5
 10
-70.227117104663193
 20
-239.61103914393331
 30
0.0
 11
-70.238982647203329
 21
-239.65714019094011
 31
0.0
  0
LINE
  8
DETAIL
  6
CONTINUOUS
 62
     5
 10
-70.238982647203329
 20
-239.65714019094011
 30
0.0
 11
-70.251564933571899
 21
-239.7030843960024
 31
0.0
  0
LINE
  8
DETAIL
  6
CONTINUOUS
 62
     5
 10
-70.251564933571899
 20
-239.7030843960024
 30
0.0
 11
-70.251564933571899
 21
-239.7030843960024
 31
0.0
  0
LINE
  8
DETAIL
  6
CONTINUOUS
 62
     5
 10
-70.251564933571899
 20
-239.7030843960024
 30
0.0
 11
-70.264865929254483
 21
-239.7488756538371
 31
0.0
  0
LINE
  8
DETAIL
  6
CONTINUOUS
 62
     5
 10
-70.264865929254483
 20
-239.7488756538371
 30
0.0
 11
-70.278827112980821
 21
-239.7943357574691
 31
0.0
  0
LINE
  8
DETAIL
  6
CONTINUOUS
 62
     5
 10
-70.278827112980821
 20
-239.7943357574691
 30
0.0
 11
-70.278827112980821
 21
-239.7943357574691
 31
0.0
  0
LINE
  8
DETAIL
  6
CONTINUOUS
 62
     5
 10
-70.278827112980821
 20
-239.7943357574691
 30
0.0
 11
-70.293397001130984
 21
-239.8393121829059
 31
0.0
  0
LINE
  8
DETAIL
  6
CONTINUOUS
 62
     5
 10
-70.293397001130984
 20
-239.8393121829059
 30
0.0
 11
-70.308612747448365
 21
-239.88393723977191
 31
0.0
  0
LINE
  8
DETAIL
  6
CONTINUOUS
 62
     5
 10
-70.308612747448365
 20
-239.88393723977191
 30
0.0
 11
-70.308612747448365
 21
-239.88393723977191
 31
0.0
  0
LINE
  8
DETAIL
  6
CONTINUOUS
 62
     5
 10
-70.308612747448365
 20
-239.88393723977191
 30
0.0
 11
-70.324520781874639
 21
-239.9283700712067
 31
0.0
  0
LINE
  8
DETAIL
  6
CONTINUOUS
 62
     5
 10
-70.324520781874639
 20
-239.9283700712067
 30
0.0
 11
-70.341116001786077
 21
-239.9725923207944
 31
0.0
  0
LINE
  8
DETAIL
  6
CONTINUOUS
 62
     5
 10
-70.341116001786077
 20
-239.9725923207944
 30
0.0
 11
-70.341116001786077
 21
-239.9725923207944
 31
0.0
  0
LINE
  8
DETAIL
  6
CONTINUOUS
 62
     5
 10
-70.341116001786077
 20
-239.9725923207944
 30
0.0
 11
-70.358381791286774
 21
-240.01654910829561
 31
0.0
  0
LINE
  8
DETAIL
  6
CONTINUOUS
 62
     5
 10
-70.358381791286774
 20
-240.01654910829561
 30
0.0
 11
-70.376307013959149
 21
-240.060216957736
 31
0.0
  0
LINE
  8
DETAIL
  6
CONTINUOUS
 62
     5
 10
-70.376307013959149
 20
-240.060216957736
 30
0.0
 11
-70.376307013959149
 21
-240.060216957736
 31
0.0
  0
LINE
  8
DETAIL
  6
CONTINUOUS
 62
     5
 10
-70.376307013959149
 20
-240.060216957736
 30
0.0
 11
-70.394889306918344
 21
-240.10359321483071
 31
0.0
  0
LINE
  8
DETAIL
  6
CONTINUOUS
 62
     5
 10
-70.394889306918344
 20
-240.10359321483071
 30
0.0
 11
-70.414155921932206
 21
-240.14672710779431
 31
0.0
  0
LINE
  8
DETAIL
  6
CONTINUOUS
 62
     5
 10
-70.414155921932206
 20
-240.14672710779431
 30
0.0
 11
-70.414155921932206
 21
-240.14672710779431
 31
0.0
  0
LINE
  8
DETAIL
  6
CONTINUOUS
 62
     5
 10
-70.414155921932206
 20
-240.14672710779431
 30
0.0
 11
-70.434110529909617
 21
-240.18962110190139
 31
0.0
  0
LINE
  8
DETAIL
  6
CONTINUOUS
 62
     5
 10
-70.434110529909617
 20
-240.18962110190139
 30
0.0
 11
-70.454632863670668
 21
-240.23203872816879
 31
0.0
  0
LINE
  8
DETAIL
  6
CONTINUOUS
 62
     5
 10
-70.454632863670668
 20
-240.23203872816879
 30
0.0
 11
-70.454632863670668
 21
-240.23203872816879
 31
0.0
  0
LINE
  8
DETAIL
  6
CONTINUOUS
 62
     5
 10
-70.454632863670668
 20
-240.23203872816879
 30
0.0
 11
-70.475619028387314
 21
-240.27378016320571
 31
0.0
  0
LINE
  8
DETAIL
  6
CONTINUOUS
 62
     5
 10
-70.475619028387314
 20
-240.27378016320571
 30
0.0
 11
-70.497154556727651
 21
-240.3150311002565
 31
0.0
  0
LINE
  8
DETAIL
  6
CONTINUOUS
 62
     5
 10
-70.497154556727651
 20
-240.3150311002565
 30
0.0
 11
-70.497154556727651
 21
-240.3150311002565
 31
0.0
  0
LINE
  8
DETAIL
  6
CONTINUOUS
 62
     5
 10
-70.497154556727651
 20
-240.3150311002565
 30
0.0
 11
-70.519343162831774
 21
-240.3560118621771
 31
0.0
  0
LINE
  8
DETAIL
  6
CONTINUOUS
 62
     5
 10
-70.519343162831774
 20
-240.3560118621771
 30
0.0
 11
-70.542171859232667
 21
-240.39669577363739
 31
0.0
  0
LINE
  8
DETAIL
  6
CONTINUOUS
 62
     5
 10
-70.542171859232667
 20
-240.39669577363739
 30
0.0
 11
-70.542171859232667
 21
-240.39669577363739
 31
0.0
  0
LINE
  8
DETAIL
  6
CONTINUOUS
 62
     5
 10
-70.542171859232667
 20
-240.39669577363739
 30
0.0
 11
-70.565606682281896
 21
-240.4370114793436
 31
0.0
  0
LINE
  8
DETAIL
  6
CONTINUOUS
 62
     5
 10
-70.565606682281896
 20
-240.4370114793436
 30
0.0
 11
-70.589646465213036
 21
-240.47695590233459
 31
0.0
  0
LINE
  8
DETAIL
  6
CONTINUOUS
 62
     5
 10
-70.589646465213036
 20
-240.47695590233459
 30
0.0
 11
-70.589646465213036
 21
-240.47695590233459
 31
0.0
  0
LINE
  8
DETAIL
  6
CONTINUOUS
 62
     5
 10
-70.589646465213036
 20
-240.47695590233459
 30
0.0
 11
-70.614294618999907
 21
-240.51653650644539
 31
0.0
  0
LINE
  8
DETAIL
  6
CONTINUOUS
 62
     5
 10
-70.614294618999907
 20
-240.51653650644539
 30
0.0
 11
-70.639540068695965
 21
-240.55573464037039
 31
0.0
  0
LINE
  8
DETAIL
  6
CONTINUOUS
 62
     5
 10
-70.639540068695965
 20
-240.55573464037039
 30
0.0
 11
-70.639540068695965
 21
-240.55573464037039
 31
0.0
  0
LINE
  8
DETAIL
  6
CONTINUOUS
 62
     5
 10
-70.639540068695965
 20
-240.55573464037039
 30
0.0
 11
-70.66537440457455
 21
-240.59453416957589
 31
0.0
  0
LINE
  8
DETAIL
  6
CONTINUOUS
 62
     5
 10
-70.66537440457455
 20
-240.59453416957589
 30
0.0
 11
-70.691814363708886
 21
-240.63295514176639
 31
0.0
  0
LINE
  8
DETAIL
  6
CONTINUOUS
 62
     5
 10
-70.691814363708886
 20
-240.63295514176639
 30
0.0
 11
-70.691814363708886
 21
-240.63295514176639
 31
0.0
  0
LINE
  8
DETAIL
  6
CONTINUOUS
 62
     5
 10
-70.691814363708886
 20
-240.63295514176639
 30
0.0
 11
-70.718873644398855
 21
-240.67101364140339
 31
0.0
  0
LINE
  8
DETAIL
  6
CONTINUOUS
 62
     5
 10
-70.718873644398855
 20
-240.67101364140339
 30
0.0
 11
-70.746528643051192
 21
-240.7086737177406
 31
0.0
  0
LINE
  8
DETAIL
  6
CONTINUOUS
 62
     5
 10
-70.746528643051192
 20
-240.7086737177406
 30
0.0
 11
-70.746528643051192
 21
-240.7086737177406
 31
0.0
  0
LINE
  8
DETAIL
  6
CONTINUOUS
 62
     5
 10
-70.746528643051192
 20
-240.7086737177406
 30
0.0
 11
-70.774752848654202
 21
-240.7458954870778
 31
0.0
  0
LINE
  8
DETAIL
  6
CONTINUOUS
 62
     5
 10
-70.774752848654202
 20
-240.7458954870778
 30
0.0
 11
-70.803545422419575
 21
-240.78267536910789
 31
0.0
  0
LINE
  8
DETAIL
  6
CONTINUOUS
 62
     5
 10
-70.803545422419575
 20
-240.78267536910789
 30
0.0
 11
-70.803545422419575
 21
-240.78267536910789
 31
0.0
  0
LINE
  8
DETAIL
  6
CONTINUOUS
 62
     5
 10
-70.803545422419575
 20
-240.78267536910789
 30
0.0
 11
-70.832906754109104
 21
-240.81901293720861
 31
0.0
  0
LINE
  8
DETAIL
  6
CONTINUOUS
 62
     5
 10
-70.832906754109104
 20
-240.81901293720861
 30
0.0
 11
-70.862816475462864
 21
-240.854884076118
 31
0.0
  0
LINE
  8
DETAIL
  6
CONTINUOUS
 62
     5
 10
-70.862816475462864
 20
-240.854884076118
 30
0.0
 11
-70.862816475462864
 21
-240.854884076118
 31
0.0
  0
LINE
  8
DETAIL
  6
CONTINUOUS
 62
     5
 10
-70.862816475462864
 20
-240.854884076118
 30
0.0
 11
-70.893263368681346
 21
-240.89027336120671
 31
0.0
  0
LINE
  8
DETAIL
  6
CONTINUOUS
 62
     5
 10
-70.893263368681346
 20
-240.89027336120671
 30
0.0
 11
-70.924293575829779
 21
-240.925223819021
 31
0.0
  0
LINE
  8
DETAIL
  6
CONTINUOUS
 62
     5
 10
-70.924293575829779
 20
-240.925223819021
 30
0.0
 11
-70.924293575829779
 21
-240.925223819021
 31
0.0
  0
LINE
  8
DETAIL
  6
CONTINUOUS
 62
     5
 10
-70.924293575829779
 20
-240.925223819021
 30
0.0
 11
-70.955915408580154
 21
-240.9597405598852
 31
0.0
  0
LINE
  8
DETAIL
  6
CONTINUOUS
 62
     5
 10
-70.955915408580154
 20
-240.9597405598852
 30
0.0
 11
-70.987928497168923
 21
-240.99361857806539
 31
0.0
  0
LINE
  8
DETAIL
  6
CONTINUOUS
 62
     5
 10
-70.987928497168923
 20
-240.99361857806539
 30
0.0
 11
-70.987928497168923
 21
-240.99361857806539
 31
0.0
  0
LINE
  8
DETAIL
  6
CONTINUOUS
 62
     5
 10
-70.987928497168923
 20
-240.99361857806539
 30
0.0
 11
-71.020160400741588
 21
-241.02668427095449
 31
0.0
  0
LINE
  8
DETAIL
  6
CONTINUOUS
 62
     5
 10
-71.020160400741588
 20
-241.02668427095449
 30
0.0
 11
-71.052759075518225
 21
-241.0590997645144
 31
0.0
  0
LINE
  8
DETAIL
  6
CONTINUOUS
 62
     5
 10
-71.052759075518225
 20
-241.0590997645144
 30
0.0
 11
-71.052759075518225
 21
-241.0590997645144
 31
0.0
  0
LINE
  8
DETAIL
  6
CONTINUOUS
 62
     5
 10
-71.052759075518225
 20
-241.0590997645144
 30
0.0
 11
-71.085904619434132
 21
-241.09105850444979
 31
0.0
  0
LINE
  8
DETAIL
  6
CONTINUOUS
 62
     5
 10
-71.085904619434132
 20
-241.09105850444979
 30
0.0
 11
-71.119585300213544
 21
-241.12254348687409
 31
0.0
  0
LINE
  8
DETAIL
  6
CONTINUOUS
 62
     5
 10
-71.119585300213544
 20
-241.12254348687409
 30
0.0
 11
-71.119585300213544
 21
-241.12254348687409
 31
0.0
  0
LINE
  8
DETAIL
  6
CONTINUOUS
 62
     5
 10
-71.119585300213544
 20
-241.12254348687409
 30
0.0
 11
-71.153746072872082
 21
-241.15349318624109
 31
0.0
  0
LINE
  8
DETAIL
  6
CONTINUOUS
 62
     5
 10
-71.153746072872082
 20
-241.15349318624109
 30
0.0
 11
-71.188350471804483
 21
-241.18387843996689
 31
0.0
  0
LINE
  8
DETAIL
  6
CONTINUOUS
 62
     5
 10
-71.188350471804483
 20
-241.18387843996689
 30
0.0
 11
-71.188350471804483
 21
-241.18387843996689
 31
0.0
  0
LINE
  8
DETAIL
  6
CONTINUOUS
 62
     5
 10
-71.188350471804483
 20
-241.18387843996689
 30
0.0
 11
-71.223396054424143
 21
-241.21369842564431
 31
0.0
  0
LINE
  8
DETAIL
  6
CONTINUOUS
 62
     5
 10
-71.223396054424143
 20
-241.21369842564431
 30
0.0
 11
-71.258997890840305
 21
-241.24303331861259
 31
0.0
  0
LINE
  8
DETAIL
  6
CONTINUOUS
 62
     5
 10
-71.258997890840305
 20
-241.24303331861259
 30
0.0
 11
-71.258997890840305
 21
-241.24303331861259
 31
0.0
  0
LINE
  8
DETAIL
  6
CONTINUOUS
 62
     5
 10
-71.258997890840305
 20
-241.24303331861259
 30
0.0
 11
-71.29517827179609
 21
-241.2718944551618
 31
0.0
  0
LINE
  8
DETAIL
  6
CONTINUOUS
 62
     5
 10
-71.29517827179609
 20
-241.2718944551618
 30
0.0
 11
-71.331470857870727
 21
-241.29993681763389
 31
0.0
  0
LINE
  8
DETAIL
  6
CONTINUOUS
 62
     5
 10
-71.331470857870727
 20
-241.29993681763389
 30
0.0
 11
-71.331470857870727
 21
-241.29993681763389
 31
0.0
  0
LINE
  8
DETAIL
  6
CONTINUOUS
 62
     5
 10
-71.331470857870727
 20
-241.29993681763389
 30
0.0
 11
-71.367478142050004
 21
-241.32687170517559
 31
0.0
  0
LINE
  8
DETAIL
  6
CONTINUOUS
 62
     5
 10
-71.367478142050004
 20
-241.32687170517559
 30
0.0
 11
-71.403566577108222
 21
-241.3529920381097
 31
0.0
  0
LINE
  8
DETAIL
  6
CONTINUOUS
 62
     5
 10
-71.403566577108222
 20
-241.3529920381097
 30
0.0
 11
-71.403566577108222
 21
-241.3529920381097
 31
0.0
  0
LINE
  8
DETAIL
  6
CONTINUOUS
 62
     5
 10
-71.403566577108222
 20
-241.3529920381097
 30
0.0
 11
-71.440175149601032
 21
-241.3786423537704
 31
0.0
  0
LINE
  8
DETAIL
  6
CONTINUOUS
 62
     5
 10
-71.440175149601032
 20
-241.3786423537704
 30
0.0
 11
-71.477269021421534
 21
-241.40379203636411
 31
0.0
  0
LINE
  8
DETAIL
  6
CONTINUOUS
 62
     5
 10
-71.477269021421534
 20
-241.40379203636411
 30
0.0
 11
-71.477269021421534
 21
-241.40379203636411
 31
0.0
  0
LINE
  8
DETAIL
  6
CONTINUOUS
 62
     5
 10
-71.477269021421534
 20
-241.40379203636411
 30
0.0
 11
-71.514721920030411
 21
-241.42833938350299
 31
0.0
  0
LINE
  8
DETAIL
  6
CONTINUOUS
 62
     5
 10
-71.514721920030411
 20
-241.42833938350299
 30
0.0
 11
-71.552515659819278
 21
-241.4522734995478
 31
0.0
  0
LINE
  8
DETAIL
  6
CONTINUOUS
 62
     5
 10
-71.552515659819278
 20
-241.4522734995478
 30
0.0
 11
-71.552515659819278
 21
-241.4522734995478
 31
0.0
  0
LINE
  8
DETAIL
  6
CONTINUOUS
 62
     5
 10
-71.552515659819278
 20
-241.4522734995478
 30
0.0
 11
-71.590669446146876
 21
-241.47560917207809
 31
0.0
  0
LINE
  8
DETAIL
  6
CONTINUOUS
 62
     5
 10
-71.590669446146876
 20
-241.47560917207809
 30
0.0
 11
-71.629243961309498
 21
-241.49837311481031
 31
0.0
  0
LINE
  8
DETAIL
  6
CONTINUOUS
 62
     5
 10
-71.629243961309498
 20
-241.49837311481031
 30
0.0
 11
-71.629243961309498
 21
-241.49837311481031
 31
0.0
  0
LINE
  8
DETAIL
  6
CONTINUOUS
 62
     5
 10
-71.629243961309498
 20
-241.49837311481031
 30
0.0
 11
-71.668241758167369
 21
-241.5205603951708
 31
0.0
  0
LINE
  8
DETAIL
  6
CONTINUOUS
 62
     5
 10
-71.668241758167369
 20
-241.5205603951708
 30
0.0
 11
-71.707391394900696
 21
-241.5420275693034
 31
0.0
  0
LINE
  8
DETAIL
  6
CONTINUOUS
 62
     5
 10
-71.707391394900696
 20
-241.5420275693034
 30
0.0
 11
-71.707391394900696
 21
-241.5420275693034
 31
0.0
  0
LINE
  8
DETAIL
  6
CONTINUOUS
 62
     5
 10
-71.707391394900696
 20
-241.5420275693034
 30
0.0
 11
-71.746462587704173
 21
-241.56265570718881
 31
0.0
  0
LINE
  8
DETAIL
  6
CONTINUOUS
 62
     5
 10
-71.746462587704173
 20
-241.56265570718881
 30
0.0
 11
-71.785663679514187
 21
-241.58256244545731
 31
0.0
  0
LINE
  8
DETAIL
  6
CONTINUOUS
 62
     5
 10
-71.785663679514187
 20
-241.58256244545731
 30
0.0
 11
-71.785663679514187
 21
-241.58256244545731
 31
0.0
  0
LINE
  8
DETAIL
  6
CONTINUOUS
 62
     5
 10
-71.785663679514187
 20
-241.58256244545731
 30
0.0
 11
-71.825243824169888
 21
-241.60188582370461
 31
0.0
  0
LINE
  8
DETAIL
  6
CONTINUOUS
 62
     5
 10
-71.825243824169888
 20
-241.60188582370461
 30
0.0
 11
-71.865176792384091
 21
-241.62060892675331
 31
0.0
  0
LINE
  8
DETAIL
  6
CONTINUOUS
 62
     5
 10
-71.865176792384091
 20
-241.62060892675331
 30
0.0
 11
-71.865176792384091
 21
-241.62060892675331
 31
0.0
  0
LINE
  8
DETAIL
  6
CONTINUOUS
 62
     5
 10
-71.865176792384091
 20
-241.62060892675331
 30
0.0
 11
-71.905384428436264
 21
-241.638685981382
 31
0.0
  0
LINE
  8
DETAIL
  6
CONTINUOUS
 62
     5
 10
-71.905384428436264
 20
-241.638685981382
 30
0.0
 11
-71.945856253999068
 21
-241.65611073696971
 31
0.0
  0
LINE
  8
DETAIL
  6
CONTINUOUS
 62
     5
 10
-71.945856253999068
 20
-241.65611073696971
 30
0.0
 11
-71.945856253999068
 21
-241.65611073696971
 31
0.0
  0
LINE
  8
DETAIL
  6
CONTINUOUS
 62
     5
 10
-71.945856253999068
 20
-241.65611073696971
 30
0.0
 11
-71.986599878481798
 21
-241.67288603963831
 31
0.0
  0
LINE
  8
DETAIL
  6
CONTINUOUS
 62
     5
 10
-71.986599878481798
 20
-241.67288603963831
 30
0.0
 11
-72.027627584847096
 21
-241.6890115998817
 31
0.0
  0
LINE
  8
DETAIL
  6
CONTINUOUS
 62
     5
 10
-72.027627584847096
 20
-241.6890115998817
 30
0.0
 11
-72.027627584847096
 21
-241.6890115998817
 31
0.0
  0
LINE
  8
DETAIL
  6
CONTINUOUS
 62
     5
 10
-72.027627584847096
 20
-241.6890115998817
 30
0.0
 11
-72.068931231544525
 21
-241.7044795992646
 31
0.0
  0
LINE
  8
DETAIL
  6
CONTINUOUS
 62
     5
 10
-72.068931231544525
 20
-241.7044795992646
 30
0.0
 11
-72.110416305417061
 21
-241.719255239267
 31
0.0
  0
LINE
  8
DETAIL
  6
CONTINUOUS
 62
     5
 10
-72.110416305417061
 20
-241.719255239267
 30
0.0
 11
-72.110416305417061
 21
-241.719255239267
 31
0.0
  0
LINE
  8
DETAIL
  6
CONTINUOUS
 62
     5
 10
-72.110416305417061
 20
-241.719255239267
 30
0.0
 11
-72.152001900971982
 21
-241.7333094500589
 31
0.0
  0
LINE
  8
DETAIL
  6
CONTINUOUS
 62
     5
 10
-72.152001900971982
 20
-241.7333094500589
 30
0.0
 11
-72.193747914980236
 21
-241.746663056659
 31
0.0
  0
LINE
  8
DETAIL
  6
CONTINUOUS
 62
     5
 10
-72.193747914980236
 20
-241.746663056659
 30
0.0
 11
-72.193747914980236
 21
-241.746663056659
 31
0.0
  0
LINE
  8
DETAIL
  6
CONTINUOUS
 62
     5
 10
-72.193747914980236
 20
-241.746663056659
 30
0.0
 11
-72.235728152561933
 21
-241.75934124891421
 31
0.0
  0
LINE
  8
DETAIL
  6
CONTINUOUS
 62
     5
 10
-72.235728152561933
 20
-241.75934124891421
 30
0.0
 11
-72.277931249972312
 21
-241.77133678113481
 31
0.0
  0
LINE
  8
DETAIL
  6
CONTINUOUS
 62
     5
 10
-72.277931249972312
 20
-241.77133678113481
 30
0.0
 11
-72.277931249972312
 21
-241.77133678113481
 31
0.0
  0
LINE
  8
DETAIL
  6
CONTINUOUS
 62
     5
 10
-72.277931249972312
 20
-241.77133678113481
 30
0.0
 11
-72.320325630345792
 21
-241.78263576601611
 31
0.0
  0
LINE
  8
DETAIL
  6
CONTINUOUS
 62
     5
 10
-72.320325630345792
 20
-241.78263576601611
 30
0.0
 11
-72.362884033202931
 21
-241.7932301853314
 31
0.0
  0
LINE
  8
DETAIL
  6
CONTINUOUS
 62
     5
 10
-72.362884033202931
 20
-241.7932301853314
 30
0.0
 11
-72.362884033202931
 21
-241.7932301853314
 31
0.0
  0
LINE
  8
DETAIL
  6
CONTINUOUS
 62
     5
 10
-72.362884033202931
 20
-241.7932301853314
 30
0.0
 11
-72.40559725299147
 21
-241.80311572792931
 31
0.0
  0
LINE
  8
DETAIL
  6
CONTINUOUS
 62
     5
 10
-72.40559725299147
 20
-241.80311572792931
 30
0.0
 11
-72.448523987481508
 21
-241.81229704188669
 31
0.0
  0
LINE
  8
DETAIL
  6
CONTINUOUS
 62
     5
 10
-72.448523987481508
 20
-241.81229704188669
 30
0.0
 11
-72.448523987481508
 21
-241.81229704188669
 31
0.0
  0
LINE
  8
DETAIL
  6
CONTINUOUS
 62
     5
 10
-72.448523987481508
 20
-241.81229704188669
 30
0.0
 11
-72.491670927854898
 21
-241.82077058858849
 31
0.0
  0
LINE
  8
DETAIL
  6
CONTINUOUS
 62
     5
 10
-72.491670927854898
 20
-241.82077058858849
 30
0.0
 11
-72.534768835617456
 21
-241.82849112343879
 31
0.0
  0
LINE
  8
DETAIL
  6
CONTINUOUS
 62
     5
 10
-72.534768835617456
 20
-241.82849112343879
 30
0.0
 11
-72.534768835617456
 21
-241.82849112343879
 31
0.0
  0
LINE
  8
DETAIL
  6
CONTINUOUS
 62
     5
 10
-72.534768835617456
 20
-241.82849112343879
 30
0.0
 11
-72.577587812781985
 21
-241.8354224287298
 31
0.0
  0
LINE
  8
DETAIL
  6
CONTINUOUS
 62
     5
 10
-72.577587812781985
 20
-241.8354224287298
 30
0.0
 11
-72.620331253065842
 21
-241.84160610028971
 31
0.0
  0
LINE
  8
DETAIL
  6
CONTINUOUS
 62
     5
 10
-72.620331253065842
 20
-241.84160610028971
 30
0.0
 11
-72.620331253065842
 21
-241.84160610028971
 31
0.0
  0
LINE
  8
DETAIL
  6
CONTINUOUS
 62
     5
 10
-72.620331253065842
 20
-241.84160610028971
 30
0.0
 11
-72.66324192713887
 21
-241.84708815619601
 31
0.0
  0
LINE
  8
DETAIL
  6
CONTINUOUS
 62
     5
 10
-72.66324192713887
 20
-241.84708815619601
 30
0.0
 11
-72.706286821779258
 21
-241.8518544899874
 31
0.0
  0
LINE
  8
DETAIL
  6
CONTINUOUS
 62
     5
 10
-72.706286821779258
 20
-241.8518544899874
 30
0.0
 11
-72.706286821779258
 21
-241.8518544899874
 31
0.0
  0
LINE
  8
DETAIL
  6
CONTINUOUS
 62
     5
 10
-72.706286821779258
 20
-241.8518544899874
 30
0.0
 11
-72.749382596101839
 21
-241.85588663433549
 31
0.0
  0
LINE
  8
DETAIL
  6
CONTINUOUS
 62
     5
 10
-72.749382596101839
 20
-241.85588663433549
 30
0.0
 11
-72.792520382459657
 21
-241.85920880300009
 31
0.0
  0
LINE
  8
DETAIL
  6
CONTINUOUS
 62
     5
 10
-72.792520382459657
 20
-241.85920880300009
 30
0.0
 11
-72.792520382459657
 21
-241.85920880300009
 31
0.0
  0
LINE
  8
DETAIL
  6
CONTINUOUS
 62
     5
 10
-72.792520382459657
 20
-241.85920880300009
 30
0.0
 11
-72.835704404249896
 21
-241.86182823006001
 31
0.0
  0
LINE
  8
DETAIL
  6
CONTINUOUS
 62
     5
 10
-72.835704404249896
 20
-241.86182823006001
 30
0.0
 11
-72.878916775808989
 21
-241.86364154979739
 31
0.0
  0
LINE
  8
DETAIL
  6
CONTINUOUS
 62
     5
 10
-72.878916775808989
 20
-241.86364154979739
 30
0.0
 11
-72.878916775808989
 21
-241.86364154979739
 31
0.0
  0
LINE
  8
DETAIL
  6
CONTINUOUS
 62
     5
 10
-72.878916775808989
 20
-241.86364154979739
 30
0.0
 11
-72.922137574959265
 21
-241.86461767607031
 31
0.0
  0
LINE
  8
DETAIL
  6
CONTINUOUS
 62
     5
 10
-72.922137574959265
 20
-241.86461767607031
 30
0.0
 11
-72.965360842529435
 21
-241.8651252408475
 31
0.0
  0
LINE
  8
DETAIL
  6
CONTINUOUS
 62
     5
 10
-81.655395047418949
 20
-241.8651252408475
 30
0.0
 11
-81.660181650856089
 21
-241.86446321483959
 31
0.0
  0
LINE
  8
DETAIL
  6
CONTINUOUS
 62
     5
 10
-81.660181650856089
 20
-241.86446321483959
 30
0.0
 11
-81.66480343412195
 21
-241.86325771515999
 31
0.0
  0
LINE
  8
DETAIL
  6
CONTINUOUS
 62
     5
 10
-81.66480343412195
 20
-241.86325771515999
 30
0.0
 11
-81.66480343412195
 21
-241.86325771515999
 31
0.0
  0
LINE
  8
DETAIL
  6
CONTINUOUS
 62
     5
 10
-81.66480343412195
 20
-241.86325771515999
 30
0.0
 11
-81.669128507467235
 21
-241.86111016496551
 31
0.0
  0
LINE
  8
DETAIL
  6
CONTINUOUS
 62
     5
 10
-81.669128507467235
 20
-241.86111016496551
 30
0.0
 11
-81.673156702830511
 21
-241.85820157472401
 31
0.0
  0
LINE
  8
DETAIL
  6
CONTINUOUS
 62
     5
 10
-81.673156702830511
 20
-241.85820157472401
 30
0.0
 11
-81.673156702830511
 21
-241.85820157472401
 31
0.0
  0
LINE
  8
DETAIL
  6
CONTINUOUS
 62
     5
 10
-81.673156702830511
 20
-241.85820157472401
 30
0.0
 11
-81.676930938389944
 21
-241.85477929813209
 31
0.0
  0
LINE
  8
DETAIL
  6
CONTINUOUS
 62
     5
 10
-81.676930938389944
 20
-241.85477929813209
 30
0.0
 11
-81.680534755592703
 21
-241.85077647448051
 31
0.0
  0
LINE
  8
DETAIL
  6
CONTINUOUS
 62
     5
 10
-81.680534755592703
 20
-241.85077647448051
 30
0.0
 11
-81.680534755592703
 21
-241.85077647448051
 31
0.0
  0
LINE
  8
DETAIL
  6
CONTINUOUS
 62
     5
 10
-81.680534755592703
 20
-241.85077647448051
 30
0.0
 11
-81.68398829801265
 21
-241.8462170070367
 31
0.0
  0
LINE
  8
DETAIL
  6
CONTINUOUS
 62
     5
 10
-81.68398829801265
 20
-241.8462170070367
 30
0.0
 11
-81.687017494456541
 21
-241.8418020693687
 31
0.0
  0
LINE
  8
DETAIL
  6
CONTINUOUS
 62
     5
 10
-81.687017494456541
 20
-241.8418020693687
 30
0.0
 11
-81.687017494456541
 21
-241.8418020693687
 31
0.0
  0
LINE
  8
DETAIL
  6
CONTINUOUS
 62
     5
 10
-81.687017494456541
 20
-241.8418020693687
 30
0.0
 11
-81.689558778989237
 21
-241.83780343592051
 31
0.0
  0
LINE
  8
DETAIL
  6
CONTINUOUS
 62
     5
 10
-81.689558778989237
 20
-241.83780343592051
 30
0.0
 11
-81.692684821469925
 21
-241.83209801432969
 31
0.0
  0
LINE
  8
DETAIL
  6
CONTINUOUS
 62
     5
 10
-81.692684821469925
 20
-241.83209801432969
 30
0.0
 11
-81.692684821469925
 21
-241.83209801432969
 31
0.0
  0
LINE
  8
DETAIL
  6
CONTINUOUS
 62
     5
 10
-81.692684821469925
 20
-241.83209801432969
 30
0.0
 11
-81.697251623664556
 21
-241.82289111664281
 31
0.0
  0
LINE
  8
DETAIL
  6
CONTINUOUS
 62
     5
 10
-81.697251623664556
 20
-241.82289111664281
 30
0.0
 11
-81.702112279169228
 21
-241.8120965393521
 31
0.0
  0
LINE
  8
DETAIL
  6
CONTINUOUS
 62
     5
 10
-81.702112279169228
 20
-241.8120965393521
 30
0.0
 11
-81.702112279169228
 21
-241.8120965393521
 31
0.0
  0
LINE
  8
DETAIL
  6
CONTINUOUS
 62
     5
 10
-81.702112279169228
 20
-241.8120965393521
 30
0.0
 11
-81.705982066404431
 21
-241.8019608794942
 31
0.0
  0
LINE
  8
DETAIL
  6
CONTINUOUS
 62
     5
 10
-81.705982066404431
 20
-241.8019608794942
 30
0.0
 11
-81.709027911257522
 21
-241.79235345184489
 31
0.0
  0
LINE
  8
DETAIL
  6
CONTINUOUS
 62
     5
 10
-81.709027911257522
 20
-241.79235345184489
 30
0.0
 11
-81.709027911257522
 21
-241.79235345184489
 31
0.0
  0
LINE
  8
DETAIL
  6
CONTINUOUS
 62
     5
 10
-81.709027911257522
 20
-241.79235345184489
 30
0.0
 11
-81.7116886163152
 21
-241.78266452565421
 31
0.0
  0
LINE
  8
DETAIL
  6
CONTINUOUS
 62
     5
 10
-81.7116886163152
 20
-241.78266452565421
 30
0.0
 11
-81.714038843498997
 21
-241.77274547032351
 31
0.0
  0
LINE
  8
DETAIL
  6
CONTINUOUS
 62
     5
 10
-81.714038843498997
 20
-241.77274547032351
 30
0.0
 11
-81.714038843498997
 21
-241.77274547032351
 31
0.0
  0
LINE
  8
DETAIL
  6
CONTINUOUS
 62
     5
 10
-81.714038843498997
 20
-241.77274547032351
 30
0.0
 11
-81.716063448362661
 21
-241.7626961507049
 31
0.0
  0
LINE
  8
DETAIL
  6
CONTINUOUS
 62
     5
 10
-81.716063448362661
 20
-241.7626961507049
 30
0.0
 11
-81.717752201657731
 21
-241.75314931330121
 31
0.0
  0
LINE
  8
DETAIL
  6
CONTINUOUS
 62
     5
 10
-81.717752201657731
 20
-241.75314931330121
 30
0.0
 11
-81.717752201657731
 21
-241.75314931330121
 31
0.0
  0
LINE
  8
DETAIL
  6
CONTINUOUS
 62
     5
 10
-81.717752201657731
 20
-241.75314931330121
 30
0.0
 11
-81.719182222904067
 21
-241.74422276833991
 31
0.0
  0
LINE
  8
DETAIL
  6
CONTINUOUS
 62
     5
 10
-81.719182222904067
 20
-241.74422276833991
 30
0.0
 11
-81.72077511149763
 21
-241.7334416992941
 31
0.0
  0
LINE
  8
DETAIL
  6
CONTINUOUS
 62
     5
 10
-81.72077511149763
 20
-241.7334416992941
 30
0.0
 11
-81.72077511149763
 21
-241.7334416992941
 31
0.0
  0
LINE
  8
DETAIL
  6
CONTINUOUS
 62
     5
 10
-81.72077511149763
 20
-241.7334416992941
 30
0.0
 11
-81.722876705563408
 21
-241.7187150881546
 31
0.0
  0
LINE
  8
DETAIL
  6
CONTINUOUS
 62
     5
 10
-81.722876705563408
 20
-241.7187150881546
 30
0.0
 11
-81.725185318268643
 21
-241.7020797377337
 31
0.0
  0
LINE
  8
DETAIL
  6
CONTINUOUS
 62
     5
 10
-81.725185318268643
 20
-241.7020797377337
 30
0.0
 11
-81.725185318268643
 21
-241.7020797377337
 31
0.0
  0
LINE
  8
DETAIL
  6
CONTINUOUS
 62
     5
 10
-81.725185318268643
 20
-241.7020797377337
 30
0.0
 11
-81.727333196354607
 21
-241.68596865549031
 31
0.0
  0
LINE
  8
DETAIL
  6
CONTINUOUS
 62
     5
 10
-81.727333196354607
 20
-241.68596865549031
 30
0.0
 11
-81.729335845816365
 21
-241.67027184665261
 31
0.0
  0
LINE
  8
DETAIL
  6
CONTINUOUS
 62
     5
 10
-81.729335845816365
 20
-241.67027184665261
 30
0.0
 11
-81.729335845816365
 21
-241.67027184665261
 31
0.0
  0
LINE
  8
DETAIL
  6
CONTINUOUS
 62
     5
 10
-81.729335845816365
 20
-241.67027184665261
 30
0.0
 11
-81.731282297230905
 21
-241.654370153629
 31
0.0
  0
LINE
  8
DETAIL
  6
CONTINUOUS
 62
     5
 10
-81.731282297230905
 20
-241.654370153629
 30
0.0
 11
-81.73317242024973
 21
-241.63815076978139
 31
0.0
  0
LINE
  8
DETAIL
  6
CONTINUOUS
 62
     5
 10
-81.73317242024973
 20
-241.63815076978139
 30
0.0
 11
-81.73317242024973
 21
-241.63815076978139
 31
0.0
  0
LINE
  8
DETAIL
  6
CONTINUOUS
 62
     5
 10
-81.73317242024973
 20
-241.63815076978139
 30
0.0
 11
-81.734977140405135
 21
-241.62175687581441
 31
0.0
  0
LINE
  8
DETAIL
  6
CONTINUOUS
 62
     5
 10
-81.734977140405135
 20
-241.62175687581441
 30
0.0
 11
-81.736640767677727
 21
-241.6058492508491
 31
0.0
  0
LINE
  8
DETAIL
  6
CONTINUOUS
 62
     5
 10
-81.736640767677727
 20
-241.6058492508491
 30
0.0
 11
-81.736640767677727
 21
-241.6058492508491
 31
0.0
  0
LINE
  8
DETAIL
  6
CONTINUOUS
 62
     5
 10
-81.736640767677727
 20
-241.6058492508491
 30
0.0
 11
-81.738149863943136
 21
-241.59057388745441
 31
0.0
  0
LINE
  8
DETAIL
  6
CONTINUOUS
 62
     5
 10
-81.738149863943136
 20
-241.59057388745441
 30
0.0
 11
-81.739686614209063
 21
-241.57350003358471
 31
0.0
  0
LINE
  8
DETAIL
  6
CONTINUOUS
 62
     5
 10
-81.739686614209063
 20
-241.57350003358471
 30
0.0
 11
-81.739686614209063
 21
-241.57350003358471
 31
0.0
  0
LINE
  8
DETAIL
  6
CONTINUOUS
 62
     5
 10
-81.739686614209063
 20
-241.57350003358471
 30
0.0
 11
-81.741396311584026
 21
-241.55258164398731
 31
0.0
  0
LINE
  8
DETAIL
  6
CONTINUOUS
 62
     5
 10
-81.741396311584026
 20
-241.55258164398731
 30
0.0
 11
-81.743081058447274
 21
-241.52988824521009
 31
0.0
  0
LINE
  8
DETAIL
  6
CONTINUOUS
 62
     5
 10
-81.743081058447274
 20
-241.52988824521009
 30
0.0
 11
-81.743081058447274
 21
-241.52988824521009
 31
0.0
  0
LINE
  8
DETAIL
  6
CONTINUOUS
 62
     5
 10
-81.743081058447274
 20
-241.52988824521009
 30
0.0
 11
-81.744520695222548
 21
-241.50787079946491
 31
0.0
  0
LINE
  8
DETAIL
  6
CONTINUOUS
 62
     5
 10
-81.744520695222548
 20
-241.50787079946491
 30
0.0
 11
-81.745749205239463
 21
-241.48639043981811
 31
0.0
  0
LINE
  8
DETAIL
  6
CONTINUOUS
 62
     5
 10
-81.745749205239463
 20
-241.48639043981811
 30
0.0
 11
-81.745749205239463
 21
-241.48639043981811
 31
0.0
  0
LINE
  8
DETAIL
  6
CONTINUOUS
 62
     5
 10
-81.745749205239463
 20
-241.48639043981811
 30
0.0
 11
-81.746848144695377
 21
-241.46479454813269
 31
0.0
  0
LINE
  8
DETAIL
  6
CONTINUOUS
 62
     5
 10
-81.746848144695377
 20
-241.46479454813269
 30
0.0
 11
-81.747835218352293
 21
-241.44296533060611
 31
0.0
  0
LINE
  8
DETAIL
  6
CONTINUOUS
 62
     5
 10
-81.747835218352293
 20
-241.44296533060611
 30
0.0
 11
-81.747835218352293
 21
-241.44296533060611
 31
0.0
  0
LINE
  8
DETAIL
  6
CONTINUOUS
 62
     5
 10
-81.747835218352293
 20
-241.44296533060611
 30
0.0
 11
-81.748712483822032
 21
-241.4210313324694
 31
0.0
  0
LINE
  8
DETAIL
  6
CONTINUOUS
 62
     5
 10
-81.748712483822032
 20
-241.4210313324694
 30
0.0
 11
-81.749483261552257
 21
-241.39957163076869
 31
0.0
  0
LINE
  8
DETAIL
  6
CONTINUOUS
 62
     5
 10
-81.749483261552257
 20
-241.39957163076869
 30
0.0
 11
-81.749483261552257
 21
-241.39957163076869
 31
0.0
  0
LINE
  8
DETAIL
  6
CONTINUOUS
 62
     5
 10
-81.749483261552257
 20
-241.39957163076869
 30
0.0
 11
-81.75016588772246
 21
-241.378693697606
 31
0.0
  0
LINE
  8
DETAIL
  6
CONTINUOUS
 62
     5
 10
-81.75016588772246
 20
-241.378693697606
 30
0.0
 11
-81.750837498605506
 21
-241.35616805350139
 31
0.0
  0
LINE
  8
DETAIL
  6
CONTINUOUS
 62
     5
 10
-81.750837498605506
 20
-241.35616805350139
 30
0.0
 11
-81.750837498605506
 21
-241.35616805350139
 31
0.0
  0
LINE
  8
DETAIL
  6
CONTINUOUS
 62
     5
 10
-81.750837498605506
 20
-241.35616805350139
 30
0.0
 11
-81.751560303572887
 21
-241.33011833834681
 31
0.0
  0
LINE
  8
DETAIL
  6
CONTINUOUS
 62
     5
 10
-81.751560303572887
 20
-241.33011833834681
 30
0.0
 11
-81.752278004298205
 21
-241.30241762110759
 31
0.0
  0
LINE
  8
DETAIL
  6
CONTINUOUS
 62
     5
 10
-81.752278004298205
 20
-241.30241762110759
 30
0.0
 11
-81.752278004298205
 21
-241.30241762110759
 31
0.0
  0
LINE
  8
DETAIL
  6
CONTINUOUS
 62
     5
 10
-81.752278004298205
 20
-241.30241762110759
 30
0.0
 11
-81.752923105039827
 21
-241.27528923881579
 31
0.0
  0
LINE
  8
DETAIL
  6
CONTINUOUS
 62
     5
 10
-81.752923105039827
 20
-241.27528923881579
 30
0.0
 11
-81.753501828091828
 21
-241.2486081716965
 31
0.0
  0
LINE
  8
DETAIL
  6
CONTINUOUS
 62
     5
 10
-81.753501828091828
 20
-241.2486081716965
 30
0.0
 11
-81.753501828091828
 21
-241.2486081716965
 31
0.0
  0
LINE
  8
DETAIL
  6
CONTINUOUS
 62
     5
 10
-81.753501828091828
 20
-241.2486081716965
 30
0.0
 11
-81.754034141207626
 21
-241.22178974007721
 31
0.0
  0
LINE
  8
DETAIL
  6
CONTINUOUS
 62
     5
 10
-81.754034141207626
 20
-241.22178974007721
 30
0.0
 11
-81.754521275940988
 21
-241.1947589815006
 31
0.0
  0
LINE
  8
DETAIL
  6
CONTINUOUS
 62
     5
 10
-81.754521275940988
 20
-241.1947589815006
 30
0.0
 11
-81.754521275940988
 21
-241.1947589815006
 31
0.0
  0
LINE
  8
DETAIL
  6
CONTINUOUS
 62
     5
 10
-81.754521275940988
 20
-241.1947589815006
 30
0.0
 11
-81.754960086486221
 21
-241.16764573479941
 31
0.0
  0
LINE
  8
DETAIL
  6
CONTINUOUS
 62
     5
 10
-81.754960086486221
 20
-241.16764573479941
 30
0.0
 11
-81.755348653799786
 21
-241.14088932675079
 31
0.0
  0
LINE
  8
DETAIL
  6
CONTINUOUS
 62
     5
 10
-81.755348653799786
 20
-241.14088932675079
 30
0.0
 11
-81.755348653799786
 21
-241.14088932675079
 31
0.0
  0
LINE
  8
DETAIL
  6
CONTINUOUS
 62
     5
 10
-81.755348653799786
 20
-241.14088932675079
 30
0.0
 11
-81.75568882281641
 21
-241.11456953886849
 31
0.0
  0
LINE
  8
DETAIL
  6
CONTINUOUS
 62
     5
 10
-81.75568882281641
 20
-241.11456953886849
 30
0.0
 11
-81.755996267622493
 21
-241.08701848367909
 31
0.0
  0
LINE
  8
DETAIL
  6
CONTINUOUS
 62
     5
 10
-81.755996267622493
 20
-241.08701848367909
 30
0.0
 11
-81.755996267622493
 21
-241.08701848367909
 31
0.0
  0
LINE
  8
DETAIL
  6
CONTINUOUS
 62
     5
 10
-81.755996267622493
 20
-241.08701848367909
 30
0.0
 11
-81.756283340776235
 21
-241.0568351298385
 31
0.0
  0
LINE
  8
DETAIL
  6
CONTINUOUS
 62
     5
 10
-81.756283340776235
 20
-241.0568351298385
 30
0.0
 11
-81.75653527957104
 21
-241.0254335395102
 31
0.0
  0
LINE
  8
DETAIL
  6
CONTINUOUS
 62
     5
 10
-81.75653527957104
 20
-241.0254335395102
 30
0.0
 11
-81.75653527957104
 21
-241.0254335395102
 31
0.0
  0
LINE
  8
DETAIL
  6
CONTINUOUS
 62
     5
 10
-81.75653527957104
 20
-241.0254335395102
 30
0.0
 11
-81.756736032741401
 21
-240.99448381092381
 31
0.0
  0
LINE
  8
DETAIL
  6
CONTINUOUS
 62
     5
 10
-81.756736032741401
 20
-240.99448381092381
 30
0.0
 11
-81.756891510051901
 21
-240.96386509306009
 31
0.0
  0
LINE
  8
DETAIL
  6
CONTINUOUS
 62
     5
 10
-81.756891510051901
 20
-240.96386509306009
 30
0.0
 11
-81.756891510051901
 21
-240.96386509306009
 31
0.0
  0
LINE
  8
DETAIL
  6
CONTINUOUS
 62
     5
 10
-81.756891510051901
 20
-240.96386509306009
 30
0.0
 11
-81.757011725770326
 21
-240.93312875428049
 31
0.0
  0
LINE
  8
DETAIL
  6
CONTINUOUS
 62
     5
 10
-81.757011725770326
 20
-240.93312875428049
 30
0.0
 11
-81.757101151148845
 21
-240.9023059897165
 31
0.0
  0
LINE
  8
DETAIL
  6
CONTINUOUS
 62
     5
 10
-81.757101151148845
 20
-240.9023059897165
 30
0.0
 11
-81.757101151148845
 21
-240.9023059897165
 31
0.0
  0
LINE
  8
DETAIL
  6
CONTINUOUS
 62
     5
 10
-81.757101151148845
 20
-240.9023059897165
 30
0.0
 11
-81.757162924444174
 21
-240.87151586173329
 31
0.0
  0
LINE
  8
DETAIL
  6
CONTINUOUS
 62
     5
 10
-81.757162924444174
 20
-240.87151586173329
 30
0.0
 11
-81.757200394945698
 21
-240.840749074868
 31
0.0
  0
LINE
  8
DETAIL
  6
CONTINUOUS
 62
     5
 10
-81.757200394945698
 20
-240.840749074868
 30
0.0
 11
-81.757200394945698
 21
-240.840749074868
 31
0.0
  0
LINE
  8
DETAIL
  6
CONTINUOUS
 62
     5
 10
-81.757200394945698
 20
-240.840749074868
 30
0.0
 11
-81.757218139422321
 21
-240.8099726453365
 31
0.0
  0
LINE
  8
DETAIL
  6
CONTINUOUS
 62
     5
 10
-81.757218139422321
 20
-240.8099726453365
 30
0.0
 11
-81.75722543352606
 21
-240.77918719390411
 31
0.0
  0
LINE
  8
DETAIL
  6
CONTINUOUS
 62
     5
 10
81.757225433525946
 20
-240.77918719390411
 30
0.0
 11
81.757218139019528
 21
-240.80997491809529
 31
0.0
  0
LINE
  8
DETAIL
  6
CONTINUOUS
 62
     5
 10
81.757218139019528
 20
-240.80997491809529
 30
0.0
 11
81.757200392790423
 21
-240.8407536179719
 31
0.0
  0
LINE
  8
DETAIL
  6
CONTINUOUS
 62
     5
 10
81.757200392790423
 20
-240.8407536179719
 30
0.0
 11
81.757200392790423
 21
-240.8407536179719
 31
0.0
  0
LINE
  8
DETAIL
  6
CONTINUOUS
 62
     5
 10
81.757200392790423
 20
-240.8407536179719
 30
0.0
 11
81.757162917818505
 21
-240.8715226732148
 31
0.0
  0
LINE
  8
DETAIL
  6
CONTINUOUS
 62
     5
 10
81.757162917818505
 20
-240.8715226732148
 30
0.0
 11
81.757101135895709
 21
-240.9023150795004
 31
0.0
  0
LINE
  8
DETAIL
  6
CONTINUOUS
 62
     5
 10
81.757101135895709
 20
-240.9023150795004
 30
0.0
 11
81.757101135895709
 21
-240.9023150795004
 31
0.0
  0
LINE
  8
DETAIL
  6
CONTINUOUS
 62
     5
 10
81.757101135895709
 20
-240.9023150795004
 30
0.0
 11
81.757011696470272
 21
-240.9331401344765
 31
0.0
  0
LINE
  8
DETAIL
  6
CONTINUOUS
 62
     5
 10
81.757011696470272
 20
-240.9331401344765
 30
0.0
 11
81.756891460809584
 21
-240.96387872768241
 31
0.0
  0
LINE
  8
DETAIL
  6
CONTINUOUS
 62
     5
 10
81.756891460809584
 20
-240.96387872768241
 30
0.0
 11
81.756891460809584
 21
-240.96387872768241
 31
0.0
  0
LINE
  8
DETAIL
  6
CONTINUOUS
 62
     5
 10
81.756891460809584
 20
-240.96387872768241
 30
0.0
 11
81.756735956614193
 21
-240.99449965074109
 31
0.0
  0
LINE
  8
DETAIL
  6
CONTINUOUS
 62
     5
 10
81.756735956614193
 20
-240.99449965074109
 30
0.0
 11
81.756535165500281
 21
-241.02545171171079
 31
0.0
  0
LINE
  8
DETAIL
  6
CONTINUOUS
 62
     5
 10
81.756535165500281
 20
-241.02545171171079
 30
0.0
 11
81.756535165500281
 21
-241.02545171171079
 31
0.0
  0
LINE
  8
DETAIL
  6
CONTINUOUS
 62
     5
 10
81.756535165500281
 20
-241.02545171171079
 30
0.0
 11
81.756283175692943
 21
-241.05685580835001
 31
0.0
  0
LINE
  8
DETAIL
  6
CONTINUOUS
 62
     5
 10
81.756283175692943
 20
-241.05685580835001
 30
0.0
 11
81.755996047935355
 21
-241.08704118077901
 31
0.0
  0
LINE
  8
DETAIL
  6
CONTINUOUS
 62
     5
 10
81.755996047935355
 20
-241.08704118077901
 30
0.0
 11
81.755996047935355
 21
-241.08704118077901
 31
0.0
  0
LINE
  8
DETAIL
  6
CONTINUOUS
 62
     5
 10
81.755996047935355
 20
-241.08704118077901
 30
0.0
 11
81.755688553784466
 21
-241.1145932044864
 31
0.0
  0
LINE
  8
DETAIL
  6
CONTINUOUS
 62
     5
 10
81.755688553784466
 20
-241.1145932044864
 30
0.0
 11
81.755348335535587
 21
-241.1409134540763
 31
0.0
  0
LINE
  8
DETAIL
  6
CONTINUOUS
 62
     5
 10
81.755348335535587
 20
-241.1409134540763
 30
0.0
 11
81.755348335535587
 21
-241.1409134540763
 31
0.0
  0
LINE
  8
DETAIL
  6
CONTINUOUS
 62
     5
 10
81.755348335535587
 20
-241.1409134540763
 30
0.0
 11
81.754959711732681
 21
-241.16767048003899
 31
0.0
  0
LINE
  8
DETAIL
  6
CONTINUOUS
 62
     5
 10
81.754959711732681
 20
-241.16767048003899
 30
0.0
 11
81.754520835175754
 21
-241.19478453730221
 31
0.0
  0
LINE
  8
DETAIL
  6
CONTINUOUS
 62
     5
 10
81.754520835175754
 20
-241.19478453730221
 30
0.0
 11
81.754520835175754
 21
-241.19478453730221
 31
0.0
  0
LINE
  8
DETAIL
  6
CONTINUOUS
 62
     5
 10
81.754520835175754
 20
-241.19478453730221
 30
0.0
 11
81.754033626089267
 21
-241.2218161441678
 31
0.0
  0
LINE
  8
DETAIL
  6
CONTINUOUS
 62
     5
 10
81.754033626089267
 20
-241.2218161441678
 30
0.0
 11
81.753501240143123
 21
-241.2486351680044
 31
0.0
  0
LINE
  8
DETAIL
  6
CONTINUOUS
 62
     5
 10
81.753501240143123
 20
-241.2486351680044
 30
0.0
 11
81.753501240143123
 21
-241.2486351680044
 31
0.0
  0
LINE
  8
DETAIL
  6
CONTINUOUS
 62
     5
 10
81.753501240143123
 20
-241.2486351680044
 30
0.0
 11
81.752922447859305
 21
-241.27531653827029
 31
0.0
  0
LINE
  8
DETAIL
  6
CONTINUOUS
 62
     5
 10
81.752922447859305
 20
-241.27531653827029
 30
0.0
 11
81.752277243725302
 21
-241.30244608372911
 31
0.0
  0
LINE
  8
DETAIL
  6
CONTINUOUS
 62
     5
 10
81.752277243725302
 20
-241.30244608372911
 30
0.0
 11
81.752277243725302
 21
-241.30244608372911
 31
0.0
  0
LINE
  8
DETAIL
  6
CONTINUOUS
 62
     5
 10
81.752277243725302
 20
-241.30244608372911
 30
0.0
 11
81.751559395393429
 21
-241.33014912139899
 31
0.0
  0
LINE
  8
DETAIL
  6
CONTINUOUS
 62
     5
 10
81.751559395393429
 20
-241.33014912139899
 30
0.0
 11
81.750836539209672
 21
-241.35619802202251
 31
0.0
  0
LINE
  8
DETAIL
  6
CONTINUOUS
 62
     5
 10
81.750836539209672
 20
-241.35619802202251
 30
0.0
 11
81.750836539209672
 21
-241.35619802202251
 31
0.0
  0
LINE
  8
DETAIL
  6
CONTINUOUS
 62
     5
 10
81.750836539209672
 20
-241.35619802202251
 30
0.0
 11
81.750165098066418
 21
-241.37871609429669
 31
0.0
  0
LINE
  8
DETAIL
  6
CONTINUOUS
 62
     5
 10
81.750165098066418
 20
-241.37871609429669
 30
0.0
 11
81.74948277234671
 21
-241.3995833450148
 31
0.0
  0
LINE
  8
DETAIL
  6
CONTINUOUS
 62
     5
 10
81.74948277234671
 20
-241.3995833450148
 30
0.0
 11
81.74948277234671
 21
-241.3995833450148
 31
0.0
  0
LINE
  8
DETAIL
  6
CONTINUOUS
 62
     5
 10
81.74948277234671
 20
-241.3995833450148
 30
0.0
 11
81.748712317179979
 21
-241.4210335428829
 31
0.0
  0
LINE
  8
DETAIL
  6
CONTINUOUS
 62
     5
 10
81.748712317179979
 20
-241.4210335428829
 30
0.0
 11
81.747835429187376
 21
-241.44295880616281
 31
0.0
  0
LINE
  8
DETAIL
  6
CONTINUOUS
 62
     5
 10
81.747835429187376
 20
-241.44295880616281
 30
0.0
 11
81.747835429187376
 21
-241.44295880616281
 31
0.0
  0
LINE
  8
DETAIL
  6
CONTINUOUS
 62
     5
 10
81.747835429187376
 20
-241.44295880616281
 30
0.0
 11
81.746848837388598
 21
-241.46477887493819
 31
0.0
  0
LINE
  8
DETAIL
  6
CONTINUOUS
 62
     5
 10
81.746848837388598
 20
-241.46477887493819
 30
0.0
 11
81.745750458903103
 21
-241.48636562702561
 31
0.0
  0
LINE
  8
DETAIL
  6
CONTINUOUS
 62
     5
 10
81.745750458903103
 20
-241.48636562702561
 30
0.0
 11
81.745750458903103
 21
-241.48636562702561
 31
0.0
  0
LINE
  8
DETAIL
  6
CONTINUOUS
 62
     5
 10
81.745750458903103
 20
-241.48636562702561
 30
0.0
 11
81.744522584402603
 21
-241.50783724955329
 31
0.0
  0
LINE
  8
DETAIL
  6
CONTINUOUS
 62
     5
 10
81.744522584402603
 20
-241.50783724955329
 30
0.0
 11
81.74308381066578
 21
-241.5298450291597
 31
0.0
  0
LINE
  8
DETAIL
  6
CONTINUOUS
 62
     5
 10
81.74308381066578
 20
-241.5298450291597
 30
0.0
 11
81.74308381066578
 21
-241.5298450291597
 31
0.0
  0
LINE
  8
DETAIL
  6
CONTINUOUS
 62
     5
 10
81.74308381066578
 20
-241.5298450291597
 30
0.0
 11
81.741400207866036
 21
-241.55252739341611
 31
0.0
  0
LINE
  8
DETAIL
  6
CONTINUOUS
 62
     5
 10
81.741400207866036
 20
-241.55252739341611
 30
0.0
 11
81.739691433647295
 21
-241.57343823412279
 31
0.0
  0
LINE
  8
DETAIL
  6
CONTINUOUS
 62
     5
 10
81.739691433647295
 20
-241.57343823412279
 30
0.0
 11
81.739691433647295
 21
-241.57343823412279
 31
0.0
  0
LINE
  8
DETAIL
  6
CONTINUOUS
 62
     5
 10
81.739691433647295
 20
-241.57343823412279
 30
0.0
 11
81.73815494190535
 21
-241.59051215316541
 31
0.0
  0
LINE
  8
DETAIL
  6
CONTINUOUS
 62
     5
 10
81.73815494190535
 20
-241.59051215316541
 30
0.0
 11
81.736645784072493
 21
-241.60579112855839
 31
0.0
  0
LINE
  8
DETAIL
  6
CONTINUOUS
 62
     5
 10
81.736645784072493
 20
-241.60579112855839
 30
0.0
 11
81.736645784072493
 21
-241.60579112855839
 31
0.0
  0
LINE
  8
DETAIL
  6
CONTINUOUS
 62
     5
 10
81.736645784072493
 20
-241.60579112855839
 30
0.0
 11
81.734982207930443
 21
-241.62170108637471
 31
0.0
  0
LINE
  8
DETAIL
  6
CONTINUOUS
 62
     5
 10
81.734982207930443
 20
-241.62170108637471
 30
0.0
 11
81.733177649121899
 21
-241.63809636880509
 31
0.0
  0
LINE
  8
DETAIL
  6
CONTINUOUS
 62
     5
 10
81.733177649121899
 20
-241.63809636880509
 30
0.0
 11
81.733177649121899
 21
-241.63809636880509
 31
0.0
  0
LINE
  8
DETAIL
  6
CONTINUOUS
 62
     5
 10
81.733177649121899
 20
-241.63809636880509
 30
0.0
 11
81.731287708711079
 21
-241.65431749771989
 31
0.0
  0
LINE
  8
DETAIL
  6
CONTINUOUS
 62
     5
 10
81.731287708711079
 20
-241.65431749771989
 30
0.0
 11
81.729341461589229
 21
-241.67022129759391
 31
0.0
  0
LINE
  8
DETAIL
  6
CONTINUOUS
 62
     5
 10
81.729341461589229
 20
-241.67022129759391
 30
0.0
 11
81.729341461589229
 21
-241.67022129759391
 31
0.0
  0
LINE
  8
DETAIL
  6
CONTINUOUS
 62
     5
 10
81.729341461589229
 20
-241.67022129759391
 30
0.0
 11
81.727339080312049
 21
-241.68592026191899
 31
0.0
  0
LINE
  8
DETAIL
  6
CONTINUOUS
 62
     5
 10
81.727339080312049
 20
-241.68592026191899
 30
0.0
 11
81.725191654269111
 21
-241.70203325765431
 31
0.0
  0
LINE
  8
DETAIL
  6
CONTINUOUS
 62
     5
 10
81.725191654269111
 20
-241.70203325765431
 30
0.0
 11
81.725191654269111
 21
-241.70203325765431
 31
0.0
  0
LINE
  8
DETAIL
  6
CONTINUOUS
 62
     5
 10
81.725191654269111
 20
-241.70203325765431
 30
0.0
 11
81.722883716767797
 21
-241.71867029600671
 31
0.0
  0
LINE
  8
DETAIL
  6
CONTINUOUS
 62
     5
 10
81.722883716767797
 20
-241.71867029600671
 30
0.0
 11
81.720782659955375
 21
-241.73339959171639
 31
0.0
  0
LINE
  8
DETAIL
  6
CONTINUOUS
 62
     5
 10
81.720782659955375
 20
-241.73339959171639
 30
0.0
 11
81.720782659955375
 21
-241.73339959171639
 31
0.0
  0
LINE
  8
DETAIL
  6
CONTINUOUS
 62
     5
 10
81.720782659955375
 20
-241.73339959171639
 30
0.0
 11
81.71918984323122
 21
-241.74418534117549
 31
0.0
  0
LINE
  8
DETAIL
  6
CONTINUOUS
 62
     5
 10
81.71918984323122
 20
-241.74418534117549
 30
0.0
 11
81.717759636161531
 21
-241.75311746385719
 31
0.0
  0
LINE
  8
DETAIL
  6
CONTINUOUS
 62
     5
 10
81.717759636161531
 20
-241.75311746385719
 30
0.0
 11
81.717759636161531
 21
-241.75311746385719
 31
0.0
  0
LINE
  8
DETAIL
  6
CONTINUOUS
 62
     5
 10
81.717759636161531
 20
-241.75311746385719
 30
0.0
 11
81.716070685598197
 21
-241.76266950280191
 31
0.0
  0
LINE
  8
DETAIL
  6
CONTINUOUS
 62
     5
 10
81.716070685598197
 20
-241.76266950280191
 30
0.0
 11
81.714045737366064
 21
-241.7727237722448
 31
0.0
  0
LINE
  8
DETAIL
  6
CONTINUOUS
 62
     5
 10
81.714045737366064
 20
-241.7727237722448
 30
0.0
 11
81.714045737366064
 21
-241.7727237722448
 31
0.0
  0
LINE
  8
DETAIL
  6
CONTINUOUS
 62
     5
 10
81.714045737366064
 20
-241.7727237722448
 30
0.0
 11
81.711694846876071
 21
-241.78264786390849
 31
0.0
  0
LINE
  8
DETAIL
  6
CONTINUOUS
 62
     5
 10
81.711694846876071
 20
-241.78264786390849
 30
0.0
 11
81.709033208909091
 21
-241.79234170827431
 31
0.0
  0
LINE
  8
DETAIL
  6
CONTINUOUS
 62
     5
 10
81.709033208909091
 20
-241.79234170827431
 30
0.0
 11
81.709033208909091
 21
-241.79234170827431
 31
0.0
  0
LINE
  8
DETAIL
  6
CONTINUOUS
 62
     5
 10
81.709033208909091
 20
-241.79234170827431
 30
0.0
 11
81.705986138975391
 21
-241.80195378895669
 31
0.0
  0
LINE
  8
DETAIL
  6
CONTINUOUS
 62
     5
 10
81.705986138975391
 20
-241.80195378895669
 30
0.0
 11
81.702114296130389
 21
-241.81209446334171
 31
0.0
  0
LINE
  8
DETAIL
  6
CONTINUOUS
 62
     5
 10
81.702114296130389
 20
-241.81209446334171
 30
0.0
 11
81.702114296130389
 21
-241.81209446334171
 31
0.0
  0
LINE
  8
DETAIL
  6
CONTINUOUS
 62
     5
 10
81.702114296130389
 20
-241.81209446334171
 30
0.0
 11
81.697250546928103
 21
-241.8228945987951
 31
0.0
  0
LINE
  8
DETAIL
  6
CONTINUOUS
 62
     5
 10
81.697250546928103
 20
-241.8228945987951
 30
0.0
 11
81.692681244370078
 21
-241.83210522884281
 31
0.0
  0
LINE
  8
DETAIL
  6
CONTINUOUS
 62
     5
 10
81.692681244370078
 20
-241.83210522884281
 30
0.0
 11
81.692681244370078
 21
-241.83210522884281
 31
0.0
  0
LINE
  8
DETAIL
  6
CONTINUOUS
 62
     5
 10
81.692681244370078
 20
-241.83210522884281
 30
0.0
 11
81.689554760811575
 21
-241.8378105605216
 31
0.0
  0
LINE
  8
DETAIL
  6
CONTINUOUS
 62
     5
 10
81.689554760811575
 20
-241.8378105605216
 30
0.0
 11
81.687014059573244
 21
-241.84180732876871
 31
0.0
  0
LINE
  8
DETAIL
  6
CONTINUOUS
 62
     5
 10
81.687014059573244
 20
-241.84180732876871
 30
0.0
 11
81.687014059573244
 21
-241.84180732876871
 31
0.0
  0
LINE
  8
DETAIL
  6
CONTINUOUS
 62
     5
 10
81.687014059573244
 20
-241.84180732876871
 30
0.0
 11
81.683985162123122
 21
-241.84622104442749
 31
0.0
  0
LINE
  8
DETAIL
  6
CONTINUOUS
 62
     5
 10
81.683985162123122
 20
-241.84622104442749
 30
0.0
 11
81.680531731552719
 21
-241.8507797940803
 31
0.0
  0
LINE
  8
DETAIL
  6
CONTINUOUS
 62
     5
 10
81.680531731552719
 20
-241.8507797940803
 30
0.0
 11
81.680531731552719
 21
-241.8507797940803
 31
0.0
  0
LINE
  8
DETAIL
  6
CONTINUOUS
 62
     5
 10
81.680531731552719
 20
-241.8507797940803
 30
0.0
 11
81.676928192767036
 21
-241.8547817948928
 31
0.0
  0
LINE
  8
DETAIL
  6
CONTINUOUS
 62
     5
 10
81.676928192767036
 20
-241.8547817948928
 30
0.0
 11
81.673154376300658
 21
-241.8582032106298
 31
0.0
  0
LINE
  8
DETAIL
  6
CONTINUOUS
 62
     5
 10
81.673154376300658
 20
-241.8582032106298
 30
0.0
 11
81.673154376300658
 21
-241.8582032106298
 31
0.0
  0
LINE
  8
DETAIL
  6
CONTINUOUS
 62
     5
 10
81.673154376300658
 20
-241.8582032106298
 30
0.0
 11
81.669126648060228
 21
-241.8611111011721
 31
0.0
  0
LINE
  8
DETAIL
  6
CONTINUOUS
 62
     5
 10
81.669126648060228
 20
-241.8611111011721
 30
0.0
 11
81.664802109808761
 21
-241.8632581642685
 31
0.0
  0
LINE
  8
DETAIL
  6
CONTINUOUS
 62
     5
 10
81.664802109808761
 20
-241.8632581642685
 30
0.0
 11
81.664802109808761
 21
-241.8632581642685
 31
0.0
  0
LINE
  8
DETAIL
  6
CONTINUOUS
 62
     5
 10
81.664802109808761
 20
-241.8632581642685
 30
0.0
 11
81.660180960009939
 21
-241.86446338261561
 31
0.0
  0
LINE
  8
DETAIL
  6
CONTINUOUS
 62
     5
 10
81.660180960009939
 20
-241.86446338261561
 30
0.0
 11
81.655395048069408
 21
-241.8651252408475
 31
0.0
  0
LINE
  8
DETAIL
  6
CONTINUOUS
 62
     5
 10
-206.53097236871409
 20
-136.79680334165769
 30
0.0
 11
-206.532323679954
 21
-136.2620423892098
 31
0.0
  0
LINE
  8
DETAIL
  6
CONTINUOUS
 62
     5
 10
-81.75722543352606
 20
-248.7784200385357
 30
0.0
 11
-81.75722543352606
 21
-240.77918719390411
 31
0.0
  0
LINE
  8
DETAIL
  6
CONTINUOUS
 62
     5
 10
-75.645472061657074
 20
-241.8651252408475
 30
0.0
 11
-75.645472061657074
 21
-238.45857418111731
 31
0.0
  0
LINE
  8
DETAIL
  6
CONTINUOUS
 62
     5
 10
-72.803337182593964
 20
-252.12151830808509
 30
0.0
 11
-65.312296890423795
 21
-263.35807874634031
 31
0.0
  0
LINE
  8
DETAIL
  6
CONTINUOUS
 62
     5
 10
72.803337183244366
 20
-252.12151830808509
 30
0.0
 11
65.312296891074197
 21
-263.35807874634031
 31
0.0
  0
LINE
  8
DETAIL
  6
CONTINUOUS
 62
     5
 10
53.625727348096923
 20
-201.38728323699411
 30
0.0
 11
53.625727348096923
 21
-198.18111753371869
 31
0.0
  0
LINE
  8
DETAIL
  6
CONTINUOUS
 62
     5
 10
61.477490910291863
 20
-265.41040462427719
 30
0.0
 11
-61.477490909641567
 21
-265.41040462427719
 31
0.0
  0
LINE
  8
DETAIL
  6
CONTINUOUS
 62
     5
 10
75.64547206165696
 20
-238.45857418111731
 30
0.0
 11
75.64547206165696
 21
-241.8651252408475
 31
0.0
  0
LINE
  8
DETAIL
  6
CONTINUOUS
 62
     5
 10
80.154142581888095
 20
-250.38150289017349
 30
0.0
 11
-80.154142581888323
 21
-250.38150289017349
 31
0.0
  0
LINE
  8
DETAIL
  6
CONTINUOUS
 62
     5
 10
67.630057803468162
 20
-201.38728323699411
 30
0.0
 11
3.5269640439405521
 21
-201.38728323699411
 31
0.0
  0
LINE
  8
DETAIL
  6
CONTINUOUS
 62
     5
 10
-3.5269640432901501
 20
-201.38728323699411
 30
0.0
 11
-67.630057803468276
 21
-201.38728323699411
 31
0.0
  0
ARC
  8
DETAIL
  6
CONTINUOUS
 62
     5
 10
-67.630057803468276
 20
-209.40269749518271
 30
0.0
 40
8.0154142581886845
 50
90.0
 51
180.0
  0
ARC
  8
DETAIL
  6
CONTINUOUS
 62
     5
 10
-61.477490909641567
 20
-260.80154142581893
 30
0.0
 40
4.6088631984586392
 50
213.690067526006
 51
270.0
  0
ARC
  8
DETAIL
  6
CONTINUOUS
 62
     5
 10
-76.05457975006891
 20
-254.28901734104019
 30
0.0
 40
3.9075127404347652
 50
33.690116177688488
 51
90.0
  0
ARC
  8
DETAIL
  6
CONTINUOUS
 62
     5
 10
-80.154142581888323
 20
-248.7784200385357
 30
0.0
 40
1.6030828516377651
 50
180.0
 51
270.0
  0
ARC
  8
DETAIL
  6
CONTINUOUS
 62
     5
 10
67.630057803468162
 20
-209.40269749518271
 30
0.0
 40
8.0154142581888248
 50
0.0
 51
90.0
  0
ARC
  8
DETAIL
  6
CONTINUOUS
 62
     5
 10
61.477490910291863
 20
-260.80154142581893
 30
0.0
 40
4.6088631984586064
 50
270.0
 51
326.30993247399402
  0
ARC
  8
DETAIL
  6
CONTINUOUS
 62
     5
 10
76.054584941871099
 20
-254.28901734104019
 30
0.0
 40
3.907514223156193
 50
90.0
 51
146.30992604669689
  0
ARC
  8
DETAIL
  6
CONTINUOUS
 62
     5
 10
80.154142581888095
 20
-248.7784200385357
 30
0.0
 40
1.6030828516378499
 50
270.0
 51
0.0
  0
LINE
  8
DETAIL
  6
CONTINUOUS
 62
     5
 10
-55.70712909441238
 20
-176.0758657341039
 30
0.0
 11
-56.709055876685973
 21
-177.0777925163774
 31
0.0
  0
LINE
  8
DETAIL
  6
CONTINUOUS
 62
     5
 10
-63.121387283237027
 20
-201.38728323699411
 30
0.0
 11
-63.121387283237027
 21
-198.18111753371869
 31
0.0
  0
LINE
  8
DETAIL
  6
CONTINUOUS
 62
     5
 10
-56.709055876685973
 20
-196.27745664739891
 30
0.0
 11
-56.709055876685973
 21
-177.0777925163774
 31
0.0
  0
LINE
  8
DETAIL
  6
CONTINUOUS
 62
     5
 10
-55.70712909441238
 20
-176.0758657341039
 30
0.0
 11
-55.70712909441238
 21
-135.26011560693621
 31
0.0
  0
LINE
  8
DETAIL
  6
CONTINUOUS
 62
     5
 10
55.707129094412267
 20
-176.0758657341039
 30
0.0
 11
55.707129094412267
 21
-135.26011560693621
 31
0.0
  0
LINE
  8
DETAIL
  6
CONTINUOUS
 62
     5
 10
56.709055876685852
 20
-196.27745664739891
 30
0.0
 11
56.709055876685852
 21
-177.0777925163774
 31
0.0
  0
LINE
  8
DETAIL
  6
CONTINUOUS
 62
     5
 10
63.121387283236913
 20
-199.6840077071291
 30
0.0
 11
63.121387283236913
 21
-198.18111753371869
 31
0.0
  0
LINE
  8
DETAIL
  6
CONTINUOUS
 62
     5
 10
-56.709055876685973
 20
-177.0777925163774
 30
0.0
 11
56.709055876685852
 21
-177.0777925163774
 31
0.0
  0
LINE
  8
DETAIL
  6
CONTINUOUS
 62
     5
 10
-55.70712909441238
 20
-176.0758657341039
 30
0.0
 11
55.707129094412267
 21
-176.0758657341039
 31
0.0
  0
LINE
  8
DETAIL
  6
CONTINUOUS
 62
     5
 10
55.707129094412267
 20
-176.0758657341039
 30
0.0
 11
56.709055876685852
 21
-177.0777925163774
 31
0.0
  0
LINE
  8
BASIS
  6
DASHDOT
 62
     6
 10
0.0
 20
-288.17258708846452
 30
0.0
 11
0.0
 21
67.185699863513946
 31
0.0
  0
TEXT
  8
ETC
  6
CONTINUOUS
 62
    61
 10
451.32735853931263
 20
134.14402913353931
 30
0.0
 40
40.0
  1
EWF-40DSA2-Q
 41
0.9
  0
ARC
  8
DETAIL
  6
CONTINUOUS
 62
     5
 10
-100.21967477685391
 20
-137.73504626734419
 30
0.0
 40
106.32285294026789
 50
179.2061950642665
 51
251.32258430134721
  0
ARC
  8
DETAIL
  6
CONTINUOUS
 62
     5
 10
-93.195893527627049
 20
-136.25438544629199
 30
0.0
 40
110.148318920527
 50
180.00398290702651
 51
248.10639532353559
  0
ARC
  8
DETAIL
  6
CONTINUOUS
 62
     5
 10
-109.0464645247375
 20
-138.2154501559078
 30
0.0
 40
71.653364318499769
 50
178.43781391100549
 51
252.0909654546189
  0
ARC
  8
DETAIL
  6
CONTINUOUS
 62
     5
 10
-194.71600823209519
 20
-7.4346750959505243
 30
0.0
 40
2.5916927064155608
 50
194.01490649251971
 51
265.75797108456982
  0
ARC
  8
DETAIL
  6
CONTINUOUS
 62
     5
 10
-210.5918532026117
 20
-10.541280470920359
 30
0.0
 40
13.58931915512612
 50
10.510751252508779
 51
33.688618550760559
  0
ARC
  8
DETAIL
  6
CONTINUOUS
 62
     5
 10
-194.43226356615199
 20
-8.0794983657352759
 30
0.0
 40
6.4659440374839088
 50
194.93914122918449
 51
265.78314097971611
  0
ARC
  8
DETAIL
  6
CONTINUOUS
 62
     5
 10
-205.8508414832686
 20
-9.8698550613510179
 30
0.0
 40
5.1726556254472236
 50
1.3679009290746651
 51
66.959604617293053
  0
ARC
  8
DETAIL
  6
CONTINUOUS
 62
     5
 10
-244.12767054923461
 20
-8.2323180326802685
 30
0.0
 40
6.3066537963497042
 50
196.45986110105451
 51
266.61032666566138
  0
ARC
  8
DETAIL
  6
CONTINUOUS
 62
     5
 10
-255.41019132464501
 20
-9.9511880313150414
 30
0.0
 40
5.2347660304861217
 50
359.25482921999139
 51
67.645404057281965
  0
ARC
  8
DETAIL
  6
CONTINUOUS
 62
     5
 10
100.2196747768503
 20
-137.73504626734419
 30
0.0
 40
106.32285294026789
 50
288.67741569865268
 51
0.7938049357335026
  0
ARC
  8
DETAIL
  6
CONTINUOUS
 62
     5
 10
93.195893527623412
 20
-136.25438544629199
 30
0.0
 40
110.148318920527
 50
291.89360467646452
 51
359.99601709297349
  0
ARC
  8
DETAIL
  6
CONTINUOUS
 62
     5
 10
109.04646452473391
 20
-138.2154501559078
 30
0.0
 40
71.653364318499769
 50
287.90903454538108
 51
1.562186088994459
  0
ARC
  8
DETAIL
  6
CONTINUOUS
 62
     5
 10
194.71600823209161
 20
-7.4346750959505243
 30
0.0
 40
2.5916927064155608
 50
274.24202891543018
 51
345.98509350748043
  0
ARC
  8
DETAIL
  6
CONTINUOUS
 62
     5
 10
210.59185320260801
 20
-10.541280470920359
 30
0.0
 40
13.58931915512612
 50
146.31138144923949
 51
169.48924874749119
  0
ARC
  8
DETAIL
  6
CONTINUOUS
 62
     5
 10
194.43226356614829
 20
-8.0794983657352759
 30
0.0
 40
6.4659440374839088
 50
274.21685902028389
 51
345.06085877081563
  0
ARC
  8
DETAIL
  6
CONTINUOUS
 62
     5
 10
205.85084148326499
 20
-9.8698550613510179
 30
0.0
 40
5.1726556254472236
 50
113.040395382707
 51
178.63209907092531
  0
ARC
  8
DETAIL
  6
CONTINUOUS
 62
     5
 10
244.1276705492273
 20
-8.2323180326802685
 30
0.0
 40
6.3066537963497042
 50
273.38967333433862
 51
343.54013889894549
  0
ARC
  8
DETAIL
  6
CONTINUOUS
 62
     5
 10
255.4101913246412
 20
-9.9511880313150414
 30
0.0
 40
5.2347660304861217
 50
112.35459594271801
 51
180.74517078000861
  0
ARC
  8
DETAIL
  6
CONTINUOUS
 62
     5
 10
246.9950070760168
 20
-58.272282951930379
 30
0.0
 40
40.596056840656978
 50
109.6423266421944
 51
175.35431924105231
  0
ARC
  8
DETAIL
  6
CONTINUOUS
 62
     5
 10
-246.9950070760168
 20
-58.272282951930379
 30
0.0
 40
40.596056840656978
 50
4.6456807589477558
 51
70.357673357805567
  0
ARC
  8
OUTLINE
  6
CONTINUOUS
 62
     3
 10
-100.21967477685391
 20
-137.73504626734419
 30
0.0
 40
106.32285294026789
 50
179.2061950642665
 51
251.32258430134721
  0
ARC
  8
OUTLINE
  6
CONTINUOUS
 62
     3
 10
-244.12767054923461
 20
-8.2323180326803254
 30
0.0
 40
6.3066537963497042
 50
196.45986110105451
 51
266.61032666566138
  0
ARC
  8
OUTLINE
  6
CONTINUOUS
 62
     3
 10
100.2196747768503
 20
-137.73504626734419
 30
0.0
 40
106.32285294026789
 50
288.67741569865268
 51
0.7938049357335026
  0
ARC
  8
OUTLINE
  6
CONTINUOUS
 62
     3
 10
244.1276705492273
 20
-8.2323180326803254
 30
0.0
 40
6.3066537963497042
 50
273.38967333433862
 51
343.54013889894549
  0
ARC
  8
OUTLINE
  6
CONTINUOUS
 62
     3
 10
246.9950070760168
 20
-58.272282951930443
 30
0.0
 40
40.596056840656978
 50
109.6423266421944
 51
175.35431924105231
  0
ARC
  8
OUTLINE
  6
CONTINUOUS
 62
     3
 10
-246.9950070760168
 20
-58.272282951930443
 30
0.0
 40
40.596056840656978
 50
4.6456807589477558
 51
70.357673357805567
  0
LINE
  8
DETAIL
  6
CONTINUOUS
 62
     5
 10
-12.524084778420161
 20
-197.37957610789999
 30
0.0
 11
-15.529865125240921
 21
-197.37957610789999
 31
0.0
  0
LINE
  8
DETAIL
  6
CONTINUOUS
 62
     5
 10
-6.5125240847785344
 20
-199.7842003853566
 30
0.0
 11
6.5125240847783061
 21
-199.7842003853566
 31
0.0
  0
LINE
  8
DETAIL
  6
CONTINUOUS
 62
     5
 10
-15.529865125240921
 20
-201.38728323699431
 30
0.0
 11
-15.529865125240921
 21
-197.37957610789999
 31
0.0
  0
LINE
  8
DETAIL
  6
CONTINUOUS
 62
     5
 10
-12.524084778420161
 20
-201.38728323699431
 30
0.0
 11
-12.524084778420161
 21
-197.37957610789999
 31
0.0
  0
LINE
  8
DETAIL
  6
CONTINUOUS
 62
     5
 10
-6.5125240847785344
 20
-198.18111753371889
 30
0.0
 11
-6.5125240847785344
 21
-199.7842003853566
 31
0.0
  0
LINE
  8
DETAIL
  6
CONTINUOUS
 62
     5
 10
6.5125240847783061
 20
-198.18111753371889
 30
0.0
 11
6.5125240847783061
 21
-199.7842003853566
 31
0.0
  0
CIRCLE
  8
DETAIL
  6
CONTINUOUS
 62
     5
 10
-0.0000000000001137
 20
-213.41040462427759
 30
0.0
 40
4.5086705202312194
  0
CIRCLE
  8
DETAIL
  6
CONTINUOUS
 62
     5
 10
-0.0000000000001137
 20
-213.41040462427759
 30
0.0
 40
1.5028901734104061
  0
LINE
  8
DETAIL
  6
CONTINUOUS
 62
     5
 10
-12.524084778420161
 20
-198.18111753371869
 30
0.0
 11
63.121332766709088
 21
-198.18111753371869
 31
0.0
  0
ENDSEC
  0
EOF
