  0
SECTION
  2
HEADER
  9
$ACADVER
  1
AC1009
  9
$DWGCODEPAGE
  3
dos932
  9
$INSBASE
 10
0.0
 20
0.0
 30
0.0
  9
$EXTMIN
 10
-606.81608449297164
 20
-330.04759558249322
 30
-0.0015257624927045
  9
$EXTMAX
 10
1168.766796401196
 20
629.33350416055509
 30
0.0022888765696933
  9
$LIMMIN
 10
-2970.0
 20
-2100.0
  9
$LIMMAX
 10
2970.0
 20
2100.0
  9
$ORTHOMODE
 70
     1
  9
$REGENMODE
 70
     1
  9
$FILLMODE
 70
     1
  9
$QTEXTMODE
 70
     0
  9
$MIRRTEXT
 70
     0
  9
$LTSCALE
 40
20.0
  9
$ATTMODE
 70
     1
  9
$TEXTSIZE
 40
64.0
  9
$TRACEWID
 40
0.05
  9
$TEXTSTYLE
  7
STANDARD
  9
$CLAYER
  8
SIZE
  9
$CELTYPE
  6
CONTINUOUS
  9
$CECOLOR
 62
     7
  9
$DIMSCALE
 40
1.0
  9
$DIMASZ
 40
12.0
  9
$DIMEXO
 40
20.0
  9
$DIMDLI
 40
200.0
  9
$DIMRND
 40
0.0
  9
$DIMDLE
 40
0.0
  9
$DIMEXE
 40
20.0
  9
$DIMTP
 40
0.0
  9
$DIMTM
 40
0.0
  9
$DIMTXT
 40
64.0
  9
$DIMCEN
 40
0.09
  9
$DIMTSZ
 40
0.0
  9
$DIMTOL
 70
     0
  9
$DIMLIM
 70
     0
  9
$DIMTIH
 70
     0
  9
$DIMTOH
 70
     0
  9
$DIMSE1
 70
     0
  9
$DIMSE2
 70
     0
  9
$DIMTAD
 70
     1
  9
$DIMZIN
 70
     8
  9
$DIMBLK
  1

  9
$DIMASO
 70
     1
  9
$DIMSHO
 70
     0
  9
$DIMPOST
  1

  9
$DIMAPOST
  1

  9
$DIMALT
 70
     0
  9
$DIMALTD
 70
     2
  9
$DIMALTF
 40
25.399999999999999
  9
$DIMLFAC
 40
1.0
  9
$DIMTOFL
 70
     1
  9
$DIMTVP
 40
0.0
  9
$DIMTIX
 70
     1
  9
$DIMSOXD
 70
     0
  9
$DIMSAH
 70
     0
  9
$DIMBLK1
  1

  9
$DIMBLK2
  1

  9
$DIMSTYLE
  2
STANDARD
  9
$DIMCLRD
 70
     7
  9
$DIMCLRE
 70
     7
  9
$DIMCLRT
 70
     7
  9
$DIMTFAC
 40
1.0
  9
$DIMGAP
 40
25.0
  9
$LUNITS
 70
     2
  9
$LUPREC
 70
     4
  9
$SKETCHINC
 40
0.1
  9
$FILLETRAD
 40
3.0
  9
$AUNITS
 70
     1
  9
$AUPREC
 70
     3
  9
$MENU
  1
ACAD
  9
$ELEVATION
 40
0.0
  9
$PELEVATION
 40
0.0
  9
$THICKNESS
 40
50.0
  9
$LIMCHECK
 70
     0
  9
$CHAMFERA
 40
0.0
  9
$CHAMFERB
 40
0.0
  9
$SKPOLY
 70
     0
  9
$TDCREATE
 40
2453019.62301037
  9
$TDUPDATE
 40
2458949.445104965
  9
$TDINDWG
 40
1.7140784838
  9
$TDUSRTIMER
 40
1.7140784838
  9
$USRTIMER
 70
     1
  9
$ANGBASE
 50
0.0
  9
$ANGDIR
 70
     0
  9
$PDMODE
 70
     3
  9
$PDSIZE
 40
-2.0
  9
$PLINEWID
 40
0.0
  9
$SPLFRAME
 70
     0
  9
$SPLINETYPE
 70
     6
  9
$SPLINESEGS
 70
     8
  9
$SURFTAB1
 70
     6
  9
$SURFTAB2
 70
     6
  9
$SURFTYPE
 70
     6
  9
$SURFU
 70
     6
  9
$SURFV
 70
     6
  9
$UCSNAME
  2

  9
$UCSORG
 10
0.0
 20
0.0
 30
0.0
  9
$UCSXDIR
 10
1.0
 20
0.0
 30
0.0
  9
$UCSYDIR
 10
0.0
 20
1.0
 30
0.0
  9
$PUCSNAME
  2

  9
$PUCSORG
 10
0.0
 20
0.0
 30
0.0
  9
$PUCSXDIR
 10
1.0
 20
0.0
 30
0.0
  9
$PUCSYDIR
 10
0.0
 20
1.0
 30
0.0
  9
$USERI1
 70
     0
  9
$USERI2
 70
     0
  9
$USERI3
 70
     0
  9
$USERI4
 70
     0
  9
$USERI5
 70
     0
  9
$USERR1
 40
20.0
  9
$USERR2
 40
0.0
  9
$USERR3
 40
0.0
  9
$USERR4
 40
0.0
  9
$USERR5
 40
0.0
  9
$WORLDVIEW
 70
     1
  9
$SHADEDGE
 70
     3
  9
$SHADEDIF
 70
    70
  9
$TILEMODE
 70
     1
  9
$MAXACTVP
 70
    48
  9
$PINSBASE
 10
0.0
 20
0.0
 30
0.0
  9
$PLIMCHECK
 70
     0
  9
$PEXTMIN
 10
-100000000000000000000.0
 20
-100000000000000000000.0
 30
-100000000000000000000.0
  9
$PEXTMAX
 10
100000000000000000000.0
 20
100000000000000000000.0
 30
100000000000000000000.0
  9
$PLIMMIN
 10
0.0
 20
0.0
  9
$PLIMMAX
 10
12.0
 20
9.0
  9
$UNITMODE
 70
     0
  9
$VISRETAIN
 70
     0
  9
$PLINEGEN
 70
     0
  9
$PSLTSCALE
 70
     0
  9
$TREEDEPTH
 70
  3020
  9
$ATTDIA
 70
     0
  9
$ATTREQ
 70
     1
  9
$BLIPMODE
 70
     1
  9
$COORDS
 70
     1
  9
$DRAGMODE
 70
     2
  9
$OSMODE
 70
     0
  9
$HANDLING
 70
     0
  9
$HANDSEED
  5
10401
  0
ENDSEC
  0
SECTION
  2
TABLES
  0
TABLE
  2
LTYPE
 70
     2
  0
LTYPE
  2
CONTINUOUS
 70
     0
  3
実線
 72
    65
 73
     0
 40
0.0
  0
LTYPE
  2
DASHDOT
 70
     0
  3
____ _ ____ _ ____ _ ____ _ ____ _ ____ _ ____
 72
    65
 73
     4
 40
5.5
 49
4.0
 49
-0.6
 49
0.3
 49
-0.6
  0
ENDTAB
  0
TABLE
  2
LAYER
 70
    12
  0
LAYER
  2
0
 70
     0
 62
     7
  6
CONTINUOUS
  0
LAYER
  2
BASIS
 70
     0
 62
     6
  6
DASHDOT
  0
LAYER
  2
OUTLINE
 70
     0
 62
     3
  6
CONTINUOUS
  0
LAYER
  2
DETAIL
 70
     0
 62
     5
  6
CONTINUOUS
  0
LAYER
  2
SIZE
 70
     0
 62
    30
  6
CONTINUOUS
  0
LAYER
  2
ARRANGE
 70
     0
 62
     1
  6
CONTINUOUS
  0
LAYER
  2
DEFPOINTS
 70
     0
 62
     7
  6
CONTINUOUS
  0
LAYER
  2
ETC
 70
     0
 62
    61
  6
CONTINUOUS
  0
LAYER
  2
FIX
 70
     0
 62
    11
  6
CONTINUOUS
  0
LAYER
  2
NOTE
 70
     0
 62
     4
  6
CONTINUOUS
  0
LAYER
  2
SERVICESPACE
 70
    64
 62
     2
  6
DASHDOT
  0
LAYER
  2
SYMBOLLINE
 70
    64
 62
    15
  6
CONTINUOUS
  0
ENDTAB
  0
TABLE
  2
STYLE
 70
     1
  0
STYLE
  2
STANDARD
 70
     0
 40
64.0
 41
0.9
 50
0.0
 71
     0
 42
64.0
  3
SIMPLEX.shx
  4
BIGFONT.shx
  0
ENDTAB
  0
TABLE
  2
APPID
 70
    19
  0
APPID
  2
ACAD
 70
     0
  0
APPID
  2
AUTOCAD_POSTSCRIPT_FIGURE
 70
     0
  0
APPID
  2
ACAD_EXEMPT_FROM_CAD_STANDARDS
 70
     0
  0
APPID
  2
ACAD_PSEXT
 70
     0
  0
APPID
  2
ACAUTHENVIRON
 70
     0
  0
APPID
  2
GENIUS_GENOENT_13
 70
     0
  0
APPID
  2
GENIUS_GENCFG_13
 70
     0
  0
APPID
  2
GENIUS_GENCFG0_13
 70
     0
  0
APPID
  2
GENIUS_GENCFG1_13
 70
     0
  0
APPID
  2
GENIUS_GENCFG2_13
 70
     0
  0
APPID
  2
GENIUS_GENCFG3_13
 70
     0
  0
APPID
  2
GENIUS_GENCFG4_13
 70
     0
  0
APPID
  2
GENIUS_GEVCFG0_13
 70
     0
  0
APPID
  2
CONTENTBLOCKICON
 70
     0
  0
APPID
  2
CONTENTBLOCKDESCRIPTION
 70
     0
  0
APPID
  2
ACAD_NAV_VCDISPLAY
 70
     0
  0
APPID
  2
ACAD_MLEADERVER
 70
     0
  0
APPID
  2
ACDBDYNAMICBLOCKTRUENAME
 70
     0
  0
APPID
  2
ACDBDYNAMICBLOCKGUID
 70
     0
  0
ENDTAB
  0
TABLE
  2
DIMSTYLE
 70
     1
  0
DIMSTYLE
  2
STANDARD
 70
     0
  3

  4

  5
_ORIGIN
  6

  7

 40
1.0
 41
12.0
 42
20.0
 43
200.0
 44
20.0
 45
0.0
 46
0.0
 47
0.0
 48
0.0
140
64.0
141
0.09
142
0.0
143
25.399999999999999
144
1.0
145
0.0
146
1.0
147
25.0
 71
     0
 72
     0
 73
     0
 74
     0
 75
     0
 76
     0
 77
     1
 78
     8
170
     0
171
     2
172
     1
173
     0
174
     1
175
     0
176
     7
177
     7
178
     7
  0
ENDTAB
  0
TABLE
  2
VIEW
 70
     1
  0
VIEW
  2
ALL
 70
     0
 40
4282.6198079999986
 10
0.0
 20
41.309904000000003
 41
5940.0
 11
0.0
 21
0.0
 31
1.0
 12
0.0
 22
0.0
 32
0.0
 42
50.0
 43
0.0
 44
0.0
 50
0.0
 71
     0
  0
ENDTAB
  0
TABLE
  2
UCS
 70
     0
  0
ENDTAB
  0
TABLE
  2
VPORT
 70
     1
  0
VPORT
  2
*ACTIVE
 70
     0
 10
0.0
 20
0.0
 11
1.0
 21
1.0
 12
280.97535595411239
 22
149.642954289031
 13
0.0
 23
0.0
 14
1.0
 24
1.0
 15
0.0
 25
0.0
 16
0.0
 26
0.0
 36
1.0
 17
0.0
 27
0.0
 37
0.0
 40
1019.7567137715361
 41
1.747787610619469
 42
50.0
 43
0.0
 44
0.0
 50
0.0
 51
0.0
 71
     0
 72
  1000
 73
     1
 74
     3
 75
     0
 76
     0
 77
     0
 78
     0
  0
ENDTAB
  0
ENDSEC
  0
SECTION
  2
BLOCKS
  0
BLOCK
  8
0
  2
_ORIGIN
 70
     0
 10
0.0
 20
0.0
 30
0.0
  3
_ORIGIN
  1
_ORIGIN
  0
CIRCLE
  8
0
  6
CONTINUOUS
 62
     7
 10
0.0
 20
0.0
 30
0.0
 40
0.5
  0
LINE
  8
0
  6
CONTINUOUS
 62
     7
 10
0.0
 20
0.0
 30
0.0
 11
-1.0
 21
0.0
 31
0.0
  0
ENDBLK
  8
0
  0
ENDSEC
  0
SECTION
  2
ENTITIES
  0
POINT
  8
ARRANGE
  6
CONTINUOUS
 62
     1
 10
0.0
 20
0.0
 30
0.0
  0
CIRCLE
  8
ARRANGE
  6
CONTINUOUS
 62
     1
 10
0.0
 20
0.0
 30
0.0
 40
40.0
  0
TEXT
  8
ETC
  6
CONTINUOUS
 62
    61
 10
422.44220436437649
 20
565.14461564764088
 30
0.0
 40
64.0
  1
EWF-40ETA2-H_3
 41
0.9
  0
TEXT
  8
ETC
  6
CONTINUOUS
 62
    61
 10
418.2562103643761
 20
447.18930563280952
 30
0.0
 40
64.0
  1
産業扇
 41
0.9
  0
TEXT
  8
ETC
  6
CONTINUOUS
 62
    61
 10
468.95760861293212
 20
339.04053274658418
 30
0.0
 40
40.0
  1
EWF-40ETA2-H
 41
0.9
  0
CIRCLE
  8
FIX
  6
CONTINUOUS
 62
    11
 10
-230.44315992292849
 20
230.44315992292869
 30
0.0
 40
9.8378378699999995
  0
CIRCLE
  8
FIX
  6
CONTINUOUS
 62
    11
 10
230.443159922929
 20
230.44315992292869
 30
0.0
 40
9.8378378699999995
  0
LINE
  8
SIZE
  6
CONTINUOUS
 62
    30
 10
-230.44315992292849
 20
289.98673773240262
 30
0.0
 11
-230.44315992292849
 21
354.829391094946
 31
0.0
  0
LINE
  8
SIZE
  6
CONTINUOUS
 62
    30
 10
230.443159922929
 20
289.98673773240262
 30
0.0
 11
230.443159922929
 21
354.829391094946
 31
0.0
  0
LINE
  8
SIZE
  6
CONTINUOUS
 62
    30
 10
-218.44315992292849
 20
334.829391094946
 30
0.0
 11
218.443159922929
 21
334.829391094946
 31
0.0
  0
CIRCLE
  8
SIZE
  6
CONTINUOUS
 62
    30
 10
-230.44315992292849
 20
334.829391094946
 30
0.0
 40
6.0
  0
LINE
  8
SIZE
  6
CONTINUOUS
 62
    30
 10
-230.44315992292849
 20
334.829391094946
 30
0.0
 11
-218.44315992292849
 21
334.829391094946
 31
0.0
  0
CIRCLE
  8
SIZE
  6
CONTINUOUS
 62
    30
 10
230.443159922929
 20
334.829391094946
 30
0.0
 40
6.0
  0
LINE
  8
SIZE
  6
CONTINUOUS
 62
    30
 10
230.443159922929
 20
334.829391094946
 30
0.0
 11
218.443159922929
 21
334.829391094946
 31
0.0
  0
TEXT
  8
SIZE
  6
CONTINUOUS
 62
    30
 10
-80.183684066219627
 20
359.829391094946
 30
0.0
 40
64.0
  1
460
 41
0.9
 72
     1
 11
-6.1265412090767768
 21
359.829391094946
 31
0.0
  0
POINT
  8
DEFPOINTS
  6
CONTINUOUS
 62
    30
 10
-230.44315992292849
 20
269.98673773240262
 30
0.0
  0
POINT
  8
DEFPOINTS
  6
CONTINUOUS
 62
    30
 10
230.443159922929
 20
269.98673773240262
 30
0.0
  0
POINT
  8
DEFPOINTS
  6
CONTINUOUS
 62
    30
 10
230.443159922929
 20
334.829391094946
 30
0.0
  0
LINE
  8
SIZE
  6
CONTINUOUS
 62
    30
 10
-259.99999999999932
 20
239.92292870905601
 30
0.0
 11
-259.99999999999932
 21
466.68643423610769
 31
0.0
  0
LINE
  8
SIZE
  6
CONTINUOUS
 62
    30
 10
259.99999748318601
 20
239.93713198585979
 30
0.0
 11
259.99999748318601
 21
466.68643423610769
 31
0.0
  0
LINE
  8
SIZE
  6
CONTINUOUS
 62
    30
 10
-247.9999999999992
 20
446.68643423610769
 30
0.0
 11
247.99999748318601
 21
446.68643423610769
 31
0.0
  0
CIRCLE
  8
SIZE
  6
CONTINUOUS
 62
    30
 10
-259.99999999999932
 20
446.68643423610769
 30
0.0
 40
6.0
  0
LINE
  8
SIZE
  6
CONTINUOUS
 62
    30
 10
-259.99999999999932
 20
446.68643423610769
 30
0.0
 11
-247.9999999999992
 21
446.68643423610769
 31
0.0
  0
CIRCLE
  8
SIZE
  6
CONTINUOUS
 62
    30
 10
259.99999748318601
 20
446.68643423610769
 30
0.0
 40
6.0
  0
LINE
  8
SIZE
  6
CONTINUOUS
 62
    30
 10
259.99999748318601
 20
446.68643423610769
 30
0.0
 11
247.99999748318601
 21
446.68643423610769
 31
0.0
  0
TEXT
  8
SIZE
  6
CONTINUOUS
 62
    30
 10
-79.184734726248877
 20
471.68643423610769
 30
0.0
 40
64.0
  1
520
 41
0.9
 72
     1
 11
-5.1275918691060269
 21
471.68643423610769
 31
0.0
  0
POINT
  8
DEFPOINTS
  6
CONTINUOUS
 62
    30
 10
-259.99999999999932
 20
219.92292870905601
 30
0.0
  0
POINT
  8
DEFPOINTS
  6
CONTINUOUS
 62
    30
 10
259.99999748318601
 20
219.93713198585979
 30
0.0
  0
POINT
  8
DEFPOINTS
  6
CONTINUOUS
 62
    30
 10
259.99999748318601
 20
446.68643423610769
 30
0.0
  0
LINE
  8
SIZE
  6
CONTINUOUS
 62
    30
 10
-239.92292870905521
 20
-259.99999999999989
 30
0.0
 11
-462.12495279773867
 21
-259.99999999999972
 31
0.0
  0
LINE
  8
SIZE
  6
CONTINUOUS
 62
    30
 10
-239.92292870905521
 20
259.99999999999989
 30
0.0
 11
-462.12495279773862
 21
259.99999999999989
 31
0.0
  0
LINE
  8
SIZE
  6
CONTINUOUS
 62
    30
 10
-442.12495279773867
 20
-247.99999999999989
 30
0.0
 11
-442.12495279773862
 21
247.99999999999989
 31
0.0
  0
CIRCLE
  8
SIZE
  6
CONTINUOUS
 62
    30
 10
-442.12495279773867
 20
-259.99999999999972
 30
0.0
 40
6.0
  0
LINE
  8
SIZE
  6
CONTINUOUS
 62
    30
 10
-442.12495279773867
 20
-259.99999999999972
 30
0.0
 11
-442.12495279773867
 21
-247.9999999999998
 31
0.0
  0
CIRCLE
  8
SIZE
  6
CONTINUOUS
 62
    30
 10
-442.12495279773862
 20
259.99999999999989
 30
0.0
 40
6.0
  0
LINE
  8
SIZE
  6
CONTINUOUS
 62
    30
 10
-442.12495279773862
 20
259.99999999999989
 30
0.0
 11
-442.12495279773862
 21
247.99999999999989
 31
0.0
  0
TEXT
  8
SIZE
  6
CONTINUOUS
 62
    30
 10
-467.12495279773862
 20
-73.757385719727409
 30
0.0
 40
64.0
  1
520
 50
90.0
 41
0.9
 72
     1
 11
-467.12495279773862
 21
0.2997571374154404
 31
0.0
  0
POINT
  8
DEFPOINTS
  6
CONTINUOUS
 62
    30
 10
-219.92292870905521
 20
-259.99999999999989
 30
0.0
  0
POINT
  8
DEFPOINTS
  6
CONTINUOUS
 62
    30
 10
-219.92292870905521
 20
259.99999999999989
 30
0.0
  0
POINT
  8
DEFPOINTS
  6
CONTINUOUS
 62
    30
 10
-442.12495279773862
 20
259.99999999999989
 30
0.0
  0
TEXT
  8
NOTE
  6
CONTINUOUS
 62
     4
 10
-604.86139766620761
 20
352.86692557230208
 30
0.0
 40
64.0
  1
4-φ14
 41
0.9
  0
LINE
  8
DETAIL
  6
CONTINUOUS
 62
     4
 10
-232.74491955584361
 20
236.21261413301511
 30
0.0
 11
-230.44315992292849
 21
230.44315992292869
 31
0.0
  0
LINE
  8
DETAIL
  6
CONTINUOUS
 62
     4
 10
-230.44315992292849
 20
230.44315992292869
 30
0.0
 11
-235.32127513860021
 21
234.2887666673362
 31
0.0
  0
LINE
  8
DETAIL
  6
CONTINUOUS
 62
     4
 10
-230.44315992292849
 20
230.44315992292869
 30
0.0
 11
-237.62303477151519
 21
240.05822087742271
 31
0.0
  0
LINE
  8
NOTE
  6
CONTINUOUS
 62
     4
 10
-237.62303477151519
 20
240.0582208774226
 30
0.0
 11
-297.86134289026148
 21
320.72745489218278
 31
0.0
  0
LINE
  8
NOTE
  6
CONTINUOUS
 62
     4
 10
-297.86134289026148
 20
320.72745489218278
 30
0.0
 11
-606.40420003311851
 21
320.72745489218278
 31
0.0
  0
LINE
  8
NOTE
  6
CONTINUOUS
 62
     4
 10
269.98673773240279
 20
-230.44315992292869
 30
0.0
 11
190.89958211345521
 21
-230.44315992292869
 31
0.0
  0
LINE
  8
NOTE
  6
CONTINUOUS
 62
     4
 10
230.443159922929
 20
-190.89958211345481
 30
0.0
 11
230.443159922929
 21
-269.98673773240239
 31
0.0
  0
LINE
  8
NOTE
  6
CONTINUOUS
 62
     4
 10
-190.8995821134547
 20
-230.44315992292869
 30
0.0
 11
-269.98673773240228
 21
-230.44315992292869
 31
0.0
  0
LINE
  8
NOTE
  6
CONTINUOUS
 62
     4
 10
-230.4431599229282
 20
-190.89958211345481
 30
0.0
 11
-230.4431599229282
 21
-269.98673773240239
 31
0.0
  0
LINE
  8
NOTE
  6
CONTINUOUS
 62
     4
 10
269.98673773240279
 20
230.44315992292869
 30
0.0
 11
190.89958211345521
 21
230.44315992292869
 31
0.0
  0
LINE
  8
NOTE
  6
CONTINUOUS
 62
     4
 10
230.443159922929
 20
269.98673773240262
 30
0.0
 11
230.443159922929
 21
190.89958211345501
 31
0.0
  0
LINE
  8
NOTE
  6
CONTINUOUS
 62
     4
 10
-190.8995821134547
 20
230.44315992292869
 30
0.0
 11
-269.98673773240228
 21
230.44315992292869
 31
0.0
  0
LINE
  8
NOTE
  6
CONTINUOUS
 62
     4
 10
-230.44315992292849
 20
269.98673773240262
 30
0.0
 11
-230.44315992292849
 21
190.89958211345501
 31
0.0
  0
LINE
  8
BASIS
  6
DASHDOT
 62
     6
 10
0.0000000000002274
 20
-301.35307858947681
 30
0.0
 11
0.0000000000002274
 21
301.35307858947658
 31
0.0
  0
LINE
  8
BASIS
  6
DASHDOT
 62
     6
 10
-295.19681022686183
 20
0.0
 30
0.0
 11
295.19681022686223
 21
0.0
 31
0.0
  0
ARC
  8
OUTLINE
  6
CONTINUOUS
 62
     3
 10
219.92292870905609
 20
219.92292870905601
 30
0.0
 40
40.077071290944097
 50
0.0
 51
90.0
  0
ARC
  8
OUTLINE
  6
CONTINUOUS
 62
     3
 10
-219.92292870905521
 20
219.92292870905601
 30
0.0
 40
40.077071290944097
 50
90.0
 51
180.0
  0
ARC
  8
OUTLINE
  6
CONTINUOUS
 62
     3
 10
219.92292870905609
 20
-219.92292870905581
 30
0.0
 40
40.077071290944097
 50
270.0
 51
0.0
  0
ARC
  8
OUTLINE
  6
CONTINUOUS
 62
     3
 10
-219.92292870905521
 20
-219.92292870905581
 30
0.0
 40
40.077071290944097
 50
180.0
 51
270.0
  0
LINE
  8
OUTLINE
  6
CONTINUOUS
 62
     3
 10
219.92292870905609
 20
259.99999999999989
 30
0.0
 11
-219.92292870905521
 21
259.99999999999989
 31
0.0
  0
LINE
  8
OUTLINE
  6
CONTINUOUS
 62
     3
 10
260.00000000000051
 20
-219.92292870905581
 30
0.0
 11
260.00000000000051
 21
219.92292870905601
 31
0.0
  0
LINE
  8
OUTLINE
  6
CONTINUOUS
 62
     3
 10
200.44024526467049
 20
-259.99999999999989
 30
0.0
 11
219.92292870905609
 21
-259.99999999999989
 31
0.0
  0
LINE
  8
OUTLINE
  6
CONTINUOUS
 62
     3
 10
-219.92292870905521
 20
-259.99999999999989
 30
0.0
 11
200.44024526467049
 21
-259.99999999999989
 31
0.0
  0
LINE
  8
OUTLINE
  6
CONTINUOUS
 62
     3
 10
-259.99999999999932
 20
219.92292870905601
 30
0.0
 11
-259.99999999999932
 21
-219.92292870905581
 31
0.0
  0
CIRCLE
  8
FIX
  6
CONTINUOUS
 62
    11
 10
230.443159922929
 20
-230.44315992292869
 30
0.0
 40
9.8378378699999995
  0
CIRCLE
  8
FIX
  6
CONTINUOUS
 62
    11
 10
-230.4431599229282
 20
-230.44315992292869
 30
0.0
 40
9.8378378699999995
  0
LINE
  8
SIZE
  6
CONTINUOUS
 62
    30
 10
-289.98673773240228
 20
230.44315992292869
 30
0.0
 11
-348.24421945758479
 21
230.44315992292869
 31
0.0
  0
LINE
  8
SIZE
  6
CONTINUOUS
 62
    30
 10
-289.98673773240228
 20
-230.44315992292869
 30
0.0
 11
-348.24421945758479
 21
-230.4431599229286
 31
0.0
  0
LINE
  8
SIZE
  6
CONTINUOUS
 62
    30
 10
-328.24421945758479
 20
218.44315992292869
 30
0.0
 11
-328.24421945758479
 21
-218.4431599229286
 31
0.0
  0
CIRCLE
  8
SIZE
  6
CONTINUOUS
 62
    30
 10
-328.24421945758479
 20
230.44315992292869
 30
0.0
 40
6.0
  0
LINE
  8
SIZE
  6
CONTINUOUS
 62
    30
 10
-328.24421945758479
 20
230.44315992292869
 30
0.0
 11
-328.24421945758479
 21
218.44315992292869
 31
0.0
  0
CIRCLE
  8
SIZE
  6
CONTINUOUS
 62
    30
 10
-328.24421945758479
 20
-230.4431599229286
 30
0.0
 40
6.0
  0
LINE
  8
SIZE
  6
CONTINUOUS
 62
    30
 10
-328.24421945758479
 20
-230.4431599229286
 30
0.0
 11
-328.24421945758479
 21
-218.4431599229286
 31
0.0
  0
TEXT
  8
SIZE
  6
CONTINUOUS
 62
    30
 10
-353.24421945758479
 20
-74.057142857142907
 30
0.0
 40
64.0
  1
460
 50
90.0
 41
0.9
 72
     1
 11
-353.24421945758479
 21
-0.0000000000000568
 31
0.0
  0
POINT
  8
DEFPOINTS
  6
CONTINUOUS
 62
    30
 10
-269.98673773240228
 20
230.44315992292869
 30
0.0
  0
POINT
  8
DEFPOINTS
  6
CONTINUOUS
 62
    30
 10
-269.98673773240228
 20
-230.44315992292869
 30
0.0
  0
POINT
  8
DEFPOINTS
  6
CONTINUOUS
 62
    30
 10
-328.24421945758479
 20
-230.4431599229286
 30
0.0
  0
LINE
  8
SIZE
  6
CONTINUOUS
 62
    30
 10
591.8394669040415
 20
-86.276185478192815
 30
0.0
 11
213.01443732067091
 21
-31.05246292537424
 31
0.0
  0
LINE
  8
SIZE
  6
CONTINUOUS
 62
    30
 10
-213.01443732067071
 20
31.05246292537436
 30
0.0
 11
-224.8889297316617
 21
32.783482850539599
 31
0.0
  0
TEXT
  8
SIZE
  6
CONTINUOUS
 62
    30
 10
361.17333218634298
 20
-27.386285088856859
 30
0.0
 40
64.0
  1
φ406
 50
351.70605308866129
 41
0.9
 72
     1
 11
472.99712357670319
 21
-43.687547012698637
 31
0.0
  0
LINE
  8
SIZE
  6
CONTINUOUS
 62
    30
 10
-201.1399449096798
 20
29.321443000209172
 30
0.0
 11
201.13994490968039
 21
-29.321443000209062
 31
0.0
  0
CIRCLE
  8
SIZE
  6
CONTINUOUS
 62
    30
 10
-201.1399449096798
 20
29.321443000209172
 30
0.0
 40
6.0
  0
LINE
  8
SIZE
  6
CONTINUOUS
 62
    30
 10
-201.1399449096798
 20
29.321443000209172
 30
0.0
 11
-213.01443732067071
 21
31.05246292537436
 31
0.0
  0
CIRCLE
  8
SIZE
  6
CONTINUOUS
 62
    30
 10
201.13994490968039
 20
-29.321443000209062
 30
0.0
 40
6.0
  0
LINE
  8
SIZE
  6
CONTINUOUS
 62
    30
 10
201.13994490968039
 20
-29.321443000209062
 30
0.0
 11
213.01443732067091
 21
-31.0524629253743
 31
0.0
  0
POINT
  8
DEFPOINTS
  6
CONTINUOUS
 62
    30
 10
201.13994490968039
 20
-29.321443000209062
 30
0.0
  0
POINT
  8
DEFPOINTS
  6
CONTINUOUS
 62
    30
 10
-201.1399449096798
 20
29.321443000209172
 30
0.0
  0
LINE
  8
SIZE
  6
CONTINUOUS
 62
    30
 10
607.27459820320121
 20
157.67228863457839
 30
0.0
 11
204.49726896971561
 21
53.09550656882061
 31
0.0
  0
LINE
  8
SIZE
  6
CONTINUOUS
 62
    30
 10
-204.49726896971521
 20
-53.095506568820497
 30
0.0
 11
-216.11215897666759
 21
-56.111187275791622
 31
0.0
  0
TEXT
  8
SIZE
  6
CONTINUOUS
 62
    30
 10
369.18638002492543
 20
121.6841694300772
 30
0.0
 40
64.0
  1
φ400
 50
14.554850946208431
 41
0.9
 72
     1
 11
479.89287449119138
 21
150.42791468280831
 31
0.0
  0
LINE
  8
SIZE
  6
CONTINUOUS
 62
    30
 10
-192.8823789627628
 20
-50.079825861849322
 30
0.0
 11
192.88237896276331
 21
50.079825861849493
 31
0.0
  0
CIRCLE
  8
SIZE
  6
CONTINUOUS
 62
    30
 10
-192.8823789627628
 20
-50.079825861849322
 30
0.0
 40
6.0
  0
LINE
  8
SIZE
  6
CONTINUOUS
 62
    30
 10
-192.8823789627628
 20
-50.079825861849322
 30
0.0
 11
-204.49726896971509
 21
-53.095506568820497
 31
0.0
  0
CIRCLE
  8
SIZE
  6
CONTINUOUS
 62
    30
 10
192.88237896276331
 20
50.079825861849493
 30
0.0
 40
6.0
  0
LINE
  8
SIZE
  6
CONTINUOUS
 62
    30
 10
192.88237896276331
 20
50.079825861849493
 30
0.0
 11
204.49726896971561
 21
53.095506568820497
 31
0.0
  0
POINT
  8
DEFPOINTS
  6
CONTINUOUS
 62
    30
 10
192.88237896276331
 20
50.079825861849493
 30
0.0
  0
POINT
  8
DEFPOINTS
  6
CONTINUOUS
 62
    30
 10
-192.8823789627628
 20
-50.079825861849322
 30
0.0
  0
CIRCLE
  8
DETAIL
  6
CONTINUOUS
 62
     5
 10
-180.14184516102341
 20
-211.31449092945991
 30
0.0
 40
3.005780346820814
  0
CIRCLE
  8
DETAIL
  6
CONTINUOUS
 62
     5
 10
-211.31449092945931
 20
180.14184516102389
 30
0.0
 40
3.005780346820814
  0
CIRCLE
  8
DETAIL
  6
CONTINUOUS
 62
     5
 10
211.31449092880959
 20
-180.1418451616745
 30
0.0
 40
3.0057803468207571
  0
CIRCLE
  8
DETAIL
  6
CONTINUOUS
 62
     5
 10
180.14184516102441
 20
211.31449092880891
 30
0.0
 40
3.0057803468207571
  0
LINE
  8
DETAIL
  6
CONTINUOUS
 62
     5
 10
-202.74022423361549
 20
211.95390233756211
 30
0.0
 11
-211.95390233821229
 21
202.7402242329654
 31
0.0
  0
LINE
  8
DETAIL
  6
CONTINUOUS
 62
     5
 10
-211.31449092945931
 20
185.92647213522511
 30
0.0
 11
-216.32412484082741
 21
183.0341586477991
 31
0.0
  0
LINE
  8
DETAIL
  6
CONTINUOUS
 62
     5
 10
-211.31449092945931
 20
174.3572181861721
 30
0.0
 11
-206.3048570180911
 21
177.249531673598
 31
0.0
  0
LINE
  8
DETAIL
  6
CONTINUOUS
 62
     5
 10
-259.99999999999949
 20
-219.92292870905601
 30
0.0
 11
-259.99999999999949
 21
219.92292870905581
 31
0.0
  0
LINE
  8
DETAIL
  6
CONTINUOUS
 62
     5
 10
-256.39306358381452
 20
177.86538942256601
 30
0.0
 11
-256.39306358381452
 21
-177.8653894232165
 31
0.0
  0
LINE
  8
DETAIL
  6
CONTINUOUS
 62
     5
 10
-195.81015830453109
 20
156.53867673107621
 30
0.0
 11
-156.53867673172641
 21
195.81015830388111
 31
0.0
  0
LINE
  8
DETAIL
  6
CONTINUOUS
 62
     5
 10
-211.95390233821229
 20
-202.74022423361609
 30
0.0
 11
-202.74022423361549
 21
-211.95390233821291
 31
0.0
  0
LINE
  8
DETAIL
  6
CONTINUOUS
 62
     5
 10
-246.37379576107841
 20
-121.0368035909717
 30
0.0
 11
-246.37379576107841
 21
121.0368035903211
 31
0.0
  0
LINE
  8
DETAIL
  6
CONTINUOUS
 62
     5
 10
-185.15147907239151
 20
-214.2068044168856
 30
0.0
 11
-180.14184516102341
 21
-217.09911790366101
 31
0.0
  0
LINE
  8
DETAIL
  6
CONTINUOUS
 62
     5
 10
-175.13221124965551
 20
-208.4221774420339
 30
0.0
 11
-180.14184516102341
 21
-205.529863954608
 31
0.0
  0
LINE
  8
DETAIL
  6
CONTINUOUS
 62
     5
 10
-216.32412484082741
 20
183.0341586477991
 30
0.0
 11
-216.32412484082741
 21
177.249531673598
 31
0.0
  0
LINE
  8
DETAIL
  6
CONTINUOUS
 62
     5
 10
-206.3048570180911
 20
177.249531673598
 30
0.0
 11
-206.3048570180911
 21
183.0341586477991
 31
0.0
  0
LINE
  8
DETAIL
  6
CONTINUOUS
 62
     5
 10
219.92292870905641
 20
-260.0
 30
0.0
 11
-219.92292870905541
 21
-260.0
 31
0.0
  0
LINE
  8
DETAIL
  6
CONTINUOUS
 62
     5
 10
-177.8653894232159
 20
-256.39306358381492
 30
0.0
 11
177.8653894225663
 21
-256.39306358381492
 31
0.0
  0
LINE
  8
DETAIL
  6
CONTINUOUS
 62
     5
 10
121.0368035909721
 20
-246.37379576107901
 30
0.0
 11
-121.0368035909712
 21
-246.37379576107901
 31
0.0
  0
LINE
  8
DETAIL
  6
CONTINUOUS
 62
     5
 10
-156.53867673172641
 20
-195.8101583045316
 30
0.0
 11
-195.81015830453109
 21
-156.53867673172681
 31
0.0
  0
LINE
  8
DETAIL
  6
CONTINUOUS
 62
     5
 10
-192.2931350879557
 20
241.9653179190752
 30
0.0
 11
-192.2931350879557
 21
237.17540664084279
 31
0.0
  0
LINE
  8
DETAIL
  6
CONTINUOUS
 62
     5
 10
-192.2931350879557
 20
-237.17540664149351
 30
0.0
 11
-192.2931350879557
 21
-241.9653179190752
 31
0.0
  0
LINE
  8
DETAIL
  6
CONTINUOUS
 62
     5
 10
-185.15147907239151
 20
-208.4221774420339
 30
0.0
 11
-185.15147907239151
 21
-214.2068044168856
 31
0.0
  0
LINE
  8
DETAIL
  6
CONTINUOUS
 62
     5
 10
-175.13221124965551
 20
-214.2068044168856
 30
0.0
 11
-175.13221124965551
 21
-208.4221774420339
 31
0.0
  0
LINE
  8
DETAIL
  6
CONTINUOUS
 62
     5
 10
-150.4934509898151
 20
-216.91714836223511
 30
0.0
 11
-150.4934509898151
 21
-210.40462427745661
 31
0.0
  0
LINE
  8
DETAIL
  6
CONTINUOUS
 62
     5
 10
-150.4934509898151
 20
210.40462427745649
 30
0.0
 11
-150.4934509898151
 21
216.91714836223511
 31
0.0
  0
LINE
  8
DETAIL
  6
CONTINUOUS
 62
     5
 10
-241.96531791907469
 20
-192.29313508795639
 30
0.0
 11
-237.17540664149291
 21
-192.29313508795639
 31
0.0
  0
LINE
  8
DETAIL
  6
CONTINUOUS
 62
     5
 10
237.1754066408437
 20
-192.29313508795639
 30
0.0
 11
241.96531791907569
 21
-192.29313508795639
 31
0.0
  0
LINE
  8
DETAIL
  6
CONTINUOUS
 62
     5
 10
180.14184516102441
 20
217.0991179030103
 30
0.0
 11
175.13221124965619
 21
214.20680441623489
 31
0.0
  0
LINE
  8
DETAIL
  6
CONTINUOUS
 62
     5
 10
-98.689788053949314
 20
-88.163448439256399
 30
0.0
 11
-98.689788053949314
 21
-15.028901734104069
 31
0.0
  0
LINE
  8
DETAIL
  6
CONTINUOUS
 62
     5
 10
180.14184516102441
 20
205.52986395395729
 30
0.0
 11
185.15147907239239
 21
208.42217744138321
 31
0.0
  0
LINE
  8
DETAIL
  6
CONTINUOUS
 62
     5
 10
216.91714836223559
 20
-150.4934509898155
 30
0.0
 11
210.40462427745729
 21
-150.4934509898155
 31
0.0
  0
LINE
  8
DETAIL
  6
CONTINUOUS
 62
     5
 10
-210.40462427745621
 20
-150.4934509898155
 30
0.0
 11
-216.91714836223471
 21
-150.4934509898155
 31
0.0
  0
LINE
  8
DETAIL
  6
CONTINUOUS
 62
     5
 10
-89.672447013487044
 20
-87.909077805219795
 30
0.0
 11
-89.672447013487044
 21
-12.16002015934737
 31
0.0
  0
LINE
  8
DETAIL
  6
CONTINUOUS
 62
     5
 10
-61.064654178564517
 20
-50.792122560718717
 30
0.0
 11
-61.064654178564517
 21
-58.312137627505422
 31
0.0
  0
LINE
  8
DETAIL
  6
CONTINUOUS
 62
     5
 10
-48.039606009007677
 20
-58.312137627505422
 30
0.0
 11
-48.039606009007677
 21
-50.792122560718717
 31
0.0
  0
LINE
  8
DETAIL
  6
CONTINUOUS
 62
     5
 10
-61.064654178564517
 20
-58.312137627505422
 30
0.0
 11
-54.552130093786218
 21
-62.072145161224107
 31
0.0
  0
LINE
  8
DETAIL
  6
CONTINUOUS
 62
     5
 10
-44.035708000599932
 20
-61.266350684383099
 30
0.0
 11
-39.051767846407301
 21
-53.736438496359142
 31
0.0
  0
LINE
  8
DETAIL
  6
CONTINUOUS
 62
     5
 10
-42.580940845481337
 20
-60.520670851587738
 30
0.0
 11
-38.225866151839909
 21
-53.940870733328317
 31
0.0
  0
LINE
  8
DETAIL
  6
CONTINUOUS
 62
     5
 10
140.50464168465899
 20
146.88086468248119
 30
0.0
 11
116.15160290742919
 21
122.5278259052515
 31
0.0
  0
LINE
  8
DETAIL
  6
CONTINUOUS
 62
     5
 10
-146.88086468313139
 20
-140.50464168530891
 30
0.0
 11
-143.59221828000841
 21
-137.2159952821859
 31
0.0
  0
LINE
  8
DETAIL
  6
CONTINUOUS
 62
     5
 10
146.8808646824821
 20
140.50464168465831
 30
0.0
 11
129.10375672385979
 21
122.7275337260361
 31
0.0
  0
LINE
  8
DETAIL
  6
CONTINUOUS
 62
     5
 10
-140.5046416853086
 20
-146.8808646831319
 30
0.0
 11
-137.2425697076292
 21
-143.61879270545251
 31
0.0
  0
LINE
  8
DETAIL
  6
CONTINUOUS
 62
     5
 10
-61.279979383028831
 20
-46.177776654305319
 30
0.0
 11
-60.584490396416413
 21
-45.653688111853462
 31
0.0
  0
LINE
  8
DETAIL
  6
CONTINUOUS
 62
     5
 10
-66.829627379775729
 20
-41.572380848584999
 30
0.0
 11
-56.643173747816263
 21
-34.701531117583841
 31
0.0
  0
LINE
  8
DETAIL
  6
CONTINUOUS
 62
     5
 10
-66.38141110266929
 20
-42.236888806295838
 30
0.0
 11
-55.962018548256538
 21
-35.208919788404273
 31
0.0
  0
LINE
  8
DETAIL
  6
CONTINUOUS
 62
     5
 10
-53.607776043889999
 20
-38.696839853614563
 30
0.0
 11
-64.028275648023964
 21
-45.725555586067117
 31
0.0
  0
LINE
  8
DETAIL
  6
CONTINUOUS
 62
     5
 10
-53.393605738958058
 20
-39.519213812776798
 30
0.0
 11
-63.580059370917517
 21
-46.390063543777963
 31
0.0
  0
LINE
  8
DETAIL
  6
CONTINUOUS
 62
     5
 10
0.0000000000002274
 20
10.990791251307479
 30
0.0
 11
-9.5183044315988354
 21
5.495395625653714
 31
0.0
  0
LINE
  8
DETAIL
  6
CONTINUOUS
 62
     5
 10
0.0000000000002274
 20
-10.990791251958109
 30
0.0
 11
9.5183044315997449
 21
-5.4953956263044006
 31
0.0
  0
LINE
  8
DETAIL
  6
CONTINUOUS
 62
     5
 10
-48.039606009007677
 20
-50.792122560718717
 30
0.0
 11
-54.552130093786218
 21
-47.032115027000032
 31
0.0
  0
LINE
  8
DETAIL
  6
CONTINUOUS
 62
     5
 10
206.30485701744169
 20
-183.03415864844979
 30
0.0
 11
211.31449092880959
 21
-185.92647213587571
 31
0.0
  0
LINE
  8
DETAIL
  6
CONTINUOUS
 62
     5
 10
-9.5183044315988354
 20
5.495395625653714
 30
0.0
 11
-9.5183044315988354
 21
-5.4953956263044006
 31
0.0
  0
LINE
  8
DETAIL
  6
CONTINUOUS
 62
     5
 10
9.5183044315997449
 20
-5.4953956263044006
 30
0.0
 11
9.5183044315997449
 21
5.495395625653714
 31
0.0
  0
LINE
  8
DETAIL
  6
CONTINUOUS
 62
     5
 10
9.8106766156699905
 20
65.699284763456262
 30
0.0
 11
12.15516261727157
 21
77.760619640167192
 31
0.0
  0
LINE
  8
DETAIL
  6
CONTINUOUS
 62
     5
 10
10.54388276190525
 20
65.270550566173711
 30
0.0
 11
12.94197746950999
 21
77.607678326151699
 31
0.0
  0
LINE
  8
DETAIL
  6
CONTINUOUS
 62
     5
 10
17.0727554440864
 20
76.804736425943929
 30
0.0
 11
14.674402203588899
 21
64.466278631584146
 31
0.0
  0
LINE
  8
DETAIL
  6
CONTINUOUS
 62
     5
 10
17.859570296324591
 20
76.65179511192855
 30
0.0
 11
15.51508429407227
 21
64.590460235217506
 31
0.0
  0
LINE
  8
DETAIL
  6
CONTINUOUS
 62
     5
 10
-54.552130093786218
 20
-47.032115027000032
 30
0.0
 11
-61.064654178564517
 21
-50.792122560718717
 31
0.0
  0
LINE
  8
DETAIL
  6
CONTINUOUS
 62
     5
 10
-54.552130093786218
 20
-62.072145161224107
 30
0.0
 11
-48.039606009007677
 21
-58.312137627505422
 31
0.0
  0
LINE
  8
DETAIL
  6
CONTINUOUS
 62
     5
 10
216.32412484017769
 20
-177.24953167424869
 30
0.0
 11
211.31449092880959
 21
-174.35721818682279
 31
0.0
  0
LINE
  8
DETAIL
  6
CONTINUOUS
 62
     5
 10
51.015914838926619
 20
-60.030510331957089
 30
0.0
 11
54.552130093787348
 21
-62.072145161224107
 31
0.0
  0
LINE
  8
DETAIL
  6
CONTINUOUS
 62
     5
 10
-16.078144472236321
 20
64.452607894302218
 30
0.0
 11
-18.527794870204389
 21
76.493024272351931
 31
0.0
  0
LINE
  8
DETAIL
  6
CONTINUOUS
 62
     5
 10
-15.235799980281399
 20
64.332765395490696
 30
0.0
 11
-17.74234462532786
 21
76.6528259306358
 31
0.0
  0
LINE
  8
DETAIL
  6
CONTINUOUS
 62
     5
 10
-13.618730839075621
 20
77.49178463743965
 30
0.0
 11
-11.11490102654898
 21
65.185067929734942
 31
0.0
  0
LINE
  8
DETAIL
  6
CONTINUOUS
 62
     5
 10
-12.833280594199319
 20
77.651586295723519
 30
0.0
 11
-10.383630196230801
 21
65.611169918324322
 31
0.0
  0
LINE
  8
DETAIL
  6
CONTINUOUS
 62
     5
 10
98.689788053950451
 20
-15.028901734104069
 30
0.0
 11
89.672447013488181
 21
-15.028901734104069
 31
0.0
  0
LINE
  8
DETAIL
  6
CONTINUOUS
 62
     5
 10
-98.689788053949314
 20
-15.028901734104069
 30
0.0
 11
-89.672447013487044
 21
-15.028901734104069
 31
0.0
  0
LINE
  8
DETAIL
  6
CONTINUOUS
 62
     5
 10
61.064654178565661
 20
-50.792122560718717
 30
0.0
 11
54.552130093787348
 21
-47.032115027000032
 31
0.0
  0
LINE
  8
DETAIL
  6
CONTINUOUS
 62
     5
 10
-9.5183044315988354
 20
-5.4953956263044006
 30
0.0
 11
0.0000000000002274
 21
-10.990791251958109
 31
0.0
  0
LINE
  8
DETAIL
  6
CONTINUOUS
 62
     5
 10
63.982462972700198
 20
-45.833463507144067
 30
0.0
 11
53.736438495709081
 21
-39.051767846407976
 31
0.0
  0
LINE
  8
DETAIL
  6
CONTINUOUS
 62
     5
 10
64.424863330931657
 20
-45.165069476215479
 30
0.0
 11
53.940873625904707
 21
-38.225868067212218
 31
0.0
  0
LINE
  8
DETAIL
  6
CONTINUOUS
 62
     5
 10
56.274791711083033
 20
-34.724289438130263
 30
0.0
 11
66.747465211320787
 21
-41.656000814653567
 31
0.0
  0
LINE
  8
DETAIL
  6
CONTINUOUS
 62
     5
 10
56.943841092561122
 20
-34.205911122988773
 30
0.0
 11
67.189865569552467
 21
-40.9876067843756
 31
0.0
  0
LINE
  8
DETAIL
  6
CONTINUOUS
 62
     5
 10
61.279979382378997
 20
-46.177776654305319
 30
0.0
 11
60.584490396417323
 21
-45.653688111853462
 31
0.0
  0
LINE
  8
DETAIL
  6
CONTINUOUS
 62
     5
 10
-143.50960139749219
 20
137.13337839901899
 30
0.0
 11
-146.88086468313139
 21
140.50464168465831
 31
0.0
  0
LINE
  8
DETAIL
  6
CONTINUOUS
 62
     5
 10
95.248140658409511
 20
-101.62436365688259
 30
0.0
 11
140.50464168465899
 21
-146.8808646831319
 31
0.0
  0
LINE
  8
DETAIL
  6
CONTINUOUS
 62
     5
 10
-137.15413040932799
 20
143.53035340715161
 30
0.0
 11
-140.5046416853086
 21
146.88086468248119
 31
0.0
  0
LINE
  8
DETAIL
  6
CONTINUOUS
 62
     5
 10
101.6243636562326
 20
-95.248140659059572
 30
0.0
 11
146.8808646824821
 21
-140.50464168530891
 31
0.0
  0
LINE
  8
DETAIL
  6
CONTINUOUS
 62
     5
 10
36.207444470385553
 20
-58.875782108550418
 30
0.0
 11
34.701531116933893
 21
-56.643173748467348
 31
0.0
  0
LINE
  8
DETAIL
  6
CONTINUOUS
 62
     5
 10
36.900405987388922
 20
-58.469749967119583
 30
0.0
 11
35.208905264369832
 21
-55.961997016590367
 31
0.0
  0
LINE
  8
DETAIL
  6
CONTINUOUS
 62
     5
 10
38.696834918800278
 20
-53.607768729174502
 30
0.0
 11
40.445877097165287
 21
-56.200830394665047
 31
0.0
  0
LINE
  8
DETAIL
  6
CONTINUOUS
 62
     5
 10
39.519213812126743
 20
-53.393605738958513
 30
0.0
 11
41.111009623502241
 21
-55.753540078122278
 31
0.0
  0
LINE
  8
DETAIL
  6
CONTINUOUS
 62
     5
 10
48.039606009008587
 20
-50.792122560718717
 30
0.0
 11
48.039606009008587
 21
-54.760477601030971
 31
0.0
  0
LINE
  8
DETAIL
  6
CONTINUOUS
 62
     5
 10
61.064654178565661
 20
-58.312137627505422
 30
0.0
 11
61.064654178565661
 21
-50.792122560718717
 31
0.0
  0
LINE
  8
DETAIL
  6
CONTINUOUS
 62
     5
 10
54.552130093787348
 20
-47.032115027000032
 30
0.0
 11
48.039606009008587
 21
-50.792122560718717
 31
0.0
  0
LINE
  8
DETAIL
  6
CONTINUOUS
 62
     5
 10
54.552130093787348
 20
-62.072145161224107
 30
0.0
 11
61.064654178565661
 21
-58.312137627505422
 31
0.0
  0
LINE
  8
DETAIL
  6
CONTINUOUS
 62
     5
 10
-180.14184516102341
 20
-205.529863954608
 30
0.0
 11
-185.15147907239151
 21
-208.4221774420339
 31
0.0
  0
LINE
  8
DETAIL
  6
CONTINUOUS
 62
     5
 10
-64.45260789495228
 20
-16.07814447223689
 30
0.0
 11
-76.49302427300222
 21
-18.527794870204961
 31
0.0
  0
LINE
  8
DETAIL
  6
CONTINUOUS
 62
     5
 10
-64.332782778919864
 20
-15.23580351695318
 30
0.0
 11
-76.652825931286088
 21
-17.742344625328428
 31
0.0
  0
LINE
  8
DETAIL
  6
CONTINUOUS
 62
     5
 10
-68.606257272476569
 20
-11.81094986512522
 30
0.0
 11
-65.185059231838977
 21
-11.11489925691262
 31
0.0
  0
LINE
  8
DETAIL
  6
CONTINUOUS
 62
     5
 10
-68.534770784174952
 20
-10.97844351475112
 30
0.0
 11
-65.611169918324094
 21
-10.383630196231479
 31
0.0
  0
LINE
  8
DETAIL
  6
CONTINUOUS
 62
     5
 10
-83.869947366813676
 20
-14.788534591547201
 30
0.0
 11
-79.444800157294821
 21
-14.0082617447639
 31
0.0
  0
LINE
  8
DETAIL
  6
CONTINUOUS
 62
     5
 10
79.011686108000504
 20
-13.931892052698799
 30
0.0
 11
72.868218595451481
 21
-12.84863297515199
 31
0.0
  0
LINE
  8
DETAIL
  6
CONTINUOUS
 62
     5
 10
79.964034005355188
 20
-14.099816682080981
 30
0.0
 11
83.86994736616407
 21
-14.788534591547201
 31
0.0
  0
LINE
  8
DETAIL
  6
CONTINUOUS
 62
     5
 10
76.651795111928777
 20
-17.859570296974709
 30
0.0
 11
64.590460235218188
 21
-15.515084294722669
 31
0.0
  0
LINE
  8
DETAIL
  6
CONTINUOUS
 62
     5
 10
76.804736426595127
 20
-17.072755444736341
 30
0.0
 11
64.466301226334963
 21
-14.674406596451769
 31
0.0
  0
LINE
  8
DETAIL
  6
CONTINUOUS
 62
     5
 10
65.270538604859894
 20
-10.54388043730455
 30
0.0
 11
77.607678326152154
 21
-12.941977470159941
 31
0.0
  0
LINE
  8
DETAIL
  6
CONTINUOUS
 62
     5
 10
65.699284763456717
 20
-9.8106766163200518
 30
0.0
 11
77.760619640167761
 21
-12.155162617921579
 31
0.0
  0
LINE
  8
DETAIL
  6
CONTINUOUS
 62
     5
 10
9.5183044315997449
 20
5.495395625653714
 30
0.0
 11
0.0000000000002274
 21
10.990791251307479
 31
0.0
  0
LINE
  8
DETAIL
  6
CONTINUOUS
 62
     5
 10
89.672447013488181
 20
-88.163448439256399
 30
0.0
 11
89.672447013488181
 21
-11.415493326977471
 31
0.0
  0
LINE
  8
DETAIL
  6
CONTINUOUS
 62
     5
 10
-180.14184516102341
 20
-217.09911790366101
 30
0.0
 11
-175.13221124965551
 21
-214.2068044168856
 31
0.0
  0
LINE
  8
DETAIL
  6
CONTINUOUS
 62
     5
 10
-216.32412484082741
 20
177.249531673598
 30
0.0
 11
-211.31449092945931
 21
174.3572181861721
 31
0.0
  0
LINE
  8
DETAIL
  6
CONTINUOUS
 62
     5
 10
-206.3048570180911
 20
183.0341586477991
 30
0.0
 11
-211.31449092945931
 21
185.92647213522511
 31
0.0
  0
LINE
  8
DETAIL
  6
CONTINUOUS
 62
     5
 10
98.689788053950451
 20
-15.028901734104069
 30
0.0
 11
98.689788053950451
 21
-88.163448439256399
 31
0.0
  0
LINE
  8
DETAIL
  6
CONTINUOUS
 62
     5
 10
150.49345098981601
 20
216.91714836223511
 30
0.0
 11
150.49345098981601
 21
210.40462427745649
 31
0.0
  0
LINE
  8
DETAIL
  6
CONTINUOUS
 62
     5
 10
150.49345098981601
 20
-210.40462427745661
 30
0.0
 11
150.49345098981601
 21
-216.91714836223511
 31
0.0
  0
LINE
  8
DETAIL
  6
CONTINUOUS
 62
     5
 10
175.13221124965619
 20
214.20680441623489
 30
0.0
 11
175.13221124965619
 21
208.42217744138321
 31
0.0
  0
LINE
  8
DETAIL
  6
CONTINUOUS
 62
     5
 10
185.15147907239239
 20
208.42217744138321
 30
0.0
 11
185.15147907239239
 21
214.20680441623489
 31
0.0
  0
LINE
  8
DETAIL
  6
CONTINUOUS
 62
     5
 10
192.29313508730641
 20
-241.9653179190752
 30
0.0
 11
192.29313508730641
 21
-237.17540664149351
 31
0.0
  0
LINE
  8
DETAIL
  6
CONTINUOUS
 62
     5
 10
192.29313508730641
 20
237.17540664084279
 30
0.0
 11
192.29313508730641
 21
241.9653179190752
 31
0.0
  0
LINE
  8
DETAIL
  6
CONTINUOUS
 62
     5
 10
-216.91714836223471
 20
150.49345098916501
 30
0.0
 11
-210.40462427745621
 21
150.49345098916501
 31
0.0
  0
LINE
  8
DETAIL
  6
CONTINUOUS
 62
     5
 10
210.40462427745729
 20
150.49345098916501
 30
0.0
 11
216.91714836223559
 21
150.49345098916501
 31
0.0
  0
LINE
  8
DETAIL
  6
CONTINUOUS
 62
     5
 10
206.30485701744169
 20
-177.24953167424869
 30
0.0
 11
206.30485701744169
 21
-183.03415864844979
 31
0.0
  0
LINE
  8
DETAIL
  6
CONTINUOUS
 62
     5
 10
216.32412484017769
 20
-183.03415864844979
 30
0.0
 11
216.32412484017769
 21
-177.24953167424869
 31
0.0
  0
LINE
  8
DETAIL
  6
CONTINUOUS
 62
     5
 10
246.37379576107949
 20
121.0368035903211
 30
0.0
 11
246.37379576107949
 21
-121.0368035909717
 31
0.0
  0
LINE
  8
DETAIL
  6
CONTINUOUS
 62
     5
 10
195.81015830388151
 20
-156.53867673172681
 30
0.0
 11
156.538676731077
 21
-195.8101583045316
 31
0.0
  0
LINE
  8
DETAIL
  6
CONTINUOUS
 62
     5
 10
211.31449092880959
 20
-174.35721818682279
 30
0.0
 11
206.30485701744169
 21
-177.24953167424869
 31
0.0
  0
LINE
  8
DETAIL
  6
CONTINUOUS
 62
     5
 10
211.31449092880959
 20
-185.92647213587571
 30
0.0
 11
216.32412484017769
 21
-183.03415864844979
 31
0.0
  0
LINE
  8
DETAIL
  6
CONTINUOUS
 62
     5
 10
241.96531791907569
 20
192.29313508730559
 30
0.0
 11
237.1754066408437
 21
192.29313508730559
 31
0.0
  0
LINE
  8
DETAIL
  6
CONTINUOUS
 62
     5
 10
-237.17540664149291
 20
192.29313508730559
 30
0.0
 11
-241.96531791907469
 21
192.29313508730559
 31
0.0
  0
LINE
  8
DETAIL
  6
CONTINUOUS
 62
     5
 10
256.39306358381538
 20
-177.8653894232165
 30
0.0
 11
256.39306358381538
 21
177.86538942256601
 31
0.0
  0
LINE
  8
DETAIL
  6
CONTINUOUS
 62
     5
 10
260.00000000000068
 20
219.92292870905581
 30
0.0
 11
260.00000000000068
 21
-219.92292870905601
 31
0.0
  0
LINE
  8
DETAIL
  6
CONTINUOUS
 62
     5
 10
202.7402242329658
 20
-211.95390233821291
 30
0.0
 11
211.95390233821331
 21
-202.74022423361609
 31
0.0
  0
LINE
  8
DETAIL
  6
CONTINUOUS
 62
     5
 10
156.538676731077
 20
195.81015830388111
 30
0.0
 11
195.81015830388151
 21
156.53867673107621
 31
0.0
  0
LINE
  8
DETAIL
  6
CONTINUOUS
 62
     5
 10
-121.0368035909712
 20
246.37379576107909
 30
0.0
 11
121.0368035909721
 21
246.37379576107909
 31
0.0
  0
LINE
  8
DETAIL
  6
CONTINUOUS
 62
     5
 10
177.8653894225663
 20
256.39306358381498
 30
0.0
 11
-177.8653894232159
 21
256.39306358381498
 31
0.0
  0
LINE
  8
DETAIL
  6
CONTINUOUS
 62
     5
 10
-219.92292870905541
 20
259.99999999999977
 30
0.0
 11
219.92292870905641
 21
259.99999999999977
 31
0.0
  0
LINE
  8
DETAIL
  6
CONTINUOUS
 62
     5
 10
175.13221124965619
 20
208.42217744138321
 30
0.0
 11
180.14184516102441
 21
205.52986395395729
 31
0.0
  0
LINE
  8
DETAIL
  6
CONTINUOUS
 62
     5
 10
185.15147907239239
 20
214.20680441623489
 30
0.0
 11
180.14184516102441
 21
217.0991179030103
 31
0.0
  0
LINE
  8
DETAIL
  6
CONTINUOUS
 62
     5
 10
211.95390233821331
 20
202.7402242329654
 30
0.0
 11
202.7402242329658
 21
211.95390233756211
 31
0.0
  0
ARC
  8
DETAIL
  6
CONTINUOUS
 62
     5
 10
-219.92292870905541
 20
-219.92292870905601
 30
0.0
 40
40.077071290944097
 50
180.0
 51
270.0
  0
ARC
  8
DETAIL
  6
CONTINUOUS
 62
     5
 10
-237.17540664149291
 20
-227.96172853689669
 30
0.0
 40
35.668593448940321
 50
45.000000000004597
 51
90.0
  0
ARC
  8
DETAIL
  6
CONTINUOUS
 62
     5
 10
-227.96172853689609
 20
-237.17540664149351
 30
0.0
 40
35.668593448940378
 50
0.0
 51
45.000000000004597
  0
ARC
  8
DETAIL
  6
CONTINUOUS
 62
     5
 10
-210.40462427745621
 20
-171.13314270465179
 30
0.0
 40
20.6396917148362
 50
45.000000000004597
 51
90.0
  0
ARC
  8
DETAIL
  6
CONTINUOUS
 62
     5
 10
-241.96531791907469
 20
-177.8653894232165
 30
0.0
 40
14.427745664739909
 50
180.0
 51
270.0
  0
ARC
  8
DETAIL
  6
CONTINUOUS
 62
     5
 10
-121.0368035909712
 20
-216.91714836223511
 30
0.0
 40
29.45664739884398
 50
180.0
 51
270.0
  0
ARC
  8
DETAIL
  6
CONTINUOUS
 62
     5
 10
-171.13314270465119
 20
-210.40462427745661
 30
0.0
 40
20.639691714836321
 50
0.0
 51
45.000000000004597
  0
ARC
  8
DETAIL
  6
CONTINUOUS
 62
     5
 10
-177.8653894232159
 20
-241.9653179190752
 30
0.0
 40
14.427745664739909
 50
180.0
 51
270.0
  0
CIRCLE
  8
DETAIL
  6
CONTINUOUS
 62
     5
 10
-180.14184516102341
 20
-211.31449092945991
 30
0.0
 40
5.0096339113680406
  0
CIRCLE
  8
DETAIL
  6
CONTINUOUS
 62
     5
 10
-180.14184516102341
 20
-211.31449092945991
 30
0.0
 40
3.506743737957605
  0
CIRCLE
  8
DETAIL
  6
CONTINUOUS
 62
     5
 10
-180.14184516102341
 20
-211.31449092945991
 30
0.0
 40
2.5048169556840212
  0
ARC
  8
DETAIL
  6
CONTINUOUS
 62
     5
 10
-216.91714836223471
 20
-121.0368035909717
 30
0.0
 40
29.45664739884398
 50
180.0
 51
270.0
  0
ARC
  8
DETAIL
  6
CONTINUOUS
 62
     5
 10
-44.131968228110509
 20
-70.483630453569617
 30
0.0
 40
10.019267822735999
 50
86.491235269101296
 51
123.1871058466038
  0
ARC
  8
DETAIL
  6
CONTINUOUS
 62
     5
 10
-70.483630453569049
 20
-44.131968228111077
 30
0.0
 40
10.01926782273601
 50
4.5009767346043636
 51
29.858379147999379
  0
ARC
  8
DETAIL
  6
CONTINUOUS
 62
     5
 10
-70.483630453569049
 20
-44.131968228111077
 30
0.0
 40
10.019267822735999
 50
326.81289415340387
 51
359.09244083479803
  0
ARC
  8
DETAIL
  6
CONTINUOUS
 62
     5
 10
-108.7090558766854
 20
-88.163448439256399
 30
0.0
 40
10.019267822735969
 50
339.54329620080028
 51
0.0
  0
ARC
  8
DETAIL
  6
CONTINUOUS
 62
     5
 10
-54.552130093786218
 20
-54.552130094437302
 30
0.0
 40
9.0173410404624299
 50
146.8128941534039
 51
303.18710584660369
  0
ARC
  8
DETAIL
  6
CONTINUOUS
 62
     5
 10
-66.103776100242385
 20
-39.77638219983487
 30
0.0
 40
8.0154142581888959
 50
211.0364298816969
 51
307.00000000000199
  0
ARC
  8
DETAIL
  6
CONTINUOUS
 62
     5
 10
-81.657032755298133
 20
-75.040010247078499
 30
0.0
 40
8.0154142581889118
 50
180.0
 51
253.79293060260051
  0
CIRCLE
  8
DETAIL
  6
CONTINUOUS
 62
     5
 10
-54.552130093786218
 20
-54.552130094437302
 30
0.0
 40
6.5125240847784198
  0
ARC
  8
DETAIL
  6
CONTINUOUS
 62
     5
 10
-42.548695368715236
 20
-66.148530051247349
 30
0.0
 40
6.5125240847784136
 50
122.3718150911953
 51
160.78569465030111
  0
CIRCLE
  8
DETAIL
  6
CONTINUOUS
 62
     5
 10
-54.552130093786218
 20
-54.552130094437302
 30
0.0
 40
4.7591522157996442
  0
CIRCLE
  8
DETAIL
  6
CONTINUOUS
 62
     5
 10
-54.552130093786218
 20
-54.552130094437302
 30
0.0
 40
4.2581888246628523
  0
CIRCLE
  8
DETAIL
  6
CONTINUOUS
 62
     5
 10
-54.552130093786218
 20
-54.552130094437302
 30
0.0
 40
3.2562620423891531
  0
ARC
  8
DETAIL
  6
CONTINUOUS
 62
     5
 10
-65.204843375671999
 20
-43.981222196181527
 30
0.0
 40
2.9055876685935398
 50
124.0000000000019
 51
304.00000000000182
  0
ARC
  8
DETAIL
  6
CONTINUOUS
 62
     5
 10
-65.204843375671999
 20
-43.981222196181527
 30
0.0
 40
2.1040462427745239
 50
123.9999999999901
 51
303.99999999999011
  0
ARC
  8
DETAIL
  6
CONTINUOUS
 62
     5
 10
-81.045467057027054
 20
-18.633439055476291
 30
0.0
 40
10.01926782273612
 50
12.948052015901769
 51
25.333122746597351
  0
ARC
  8
DETAIL
  6
CONTINUOUS
 62
     5
 10
-77.072305284687673
 20
-15.680537732202311
 30
0.0
 40
2.9055876685935531
 50
142.0428756646989
 51
281.4999999999925
  0
ARC
  8
DETAIL
  6
CONTINUOUS
 62
     5
 10
-77.072305284687673
 20
-15.680537732202311
 30
0.0
 40
2.1040462427746172
 50
128.74795162189741
 51
281.4999999999925
  0
ARC
  8
DETAIL
  6
CONTINUOUS
 62
     5
 10
-216.91714836223471
 20
121.0368035903211
 30
0.0
 40
29.45664739884397
 50
90.0
 51
180.0
  0
ARC
  8
DETAIL
  6
CONTINUOUS
 62
     5
 10
-210.40462427745621
 20
171.13314270400119
 30
0.0
 40
20.6396917148362
 50
270.0
 51
314.99999999999528
  0
ARC
  8
DETAIL
  6
CONTINUOUS
 62
     5
 10
-241.96531791907469
 20
177.86538942256601
 30
0.0
 40
14.427745664739909
 50
90.0
 51
180.0
  0
CIRCLE
  8
DETAIL
  6
CONTINUOUS
 62
     5
 10
-211.31449092945931
 20
180.14184516102389
 30
0.0
 40
5.0096339113680406
  0
CIRCLE
  8
DETAIL
  6
CONTINUOUS
 62
     5
 10
-211.31449092945931
 20
180.14184516102389
 30
0.0
 40
3.506743737957605
  0
CIRCLE
  8
DETAIL
  6
CONTINUOUS
 62
     5
 10
-211.31449092945931
 20
180.14184516102389
 30
0.0
 40
2.5048169556840212
  0
ARC
  8
DETAIL
  6
CONTINUOUS
 62
     5
 10
-219.92292870905541
 20
219.92292870905581
 30
0.0
 40
40.077071290944097
 50
90.0
 51
180.0
  0
ARC
  8
DETAIL
  6
CONTINUOUS
 62
     5
 10
-227.96172853689609
 20
237.17540664084279
 30
0.0
 40
35.668593448940342
 50
314.99999999999528
 51
0.0
  0
ARC
  8
DETAIL
  6
CONTINUOUS
 62
     5
 10
-237.17540664149291
 20
227.96172853624611
 30
0.0
 40
35.668593448940243
 50
270.0
 51
314.99999999999528
  0
ARC
  8
DETAIL
  6
CONTINUOUS
 62
     5
 10
-171.13314270465119
 20
210.40462427745649
 30
0.0
 40
20.6396917148362
 50
314.99999999999528
 51
0.0
  0
ARC
  8
DETAIL
  6
CONTINUOUS
 62
     5
 10
-177.8653894232159
 20
241.9653179190752
 30
0.0
 40
14.427745664739909
 50
90.0
 51
180.0
  0
ARC
  8
DETAIL
  6
CONTINUOUS
 62
     5
 10
-121.0368035909712
 20
216.91714836223511
 30
0.0
 40
29.45664739884398
 50
90.0
 51
180.0
  0
ARC
  8
DETAIL
  6
CONTINUOUS
 62
     5
 10
0.0000000000002274
 20
-205.89595375722541
 30
0.0
 40
300.5780346820809
 50
81.945020356401585
 51
97.892817737906071
  0
ARC
  8
DETAIL
  6
CONTINUOUS
 62
     5
 10
121.0368035909721
 20
-216.91714836223511
 30
0.0
 40
29.456647398843931
 50
270.0
 51
0.0
  0
ARC
  8
DETAIL
  6
CONTINUOUS
 62
     5
 10
54.552130093787348
 20
-54.552130094437302
 30
0.0
 40
9.0173410404623677
 50
255.45517921530771
 51
33.187105846596083
  0
ARC
  8
DETAIL
  6
CONTINUOUS
 62
     5
 10
54.552130093787348
 20
-54.552130094437302
 30
0.0
 40
6.5125240847783612
 50
236.8546079627971
 51
181.98335618330509
  0
CIRCLE
  8
DETAIL
  6
CONTINUOUS
 62
     5
 10
54.552130093787348
 20
-54.552130094437302
 30
0.0
 40
4.7591522157996442
  0
CIRCLE
  8
DETAIL
  6
CONTINUOUS
 62
     5
 10
54.552130093787348
 20
-54.552130094437302
 30
0.0
 40
4.2581888246628523
  0
CIRCLE
  8
DETAIL
  6
CONTINUOUS
 62
     5
 10
54.552130093787348
 20
-54.552130094437302
 30
0.0
 40
3.2562620423891531
  0
ARC
  8
DETAIL
  6
CONTINUOUS
 62
     5
 10
0.0000000000002274
 20
0.0
 30
0.0
 40
85.163776493256293
 50
102.2496746032033
 51
112.2595884754047
  0
ARC
  8
DETAIL
  6
CONTINUOUS
 62
     5
 10
0.0000000000002274
 20
0.0
 30
0.0
 40
85.163776493256336
 50
68.872648584897391
 51
77.750325396796669
  0
ARC
  8
DETAIL
  6
CONTINUOUS
 62
     5
 10
0.0000000000002274
 20
0.0
 30
0.0
 40
85.163776493256293
 50
328.9635701183031
 51
350.00000000000142
  0
ARC
  8
DETAIL
  6
CONTINUOUS
 62
     5
 10
0.0000000000002274
 20
0.0
 30
0.0
 40
85.163776493256123
 50
189.99999999999861
 51
211.0364298816969
  0
ARC
  8
DETAIL
  6
CONTINUOUS
 62
     5
 10
0.0000000000002274
 20
0.0
 30
0.0
 40
73.140655105972982
 50
102.56745181750669
 51
103.1490720508079
  0
ARC
  8
DETAIL
  6
CONTINUOUS
 62
     5
 10
0.0000000000002274
 20
0.0
 30
0.0
 40
73.140655105973039
 50
103.7774201534031
 51
115.2235015438969
  0
ARC
  8
DETAIL
  6
CONTINUOUS
 62
     5
 10
0.0000000000002274
 20
0.0
 30
0.0
 40
73.14065510597294
 50
192.94805201590179
 51
193.1486627882029
  0
ARC
  8
DETAIL
  6
CONTINUOUS
 62
     5
 10
0.0000000000002274
 20
0.0
 30
0.0
 40
73.140655105973011
 50
193.77718827909669
 51
211.72294176319781
  0
ARC
  8
DETAIL
  6
CONTINUOUS
 62
     5
 10
0.0000000000002274
 20
0.0
 30
0.0
 40
73.140655105973096
 50
327.94805201590418
 51
328.14866309929562
  0
ARC
  8
DETAIL
  6
CONTINUOUS
 62
     5
 10
0.0000000000002274
 20
0.0
 30
0.0
 40
73.140655105973124
 50
328.77718899700039
 51
346.72294153550308
  0
ARC
  8
DETAIL
  6
CONTINUOUS
 62
     5
 10
0.0000000000002274
 20
0.0
 30
0.0
 40
73.140655105973067
 50
71.269288213604469
 51
76.722765866105263
  0
ARC
  8
DETAIL
  6
CONTINUOUS
 62
     5
 10
0.0000000000002274
 20
0.0
 30
0.0
 40
73.140655105973011
 50
77.351441336896542
 51
77.432548182493321
  0
ARC
  8
DETAIL
  6
CONTINUOUS
 62
     5
 10
0.0000000000002274
 20
0.0
 30
0.0
 40
66.427745664740073
 50
351.50695006750021
 51
357.53462255709633
  0
ARC
  8
DETAIL
  6
CONTINUOUS
 62
     5
 10
0.0000000000002274
 20
0.0
 30
0.0
 40
66.427745664739888
 50
59.006950067501002
 51
76.493049932501592
  0
ARC
  8
DETAIL
  6
CONTINUOUS
 62
     5
 10
0.0000000000002274
 20
0.0
 30
0.0
 40
66.427745664739888
 50
81.506950067500185
 51
98.993049932491886
  0
ARC
  8
DETAIL
  6
CONTINUOUS
 62
     5
 10
0.0000000000002274
 20
0.0
 30
0.0
 40
66.427745664739831
 50
104.00695006749829
 51
117.53549955219781
  0
ARC
  8
DETAIL
  6
CONTINUOUS
 62
     5
 10
0.0000000000002274
 20
0.0
 30
0.0
 40
66.427745664739817
 50
177.26793443570011
 51
188.99304993249839
  0
ARC
  8
DETAIL
  6
CONTINUOUS
 62
     5
 10
0.0000000000002274
 20
0.0
 30
0.0
 40
66.42774566473993
 50
194.00695006749811
 51
211.4930499324937
  0
ARC
  8
DETAIL
  6
CONTINUOUS
 62
     5
 10
0.0000000000002274
 20
0.0
 30
0.0
 40
66.427745664739803
 50
216.50695006749589
 51
233.99304993250229
  0
ARC
  8
DETAIL
  6
CONTINUOUS
 62
     5
 10
0.0000000000002274
 20
0.0
 30
0.0
 40
66.427745664739845
 50
297.26380593940252
 51
301.4930499324982
  0
ARC
  8
DETAIL
  6
CONTINUOUS
 62
     5
 10
0.0000000000002274
 20
0.0
 30
0.0
 40
66.42774566473993
 50
306.50695006750448
 51
323.99304993249359
  0
ARC
  8
DETAIL
  6
CONTINUOUS
 62
     5
 10
0.0000000000002274
 20
0.0
 30
0.0
 40
66.42774566473993
 50
329.00695006750101
 51
346.49304993249478
  0
ARC
  8
DETAIL
  6
CONTINUOUS
 62
     5
 10
0.0000000000002274
 20
0.0
 30
0.0
 40
66.127167630057798
 50
57.434074242193773
 51
117.40509769629951
  0
ARC
  8
DETAIL
  6
CONTINUOUS
 62
     5
 10
0.0000000000002274
 20
0.0
 30
0.0
 40
66.127167630057684
 50
177.42788166249949
 51
237.4038500363929
  0
ARC
  8
DETAIL
  6
CONTINUOUS
 62
     5
 10
0.0000000000002274
 20
0.0
 30
0.0
 40
66.127167630057812
 50
297.43294280140589
 51
357.40825253769788
  0
ARC
  8
DETAIL
  6
CONTINUOUS
 62
     5
 10
0.0000000000002274
 20
0.0
 30
0.0
 40
65.325626204238958
 50
297.8763603064919
 51
357.05629546599943
  0
ARC
  8
DETAIL
  6
CONTINUOUS
 62
     5
 10
0.0000000000002274
 20
0.0
 30
0.0
 40
65.325626204238944
 50
57.87636021770183
 51
117.05792384450559
  0
ARC
  8
DETAIL
  6
CONTINUOUS
 62
     5
 10
0.0000000000002274
 20
0.0
 30
0.0
 40
65.325626204238745
 50
177.87789654540089
 51
237.0542573792975
  0
CIRCLE
  8
DETAIL
  6
CONTINUOUS
 62
     5
 10
0.0000000000002274
 20
0.0
 30
0.0
 40
18.53564547206167
  0
CIRCLE
  8
DETAIL
  6
CONTINUOUS
 62
     5
 10
0.0000000000002274
 20
0.0
 30
0.0
 40
14.026974951830431
  0
CIRCLE
  8
DETAIL
  6
CONTINUOUS
 62
     5
 10
0.0000000000002274
 20
0.0
 30
0.0
 40
13.025048908640541
  0
CIRCLE
  8
DETAIL
  6
CONTINUOUS
 62
     5
 10
0.0000000000002274
 20
0.0
 30
0.0
 40
12.023121387283259
  0
CIRCLE
  8
DETAIL
  6
CONTINUOUS
 62
     5
 10
0.0000000000002274
 20
0.0
 30
0.0
 40
9.5183044315991765
  0
CIRCLE
  8
DETAIL
  6
CONTINUOUS
 62
     5
 10
0.0000000000002274
 20
0.0
 30
0.0
 40
6.5321771212871909
  0
CIRCLE
  8
DETAIL
  6
CONTINUOUS
 62
     5
 10
0.0000000000002274
 20
0.0
 30
0.0
 40
6.0115606936416279
  0
CIRCLE
  8
DETAIL
  6
CONTINUOUS
 62
     5
 10
-22.568359362509909
 20
31.035743213122089
 30
0.0
 40
2.0038535645471711
  0
ARC
  8
DETAIL
  6
CONTINUOUS
 62
     5
 10
108.70905587668651
 20
-88.163448439256399
 30
0.0
 40
19.03660886319836
 50
180.0
 51
225.0000000000046
  0
ARC
  8
DETAIL
  6
CONTINUOUS
 62
     5
 10
70.483630452919215
 20
-44.131968228111077
 30
0.0
 40
10.019267822736049
 50
176.49123526910131
 51
213.1871058465961
  0
ARC
  8
DETAIL
  6
CONTINUOUS
 62
     5
 10
70.483630452919215
 20
-44.131968228111077
 30
0.0
 40
10.019267822735969
 50
147.94805201590421
 51
171.32995916540281
  0
ARC
  8
DETAIL
  6
CONTINUOUS
 62
     5
 10
108.70905587668651
 20
-88.163448439256399
 30
0.0
 40
10.019267822735969
 50
180.0
 51
225.0000000000046
  0
ARC
  8
DETAIL
  6
CONTINUOUS
 62
     5
 10
81.657032755299269
 20
-75.040010247078499
 30
0.0
 40
8.0154142581888195
 50
286.20706939739961
 51
0.0
  0
ARC
  8
DETAIL
  6
CONTINUOUS
 62
     5
 10
66.103776099592551
 20
-39.77638219983487
 30
0.0
 40
8.0154142581887662
 50
232.9999999999979
 51
328.9635701183031
  0
ARC
  8
DETAIL
  6
CONTINUOUS
 62
     5
 10
65.586164270801191
 20
-43.410535145759873
 30
0.0
 40
2.9055876685935549
 50
236.4999999999981
 51
56.499999999998138
  0
ARC
  8
DETAIL
  6
CONTINUOUS
 62
     5
 10
65.586164270801191
 20
-43.410535145759873
 30
0.0
 40
2.104046242774539
 50
236.4999999999981
 51
56.499999999998138
  0
ARC
  8
DETAIL
  6
CONTINUOUS
 62
     5
 10
81.045467057028191
 20
-18.633439055476291
 30
0.0
 40
10.01926782273609
 50
139.5009767346028
 51
164.8583791479989
  0
ARC
  8
DETAIL
  6
CONTINUOUS
 62
     5
 10
81.045467057028191
 20
-18.633439055476291
 30
0.0
 40
10.01926782273603
 50
108.9783104716922
 51
134.09244083479811
  0
ARC
  8
DETAIL
  6
CONTINUOUS
 62
     5
 10
77.206207376373868
 20
-15.007366457773511
 30
0.0
 40
2.9055876685934821
 50
259.00000000000102
 51
79.000000000000995
  0
ARC
  8
DETAIL
  6
CONTINUOUS
 62
     5
 10
77.206207376373868
 20
-15.007366457773511
 30
0.0
 40
2.1040462427745941
 50
259.00000000000102
 51
79.000000000000995
  0
ARC
  8
DETAIL
  6
CONTINUOUS
 62
     5
 10
219.92292870905641
 20
-219.92292870905601
 30
0.0
 40
40.077071290944097
 50
270.0
 51
0.0
  0
ARC
  8
DETAIL
  6
CONTINUOUS
 62
     5
 10
227.96172853624651
 20
-237.17540664149351
 30
0.0
 40
35.668593448940193
 50
134.9999999999954
 51
180.0
  0
ARC
  8
DETAIL
  6
CONTINUOUS
 62
     5
 10
237.1754066408437
 20
-227.96172853689669
 30
0.0
 40
35.668593448940271
 50
90.0
 51
134.9999999999954
  0
ARC
  8
DETAIL
  6
CONTINUOUS
 62
     5
 10
177.8653894225663
 20
-241.9653179190752
 30
0.0
 40
14.427745664739859
 50
270.0
 51
0.0
  0
ARC
  8
DETAIL
  6
CONTINUOUS
 62
     5
 10
216.91714836223559
 20
-121.0368035909717
 30
0.0
 40
29.456647398843931
 50
270.0
 51
0.0
  0
ARC
  8
DETAIL
  6
CONTINUOUS
 62
     5
 10
210.40462427745729
 20
-171.13314270465179
 30
0.0
 40
20.639691714836239
 50
90.0
 51
134.9999999999954
  0
ARC
  8
DETAIL
  6
CONTINUOUS
 62
     5
 10
171.1331427046523
 20
-210.40462427745661
 30
0.0
 40
20.6396917148362
 50
134.9999999999954
 51
180.0
  0
ARC
  8
DETAIL
  6
CONTINUOUS
 62
     5
 10
241.96531791907569
 20
-177.8653894232165
 30
0.0
 40
14.42774566473989
 50
270.0
 51
0.0
  0
CIRCLE
  8
DETAIL
  6
CONTINUOUS
 62
     5
 10
211.31449092880959
 20
-180.1418451616745
 30
0.0
 40
5.0096339113680406
  0
CIRCLE
  8
DETAIL
  6
CONTINUOUS
 62
     5
 10
211.31449092880959
 20
-180.1418451616745
 30
0.0
 40
3.5067437379576631
  0
CIRCLE
  8
DETAIL
  6
CONTINUOUS
 62
     5
 10
211.31449092880959
 20
-180.1418451616745
 30
0.0
 40
2.5048169556839639
  0
ARC
  8
DETAIL
  6
CONTINUOUS
 62
     5
 10
0.0000000000002274
 20
205.8959537572255
 30
0.0
 40
300.5780346820809
 50
253.79293060260051
 51
254.61723953760111
  0
ARC
  8
DETAIL
  6
CONTINUOUS
 62
     5
 10
0.0000000000002274
 20
205.8959537572255
 30
0.0
 40
300.5780346820809
 50
281.43467821429931
 51
286.20706939739961
  0
ARC
  8
DETAIL
  6
CONTINUOUS
 62
     5
 10
18.094669028101411
 20
81.167454895778519
 30
0.0
 40
10.019267822735969
 50
233.07603888450791
 51
257.43254818249329
  0
ARC
  8
DETAIL
  6
CONTINUOUS
 62
     5
 10
18.094669028101411
 20
81.167454895778519
 30
0.0
 40
10.01926782273609
 50
192.5229389605968
 51
227.85638305679859
  0
ARC
  8
DETAIL
  6
CONTINUOUS
 62
     5
 10
-18.09466902875101
 20
81.167454895778519
 30
0.0
 40
10.01926782273609
 50
307.90104493829142
 51
347.47706103940322
  0
ARC
  8
DETAIL
  6
CONTINUOUS
 62
     5
 10
-18.09466902875101
 20
81.167454895778519
 30
0.0
 40
10.019267822736021
 50
282.56745181750671
 51
302.89645843829391
  0
ARC
  8
DETAIL
  6
CONTINUOUS
 62
     5
 10
0.0000000000002274
 20
77.148362235067452
 30
0.0
 40
8.5163776493256016
 50
12.52293896059683
 51
167.4770610394032
  0
ARC
  8
DETAIL
  6
CONTINUOUS
 62
     5
 10
-16.687603138652779
 20
76.860545189450249
 30
0.0
 40
6.5125240847784731
 50
338.6984012670946
 51
102.2496746032033
  0
ARC
  8
DETAIL
  6
CONTINUOUS
 62
     5
 10
16.687603138653909
 20
76.860545189450249
 30
0.0
 40
6.5125240847784553
 50
77.750325396796669
 51
201.3015987329054
  0
ARC
  8
DETAIL
  6
CONTINUOUS
 62
     5
 10
-15.680537732201859
 20
77.072305284037725
 30
0.0
 40
2.9055876685934292
 50
11.49999999999919
 51
191.4999999999992
  0
ARC
  8
DETAIL
  6
CONTINUOUS
 62
     5
 10
15.00736645712345
 20
77.206207375722556
 30
0.0
 40
2.9055876685934718
 50
349.00000000000102
 51
169.00000000000099
  0
ARC
  8
DETAIL
  6
CONTINUOUS
 62
     5
 10
15.00736645712345
 20
77.206207375722556
 30
0.0
 40
2.1040462427746029
 50
349.00000000000102
 51
169.00000000000099
  0
ARC
  8
DETAIL
  6
CONTINUOUS
 62
     5
 10
-15.680537732201859
 20
77.072305284037725
 30
0.0
 40
2.104046242774698
 50
11.49999999999919
 51
191.4999999999992
  0
ARC
  8
DETAIL
  6
CONTINUOUS
 62
     5
 10
121.0368035909721
 20
216.91714836223511
 30
0.0
 40
29.45664739884398
 50
0.0
 51
90.0
  0
ARC
  8
DETAIL
  6
CONTINUOUS
 62
     5
 10
171.1331427046523
 20
210.40462427745649
 30
0.0
 40
20.63969171483609
 50
180.0
 51
225.0000000000046
  0
ARC
  8
DETAIL
  6
CONTINUOUS
 62
     5
 10
177.8653894225663
 20
241.9653179190752
 30
0.0
 40
14.42774566473997
 50
0.0
 51
90.0
  0
CIRCLE
  8
DETAIL
  6
CONTINUOUS
 62
     5
 10
180.14184516102441
 20
211.31449092880891
 30
0.0
 40
5.0096339113680406
  0
CIRCLE
  8
DETAIL
  6
CONTINUOUS
 62
     5
 10
180.14184516102441
 20
211.31449092880891
 30
0.0
 40
3.5067437379576631
  0
CIRCLE
  8
DETAIL
  6
CONTINUOUS
 62
     5
 10
180.14184516102441
 20
211.31449092880891
 30
0.0
 40
2.5048169556839639
  0
ARC
  8
DETAIL
  6
CONTINUOUS
 62
     5
 10
216.91714836223559
 20
121.0368035903211
 30
0.0
 40
29.45664739884398
 50
0.0
 51
90.0
  0
ARC
  8
DETAIL
  6
CONTINUOUS
 62
     5
 10
219.92292870905641
 20
219.92292870905581
 30
0.0
 40
40.077071290944332
 50
0.0
 51
90.0
  0
ARC
  8
DETAIL
  6
CONTINUOUS
 62
     5
 10
237.1754066408437
 20
227.96172853624611
 30
0.0
 40
35.66859344894015
 50
225.0000000000046
 51
270.0
  0
ARC
  8
DETAIL
  6
CONTINUOUS
 62
     5
 10
227.96172853624651
 20
237.17540664084279
 30
0.0
 40
35.668593448940101
 50
180.0
 51
225.0000000000046
  0
ARC
  8
DETAIL
  6
CONTINUOUS
 62
     5
 10
210.40462427745729
 20
171.13314270400119
 30
0.0
 40
20.639691714836299
 50
225.0000000000046
 51
270.0
  0
ARC
  8
DETAIL
  6
CONTINUOUS
 62
     5
 10
241.96531791907569
 20
177.86538942256601
 30
0.0
 40
14.42774566473997
 50
0.0
 51
90.0
  0
LINE
  8
DETAIL
  6
CONTINUOUS
 62
     5
 10
-132.2246570678374
 20
-148.24386354387801
 30
0.0
 11
-135.49456776803501
 21
-151.50277105487581
 31
0.0
  0
CIRCLE
  8
DETAIL
  6
CONTINUOUS
 62
     5
 10
230.4431599229292
 20
230.44315992292849
 30
0.0
 40
7.0134874759152126
  0
CIRCLE
  8
DETAIL
  6
CONTINUOUS
 62
     5
 10
230.4431599229292
 20
230.44315992292849
 30
0.0
 40
8.0154142581887982
  0
CIRCLE
  8
DETAIL
  6
CONTINUOUS
 62
     5
 10
0.0000000000002274
 20
77.148362235067452
 30
0.0
 40
2.5048169556839639
  0
CIRCLE
  8
DETAIL
  6
CONTINUOUS
 62
     5
 10
230.4431599229292
 20
-230.44315992292869
 30
0.0
 40
7.0134874759152126
  0
CIRCLE
  8
DETAIL
  6
CONTINUOUS
 62
     5
 10
230.4431599229292
 20
-230.44315992292869
 30
0.0
 40
8.0154142581887982
  0
CIRCLE
  8
DETAIL
  6
CONTINUOUS
 62
     5
 10
70.846922199334813
 20
-70.846922199985045
 30
0.0
 40
3.0057803468207571
  0
CIRCLE
  8
DETAIL
  6
CONTINUOUS
 62
     5
 10
0.0000000000002274
 20
0.0
 30
0.0
 40
203.26589595375719
  0
CIRCLE
  8
DETAIL
  6
CONTINUOUS
 62
     5
 10
-230.44315992292809
 20
230.44315992292849
 30
0.0
 40
7.0134874759152126
  0
CIRCLE
  8
DETAIL
  6
CONTINUOUS
 62
     5
 10
-230.44315992292809
 20
230.44315992292849
 30
0.0
 40
8.0154142581887982
  0
CIRCLE
  8
DETAIL
  6
CONTINUOUS
 62
     5
 10
-70.846922199984419
 20
-70.846922199985045
 30
0.0
 40
3.0057803468207571
  0
CIRCLE
  8
DETAIL
  6
CONTINUOUS
 62
     5
 10
-230.44315992292809
 20
-230.44315992292869
 30
0.0
 40
7.0134874759152126
  0
CIRCLE
  8
DETAIL
  6
CONTINUOUS
 62
     5
 10
-230.44315992292809
 20
-230.44315992292869
 30
0.0
 40
8.0154142581887982
  0
CIRCLE
  8
DETAIL
  6
CONTINUOUS
 62
     5
 10
0.0000000000005684
 20
0.0
 30
0.0
 40
200.0
  0
ARC
  8
DETAIL
  6
CONTINUOUS
 62
     5
 10
124.5277386262383
 20
-0.6016152534434696
 30
0.0
 40
123.4140143161725
 50
73.036430239613026
 51
144.56181908770239
  0
ARC
  8
DETAIL
  6
CONTINUOUS
 62
     5
 10
-33.27383650884525
 20
-14.972782893166251
 30
0.0
 40
234.7251693358331
 50
21.33964431589602
 51
34.341894390839997
  0
ARC
  8
DETAIL
  6
CONTINUOUS
 62
     5
 10
1.57103723984045
 20
0.6706210156485781
 30
0.0
 40
196.58579788558251
 50
324.45617677351612
 51
20.788500497372141
  0
ARC
  8
DETAIL
  6
CONTINUOUS
 62
     5
 10
157.3641720465946
 20
-112.01470027150251
 30
0.0
 40
4.4581455460909263
 50
176.74985523143329
 51
339.03642723458842
  0
ARC
  8
DETAIL
  6
CONTINUOUS
 62
     5
 10
111.20541211765919
 20
-102.7252566746872
 30
0.0
 40
42.675532439905467
 50
347.77487619393099
 51
46.981737200929061
  0
ARC
  8
DETAIL
  6
CONTINUOUS
 62
     5
 10
146.1525689158002
 20
-58.090008666201577
 30
0.0
 40
14.645167356497041
 50
165.76222429297539
 51
246.53062726403309
  0
ARC
  8
DETAIL
  6
CONTINUOUS
 62
     5
 10
113.8195207844518
 20
-50.391852809056267
 30
0.0
 40
18.594524767714791
 50
347.27380581194348
 51
72.025948545742494
  0
ARC
  8
DETAIL
  6
CONTINUOUS
 62
     5
 10
135.07531996739289
 20
-7.9557126338862076
 30
0.0
 40
29.21163092450379
 50
196.91026494414851
 51
237.91211900903809
  0
ARC
  8
DETAIL
  6
CONTINUOUS
 62
     5
 10
97.117879071982088
 20
-20.07036202388252
 30
0.0
 40
10.64264029995325
 50
19.872633195095471
 51
119.328993407875
  0
ARC
  8
DETAIL
  6
CONTINUOUS
 62
     5
 10
87.276410523046138
 20
9.3545414755392926
 30
0.0
 40
20.671256063552139
 50
232.30621588540339
 51
282.93864929360518
  0
ARC
  8
DETAIL
  6
CONTINUOUS
 62
     5
 10
27.22196701831507
 20
68.316678091251333
 30
0.0
 40
4.2132013358876588
 50
138.85865648732121
 51
246.0650280078533
  0
ARC
  8
DETAIL
  6
CONTINUOUS
 62
     5
 10
-2.095841589488828
 20
-0.1468435638361143
 30
0.0
 40
70.263943928264339
 50
55.317729245143333
 51
66.863327310284603
  0
ARC
  8
DETAIL
  6
CONTINUOUS
 62
     5
 10
10.53475319714812
 20
104.73906880292689
 30
0.0
 40
54.47640573228535
 50
264.97393705020312
 51
300.12875229331911
  0
ARC
  8
DETAIL
  6
CONTINUOUS
 62
     5
 10
-4.4127247635848326
 20
147.02405502388109
 30
0.0
 40
97.078164855423864
 50
269.85434961368668
 51
276.04462938056889
  0
ARC
  8
DETAIL
  6
CONTINUOUS
 62
     5
 10
16.930738862413531
 20
-100.3655329388726
 30
0.0
 40
109.75348700911231
 50
58.162849330428507
 51
61.512969536137057
  0
ARC
  8
DETAIL
  6
CONTINUOUS
 62
     5
 10
70.365344642838068
 20
-1.553426231828666
 30
0.0
 40
2.5863431919651978
 50
190.4754469417166
 51
245.15715027125
  0
ARC
  8
DETAIL
  6
CONTINUOUS
 62
     5
 10
120.1956430883353
 20
-85.971139487812138
 30
0.0
 40
98.946782246414088
 50
121.96587467720239
 51
139.00990438530371
  0
ARC
  8
DETAIL
  6
CONTINUOUS
 62
     5
 10
-61.742855220333013
 20
108.1449927528718
 30
0.0
 40
123.4140143161725
 50
193.03643023960311
 51
264.56181908771339
  0
ARC
  8
DETAIL
  6
CONTINUOUS
 62
     5
 10
29.603728605253881
 20
-21.329596251446901
 30
0.0
 40
234.7251693358331
 50
141.3396443158708
 51
154.34189439085361
  0
ARC
  8
DETAIL
  6
CONTINUOUS
 62
     5
 10
-1.3662934557834769
 20
1.0252476521681051
 30
0.0
 40
196.58579788558251
 50
84.456176773489233
 51
140.78850049734251
  0
ARC
  8
DETAIL
  6
CONTINUOUS
 62
     5
 10
18.32549000912331
 20
192.28872077360711
 30
0.0
 40
4.4581455460909254
 50
296.74985523143442
 51
99.036427234605739
  0
ARC
  8
DETAIL
  6
CONTINUOUS
 62
     5
 10
33.359975831726899
 20
147.66934026955369
 30
0.0
 40
42.67553243990546
 50
107.7748761939439
 51
166.98173720089281
  0
ARC
  8
DETAIL
  6
CONTINUOUS
 62
     5
 10
-22.768861246910831
 20
155.6168418425392
 30
0.0
 40
14.645167356497041
 50
285.76222429300122
 51
6.5306272640694258
  0
ARC
  8
DETAIL
  6
CONTINUOUS
 62
     5
 10
-13.269135715816621
 20
123.7665228504336
 30
0.0
 40
18.594524767714791
 50
107.27380581194519
 51
192.02594854578081
  0
ARC
  8
DETAIL
  6
CONTINUOUS
 62
     5
 10
-60.647810737541697
 20
120.9565148330162
 30
0.0
 40
29.21163092450379
 50
316.91026494415922
 51
357.91211900903079
  0
ARC
  8
DETAIL
  6
CONTINUOUS
 62
     5
 10
-31.177496160158508
 20
94.141731449941972
 30
0.0
 40
10.642640299953239
 50
139.87263319508679
 51
239.32899340788441
  0
ARC
  8
DETAIL
  6
CONTINUOUS
 62
     5
 10
-51.739475820094697
 20
70.906317926307338
 30
0.0
 40
20.671256063552139
 50
352.30621588540362
 51
42.938649293606261
  0
ARC
  8
DETAIL
  6
CONTINUOUS
 62
     5
 10
-72.774962238344756
 20
-10.583424066783101
 30
0.0
 40
4.2132013358876579
 50
258.85865648732448
 51
6.0650280078491683
  0
ARC
  8
DETAIL
  6
CONTINUOUS
 62
     5
 10
1.175091051408685
 20
-1.7416302768874059
 30
0.0
 40
70.263943928264325
 50
175.3177292450967
 51
186.8633273102601
  0
ARC
  8
DETAIL
  6
CONTINUOUS
 62
     5
 10
-95.974070950634626
 20
-43.246170510134391
 30
0.0
 40
54.476405732285329
 50
24.97393705020896
 51
60.128752293276108
  0
ARC
  8
DETAIL
  6
CONTINUOUS
 62
     5
 10
-125.12020423628979
 20
-77.333559257114928
 30
0.0
 40
97.07816485542385
 50
29.854349613691578
 51
36.044629380560451
  0
ARC
  8
DETAIL
  6
CONTINUOUS
 62
     5
 10
78.453731758221238
 20
64.845216429126026
 30
0.0
 40
109.75348700911231
 50
178.16284933046791
 51
181.51296953611711
  0
ARC
  8
DETAIL
  6
CONTINUOUS
 62
     5
 10
-33.837365741750197
 20
61.71488912265886
 30
0.0
 40
2.5863431919651978
 50
310.47544694174309
 51
5.1571502712478896
  0
ARC
  8
DETAIL
  6
CONTINUOUS
 62
     5
 10
15.1032218467837
 20
148.88624328578919
 30
0.0
 40
100.894483360343
 50
242.07362430073579
 51
258.7041453730763
  0
ARC
  8
DETAIL
  6
CONTINUOUS
 62
     5
 10
-62.784883405904452
 20
-107.5433774994295
 30
0.0
 40
123.4140143161725
 50
313.03643023960888
 51
24.561819087720441
  0
ARC
  8
DETAIL
  6
CONTINUOUS
 62
     5
 10
3.670107903592339
 20
36.302379144613042
 30
0.0
 40
234.7251693358331
 50
261.33964431584928
 51
274.34189439085782
  0
ARC
  8
DETAIL
  6
CONTINUOUS
 62
     5
 10
-0.2047437840561201
 20
-1.695868667817876
 30
0.0
 40
196.58579788558251
 50
204.45617677348869
 51
260.7885004973329
  0
ARC
  8
DETAIL
  6
CONTINUOUS
 62
     5
 10
-175.68966205571721
 20
-80.274020502104804
 30
0.0
 40
4.4581455460909263
 50
56.749855231414308
 51
219.03642723457321
  0
ARC
  8
DETAIL
  6
CONTINUOUS
 62
     5
 10
-144.56538794938481
 20
-44.944083594867379
 30
0.0
 40
42.675532439905467
 50
227.77487619391849
 51
286.98173720091103
  0
ARC
  8
DETAIL
  6
CONTINUOUS
 62
     5
 10
-123.38370766888799
 20
-97.526833176338585
 30
0.0
 40
14.645167356497041
 50
45.762224292995469
 51
126.5306272640464
  0
ARC
  8
DETAIL
  6
CONTINUOUS
 62
     5
 10
-100.5503850686344
 20
-73.374670041378522
 30
0.0
 40
18.594524767714791
 50
227.27380581193779
 51
312.02594854576171
  0
ARC
  8
DETAIL
  6
CONTINUOUS
 62
     5
 10
-74.42750922985033
 20
-113.0008021991311
 30
0.0
 40
29.21163092450379
 50
76.910264944202396
 51
117.912119009013
  0
ARC
  8
DETAIL
  6
CONTINUOUS
 62
     5
 10
-65.940382911822553
 20
-74.071369426060528
 30
0.0
 40
10.64264029995325
 50
259.87263319509742
 51
359.32899340786298
  0
ARC
  8
DETAIL
  6
CONTINUOUS
 62
     5
 10
-35.536934702950703
 20
-80.260859401846858
 30
0.0
 40
20.671256063552139
 50
112.3062158854046
 51
162.93864929360191
  0
ARC
  8
DETAIL
  6
CONTINUOUS
 62
     5
 10
45.552995220030432
 20
-57.733254024468472
 30
0.0
 40
4.2132013358876588
 50
18.858656487315621
 51
126.0650280078407
  0
ARC
  8
DETAIL
  6
CONTINUOUS
 62
     5
 10
0.9207505380808811
 20
1.8884738407233499
 30
0.0
 40
70.263943928264339
 50
295.31772924511893
 51
306.86332731025351
  0
ARC
  8
DETAIL
  6
CONTINUOUS
 62
     5
 10
85.439317753487273
 20
-61.492898292792738
 30
0.0
 40
54.47640573228535
 50
144.97393705022381
 51
180.12875229330359
  0
ARC
  8
DETAIL
  6
CONTINUOUS
 62
     5
 10
129.53292899987571
 20
-69.690495766767299
 30
0.0
 40
97.078164855423864
 50
149.8543496137008
 51
156.0446293805704
  0
ARC
  8
DETAIL
  6
CONTINUOUS
 62
     5
 10
-95.384470620633692
 20
35.520316509745498
 30
0.0
 40
109.75348700911231
 50
298.16284933042982
 51
301.51296953610102
  0
ARC
  8
DETAIL
  6
CONTINUOUS
 62
     5
 10
-36.527978901086897
 20
-60.161462890830357
 30
0.0
 40
2.5863431919651978
 50
70.475446941734091
 51
125.1571502712418
  0
ARC
  8
DETAIL
  6
CONTINUOUS
 62
     5
 10
-136.5065121321372
 20
-61.365414321239832
 30
0.0
 40
100.9101801567418
 50
2.0744756967155218
 51
18.701431433330331
  0
LINE
  8
DETAIL
  6
CONTINUOUS
 62
     5
 10
-191.00313175745401
 20
-329.18456682602061
 30
0.0
 11
-193.9812260646377
 21
-329.58463799792088
 31
0.0
  0
LINE
  8
DETAIL
  6
CONTINUOUS
 62
     5
 10
-187.12917383504461
 20
-300.80938436397167
 30
0.0
 11
-196.06687362871531
 21
-299.0218444055493
 31
0.0
  0
LINE
  8
DETAIL
  6
CONTINUOUS
 62
     5
 10
-185.83414319610529
 20
-330.03387369988508
 30
0.0
 11
-183.12436648385301
 21
-328.73533112443812
 31
0.0
  0
ARC
  8
DETAIL
  6
CONTINUOUS
 62
     5
 10
-509.73800538856437
 20
-252.7740676216998
 30
0.0
 40
317.06219540806131
 50
351.61271877025803
 51
358.69410077145642
  0
ARC
  8
DETAIL
  6
CONTINUOUS
 62
     5
 10
-546.38954093430232
 20
-249.76342543386571
 30
0.0
 40
362.96871397364441
 50
351.91229879162091
 51
358.38390948323269
  0
LINE
  8
DETAIL
  6
CONTINUOUS
 62
     5
 10
-199.03185576338731
 20
-329.67925185552468
 30
0.0
 11
-201.9783502009013
 21
-329.08995296802192
 31
0.0
  0
ARC
  8
DETAIL
  6
CONTINUOUS
 62
     5
 10
-144.5288317558352
 20
-308.95028397329293
 30
0.0
 40
43.371227694345322
 50
169.18124921492449
 51
207.14082460282381
  0
ARC
  8
DETAIL
  6
CONTINUOUS
 62
     5
 10
-144.20948433861119
 20
-308.90343964569951
 30
0.0
 40
46.680911177064459
 50
169.27967955257941
 51
206.91427267779099
  0
ARC
  8
DETAIL
  6
CONTINUOUS
 62
     5
 10
-114.43770402744489
 20
-317.13915708625439
 30
0.0
 40
77.507139150389932
 50
167.39135476198129
 51
188.94059456605009
  0
ARC
  8
DETAIL
  6
CONTINUOUS
 62
     5
 10
-105.0248874231438
 20
-317.44128031453158
 30
0.0
 40
89.78135285417973
 50
168.69006752596241
 51
187.77335319194469
  0
ARC
  8
DETAIL
  6
CONTINUOUS
 62
     5
 10
-28204.90591524804
 20
5287.015242645818
 30
0.0
 40
28563.547379138279
 50
348.65954104968762
 51
348.72059400227238
  0
ARC
  8
DETAIL
  6
CONTINUOUS
 62
     5
 10
-1346.5849371898969
 20
-88.441846945117334
 30
0.0
 40
1169.6306040417239
 50
348.12676288030411
 51
349.62792506502569
  0
ENDSEC
  0
EOF
