  0
SECTION
  2
HEADER
  9
$ACADVER
  1
AC1009
  9
$DWGCODEPAGE
  3
dos932
  9
$INSBASE
 10
0.0
 20
0.0
 30
0.0
  9
$EXTMIN
 10
-492.16001746496289
 20
-340.94237098580021
 30
-0.0015257624927045
  9
$EXTMAX
 10
1133.871471653541
 20
776.73340667590128
 30
0.0022888765696933
  9
$LIMMIN
 10
-2970.0
 20
-2100.0
  9
$LIMMAX
 10
2970.0
 20
2100.0
  9
$ORTHOMODE
 70
     1
  9
$REGENMODE
 70
     1
  9
$FILLMODE
 70
     1
  9
$QTEXTMODE
 70
     0
  9
$MIRRTEXT
 70
     0
  9
$LTSCALE
 40
20.0
  9
$ATTMODE
 70
     1
  9
$TEXTSIZE
 40
64.0
  9
$TRACEWID
 40
0.05
  9
$TEXTSTYLE
  7
STANDARD
  9
$CLAYER
  8
SIZE
  9
$CELTYPE
  6
CONTINUOUS
  9
$CECOLOR
 62
     7
  9
$DIMSCALE
 40
1.0
  9
$DIMASZ
 40
12.0
  9
$DIMEXO
 40
20.0
  9
$DIMDLI
 40
200.0
  9
$DIMRND
 40
0.0
  9
$DIMDLE
 40
0.0
  9
$DIMEXE
 40
20.0
  9
$DIMTP
 40
0.0
  9
$DIMTM
 40
0.0
  9
$DIMTXT
 40
64.0
  9
$DIMCEN
 40
0.09
  9
$DIMTSZ
 40
0.0
  9
$DIMTOL
 70
     0
  9
$DIMLIM
 70
     0
  9
$DIMTIH
 70
     0
  9
$DIMTOH
 70
     0
  9
$DIMSE1
 70
     0
  9
$DIMSE2
 70
     0
  9
$DIMTAD
 70
     1
  9
$DIMZIN
 70
     8
  9
$DIMBLK
  1

  9
$DIMASO
 70
     1
  9
$DIMSHO
 70
     0
  9
$DIMPOST
  1

  9
$DIMAPOST
  1

  9
$DIMALT
 70
     0
  9
$DIMALTD
 70
     2
  9
$DIMALTF
 40
25.399999999999999
  9
$DIMLFAC
 40
1.0
  9
$DIMTOFL
 70
     1
  9
$DIMTVP
 40
0.0
  9
$DIMTIX
 70
     1
  9
$DIMSOXD
 70
     0
  9
$DIMSAH
 70
     0
  9
$DIMBLK1
  1

  9
$DIMBLK2
  1

  9
$DIMSTYLE
  2
STANDARD
  9
$DIMCLRD
 70
     7
  9
$DIMCLRE
 70
     7
  9
$DIMCLRT
 70
     7
  9
$DIMTFAC
 40
1.0
  9
$DIMGAP
 40
25.0
  9
$LUNITS
 70
     2
  9
$LUPREC
 70
     4
  9
$SKETCHINC
 40
0.1
  9
$FILLETRAD
 40
3.0
  9
$AUNITS
 70
     1
  9
$AUPREC
 70
     3
  9
$MENU
  1
ACAD
  9
$ELEVATION
 40
0.0
  9
$PELEVATION
 40
0.0
  9
$THICKNESS
 40
50.0
  9
$LIMCHECK
 70
     0
  9
$CHAMFERA
 40
0.0
  9
$CHAMFERB
 40
0.0
  9
$SKPOLY
 70
     0
  9
$TDCREATE
 40
2453019.62301037
  9
$TDUPDATE
 40
2458949.44517412
  9
$TDINDWG
 40
1.7143909838
  9
$TDUSRTIMER
 40
1.7143909838
  9
$USRTIMER
 70
     1
  9
$ANGBASE
 50
0.0
  9
$ANGDIR
 70
     0
  9
$PDMODE
 70
     3
  9
$PDSIZE
 40
-2.0
  9
$PLINEWID
 40
0.0
  9
$SPLFRAME
 70
     0
  9
$SPLINETYPE
 70
     6
  9
$SPLINESEGS
 70
     8
  9
$SURFTAB1
 70
     6
  9
$SURFTAB2
 70
     6
  9
$SURFTYPE
 70
     6
  9
$SURFU
 70
     6
  9
$SURFV
 70
     6
  9
$UCSNAME
  2

  9
$UCSORG
 10
0.0
 20
0.0
 30
0.0
  9
$UCSXDIR
 10
1.0
 20
0.0
 30
0.0
  9
$UCSYDIR
 10
0.0
 20
1.0
 30
0.0
  9
$PUCSNAME
  2

  9
$PUCSORG
 10
0.0
 20
0.0
 30
0.0
  9
$PUCSXDIR
 10
1.0
 20
0.0
 30
0.0
  9
$PUCSYDIR
 10
0.0
 20
1.0
 30
0.0
  9
$USERI1
 70
     0
  9
$USERI2
 70
     0
  9
$USERI3
 70
     0
  9
$USERI4
 70
     0
  9
$USERI5
 70
     0
  9
$USERR1
 40
20.0
  9
$USERR2
 40
0.0
  9
$USERR3
 40
0.0
  9
$USERR4
 40
0.0
  9
$USERR5
 40
0.0
  9
$WORLDVIEW
 70
     1
  9
$SHADEDGE
 70
     3
  9
$SHADEDIF
 70
    70
  9
$TILEMODE
 70
     1
  9
$MAXACTVP
 70
    48
  9
$PINSBASE
 10
0.0
 20
0.0
 30
0.0
  9
$PLIMCHECK
 70
     0
  9
$PEXTMIN
 10
-100000000000000000000.0
 20
-100000000000000000000.0
 30
-100000000000000000000.0
  9
$PEXTMAX
 10
100000000000000000000.0
 20
100000000000000000000.0
 30
100000000000000000000.0
  9
$PLIMMIN
 10
0.0
 20
0.0
  9
$PLIMMAX
 10
12.0
 20
9.0
  9
$UNITMODE
 70
     0
  9
$VISRETAIN
 70
     0
  9
$PLINEGEN
 70
     0
  9
$PSLTSCALE
 70
     0
  9
$TREEDEPTH
 70
  3020
  9
$ATTDIA
 70
     0
  9
$ATTREQ
 70
     1
  9
$BLIPMODE
 70
     1
  9
$COORDS
 70
     1
  9
$DRAGMODE
 70
     2
  9
$OSMODE
 70
     0
  9
$HANDLING
 70
     0
  9
$HANDSEED
  5
10F4F
  0
ENDSEC
  0
SECTION
  2
TABLES
  0
TABLE
  2
LTYPE
 70
     2
  0
LTYPE
  2
CONTINUOUS
 70
     0
  3
実線
 72
    65
 73
     0
 40
0.0
  0
LTYPE
  2
DASHDOT
 70
     0
  3
____ _ ____ _ ____ _ ____ _ ____ _ ____ _ ____
 72
    65
 73
     4
 40
5.5
 49
4.0
 49
-0.6
 49
0.3
 49
-0.6
  0
ENDTAB
  0
TABLE
  2
LAYER
 70
    12
  0
LAYER
  2
0
 70
     0
 62
     7
  6
CONTINUOUS
  0
LAYER
  2
BASIS
 70
     0
 62
     6
  6
DASHDOT
  0
LAYER
  2
OUTLINE
 70
     0
 62
     3
  6
CONTINUOUS
  0
LAYER
  2
DETAIL
 70
     0
 62
     5
  6
CONTINUOUS
  0
LAYER
  2
SIZE
 70
     0
 62
    30
  6
CONTINUOUS
  0
LAYER
  2
ARRANGE
 70
     0
 62
     1
  6
CONTINUOUS
  0
LAYER
  2
DEFPOINTS
 70
     0
 62
     7
  6
CONTINUOUS
  0
LAYER
  2
ETC
 70
     0
 62
    61
  6
CONTINUOUS
  0
LAYER
  2
FIX
 70
     0
 62
    11
  6
CONTINUOUS
  0
LAYER
  2
NOTE
 70
     0
 62
     4
  6
CONTINUOUS
  0
LAYER
  2
SERVICESPACE
 70
    64
 62
     2
  6
DASHDOT
  0
LAYER
  2
SYMBOLLINE
 70
    64
 62
    15
  6
CONTINUOUS
  0
ENDTAB
  0
TABLE
  2
STYLE
 70
     1
  0
STYLE
  2
STANDARD
 70
     0
 40
64.0
 41
0.9
 50
0.0
 71
     0
 42
64.0
  3
SIMPLEX.shx
  4
BIGFONT.shx
  0
ENDTAB
  0
TABLE
  2
APPID
 70
    19
  0
APPID
  2
ACAD
 70
     0
  0
APPID
  2
AUTOCAD_POSTSCRIPT_FIGURE
 70
     0
  0
APPID
  2
ACAD_EXEMPT_FROM_CAD_STANDARDS
 70
     0
  0
APPID
  2
ACAD_PSEXT
 70
     0
  0
APPID
  2
ACAUTHENVIRON
 70
     0
  0
APPID
  2
GENIUS_GENOENT_13
 70
     0
  0
APPID
  2
GENIUS_GENCFG_13
 70
     0
  0
APPID
  2
GENIUS_GENCFG0_13
 70
     0
  0
APPID
  2
GENIUS_GENCFG1_13
 70
     0
  0
APPID
  2
GENIUS_GENCFG2_13
 70
     0
  0
APPID
  2
GENIUS_GENCFG3_13
 70
     0
  0
APPID
  2
GENIUS_GENCFG4_13
 70
     0
  0
APPID
  2
GENIUS_GEVCFG0_13
 70
     0
  0
APPID
  2
CONTENTBLOCKICON
 70
     0
  0
APPID
  2
CONTENTBLOCKDESCRIPTION
 70
     0
  0
APPID
  2
ACAD_NAV_VCDISPLAY
 70
     0
  0
APPID
  2
ACAD_MLEADERVER
 70
     0
  0
APPID
  2
ACDBDYNAMICBLOCKTRUENAME
 70
     0
  0
APPID
  2
ACDBDYNAMICBLOCKGUID
 70
     0
  0
ENDTAB
  0
TABLE
  2
DIMSTYLE
 70
     1
  0
DIMSTYLE
  2
STANDARD
 70
     0
  3

  4

  5
_ORIGIN
  6

  7

 40
1.0
 41
12.0
 42
20.0
 43
200.0
 44
20.0
 45
0.0
 46
0.0
 47
0.0
 48
0.0
140
64.0
141
0.09
142
0.0
143
25.399999999999999
144
1.0
145
0.0
146
1.0
147
25.0
 71
     0
 72
     0
 73
     0
 74
     0
 75
     0
 76
     0
 77
     1
 78
     8
170
     0
171
     2
172
     1
173
     0
174
     1
175
     0
176
     7
177
     7
178
     7
  0
ENDTAB
  0
TABLE
  2
VIEW
 70
     1
  0
VIEW
  2
ALL
 70
     0
 40
4282.6198079999986
 10
0.0
 20
41.309904000000003
 41
5940.0
 11
0.0
 21
0.0
 31
1.0
 12
0.0
 22
0.0
 32
0.0
 42
50.0
 43
0.0
 44
0.0
 50
0.0
 71
     0
  0
ENDTAB
  0
TABLE
  2
UCS
 70
     0
  0
ENDTAB
  0
TABLE
  2
VPORT
 70
     1
  0
VPORT
  2
*ACTIVE
 70
     0
 10
0.0
 20
0.0
 11
1.0
 21
1.0
 12
320.85572709428908
 22
217.89551784505059
 13
0.0
 23
0.0
 14
1.0
 24
1.0
 15
0.0
 25
0.0
 16
0.0
 26
0.0
 36
1.0
 17
0.0
 27
0.0
 37
0.0
 40
1125.0857828174701
 41
1.747787610619469
 42
50.0
 43
0.0
 44
0.0
 50
0.0
 51
0.0
 71
     0
 72
  1000
 73
     1
 74
     3
 75
     0
 76
     0
 77
     0
 78
     0
  0
ENDTAB
  0
ENDSEC
  0
SECTION
  2
BLOCKS
  0
BLOCK
  8
0
  2
_ORIGIN
 70
     0
 10
0.0
 20
0.0
 30
0.0
  3
_ORIGIN
  1
_ORIGIN
  0
CIRCLE
  8
0
  6
CONTINUOUS
 62
     7
 10
0.0
 20
0.0
 30
0.0
 40
0.5
  0
LINE
  8
0
  6
CONTINUOUS
 62
     7
 10
0.0
 20
0.0
 30
0.0
 11
-1.0
 21
0.0
 31
0.0
  0
ENDBLK
  8
0
  0
ENDSEC
  0
SECTION
  2
ENTITIES
  0
POINT
  8
ARRANGE
  6
CONTINUOUS
 62
     1
 10
0.0
 20
0.0
 30
0.0
  0
CIRCLE
  8
ARRANGE
  6
CONTINUOUS
 62
     1
 10
0.0
 20
0.0
 30
0.0
 40
40.0
  0
TEXT
  8
ETC
  6
CONTINUOUS
 62
    61
 10
385.06085956676912
 20
712.53573249918054
 30
0.0
 40
64.0
  1
EWF-40ETA2-H_4
 41
0.9
  0
TEXT
  8
ETC
  6
CONTINUOUS
 62
    61
 10
380.87486556676868
 20
594.58042248434913
 30
0.0
 40
64.0
  1
産業扇
 41
0.9
  0
TEXT
  8
ETC
  6
CONTINUOUS
 62
    61
 10
431.57626381532458
 20
486.43164959812378
 30
0.0
 40
40.0
  1
EWF-40ETA2-H
 41
0.9
  0
CIRCLE
  8
FIX
  6
CONTINUOUS
 62
    11
 10
-0.0000000000002274
 20
230.44315992292869
 30
0.0
 40
9.8378378699999995
  0
LINE
  8
SIZE
  6
CONTINUOUS
 62
    30
 10
-10.0192678227362
 20
273.38728323699428
 30
0.0
 11
-10.0192678227362
 21
477.70755252576868
 31
0.0
  0
LINE
  8
SIZE
  6
CONTINUOUS
 62
    30
 10
0.0
 20
321.35307858947658
 30
0.0
 11
0.0
 21
477.70755252576868
 31
0.0
  0
LINE
  8
SIZE
  6
CONTINUOUS
 62
    30
 10
-22.0192678227362
 20
457.70755252576868
 30
0.0
 11
-34.019267822736197
 21
457.70755252576868
 31
0.0
  0
LINE
  8
SIZE
  6
CONTINUOUS
 62
    30
 10
12.0
 20
457.70755252576868
 30
0.0
 11
188.3199988438233
 21
457.70755252576868
 31
0.0
  0
LINE
  8
SIZE
  6
CONTINUOUS
 62
    30
 10
-10.0192678227362
 20
457.70755252576868
 30
0.0
 11
0.0
 21
457.70755252576868
 31
0.0
  0
CIRCLE
  8
SIZE
  6
CONTINUOUS
 62
    30
 10
-10.0192678227362
 20
457.70755252576868
 30
0.0
 40
6.0
  0
LINE
  8
SIZE
  6
CONTINUOUS
 62
    30
 10
-10.0192678227362
 20
457.70755252576868
 30
0.0
 11
-22.0192678227362
 21
457.70755252576868
 31
0.0
  0
CIRCLE
  8
SIZE
  6
CONTINUOUS
 62
    30
 10
0.0
 20
457.70755252576868
 30
0.0
 40
6.0
  0
LINE
  8
SIZE
  6
CONTINUOUS
 62
    30
 10
0.0
 20
457.70755252576868
 30
0.0
 11
12.0
 21
457.70755252576868
 31
0.0
  0
TEXT
  8
SIZE
  6
CONTINUOUS
 62
    30
 10
81.034284558108965
 20
482.70755252576868
 30
0.0
 40
64.0
  1
10
 41
0.9
 72
     1
 11
122.1771417009661
 21
482.70755252576868
 31
0.0
  0
POINT
  8
DEFPOINTS
  6
CONTINUOUS
 62
    30
 10
-10.0192678227362
 20
253.38728323699411
 30
0.0
  0
POINT
  8
DEFPOINTS
  6
CONTINUOUS
 62
    30
 10
0.0
 20
301.35307858947658
 30
0.0
  0
POINT
  8
DEFPOINTS
  6
CONTINUOUS
 62
    30
 10
0.0
 20
457.70755252576868
 30
0.0
  0
LINE
  8
SIZE
  6
CONTINUOUS
 62
    30
 10
-308.19040677833578
 20
-28.53458302504345
 30
0.0
 11
-308.19040677833578
 21
601.07710716272595
 31
0.0
  0
LINE
  8
SIZE
  6
CONTINUOUS
 62
    30
 10
0.0
 20
321.35307858947658
 30
0.0
 11
0.0
 21
601.07710716272595
 31
0.0
  0
LINE
  8
SIZE
  6
CONTINUOUS
 62
    30
 10
-296.19040677833578
 20
581.07710716272595
 30
0.0
 11
-12.0
 21
581.07710716272595
 31
0.0
  0
CIRCLE
  8
SIZE
  6
CONTINUOUS
 62
    30
 10
-308.19040677833578
 20
581.07710716272595
 30
0.0
 40
6.0
  0
LINE
  8
SIZE
  6
CONTINUOUS
 62
    30
 10
-308.19040677833578
 20
581.07710716272595
 30
0.0
 11
-296.19040677833578
 21
581.07710716272595
 31
0.0
  0
CIRCLE
  8
SIZE
  6
CONTINUOUS
 62
    30
 10
0.0
 20
581.07710716272595
 30
0.0
 40
6.0
  0
LINE
  8
SIZE
  6
CONTINUOUS
 62
    30
 10
0.0
 20
581.07710716272595
 30
0.0
 11
-12.0
 21
581.07710716272595
 31
0.0
  0
TEXT
  8
SIZE
  6
CONTINUOUS
 62
    30
 10
-238.22030677487771
 20
606.07710716272595
 30
0.0
 40
64.0
  1
308
 41
0.9
 72
     1
 11
-164.16316391773489
 21
606.07710716272595
 31
0.0
  0
POINT
  8
DEFPOINTS
  6
CONTINUOUS
 62
    30
 10
-308.19040677833578
 20
-48.534583025043453
 30
0.0
  0
POINT
  8
DEFPOINTS
  6
CONTINUOUS
 62
    30
 10
0.0
 20
301.35307858947658
 30
0.0
  0
POINT
  8
DEFPOINTS
  6
CONTINUOUS
 62
    30
 10
0.0
 20
581.07710716272595
 30
0.0
  0
TEXT
  8
NOTE
  6
CONTINUOUS
 62
     4
 10
95.641040110189977
 20
352.09624441488751
 30
0.0
 40
64.0
  1
4-φ14
 41
0.9
 72
     2
 11
375.96104011019003
 21
352.09624441488751
 31
0.0
  0
LINE
  8
DETAIL
  6
CONTINUOUS
 62
     4
 10
2.301759632915036
 20
236.21261413301491
 30
0.0
 11
0.0
 21
230.44315992292849
 31
0.0
  0
LINE
  8
DETAIL
  6
CONTINUOUS
 62
     4
 10
0.0
 20
230.44315992292849
 30
0.0
 11
4.8781152156716416
 21
234.2887666673362
 31
0.0
  0
LINE
  8
DETAIL
  6
CONTINUOUS
 62
     4
 10
0.0
 20
230.44315992292849
 30
0.0
 11
7.1798748485866781
 21
240.0582208774226
 31
0.0
  0
LINE
  8
NOTE
  6
CONTINUOUS
 62
     4
 10
7.1798748485866781
 20
240.0582208774226
 30
0.0
 11
67.418182967332996
 21
320.72745489218249
 31
0.0
  0
LINE
  8
NOTE
  6
CONTINUOUS
 62
     4
 10
67.418182967332996
 20
320.72745489218249
 30
0.0
 11
375.96104011019003
 21
320.72745489218249
 31
0.0
  0
LINE
  8
NOTE
  6
CONTINUOUS
 62
     4
 10
39.543577809473618
 20
-230.44315992292869
 30
0.0
 11
-39.543577809474073
 21
-230.44315992292869
 31
0.0
  0
LINE
  8
NOTE
  6
CONTINUOUS
 62
     4
 10
-0.0000000000002274
 20
-190.89958211345481
 30
0.0
 11
-0.0000000000002274
 21
-269.98673773240239
 31
0.0
  0
LINE
  8
NOTE
  6
CONTINUOUS
 62
     4
 10
39.543577809473618
 20
230.44315992292869
 30
0.0
 11
-39.543577809474073
 21
230.44315992292869
 31
0.0
  0
LINE
  8
NOTE
  6
CONTINUOUS
 62
     4
 10
-0.0000000000002274
 20
269.98673773240262
 30
0.0
 11
-0.0000000000002274
 21
190.89958211345501
 31
0.0
  0
LINE
  8
BASIS
  6
DASHDOT
 62
     6
 10
0.0
 20
-301.35307858947681
 30
0.0
 11
0.0
 21
301.35307858947658
 31
0.0
  0
LINE
  8
BASIS
  6
DASHDOT
 62
     6
 10
-352.67554245353028
 20
0.0
 30
0.0
 11
62.876419084872403
 21
0.0
 31
0.0
  0
CIRCLE
  8
FIX
  6
CONTINUOUS
 62
    11
 10
-0.0000000000002274
 20
-230.44315992292869
 30
0.0
 40
9.8378378699999995
  0
LINE
  8
DETAIL
  6
CONTINUOUS
 62
     5
 10
-18.42227530836055
 20
185.1885200745688
 30
0.0
 11
-18.414467776004589
 21
185.21284045771199
 31
0.0
  0
LINE
  8
DETAIL
  6
CONTINUOUS
 62
     5
 10
-18.414467776004589
 20
185.21284045771199
 30
0.0
 11
-18.4064990326284
 21
185.237173533407
 31
0.0
  0
LINE
  8
DETAIL
  6
CONTINUOUS
 62
     5
 10
-18.4064990326284
 20
185.237173533407
 30
0.0
 11
-18.4064990326284
 21
185.237173533407
 31
0.0
  0
LINE
  8
DETAIL
  6
CONTINUOUS
 62
     5
 10
-18.4064990326284
 20
185.237173533407
 30
0.0
 11
-18.39826206934379
 21
185.2614840014688
 31
0.0
  0
LINE
  8
DETAIL
  6
CONTINUOUS
 62
     5
 10
-18.39826206934379
 20
185.2614840014688
 30
0.0
 11
-18.38986668579048
 21
185.28554459075761
 31
0.0
  0
LINE
  8
DETAIL
  6
CONTINUOUS
 62
     5
 10
-18.38986668579048
 20
185.28554459075761
 30
0.0
 11
-18.38986668579048
 21
185.28554459075761
 31
0.0
  0
LINE
  8
DETAIL
  6
CONTINUOUS
 62
     5
 10
-18.38986668579048
 20
185.28554459075761
 30
0.0
 11
-18.38137147568068
 21
185.30930664470361
 31
0.0
  0
LINE
  8
DETAIL
  6
CONTINUOUS
 62
     5
 10
-18.38137147568068
 20
185.30930664470361
 30
0.0
 11
-18.372413400486611
 21
185.33362793596291
 31
0.0
  0
LINE
  8
DETAIL
  6
CONTINUOUS
 62
     5
 10
-18.372413400486611
 20
185.33362793596291
 30
0.0
 11
-18.372413400486611
 21
185.33362793596291
 31
0.0
  0
LINE
  8
DETAIL
  6
CONTINUOUS
 62
     5
 10
-18.372413400486611
 20
185.33362793596291
 30
0.0
 11
-18.362891443728589
 21
185.35873440800901
 31
0.0
  0
LINE
  8
DETAIL
  6
CONTINUOUS
 62
     5
 10
-18.362891443728589
 20
185.35873440800901
 30
0.0
 11
-18.35417430935593
 21
185.3814182583645
 31
0.0
  0
LINE
  8
DETAIL
  6
CONTINUOUS
 62
     5
 10
-18.35417430935593
 20
185.3814182583645
 30
0.0
 11
-18.35417430935593
 21
185.3814182583645
 31
0.0
  0
LINE
  8
DETAIL
  6
CONTINUOUS
 62
     5
 10
-18.35417430935593
 20
185.3814182583645
 30
0.0
 11
-18.346633819056251
 21
185.40082038670931
 31
0.0
  0
LINE
  8
DETAIL
  6
CONTINUOUS
 62
     5
 10
-18.346633819056251
 20
185.40082038670931
 30
0.0
 11
-18.33518454503826
 21
185.42891024730551
 31
0.0
  0
LINE
  8
DETAIL
  6
CONTINUOUS
 62
     5
 10
-18.33518454503826
 20
185.42891024730551
 30
0.0
 11
-18.33518454503826
 21
185.42891024730551
 31
0.0
  0
LINE
  8
DETAIL
  6
CONTINUOUS
 62
     5
 10
-18.33518454503826
 20
185.42891024730551
 30
0.0
 11
-18.315462776600949
 21
185.4757763691251
 31
0.0
  0
LINE
  8
DETAIL
  6
CONTINUOUS
 62
     5
 10
-18.315462776600949
 20
185.4757763691251
 30
0.0
 11
-18.291448920885951
 21
185.53115502539961
 31
0.0
  0
LINE
  8
DETAIL
  6
CONTINUOUS
 62
     5
 10
-18.291448920885951
 20
185.53115502539961
 30
0.0
 11
-18.291448920885951
 21
185.53115502539961
 31
0.0
  0
LINE
  8
DETAIL
  6
CONTINUOUS
 62
     5
 10
-18.291448920885951
 20
185.53115502539961
 30
0.0
 11
-18.267933824033999
 21
185.58293890640229
 31
0.0
  0
LINE
  8
DETAIL
  6
CONTINUOUS
 62
     5
 10
-18.267933824033999
 20
185.58293890640229
 30
0.0
 11
-18.24460597034204
 21
185.63199862631959
 31
0.0
  0
LINE
  8
DETAIL
  6
CONTINUOUS
 62
     5
 10
-18.24460597034204
 20
185.63199862631959
 30
0.0
 11
-18.24460597034204
 21
185.63199862631959
 31
0.0
  0
LINE
  8
DETAIL
  6
CONTINUOUS
 62
     5
 10
-18.24460597034204
 20
185.63199862631959
 30
0.0
 11
-18.22022439257125
 21
185.6815830382441
 31
0.0
  0
LINE
  8
DETAIL
  6
CONTINUOUS
 62
     5
 10
-18.22022439257125
 20
185.6815830382441
 30
0.0
 11
-18.194932679184721
 21
185.73147602698421
 31
0.0
  0
LINE
  8
DETAIL
  6
CONTINUOUS
 62
     5
 10
-18.194932679184721
 20
185.73147602698421
 30
0.0
 11
-18.194932679184721
 21
185.73147602698421
 31
0.0
  0
LINE
  8
DETAIL
  6
CONTINUOUS
 62
     5
 10
-18.194932679184721
 20
185.73147602698421
 30
0.0
 11
-18.169111592330069
 21
185.78081572258409
 31
0.0
  0
LINE
  8
DETAIL
  6
CONTINUOUS
 62
     5
 10
-18.169111592330069
 20
185.78081572258409
 30
0.0
 11
-18.142706033191981
 21
185.8296222043131
 31
0.0
  0
LINE
  8
DETAIL
  6
CONTINUOUS
 62
     5
 10
-18.142706033191981
 20
185.8296222043131
 30
0.0
 11
-18.142706033191981
 21
185.8296222043131
 31
0.0
  0
LINE
  8
DETAIL
  6
CONTINUOUS
 62
     5
 10
-18.142706033191981
 20
185.8296222043131
 30
0.0
 11
-18.11564165975199
 21
185.8781203315929
 31
0.0
  0
LINE
  8
DETAIL
  6
CONTINUOUS
 62
     5
 10
-18.11564165975199
 20
185.8781203315929
 30
0.0
 11
-18.08820301814205
 21
185.92647213522511
 31
0.0
  0
LINE
  8
DETAIL
  6
CONTINUOUS
 62
     5
 10
-18.535645472061901
 20
184.48031539183751
 30
0.0
 11
-18.534913339786499
 21
184.52774595906499
 31
0.0
  0
LINE
  8
DETAIL
  6
CONTINUOUS
 62
     5
 10
-18.534913339786499
 20
184.52774595906499
 30
0.0
 11
-18.533534593763871
 21
184.5751096893998
 31
0.0
  0
LINE
  8
DETAIL
  6
CONTINUOUS
 62
     5
 10
-18.533534593763871
 20
184.5751096893998
 30
0.0
 11
-18.533534593763871
 21
184.5751096893998
 31
0.0
  0
LINE
  8
DETAIL
  6
CONTINUOUS
 62
     5
 10
-18.533534593763871
 20
184.5751096893998
 30
0.0
 11
-18.530991772626631
 21
184.62239556779059
 31
0.0
  0
LINE
  8
DETAIL
  6
CONTINUOUS
 62
     5
 10
-18.530991772626631
 20
184.62239556779059
 30
0.0
 11
-18.527284024529649
 21
184.6698158665487
 31
0.0
  0
LINE
  8
DETAIL
  6
CONTINUOUS
 62
     5
 10
-18.527284024529649
 20
184.6698158665487
 30
0.0
 11
-18.527284024529649
 21
184.6698158665487
 31
0.0
  0
LINE
  8
DETAIL
  6
CONTINUOUS
 62
     5
 10
-18.527284024529649
 20
184.6698158665487
 30
0.0
 11
-18.52255588916444
 21
184.7174020965285
 31
0.0
  0
LINE
  8
DETAIL
  6
CONTINUOUS
 62
     5
 10
-18.52255588916444
 20
184.7174020965285
 30
0.0
 11
-18.517016862850259
 21
184.7642394353995
 31
0.0
  0
LINE
  8
DETAIL
  6
CONTINUOUS
 62
     5
 10
-18.517016862850259
 20
184.7642394353995
 30
0.0
 11
-18.517016862850259
 21
184.7642394353995
 31
0.0
  0
LINE
  8
DETAIL
  6
CONTINUOUS
 62
     5
 10
-18.517016862850259
 20
184.7642394353995
 30
0.0
 11
-18.51069857205562
 21
184.81006698887859
 31
0.0
  0
LINE
  8
DETAIL
  6
CONTINUOUS
 62
     5
 10
-18.51069857205562
 20
184.81006698887859
 30
0.0
 11
-18.502856207216269
 21
184.85818590806659
 31
0.0
  0
LINE
  8
DETAIL
  6
CONTINUOUS
 62
     5
 10
-18.502856207216269
 20
184.85818590806659
 30
0.0
 11
-18.502856207216269
 21
184.85818590806659
 31
0.0
  0
LINE
  8
DETAIL
  6
CONTINUOUS
 62
     5
 10
-18.502856207216269
 20
184.85818590806659
 30
0.0
 11
-18.49331104663543
 21
184.90946239332411
 31
0.0
  0
LINE
  8
DETAIL
  6
CONTINUOUS
 62
     5
 10
-18.49331104663543
 20
184.90946239332411
 30
0.0
 11
-18.48492515611747
 21
184.95146079666571
 31
0.0
  0
LINE
  8
DETAIL
  6
CONTINUOUS
 62
     5
 10
-18.48492515611747
 20
184.95146079666571
 30
0.0
 11
-18.48492515611747
 21
184.95146079666571
 31
0.0
  0
LINE
  8
DETAIL
  6
CONTINUOUS
 62
     5
 10
-18.48492515611747
 20
184.95146079666571
 30
0.0
 11
-18.480198220236961
 21
184.97368921086331
 31
0.0
  0
LINE
  8
DETAIL
  6
CONTINUOUS
 62
     5
 10
-18.480198220236961
 20
184.97368921086331
 30
0.0
 11
-18.477139611151191
 21
184.98673254006249
 31
0.0
  0
LINE
  8
DETAIL
  6
CONTINUOUS
 62
     5
 10
-18.477139611151191
 20
184.98673254006249
 30
0.0
 11
-18.477139611151191
 21
184.98673254006249
 31
0.0
  0
LINE
  8
DETAIL
  6
CONTINUOUS
 62
     5
 10
-18.477139611151191
 20
184.98673254006249
 30
0.0
 11
-18.473294114403419
 21
185.0030944765293
 31
0.0
  0
LINE
  8
DETAIL
  6
CONTINUOUS
 62
     5
 10
-18.473294114403419
 20
185.0030944765293
 30
0.0
 11
-18.46883848149503
 21
185.02187705363551
 31
0.0
  0
LINE
  8
DETAIL
  6
CONTINUOUS
 62
     5
 10
-18.46883848149503
 20
185.02187705363551
 30
0.0
 11
-18.46883848149503
 21
185.02187705363551
 31
0.0
  0
LINE
  8
DETAIL
  6
CONTINUOUS
 62
     5
 10
-18.46883848149503
 20
185.02187705363551
 30
0.0
 11
-18.464432248246911
 21
185.03972962321481
 31
0.0
  0
LINE
  8
DETAIL
  6
CONTINUOUS
 62
     5
 10
-18.464432248246911
 20
185.03972962321481
 30
0.0
 11
-18.46003412179482
 21
185.05689246983891
 31
0.0
  0
LINE
  8
DETAIL
  6
CONTINUOUS
 62
     5
 10
-18.46003412179482
 20
185.05689246983891
 30
0.0
 11
-18.46003412179482
 21
185.05689246983891
 31
0.0
  0
LINE
  8
DETAIL
  6
CONTINUOUS
 62
     5
 10
-18.46003412179482
 20
185.05689246983891
 30
0.0
 11
-18.455470439298441
 21
185.07426309325021
 31
0.0
  0
LINE
  8
DETAIL
  6
CONTINUOUS
 62
     5
 10
-18.455470439298441
 20
185.07426309325021
 30
0.0
 11
-18.450738886696509
 21
185.09177692112581
 31
0.0
  0
LINE
  8
DETAIL
  6
CONTINUOUS
 62
     5
 10
-18.450738886696509
 20
185.09177692112581
 30
0.0
 11
-18.450738886696509
 21
185.09177692112581
 31
0.0
  0
LINE
  8
DETAIL
  6
CONTINUOUS
 62
     5
 10
-18.450738886696509
 20
185.09177692112581
 30
0.0
 11
-18.445883845514569
 21
185.1091932020062
 31
0.0
  0
LINE
  8
DETAIL
  6
CONTINUOUS
 62
     5
 10
-18.445883845514569
 20
185.1091932020062
 30
0.0
 11
-18.44096513084628
 21
185.12652853994959
 31
0.0
  0
LINE
  8
DETAIL
  6
CONTINUOUS
 62
     5
 10
-18.08820301814205
 20
183.0341586477991
 30
0.0
 11
-18.115624450464338
 21
183.0824726304304
 31
0.0
  0
LINE
  8
DETAIL
  6
CONTINUOUS
 62
     5
 10
-18.115624450464338
 20
183.0824726304304
 30
0.0
 11
-18.142690473430999
 21
183.1309801764537
 31
0.0
  0
LINE
  8
DETAIL
  6
CONTINUOUS
 62
     5
 10
-18.142690473430999
 20
183.1309801764537
 30
0.0
 11
-18.142690473430999
 21
183.1309801764537
 31
0.0
  0
LINE
  8
DETAIL
  6
CONTINUOUS
 62
     5
 10
-18.142690473430999
 20
183.1309801764537
 30
0.0
 11
-18.169116712935651
 21
183.17984321442
 31
0.0
  0
LINE
  8
DETAIL
  6
CONTINUOUS
 62
     5
 10
-18.169116712935651
 20
183.17984321442
 30
0.0
 11
-18.194902935872509
 21
183.2290971335112
 31
0.0
  0
LINE
  8
DETAIL
  6
CONTINUOUS
 62
     5
 10
-18.194902935872509
 20
183.2290971335112
 30
0.0
 11
-18.194902935872509
 21
183.2290971335112
 31
0.0
  0
LINE
  8
DETAIL
  6
CONTINUOUS
 62
     5
 10
-18.194902935872509
 20
183.2290971335112
 30
0.0
 11
-18.22008558818084
 21
183.27871467409901
 31
0.0
  0
LINE
  8
DETAIL
  6
CONTINUOUS
 62
     5
 10
-18.22008558818084
 20
183.27871467409901
 30
0.0
 11
-18.24456369097868
 21
183.3285445206815
 31
0.0
  0
LINE
  8
DETAIL
  6
CONTINUOUS
 62
     5
 10
-18.24456369097868
 20
183.3285445206815
 30
0.0
 11
-18.24456369097868
 21
183.3285445206815
 31
0.0
  0
LINE
  8
DETAIL
  6
CONTINUOUS
 62
     5
 10
-18.24456369097868
 20
183.3285445206815
 30
0.0
 11
-18.268268298750289
 21
183.37856003450381
 31
0.0
  0
LINE
  8
DETAIL
  6
CONTINUOUS
 62
     5
 10
-18.268268298750289
 20
183.37856003450381
 30
0.0
 11
-18.291396024260852
 21
183.42935733967681
 31
0.0
  0
LINE
  8
DETAIL
  6
CONTINUOUS
 62
     5
 10
-18.291396024260852
 20
183.42935733967681
 30
0.0
 11
-18.291396024260852
 21
183.42935733967681
 31
0.0
  0
LINE
  8
DETAIL
  6
CONTINUOUS
 62
     5
 10
-18.291396024260852
 20
183.42935733967681
 30
0.0
 11
-18.313978667769451
 21
183.48109650213021
 31
0.0
  0
LINE
  8
DETAIL
  6
CONTINUOUS
 62
     5
 10
-18.313978667769451
 20
183.48109650213021
 30
0.0
 11
-18.33512322123136
 21
183.53157059220749
 31
0.0
  0
LINE
  8
DETAIL
  6
CONTINUOUS
 62
     5
 10
-18.33512322123136
 20
183.53157059220749
 30
0.0
 11
-18.33512322123136
 21
183.53157059220749
 31
0.0
  0
LINE
  8
DETAIL
  6
CONTINUOUS
 62
     5
 10
-18.33512322123136
 20
183.53157059220749
 30
0.0
 11
-18.354085307364471
 21
183.578905830818
 31
0.0
  0
LINE
  8
DETAIL
  6
CONTINUOUS
 62
     5
 10
-18.354085307364471
 20
183.578905830818
 30
0.0
 11
-18.371639880244519
 21
183.62492803672441
 31
0.0
  0
LINE
  8
DETAIL
  6
CONTINUOUS
 62
     5
 10
-18.371639880244519
 20
183.62492803672441
 30
0.0
 11
-18.371639880244519
 21
183.62492803672441
 31
0.0
  0
LINE
  8
DETAIL
  6
CONTINUOUS
 62
     5
 10
-18.371639880244519
 20
183.62492803672441
 30
0.0
 11
-18.388691521080201
 21
183.67180988813291
 31
0.0
  0
LINE
  8
DETAIL
  6
CONTINUOUS
 62
     5
 10
-18.388691521080201
 20
183.67180988813291
 30
0.0
 11
-18.405143988254959
 21
183.7194119031744
 31
0.0
  0
LINE
  8
DETAIL
  6
CONTINUOUS
 62
     5
 10
-18.405143988254959
 20
183.7194119031744
 30
0.0
 11
-18.405143988254959
 21
183.7194119031744
 31
0.0
  0
LINE
  8
DETAIL
  6
CONTINUOUS
 62
     5
 10
-18.405143988254959
 20
183.7194119031744
 30
0.0
 11
-18.42071401664521
 21
183.7671510411017
 31
0.0
  0
LINE
  8
DETAIL
  6
CONTINUOUS
 62
     5
 10
-18.42071401664521
 20
183.7671510411017
 30
0.0
 11
-18.435371069921299
 21
183.81498218572821
 31
0.0
  0
LINE
  8
DETAIL
  6
CONTINUOUS
 62
     5
 10
-18.435371069921299
 20
183.81498218572821
 30
0.0
 11
-18.435371069921299
 21
183.81498218572821
 31
0.0
  0
LINE
  8
DETAIL
  6
CONTINUOUS
 62
     5
 10
-18.435371069921299
 20
183.81498218572821
 30
0.0
 11
-18.449145270864509
 21
183.86303481746609
 31
0.0
  0
LINE
  8
DETAIL
  6
CONTINUOUS
 62
     5
 10
-18.449145270864509
 20
183.86303481746609
 30
0.0
 11
-18.462056649902589
 21
183.91159887855551
 31
0.0
  0
LINE
  8
DETAIL
  6
CONTINUOUS
 62
     5
 10
-18.462056649902589
 20
183.91159887855551
 30
0.0
 11
-18.462056649902589
 21
183.91159887855551
 31
0.0
  0
LINE
  8
DETAIL
  6
CONTINUOUS
 62
     5
 10
-18.462056649902589
 20
183.91159887855551
 30
0.0
 11
-18.47406962453022
 21
183.9607094837248
 31
0.0
  0
LINE
  8
DETAIL
  6
CONTINUOUS
 62
     5
 10
-18.47406962453022
 20
183.9607094837248
 30
0.0
 11
-18.48493625285732
 21
184.00922197582591
 31
0.0
  0
LINE
  8
DETAIL
  6
CONTINUOUS
 62
     5
 10
-18.48493625285732
 20
184.00922197582591
 30
0.0
 11
-18.48493625285732
 21
184.00922197582591
 31
0.0
  0
LINE
  8
DETAIL
  6
CONTINUOUS
 62
     5
 10
-18.48493625285732
 20
184.00922197582591
 30
0.0
 11
-18.49446014265072
 21
184.05617082659279
 31
0.0
  0
LINE
  8
DETAIL
  6
CONTINUOUS
 62
     5
 10
-18.49446014265072
 20
184.05617082659279
 30
0.0
 11
-18.50286345968459
 21
184.10248679516749
 31
0.0
  0
LINE
  8
DETAIL
  6
CONTINUOUS
 62
     5
 10
-18.50286345968459
 20
184.10248679516749
 30
0.0
 11
-18.50286345968459
 21
184.10248679516749
 31
0.0
  0
LINE
  8
DETAIL
  6
CONTINUOUS
 62
     5
 10
-18.50286345968459
 20
184.10248679516749
 30
0.0
 11
-18.510398688044571
 21
184.1492726568782
 31
0.0
  0
LINE
  8
DETAIL
  6
CONTINUOUS
 62
     5
 10
-18.510398688044571
 20
184.1492726568782
 30
0.0
 11
-18.517021027050991
 21
184.19642296438749
 31
0.0
  0
LINE
  8
DETAIL
  6
CONTINUOUS
 62
     5
 10
-18.517021027050991
 20
184.19642296438749
 30
0.0
 11
-18.517021027050991
 21
184.19642296438749
 31
0.0
  0
LINE
  8
DETAIL
  6
CONTINUOUS
 62
     5
 10
-18.517021027050991
 20
184.19642296438749
 30
0.0
 11
-18.522640775258989
 21
184.243611359786
 31
0.0
  0
LINE
  8
DETAIL
  6
CONTINUOUS
 62
     5
 10
-18.522640775258989
 20
184.243611359786
 30
0.0
 11
-18.527285912924409
 21
184.2908360655376
 31
0.0
  0
LINE
  8
DETAIL
  6
CONTINUOUS
 62
     5
 10
-18.527285912924409
 20
184.2908360655376
 30
0.0
 11
-18.527285912924409
 21
184.2908360655376
 31
0.0
  0
LINE
  8
DETAIL
  6
CONTINUOUS
 62
     5
 10
-18.527285912924409
 20
184.2908360655376
 30
0.0
 11
-18.530970480218119
 21
184.3381539244925
 31
0.0
  0
LINE
  8
DETAIL
  6
CONTINUOUS
 62
     5
 10
-18.530970480218119
 20
184.3381539244925
 30
0.0
 11
-18.533535075271971
 21
184.38553168067031
 31
0.0
  0
LINE
  8
DETAIL
  6
CONTINUOUS
 62
     5
 10
-18.533535075271971
 20
184.38553168067031
 30
0.0
 11
-18.533535075271971
 21
184.38553168067031
 31
0.0
  0
LINE
  8
DETAIL
  6
CONTINUOUS
 62
     5
 10
-18.533535075271971
 20
184.38553168067031
 30
0.0
 11
-18.53492095732145
 21
184.43292250712011
 31
0.0
  0
LINE
  8
DETAIL
  6
CONTINUOUS
 62
     5
 10
-18.53492095732145
 20
184.43292250712011
 30
0.0
 11
-18.535645472061901
 21
184.48031539183751
 31
0.0
  0
LINE
  8
DETAIL
  6
CONTINUOUS
 62
     5
 10
-18.535645472061901
 20
180.14184516102401
 30
0.0
 11
-18.534915318340271
 21
180.2375713194601
 31
0.0
  0
LINE
  8
DETAIL
  6
CONTINUOUS
 62
     5
 10
-18.534915318340271
 20
180.2375713194601
 30
0.0
 11
-18.53351413578719
 21
180.33329620943769
 31
0.0
  0
LINE
  8
DETAIL
  6
CONTINUOUS
 62
     5
 10
-18.53351413578719
 20
180.33329620943769
 30
0.0
 11
-18.53351413578719
 21
180.33329620943769
 31
0.0
  0
LINE
  8
DETAIL
  6
CONTINUOUS
 62
     5
 10
-18.53351413578719
 20
180.33329620943769
 30
0.0
 11
-18.530914665682989
 21
180.42901439355569
 31
0.0
  0
LINE
  8
DETAIL
  6
CONTINUOUS
 62
     5
 10
-18.530914665682989
 20
180.42901439355569
 30
0.0
 11
-18.52716472975715
 21
180.5247037586461
 31
0.0
  0
LINE
  8
DETAIL
  6
CONTINUOUS
 62
     5
 10
-18.52716472975715
 20
180.5247037586461
 30
0.0
 11
-18.52716472975715
 21
180.5247037586461
 31
0.0
  0
LINE
  8
DETAIL
  6
CONTINUOUS
 62
     5
 10
-18.52716472975715
 20
180.5247037586461
 30
0.0
 11
-18.52241646114658
 21
180.6203469515435
 31
0.0
  0
LINE
  8
DETAIL
  6
CONTINUOUS
 62
     5
 10
-18.52241646114658
 20
180.6203469515435
 30
0.0
 11
-18.51666415816419
 21
180.71596233486139
 31
0.0
  0
LINE
  8
DETAIL
  6
CONTINUOUS
 62
     5
 10
-18.51666415816419
 20
180.71596233486139
 30
0.0
 11
-18.51666415816419
 21
180.71596233486139
 31
0.0
  0
LINE
  8
DETAIL
  6
CONTINUOUS
 62
     5
 10
-18.51666415816419
 20
180.71596233486139
 30
0.0
 11
-18.50987672512861
 21
180.81154565332051
 31
0.0
  0
LINE
  8
DETAIL
  6
CONTINUOUS
 62
     5
 10
-18.50987672512861
 20
180.81154565332051
 30
0.0
 11
-18.50207932519913
 21
180.90696646429589
 31
0.0
  0
LINE
  8
DETAIL
  6
CONTINUOUS
 62
     5
 10
-18.50207932519913
 20
180.90696646429589
 30
0.0
 11
-18.50207932519913
 21
180.90696646429589
 31
0.0
  0
LINE
  8
DETAIL
  6
CONTINUOUS
 62
     5
 10
-18.50207932519913
 20
180.90696646429589
 30
0.0
 11
-18.49329438610971
 21
181.00218003672691
 31
0.0
  0
LINE
  8
DETAIL
  6
CONTINUOUS
 62
     5
 10
-18.49329438610971
 20
181.00218003672691
 30
0.0
 11
-18.483477135054159
 21
181.09761067316131
 31
0.0
  0
LINE
  8
DETAIL
  6
CONTINUOUS
 62
     5
 10
-18.483477135054159
 20
181.09761067316131
 30
0.0
 11
-18.483477135054159
 21
181.09761067316131
 31
0.0
  0
LINE
  8
DETAIL
  6
CONTINUOUS
 62
     5
 10
-18.483477135054159
 20
181.09761067316131
 30
0.0
 11
-18.472588227836582
 21
181.1936175796246
 31
0.0
  0
LINE
  8
DETAIL
  6
CONTINUOUS
 62
     5
 10
-18.472588227836582
 20
181.1936175796246
 30
0.0
 11
-18.460677235243789
 21
181.28983054244901
 31
0.0
  0
LINE
  8
DETAIL
  6
CONTINUOUS
 62
     5
 10
-18.460677235243789
 20
181.28983054244901
 30
0.0
 11
-18.460677235243789
 21
181.28983054244901
 31
0.0
  0
LINE
  8
DETAIL
  6
CONTINUOUS
 62
     5
 10
-18.460677235243789
 20
181.28983054244901
 30
0.0
 11
-18.44780647109576
 21
181.38580573946709
 31
0.0
  0
LINE
  8
DETAIL
  6
CONTINUOUS
 62
     5
 10
-18.44780647109576
 20
181.38580573946709
 30
0.0
 11
-18.434000306359739
 21
181.48153433420859
 31
0.0
  0
LINE
  8
DETAIL
  6
CONTINUOUS
 62
     5
 10
-18.434000306359739
 20
181.48153433420859
 30
0.0
 11
-18.434000306359739
 21
181.48153433420859
 31
0.0
  0
LINE
  8
DETAIL
  6
CONTINUOUS
 62
     5
 10
-18.434000306359739
 20
181.48153433420859
 30
0.0
 11
-18.419269045073289
 21
181.5771199878491
 31
0.0
  0
LINE
  8
DETAIL
  6
CONTINUOUS
 62
     5
 10
-18.419269045073289
 20
181.5771199878491
 30
0.0
 11
-18.403604666402661
 21
181.67268136645771
 31
0.0
  0
LINE
  8
DETAIL
  6
CONTINUOUS
 62
     5
 10
-18.403604666402661
 20
181.67268136645771
 30
0.0
 11
-18.403604666402661
 21
181.67268136645771
 31
0.0
  0
LINE
  8
DETAIL
  6
CONTINUOUS
 62
     5
 10
-18.403604666402661
 20
181.67268136645771
 30
0.0
 11
-18.38702237888026
 21
181.76821713601041
 31
0.0
  0
LINE
  8
DETAIL
  6
CONTINUOUS
 62
     5
 10
-18.38702237888026
 20
181.76821713601041
 30
0.0
 11
-18.36964863337278
 21
181.86323095721491
 31
0.0
  0
LINE
  8
DETAIL
  6
CONTINUOUS
 62
     5
 10
-18.36964863337278
 20
181.86323095721491
 30
0.0
 11
-18.36964863337278
 21
181.86323095721491
 31
0.0
  0
LINE
  8
DETAIL
  6
CONTINUOUS
 62
     5
 10
-18.36964863337278
 20
181.86323095721491
 30
0.0
 11
-18.351531030214009
 21
181.95759399350641
 31
0.0
  0
LINE
  8
DETAIL
  6
CONTINUOUS
 62
     5
 10
-18.351531030214009
 20
181.95759399350641
 30
0.0
 11
-18.332290525270992
 21
182.05314242449771
 31
0.0
  0
LINE
  8
DETAIL
  6
CONTINUOUS
 62
     5
 10
-18.332290525270992
 20
182.05314242449771
 30
0.0
 11
-18.332290525270992
 21
182.05314242449771
 31
0.0
  0
LINE
  8
DETAIL
  6
CONTINUOUS
 62
     5
 10
-18.332290525270992
 20
182.05314242449771
 30
0.0
 11
-18.31160301600676
 21
182.15142486359571
 31
0.0
  0
LINE
  8
DETAIL
  6
CONTINUOUS
 62
     5
 10
-18.31160301600676
 20
182.15142486359571
 30
0.0
 11
-18.289790810739309
 21
182.25087464320501
 31
0.0
  0
LINE
  8
DETAIL
  6
CONTINUOUS
 62
     5
 10
-18.289790810739309
 20
182.25087464320501
 30
0.0
 11
-18.289790810739309
 21
182.25087464320501
 31
0.0
  0
LINE
  8
DETAIL
  6
CONTINUOUS
 62
     5
 10
-18.289790810739309
 20
182.25087464320501
 30
0.0
 11
-18.267239402098429
 21
182.34964124156889
 31
0.0
  0
LINE
  8
DETAIL
  6
CONTINUOUS
 62
     5
 10
-18.267239402098429
 20
182.34964124156889
 30
0.0
 11
-18.243940609110268
 21
182.44785400129101
 31
0.0
  0
LINE
  8
DETAIL
  6
CONTINUOUS
 62
     5
 10
-18.243940609110268
 20
182.44785400129101
 30
0.0
 11
-18.243940609110268
 21
182.44785400129101
 31
0.0
  0
LINE
  8
DETAIL
  6
CONTINUOUS
 62
     5
 10
-18.243940609110268
 20
182.44785400129101
 30
0.0
 11
-18.219819962580569
 21
182.54600643516011
 31
0.0
  0
LINE
  8
DETAIL
  6
CONTINUOUS
 62
     5
 10
-18.219819962580569
 20
182.54600643516011
 30
0.0
 11
-18.194931514034241
 21
182.64406887235381
 31
0.0
  0
LINE
  8
DETAIL
  6
CONTINUOUS
 62
     5
 10
-18.194931514034241
 20
182.64406887235381
 30
0.0
 11
-18.194931514034241
 21
182.64406887235381
 31
0.0
  0
LINE
  8
DETAIL
  6
CONTINUOUS
 62
     5
 10
-18.194931514034241
 20
182.64406887235381
 30
0.0
 11
-18.16933134285739
 21
182.7419090636688
 31
0.0
  0
LINE
  8
DETAIL
  6
CONTINUOUS
 62
     5
 10
-18.16933134285739
 20
182.7419090636688
 30
0.0
 11
-18.14295511916146
 21
182.83950762999049
 31
0.0
  0
LINE
  8
DETAIL
  6
CONTINUOUS
 62
     5
 10
-18.14295511916146
 20
182.83950762999049
 30
0.0
 11
-18.14295511916146
 21
182.83950762999049
 31
0.0
  0
LINE
  8
DETAIL
  6
CONTINUOUS
 62
     5
 10
-18.14295511916146
 20
182.83950762999049
 30
0.0
 11
-18.11579668983347
 21
182.93689133554139
 31
0.0
  0
LINE
  8
DETAIL
  6
CONTINUOUS
 62
     5
 10
-18.11579668983347
 20
182.93689133554139
 30
0.0
 11
-18.08820301814205
 21
183.0341586477991
 31
0.0
  0
LINE
  8
DETAIL
  6
CONTINUOUS
 62
     5
 10
-18.08820301814205
 20
177.24953167359811
 30
0.0
 11
-18.116073464320149
 21
177.34779253957569
 31
0.0
  0
LINE
  8
DETAIL
  6
CONTINUOUS
 62
     5
 10
-18.116073464320149
 20
177.34779253957569
 30
0.0
 11
-18.143499191714451
 21
177.4461703754246
 31
0.0
  0
LINE
  8
DETAIL
  6
CONTINUOUS
 62
     5
 10
-18.143499191714451
 20
177.4461703754246
 30
0.0
 11
-18.143499191714451
 21
177.4461703754246
 31
0.0
  0
LINE
  8
DETAIL
  6
CONTINUOUS
 62
     5
 10
-18.143499191714451
 20
177.4461703754246
 30
0.0
 11
-18.17012591374953
 21
177.54476572745611
 31
0.0
  0
LINE
  8
DETAIL
  6
CONTINUOUS
 62
     5
 10
-18.17012591374953
 20
177.54476572745611
 30
0.0
 11
-18.195961072685918
 21
177.64361344773641
 31
0.0
  0
LINE
  8
DETAIL
  6
CONTINUOUS
 62
     5
 10
-18.195961072685918
 20
177.64361344773641
 30
0.0
 11
-18.195961072685918
 21
177.64361344773641
 31
0.0
  0
LINE
  8
DETAIL
  6
CONTINUOUS
 62
     5
 10
-18.195961072685918
 20
177.64361344773641
 30
0.0
 11
-18.221070387428991
 21
177.74269557308429
 31
0.0
  0
LINE
  8
DETAIL
  6
CONTINUOUS
 62
     5
 10
-18.221070387428991
 20
177.74269557308429
 30
0.0
 11
-18.245390954631379
 21
177.84184857357101
 31
0.0
  0
LINE
  8
DETAIL
  6
CONTINUOUS
 62
     5
 10
-18.245390954631379
 20
177.84184857357101
 30
0.0
 11
-18.245390954631379
 21
177.84184857357101
 31
0.0
  0
LINE
  8
DETAIL
  6
CONTINUOUS
 62
     5
 10
-18.245390954631379
 20
177.84184857357101
 30
0.0
 11
-18.26886590542631
 21
177.94103451788851
 31
0.0
  0
LINE
  8
DETAIL
  6
CONTINUOUS
 62
     5
 10
-18.26886590542631
 20
177.94103451788851
 30
0.0
 11
-18.291591131125411
 21
178.040863435967
 31
0.0
  0
LINE
  8
DETAIL
  6
CONTINUOUS
 62
     5
 10
-18.291591131125411
 20
178.040863435967
 30
0.0
 11
-18.291591131125411
 21
178.040863435967
 31
0.0
  0
LINE
  8
DETAIL
  6
CONTINUOUS
 62
     5
 10
-18.291591131125411
 20
178.040863435967
 30
0.0
 11
-18.31358010846952
 21
178.1414957784954
 31
0.0
  0
LINE
  8
DETAIL
  6
CONTINUOUS
 62
     5
 10
-18.31358010846952
 20
178.1414957784954
 30
0.0
 11
-18.33436389574376
 21
178.240645717962
 31
0.0
  0
LINE
  8
DETAIL
  6
CONTINUOUS
 62
     5
 10
-18.33436389574376
 20
178.240645717962
 30
0.0
 11
-18.33436389574376
 21
178.240645717962
 31
0.0
  0
LINE
  8
DETAIL
  6
CONTINUOUS
 62
     5
 10
-18.33436389574376
 20
178.240645717962
 30
0.0
 11
-18.35355154183981
 21
178.33637786567661
 31
0.0
  0
LINE
  8
DETAIL
  6
CONTINUOUS
 62
     5
 10
-18.35355154183981
 20
178.33637786567661
 30
0.0
 11
-18.37154647653449
 21
178.4306048664383
 31
0.0
  0
LINE
  8
DETAIL
  6
CONTINUOUS
 62
     5
 10
-18.37154647653449
 20
178.4306048664383
 30
0.0
 11
-18.37154647653449
 21
178.4306048664383
 31
0.0
  0
LINE
  8
DETAIL
  6
CONTINUOUS
 62
     5
 10
-18.37154647653449
 20
178.4306048664383
 30
0.0
 11
-18.388819657514549
 21
178.52559615360451
 31
0.0
  0
LINE
  8
DETAIL
  6
CONTINUOUS
 62
     5
 10
-18.388819657514549
 20
178.52559615360451
 30
0.0
 11
-18.405317773219618
 21
178.62120028128041
 31
0.0
  0
LINE
  8
DETAIL
  6
CONTINUOUS
 62
     5
 10
-18.405317773219618
 20
178.62120028128041
 30
0.0
 11
-18.405317773219618
 21
178.62120028128041
 31
0.0
  0
LINE
  8
DETAIL
  6
CONTINUOUS
 62
     5
 10
-18.405317773219618
 20
178.62120028128041
 30
0.0
 11
-18.42089004256832
 21
178.7168068490835
 31
0.0
  0
LINE
  8
DETAIL
  6
CONTINUOUS
 62
     5
 10
-18.42089004256832
 20
178.7168068490835
 30
0.0
 11
-18.43552007563358
 21
178.81239051793361
 31
0.0
  0
LINE
  8
DETAIL
  6
CONTINUOUS
 62
     5
 10
-18.43552007563358
 20
178.81239051793361
 30
0.0
 11
-18.43552007563358
 21
178.81239051793361
 31
0.0
  0
LINE
  8
DETAIL
  6
CONTINUOUS
 62
     5
 10
-18.43552007563358
 20
178.81239051793361
 30
0.0
 11
-18.449221756433641
 21
178.9080923725879
 31
0.0
  0
LINE
  8
DETAIL
  6
CONTINUOUS
 62
     5
 10
-18.449221756433641
 20
178.9080923725879
 30
0.0
 11
-18.461995673612709
 21
179.00413413184251
 31
0.0
  0
LINE
  8
DETAIL
  6
CONTINUOUS
 62
     5
 10
-18.461995673612709
 20
179.00413413184251
 30
0.0
 11
-18.461995673612709
 21
179.00413413184251
 31
0.0
  0
LINE
  8
DETAIL
  6
CONTINUOUS
 62
     5
 10
-18.461995673612709
 20
179.00413413184251
 30
0.0
 11
-18.473818789556159
 21
179.10053077363841
 31
0.0
  0
LINE
  8
DETAIL
  6
CONTINUOUS
 62
     5
 10
-18.473818789556159
 20
179.10053077363841
 30
0.0
 11
-18.484586856991651
 21
179.19638967845131
 31
0.0
  0
LINE
  8
DETAIL
  6
CONTINUOUS
 62
     5
 10
-18.484586856991651
 20
179.19638967845131
 30
0.0
 11
-18.484586856991651
 21
179.19638967845131
 31
0.0
  0
LINE
  8
DETAIL
  6
CONTINUOUS
 62
     5
 10
-18.484586856991651
 20
179.19638967845131
 30
0.0
 11
-18.49421754179934
 21
179.29096280449929
 31
0.0
  0
LINE
  8
DETAIL
  6
CONTINUOUS
 62
     5
 10
-18.49421754179934
 20
179.29096280449929
 30
0.0
 11
-18.502797372128949
 21
179.38498801843161
 31
0.0
  0
LINE
  8
DETAIL
  6
CONTINUOUS
 62
     5
 10
-18.502797372128949
 20
179.38498801843161
 30
0.0
 11
-18.502797372128949
 21
179.38498801843161
 31
0.0
  0
LINE
  8
DETAIL
  6
CONTINUOUS
 62
     5
 10
-18.502797372128949
 20
179.38498801843161
 30
0.0
 11
-18.51042421870045
 21
179.47933751077491
 31
0.0
  0
LINE
  8
DETAIL
  6
CONTINUOUS
 62
     5
 10
-18.51042421870045
 20
179.47933751077491
 30
0.0
 11
-18.517072460243071
 21
179.57393485913161
 31
0.0
  0
LINE
  8
DETAIL
  6
CONTINUOUS
 62
     5
 10
-18.517072460243071
 20
179.57393485913161
 30
0.0
 11
-18.517072460243071
 21
179.57393485913161
 31
0.0
  0
LINE
  8
DETAIL
  6
CONTINUOUS
 62
     5
 10
-18.517072460243071
 20
179.57393485913161
 30
0.0
 11
-18.522703227629901
 21
179.66853014496411
 31
0.0
  0
LINE
  8
DETAIL
  6
CONTINUOUS
 62
     5
 10
-18.522703227629901
 20
179.66853014496411
 30
0.0
 11
-18.5273481522953
 21
179.76312807809899
 31
0.0
  0
LINE
  8
DETAIL
  6
CONTINUOUS
 62
     5
 10
-18.5273481522953
 20
179.76312807809899
 30
0.0
 11
-18.5273481522953
 21
179.76312807809899
 31
0.0
  0
LINE
  8
DETAIL
  6
CONTINUOUS
 62
     5
 10
-18.5273481522953
 20
179.76312807809899
 30
0.0
 11
-18.53101686324942
 21
179.857779550321
 31
0.0
  0
LINE
  8
DETAIL
  6
CONTINUOUS
 62
     5
 10
-18.53101686324942
 20
179.857779550321
 30
0.0
 11
-18.533560479247509
 21
179.9524655528808
 31
0.0
  0
LINE
  8
DETAIL
  6
CONTINUOUS
 62
     5
 10
-18.533560479247509
 20
179.9524655528808
 30
0.0
 11
-18.533560479247509
 21
179.9524655528808
 31
0.0
  0
LINE
  8
DETAIL
  6
CONTINUOUS
 62
     5
 10
-18.533560479247509
 20
179.9524655528808
 30
0.0
 11
-18.534931376595981
 21
180.04715584533861
 31
0.0
  0
LINE
  8
DETAIL
  6
CONTINUOUS
 62
     5
 10
-18.534931376595981
 20
180.04715584533861
 30
0.0
 11
-18.535645472061901
 21
180.14184516102401
 31
0.0
  0
LINE
  8
DETAIL
  6
CONTINUOUS
 62
     5
 10
-18.535645472061901
 20
175.80337493021059
 30
0.0
 11
-18.534920784459018
 21
175.85077313591671
 31
0.0
  0
LINE
  8
DETAIL
  6
CONTINUOUS
 62
     5
 10
-18.534920784459018
 20
175.85077313591671
 30
0.0
 11
-18.533534593754439
 21
175.89816922774779
 31
0.0
  0
LINE
  8
DETAIL
  6
CONTINUOUS
 62
     5
 10
-18.533534593754439
 20
175.89816922774779
 30
0.0
 11
-18.533534593754439
 21
175.89816922774779
 31
0.0
  0
LINE
  8
DETAIL
  6
CONTINUOUS
 62
     5
 10
-18.533534593754439
 20
175.89816922774779
 30
0.0
 11
-18.53096943857906
 21
175.94555219064719
 31
0.0
  0
LINE
  8
DETAIL
  6
CONTINUOUS
 62
     5
 10
-18.53096943857906
 20
175.94555219064719
 30
0.0
 11
-18.527284024500549
 21
175.9928754048311
 31
0.0
  0
LINE
  8
DETAIL
  6
CONTINUOUS
 62
     5
 10
-18.527284024500549
 20
175.9928754048311
 30
0.0
 11
-18.527284024500549
 21
175.9928754048311
 31
0.0
  0
LINE
  8
DETAIL
  6
CONTINUOUS
 62
     5
 10
-18.527284024500549
 20
175.9928754048311
 30
0.0
 11
-18.522637780565109
 21
176.04010565813371
 31
0.0
  0
LINE
  8
DETAIL
  6
CONTINUOUS
 62
     5
 10
-18.522637780565109
 20
176.04010565813371
 30
0.0
 11
-18.517016862803189
 21
176.0872989735885
 31
0.0
  0
LINE
  8
DETAIL
  6
CONTINUOUS
 62
     5
 10
-18.517016862803189
 20
176.0872989735885
 30
0.0
 11
-18.517016862803189
 21
176.0872989735885
 31
0.0
  0
LINE
  8
DETAIL
  6
CONTINUOUS
 62
     5
 10
-18.517016862803189
 20
176.0872989735885
 30
0.0
 11
-18.510393340273371
 21
176.13445334901181
 31
0.0
  0
LINE
  8
DETAIL
  6
CONTINUOUS
 62
     5
 10
-18.510393340273371
 20
176.13445334901181
 30
0.0
 11
-18.502856207165451
 21
176.18124544614821
 31
0.0
  0
LINE
  8
DETAIL
  6
CONTINUOUS
 62
     5
 10
-18.502856207165451
 20
176.18124544614821
 30
0.0
 11
-18.502856207165451
 21
176.18124544614821
 31
0.0
  0
LINE
  8
DETAIL
  6
CONTINUOUS
 62
     5
 10
-18.502856207165451
 20
176.18124544614821
 30
0.0
 11
-18.49445008207579
 21
176.22757061999599
 31
0.0
  0
LINE
  8
DETAIL
  6
CONTINUOUS
 62
     5
 10
-18.49445008207579
 20
176.22757061999599
 30
0.0
 11
-18.484925156090181
 21
176.27452033463859
 31
0.0
  0
LINE
  8
DETAIL
  6
CONTINUOUS
 62
     5
 10
-18.484925156090181
 20
176.27452033463859
 30
0.0
 11
-18.484925156090181
 21
176.27452033463859
 31
0.0
  0
LINE
  8
DETAIL
  6
CONTINUOUS
 62
     5
 10
-18.484925156090181
 20
176.27452033463859
 30
0.0
 11
-18.47406162610844
 21
176.32301582823811
 31
0.0
  0
LINE
  8
DETAIL
  6
CONTINUOUS
 62
     5
 10
-18.47406162610844
 20
176.32301582823811
 30
0.0
 11
-18.46205413979294
 21
176.37210132618949
 31
0.0
  0
LINE
  8
DETAIL
  6
CONTINUOUS
 62
     5
 10
-18.46205413979294
 20
176.37210132618949
 30
0.0
 11
-18.46205413979294
 21
176.37210132618949
 31
0.0
  0
LINE
  8
DETAIL
  6
CONTINUOUS
 62
     5
 10
-18.46205413979294
 20
176.37210132618949
 30
0.0
 11
-18.4491484684537
 21
176.42064360957491
 31
0.0
  0
LINE
  8
DETAIL
  6
CONTINUOUS
 62
     5
 10
-18.4491484684537
 20
176.42064360957491
 30
0.0
 11
-18.435380427225031
 21
176.46867669499511
 31
0.0
  0
LINE
  8
DETAIL
  6
CONTINUOUS
 62
     5
 10
-18.435380427225031
 20
176.46867669499511
 30
0.0
 11
-18.435380427225031
 21
176.46867669499511
 31
0.0
  0
LINE
  8
DETAIL
  6
CONTINUOUS
 62
     5
 10
-18.435380427225031
 20
176.46867669499511
 30
0.0
 11
-18.420730544980071
 21
176.51648740033531
 31
0.0
  0
LINE
  8
DETAIL
  6
CONTINUOUS
 62
     5
 10
-18.420730544980071
 20
176.51648740033531
 30
0.0
 11
-18.405168161719761
 21
176.56420651310589
 31
0.0
  0
LINE
  8
DETAIL
  6
CONTINUOUS
 62
     5
 10
-18.405168161719761
 20
176.56420651310589
 30
0.0
 11
-18.405168161719761
 21
176.56420651310589
 31
0.0
  0
LINE
  8
DETAIL
  6
CONTINUOUS
 62
     5
 10
-18.405168161719761
 20
176.56420651310589
 30
0.0
 11
-18.388723498142671
 21
176.61179003471901
 31
0.0
  0
LINE
  8
DETAIL
  6
CONTINUOUS
 62
     5
 10
-18.388723498142671
 20
176.61179003471901
 30
0.0
 11
-18.371681486610331
 21
176.65865085257349
 31
0.0
  0
LINE
  8
DETAIL
  6
CONTINUOUS
 62
     5
 10
-18.371681486610331
 20
176.65865085257349
 30
0.0
 11
-18.371681486610331
 21
176.65865085257349
 31
0.0
  0
LINE
  8
DETAIL
  6
CONTINUOUS
 62
     5
 10
-18.371681486610331
 20
176.65865085257349
 30
0.0
 11
-18.354138822954841
 21
176.70464819717199
 31
0.0
  0
LINE
  8
DETAIL
  6
CONTINUOUS
 62
     5
 10
-18.354138822954841
 20
176.70464819717199
 30
0.0
 11
-18.335184545229591
 21
176.75196978544841
 31
0.0
  0
LINE
  8
DETAIL
  6
CONTINUOUS
 62
     5
 10
-18.335184545229591
 20
176.75196978544841
 30
0.0
 11
-18.335184545229591
 21
176.75196978544841
 31
0.0
  0
LINE
  8
DETAIL
  6
CONTINUOUS
 62
     5
 10
-18.335184545229591
 20
176.75196978544841
 30
0.0
 11
-18.31403818692149
 21
176.80245414547881
 31
0.0
  0
LINE
  8
DETAIL
  6
CONTINUOUS
 62
     5
 10
-18.31403818692149
 20
176.80245414547881
 30
0.0
 11
-18.291448921030788
 21
176.85421456347831
 31
0.0
  0
LINE
  8
DETAIL
  6
CONTINUOUS
 62
     5
 10
-18.291448921030788
 20
176.85421456347831
 30
0.0
 11
-18.291448921030788
 21
176.85421456347831
 31
0.0
  0
LINE
  8
DETAIL
  6
CONTINUOUS
 62
     5
 10
-18.291448921030788
 20
176.85421456347831
 30
0.0
 11
-18.268315576988702
 21
176.90502885118869
 31
0.0
  0
LINE
  8
DETAIL
  6
CONTINUOUS
 62
     5
 10
-18.268315576988702
 20
176.90502885118869
 30
0.0
 11
-18.244605970435941
 21
176.9550581643268
 31
0.0
  0
LINE
  8
DETAIL
  6
CONTINUOUS
 62
     5
 10
-18.244605970435941
 20
176.9550581643268
 30
0.0
 11
-18.244605970435941
 21
176.9550581643268
 31
0.0
  0
LINE
  8
DETAIL
  6
CONTINUOUS
 62
     5
 10
-18.244605970435941
 20
176.9550581643268
 30
0.0
 11
-18.220121971148501
 21
177.00490271100861
 31
0.0
  0
LINE
  8
DETAIL
  6
CONTINUOUS
 62
     5
 10
-18.220121971148501
 20
177.00490271100861
 30
0.0
 11
-18.19493267923178
 21
177.05453556497579
 31
0.0
  0
LINE
  8
DETAIL
  6
CONTINUOUS
 62
     5
 10
-18.19493267923178
 20
177.05453556497579
 30
0.0
 11
-18.19493267923178
 21
177.05453556497579
 31
0.0
  0
LINE
  8
DETAIL
  6
CONTINUOUS
 62
     5
 10
-18.19493267923178
 20
177.05453556497579
 30
0.0
 11
-18.169139525491911
 21
177.1038043147569
 31
0.0
  0
LINE
  8
DETAIL
  6
CONTINUOUS
 62
     5
 10
-18.169139525491911
 20
177.1038043147569
 30
0.0
 11
-18.142706033205169
 21
177.15268174240569
 31
0.0
  0
LINE
  8
DETAIL
  6
CONTINUOUS
 62
     5
 10
-18.142706033205169
 20
177.15268174240569
 30
0.0
 11
-18.142706033205169
 21
177.15268174240569
 31
0.0
  0
LINE
  8
DETAIL
  6
CONTINUOUS
 62
     5
 10
-18.142706033205169
 20
177.15268174240569
 30
0.0
 11
-18.11563234871187
 21
177.20120351842621
 31
0.0
  0
LINE
  8
DETAIL
  6
CONTINUOUS
 62
     5
 10
-18.11563234871187
 20
177.20120351842621
 30
0.0
 11
-18.08820301814205
 21
177.24953167359811
 31
0.0
  0
LINE
  8
DETAIL
  6
CONTINUOUS
 62
     5
 10
-18.08820301814205
 20
174.35721818617219
 30
0.0
 11
-18.115624450464338
 21
174.40553216880329
 31
0.0
  0
LINE
  8
DETAIL
  6
CONTINUOUS
 62
     5
 10
-18.115624450464338
 20
174.40553216880329
 30
0.0
 11
-18.142690473430999
 21
174.45403971482691
 31
0.0
  0
LINE
  8
DETAIL
  6
CONTINUOUS
 62
     5
 10
-18.142690473430999
 20
174.45403971482691
 30
0.0
 11
-18.142690473430999
 21
174.45403971482691
 31
0.0
  0
LINE
  8
DETAIL
  6
CONTINUOUS
 62
     5
 10
-18.142690473430999
 20
174.45403971482691
 30
0.0
 11
-18.169116712935651
 21
174.50290275279301
 31
0.0
  0
LINE
  8
DETAIL
  6
CONTINUOUS
 62
     5
 10
-18.169116712935651
 20
174.50290275279301
 30
0.0
 11
-18.194902935872509
 21
174.55215667188389
 31
0.0
  0
LINE
  8
DETAIL
  6
CONTINUOUS
 62
     5
 10
-18.194902935872509
 20
174.55215667188389
 30
0.0
 11
-18.194902935872509
 21
174.55215667188389
 31
0.0
  0
LINE
  8
DETAIL
  6
CONTINUOUS
 62
     5
 10
-18.194902935872509
 20
174.55215667188389
 30
0.0
 11
-18.22008558818084
 21
174.60177421247201
 31
0.0
  0
LINE
  8
DETAIL
  6
CONTINUOUS
 62
     5
 10
-18.22008558818084
 20
174.60177421247201
 30
0.0
 11
-18.24456369097868
 21
174.65160405905451
 31
0.0
  0
LINE
  8
DETAIL
  6
CONTINUOUS
 62
     5
 10
-18.24456369097868
 20
174.65160405905451
 30
0.0
 11
-18.24456369097868
 21
174.65160405905451
 31
0.0
  0
LINE
  8
DETAIL
  6
CONTINUOUS
 62
     5
 10
-18.24456369097868
 20
174.65160405905451
 30
0.0
 11
-18.268268298750289
 21
174.70161957287669
 31
0.0
  0
LINE
  8
DETAIL
  6
CONTINUOUS
 62
     5
 10
-18.268268298750289
 20
174.70161957287669
 30
0.0
 11
-18.291396024260852
 21
174.75241687804959
 31
0.0
  0
LINE
  8
DETAIL
  6
CONTINUOUS
 62
     5
 10
-18.291396024260852
 20
174.75241687804959
 30
0.0
 11
-18.291396024260852
 21
174.75241687804959
 31
0.0
  0
LINE
  8
DETAIL
  6
CONTINUOUS
 62
     5
 10
-18.291396024260852
 20
174.75241687804959
 30
0.0
 11
-18.313978667769451
 21
174.8041560405031
 31
0.0
  0
LINE
  8
DETAIL
  6
CONTINUOUS
 62
     5
 10
-18.313978667769451
 20
174.8041560405031
 30
0.0
 11
-18.33512322123136
 21
174.85463013058029
 31
0.0
  0
LINE
  8
DETAIL
  6
CONTINUOUS
 62
     5
 10
-18.33512322123136
 20
174.85463013058029
 30
0.0
 11
-18.33512322123136
 21
174.85463013058029
 31
0.0
  0
LINE
  8
DETAIL
  6
CONTINUOUS
 62
     5
 10
-18.33512322123136
 20
174.85463013058029
 30
0.0
 11
-18.354085307364471
 21
174.901965369191
 31
0.0
  0
LINE
  8
DETAIL
  6
CONTINUOUS
 62
     5
 10
-18.354085307364471
 20
174.901965369191
 30
0.0
 11
-18.371639880244519
 21
174.9479875750973
 31
0.0
  0
LINE
  8
DETAIL
  6
CONTINUOUS
 62
     5
 10
-18.371639880244519
 20
174.9479875750973
 30
0.0
 11
-18.371639880244519
 21
174.9479875750973
 31
0.0
  0
LINE
  8
DETAIL
  6
CONTINUOUS
 62
     5
 10
-18.371639880244519
 20
174.9479875750973
 30
0.0
 11
-18.388691521080201
 21
174.9948694265058
 31
0.0
  0
LINE
  8
DETAIL
  6
CONTINUOUS
 62
     5
 10
-18.388691521080201
 20
174.9948694265058
 30
0.0
 11
-18.405143988254959
 21
175.04247144154749
 31
0.0
  0
LINE
  8
DETAIL
  6
CONTINUOUS
 62
     5
 10
-18.405143988254959
 20
175.04247144154749
 30
0.0
 11
-18.405143988254959
 21
175.04247144154749
 31
0.0
  0
LINE
  8
DETAIL
  6
CONTINUOUS
 62
     5
 10
-18.405143988254959
 20
175.04247144154749
 30
0.0
 11
-18.42071401664521
 21
175.09021057947459
 31
0.0
  0
LINE
  8
DETAIL
  6
CONTINUOUS
 62
     5
 10
-18.42071401664521
 20
175.09021057947459
 30
0.0
 11
-18.435371069921299
 21
175.13804172410141
 31
0.0
  0
LINE
  8
DETAIL
  6
CONTINUOUS
 62
     5
 10
-18.435371069921299
 20
175.13804172410141
 30
0.0
 11
-18.435371069921299
 21
175.13804172410141
 31
0.0
  0
LINE
  8
DETAIL
  6
CONTINUOUS
 62
     5
 10
-18.435371069921299
 20
175.13804172410141
 30
0.0
 11
-18.449145270864509
 21
175.186094355839
 31
0.0
  0
LINE
  8
DETAIL
  6
CONTINUOUS
 62
     5
 10
-18.449145270864509
 20
175.186094355839
 30
0.0
 11
-18.462056649902589
 21
175.2346584169284
 31
0.0
  0
LINE
  8
DETAIL
  6
CONTINUOUS
 62
     5
 10
-18.462056649902589
 20
175.2346584169284
 30
0.0
 11
-18.462056649902589
 21
175.2346584169284
 31
0.0
  0
LINE
  8
DETAIL
  6
CONTINUOUS
 62
     5
 10
-18.462056649902589
 20
175.2346584169284
 30
0.0
 11
-18.47406962453022
 21
175.28376902209791
 31
0.0
  0
LINE
  8
DETAIL
  6
CONTINUOUS
 62
     5
 10
-18.47406962453022
 20
175.28376902209791
 30
0.0
 11
-18.48493625285732
 21
175.33228151419891
 31
0.0
  0
LINE
  8
DETAIL
  6
CONTINUOUS
 62
     5
 10
-18.48493625285732
 20
175.33228151419891
 30
0.0
 11
-18.48493625285732
 21
175.33228151419891
 31
0.0
  0
LINE
  8
DETAIL
  6
CONTINUOUS
 62
     5
 10
-18.48493625285732
 20
175.33228151419891
 30
0.0
 11
-18.49446014265072
 21
175.37923036496571
 31
0.0
  0
LINE
  8
DETAIL
  6
CONTINUOUS
 62
     5
 10
-18.49446014265072
 20
175.37923036496571
 30
0.0
 11
-18.50286345968459
 21
175.4255463335405
 31
0.0
  0
LINE
  8
DETAIL
  6
CONTINUOUS
 62
     5
 10
-18.50286345968459
 20
175.4255463335405
 30
0.0
 11
-18.50286345968459
 21
175.4255463335405
 31
0.0
  0
LINE
  8
DETAIL
  6
CONTINUOUS
 62
     5
 10
-18.50286345968459
 20
175.4255463335405
 30
0.0
 11
-18.510398688044571
 21
175.47233219525111
 31
0.0
  0
LINE
  8
DETAIL
  6
CONTINUOUS
 62
     5
 10
-18.510398688044571
 20
175.47233219525111
 30
0.0
 11
-18.517021027050991
 21
175.51948250276061
 31
0.0
  0
LINE
  8
DETAIL
  6
CONTINUOUS
 62
     5
 10
-18.517021027050991
 20
175.51948250276061
 30
0.0
 11
-18.517021027050991
 21
175.51948250276061
 31
0.0
  0
LINE
  8
DETAIL
  6
CONTINUOUS
 62
     5
 10
-18.517021027050991
 20
175.51948250276061
 30
0.0
 11
-18.522640775258989
 21
175.56667089815889
 31
0.0
  0
LINE
  8
DETAIL
  6
CONTINUOUS
 62
     5
 10
-18.522640775258989
 20
175.56667089815889
 30
0.0
 11
-18.527285912924409
 21
175.61389560391069
 31
0.0
  0
LINE
  8
DETAIL
  6
CONTINUOUS
 62
     5
 10
-18.527285912924409
 20
175.61389560391069
 30
0.0
 11
-18.527285912924409
 21
175.61389560391069
 31
0.0
  0
LINE
  8
DETAIL
  6
CONTINUOUS
 62
     5
 10
-18.527285912924409
 20
175.61389560391069
 30
0.0
 11
-18.530970480218119
 21
175.66121346286559
 31
0.0
  0
LINE
  8
DETAIL
  6
CONTINUOUS
 62
     5
 10
-18.530970480218119
 20
175.66121346286559
 30
0.0
 11
-18.533535075271971
 21
175.70859121904351
 31
0.0
  0
LINE
  8
DETAIL
  6
CONTINUOUS
 62
     5
 10
-18.533535075271971
 20
175.70859121904351
 30
0.0
 11
-18.533535075271971
 21
175.70859121904351
 31
0.0
  0
LINE
  8
DETAIL
  6
CONTINUOUS
 62
     5
 10
-18.533535075271971
 20
175.70859121904351
 30
0.0
 11
-18.53492095732145
 21
175.75598204549311
 31
0.0
  0
LINE
  8
DETAIL
  6
CONTINUOUS
 62
     5
 10
-18.53492095732145
 20
175.75598204549311
 30
0.0
 11
-18.535645472061901
 21
175.80337493021059
 31
0.0
  0
LINE
  8
DETAIL
  6
CONTINUOUS
 62
     5
 10
-18.08820301814205
 20
-208.4221774420339
 30
0.0
 11
-18.104788457636001
 21
-208.39315559212289
 31
0.0
  0
LINE
  8
DETAIL
  6
CONTINUOUS
 62
     5
 10
-18.104788457636001
 20
-208.39315559212289
 30
0.0
 11
-18.121252257936021
 21
-208.36406072862471
 31
0.0
  0
LINE
  8
DETAIL
  6
CONTINUOUS
 62
     5
 10
-18.121252257936021
 20
-208.36406072862471
 30
0.0
 11
-18.121252257936021
 21
-208.36406072862471
 31
0.0
  0
LINE
  8
DETAIL
  6
CONTINUOUS
 62
     5
 10
-18.121252257936021
 20
-208.36406072862471
 30
0.0
 11
-18.137496407750291
 21
-208.3348348323625
 31
0.0
  0
LINE
  8
DETAIL
  6
CONTINUOUS
 62
     5
 10
-18.137496407750291
 20
-208.3348348323625
 30
0.0
 11
-18.15351740740175
 21
-208.30547986180241
 31
0.0
  0
LINE
  8
DETAIL
  6
CONTINUOUS
 62
     5
 10
-18.15351740740175
 20
-208.30547986180241
 30
0.0
 11
-18.15351740740175
 21
-208.30547986180241
 31
0.0
  0
LINE
  8
DETAIL
  6
CONTINUOUS
 62
     5
 10
-18.15351740740175
 20
-208.30547986180241
 30
0.0
 11
-18.169331344972651
 21
-208.2760098576409
 31
0.0
  0
LINE
  8
DETAIL
  6
CONTINUOUS
 62
     5
 10
-18.169331344972651
 20
-208.2760098576409
 30
0.0
 11
-18.184938147975689
 21
-208.2464272118506
 31
0.0
  0
LINE
  8
DETAIL
  6
CONTINUOUS
 62
     5
 10
-18.184938147975689
 20
-208.2464272118506
 30
0.0
 11
-18.184938147975689
 21
-208.2464272118506
 31
0.0
  0
LINE
  8
DETAIL
  6
CONTINUOUS
 62
     5
 10
-18.184938147975689
 20
-208.2464272118506
 30
0.0
 11
-18.200326236448628
 21
-208.21672805853589
 31
0.0
  0
LINE
  8
DETAIL
  6
CONTINUOUS
 62
     5
 10
-18.200326236448628
 20
-208.21672805853589
 30
0.0
 11
-18.215454161094161
 21
-208.18689514905199
 31
0.0
  0
LINE
  8
DETAIL
  6
CONTINUOUS
 62
     5
 10
-18.215454161094161
 20
-208.18689514905199
 30
0.0
 11
-18.215454161094161
 21
-208.18689514905199
 31
0.0
  0
LINE
  8
DETAIL
  6
CONTINUOUS
 62
     5
 10
-18.215454161094161
 20
-208.18689514905199
 30
0.0
 11
-18.23030691475844
 21
-208.15692418399661
 31
0.0
  0
LINE
  8
DETAIL
  6
CONTINUOUS
 62
     5
 10
-18.23030691475844
 20
-208.15692418399661
 30
0.0
 11
-18.245005128193839
 21
-208.1268760436902
 31
0.0
  0
LINE
  8
DETAIL
  6
CONTINUOUS
 62
     5
 10
-18.535645472061901
 20
-211.31449092880911
 30
0.0
 11
-18.534915318340271
 21
-211.21876477054201
 31
0.0
  0
LINE
  8
DETAIL
  6
CONTINUOUS
 62
     5
 10
-18.534915318340271
 20
-211.21876477054201
 30
0.0
 11
-18.53351413578719
 21
-211.12303988071281
 31
0.0
  0
LINE
  8
DETAIL
  6
CONTINUOUS
 62
     5
 10
-18.53351413578719
 20
-211.12303988071281
 30
0.0
 11
-18.53351413578719
 21
-211.12303988071281
 31
0.0
  0
LINE
  8
DETAIL
  6
CONTINUOUS
 62
     5
 10
-18.53351413578719
 20
-211.12303988071281
 30
0.0
 11
-18.530914665682989
 21
-211.02732169670671
 31
0.0
  0
LINE
  8
DETAIL
  6
CONTINUOUS
 62
     5
 10
-18.530914665682989
 20
-211.02732169670671
 30
0.0
 11
-18.52716472975715
 21
-210.93163233169699
 31
0.0
  0
LINE
  8
DETAIL
  6
CONTINUOUS
 62
     5
 10
-18.52716472975715
 20
-210.93163233169699
 30
0.0
 11
-18.52716472975715
 21
-210.93163233169699
 31
0.0
  0
LINE
  8
DETAIL
  6
CONTINUOUS
 62
     5
 10
-18.52716472975715
 20
-210.93163233169699
 30
0.0
 11
-18.52241646114658
 21
-210.83598913885811
 31
0.0
  0
LINE
  8
DETAIL
  6
CONTINUOUS
 62
     5
 10
-18.52241646114658
 20
-210.83598913885811
 30
0.0
 11
-18.51666415816419
 21
-210.7403737555808
 31
0.0
  0
LINE
  8
DETAIL
  6
CONTINUOUS
 62
     5
 10
-18.51666415816419
 20
-210.7403737555808
 30
0.0
 11
-18.51666415816419
 21
-210.7403737555808
 31
0.0
  0
LINE
  8
DETAIL
  6
CONTINUOUS
 62
     5
 10
-18.51666415816419
 20
-210.7403737555808
 30
0.0
 11
-18.50987672512861
 21
-210.64479043714559
 31
0.0
  0
LINE
  8
DETAIL
  6
CONTINUOUS
 62
     5
 10
-18.50987672512861
 20
-210.64479043714559
 30
0.0
 11
-18.50207932519913
 21
-210.54936962618279
 31
0.0
  0
LINE
  8
DETAIL
  6
CONTINUOUS
 62
     5
 10
-18.50207932519913
 20
-210.54936962618279
 30
0.0
 11
-18.50207932519913
 21
-210.54936962618279
 31
0.0
  0
LINE
  8
DETAIL
  6
CONTINUOUS
 62
     5
 10
-18.50207932519913
 20
-210.54936962618279
 30
0.0
 11
-18.49329438610971
 21
-210.45415605375609
 31
0.0
  0
LINE
  8
DETAIL
  6
CONTINUOUS
 62
     5
 10
-18.49329438610971
 20
-210.45415605375609
 30
0.0
 11
-18.483477135054159
 21
-210.35872541732229
 31
0.0
  0
LINE
  8
DETAIL
  6
CONTINUOUS
 62
     5
 10
-18.483477135054159
 20
-210.35872541732229
 30
0.0
 11
-18.483477135054159
 21
-210.35872541732229
 31
0.0
  0
LINE
  8
DETAIL
  6
CONTINUOUS
 62
     5
 10
-18.483477135054159
 20
-210.35872541732229
 30
0.0
 11
-18.472588227836582
 21
-210.26271851085889
 31
0.0
  0
LINE
  8
DETAIL
  6
CONTINUOUS
 62
     5
 10
-18.472588227836582
 20
-210.26271851085889
 30
0.0
 11
-18.460677235243789
 21
-210.16650554803351
 31
0.0
  0
LINE
  8
DETAIL
  6
CONTINUOUS
 62
     5
 10
-18.460677235243789
 20
-210.16650554803351
 30
0.0
 11
-18.460677235243789
 21
-210.16650554803351
 31
0.0
  0
LINE
  8
DETAIL
  6
CONTINUOUS
 62
     5
 10
-18.460677235243789
 20
-210.16650554803351
 30
0.0
 11
-18.44780647109576
 21
-210.07053035101239
 31
0.0
  0
LINE
  8
DETAIL
  6
CONTINUOUS
 62
     5
 10
-18.44780647109576
 20
-210.07053035101239
 30
0.0
 11
-18.434000306359739
 21
-209.97480175626509
 31
0.0
  0
LINE
  8
DETAIL
  6
CONTINUOUS
 62
     5
 10
-18.434000306359739
 20
-209.97480175626509
 30
0.0
 11
-18.434000306359739
 21
-209.97480175626509
 31
0.0
  0
LINE
  8
DETAIL
  6
CONTINUOUS
 62
     5
 10
-18.434000306359739
 20
-209.97480175626509
 30
0.0
 11
-18.419269045073289
 21
-209.8792161026152
 31
0.0
  0
LINE
  8
DETAIL
  6
CONTINUOUS
 62
     5
 10
-18.419269045073289
 20
-209.8792161026152
 30
0.0
 11
-18.403604666402661
 21
-209.78365472399221
 31
0.0
  0
LINE
  8
DETAIL
  6
CONTINUOUS
 62
     5
 10
-18.403604666402661
 20
-209.78365472399221
 30
0.0
 11
-18.403604666402661
 21
-209.78365472399221
 31
0.0
  0
LINE
  8
DETAIL
  6
CONTINUOUS
 62
     5
 10
-18.403604666402661
 20
-209.78365472399221
 30
0.0
 11
-18.38702237888026
 21
-209.68811895441959
 31
0.0
  0
LINE
  8
DETAIL
  6
CONTINUOUS
 62
     5
 10
-18.38702237888026
 20
-209.68811895441959
 30
0.0
 11
-18.36964863337278
 21
-209.59310513318911
 31
0.0
  0
LINE
  8
DETAIL
  6
CONTINUOUS
 62
     5
 10
-18.36964863337278
 20
-209.59310513318911
 30
0.0
 11
-18.36964863337278
 21
-209.59310513318911
 31
0.0
  0
LINE
  8
DETAIL
  6
CONTINUOUS
 62
     5
 10
-18.36964863337278
 20
-209.59310513318911
 30
0.0
 11
-18.351531030214009
 21
-209.49874209686431
 31
0.0
  0
LINE
  8
DETAIL
  6
CONTINUOUS
 62
     5
 10
-18.351531030214009
 20
-209.49874209686431
 30
0.0
 11
-18.332290525270992
 21
-209.4031936658304
 31
0.0
  0
LINE
  8
DETAIL
  6
CONTINUOUS
 62
     5
 10
-18.332290525270992
 20
-209.4031936658304
 30
0.0
 11
-18.332290525270992
 21
-209.4031936658304
 31
0.0
  0
LINE
  8
DETAIL
  6
CONTINUOUS
 62
     5
 10
-18.332290525270992
 20
-209.4031936658304
 30
0.0
 11
-18.31160301600676
 21
-209.3049112266792
 31
0.0
  0
LINE
  8
DETAIL
  6
CONTINUOUS
 62
     5
 10
-18.31160301600676
 20
-209.3049112266792
 30
0.0
 11
-18.289790810739309
 21
-209.2054614470093
 31
0.0
  0
LINE
  8
DETAIL
  6
CONTINUOUS
 62
     5
 10
-18.289790810739309
 20
-209.2054614470093
 30
0.0
 11
-18.289790810739309
 21
-209.2054614470093
 31
0.0
  0
LINE
  8
DETAIL
  6
CONTINUOUS
 62
     5
 10
-18.289790810739309
 20
-209.2054614470093
 30
0.0
 11
-18.267239402098429
 21
-209.1066948485803
 31
0.0
  0
LINE
  8
DETAIL
  6
CONTINUOUS
 62
     5
 10
-18.267239402098429
 20
-209.1066948485803
 30
0.0
 11
-18.243940609110268
 21
-209.0084820887925
 31
0.0
  0
LINE
  8
DETAIL
  6
CONTINUOUS
 62
     5
 10
-18.243940609110268
 20
-209.0084820887925
 30
0.0
 11
-18.243940609110268
 21
-209.0084820887925
 31
0.0
  0
LINE
  8
DETAIL
  6
CONTINUOUS
 62
     5
 10
-18.243940609110268
 20
-209.0084820887925
 30
0.0
 11
-18.219819962580569
 21
-208.91032965485991
 31
0.0
  0
LINE
  8
DETAIL
  6
CONTINUOUS
 62
     5
 10
-18.219819962580569
 20
-208.91032965485991
 30
0.0
 11
-18.194931514034241
 21
-208.8122672176068
 31
0.0
  0
LINE
  8
DETAIL
  6
CONTINUOUS
 62
     5
 10
-18.194931514034241
 20
-208.8122672176068
 30
0.0
 11
-18.194931514034241
 21
-208.8122672176068
 31
0.0
  0
LINE
  8
DETAIL
  6
CONTINUOUS
 62
     5
 10
-18.194931514034241
 20
-208.8122672176068
 30
0.0
 11
-18.16933134285739
 21
-208.71442702623949
 31
0.0
  0
LINE
  8
DETAIL
  6
CONTINUOUS
 62
     5
 10
-18.16933134285739
 20
-208.71442702623949
 30
0.0
 11
-18.14295511916146
 21
-208.61682845987829
 31
0.0
  0
LINE
  8
DETAIL
  6
CONTINUOUS
 62
     5
 10
-18.14295511916146
 20
-208.61682845987829
 30
0.0
 11
-18.14295511916146
 21
-208.61682845987829
 31
0.0
  0
LINE
  8
DETAIL
  6
CONTINUOUS
 62
     5
 10
-18.14295511916146
 20
-208.61682845987829
 30
0.0
 11
-18.11579668983347
 21
-208.5194447543048
 31
0.0
  0
LINE
  8
DETAIL
  6
CONTINUOUS
 62
     5
 10
-18.11579668983347
 20
-208.5194447543048
 30
0.0
 11
-18.08820301814205
 21
-208.4221774420339
 31
0.0
  0
LINE
  8
DETAIL
  6
CONTINUOUS
 62
     5
 10
-18.08820301814205
 20
-214.2068044168856
 30
0.0
 11
-18.116073464320149
 21
-214.10854355073911
 31
0.0
  0
LINE
  8
DETAIL
  6
CONTINUOUS
 62
     5
 10
-18.116073464320149
 20
-214.10854355073911
 30
0.0
 11
-18.143499191714451
 21
-214.01016571474241
 31
0.0
  0
LINE
  8
DETAIL
  6
CONTINUOUS
 62
     5
 10
-18.143499191714451
 20
-214.01016571474241
 30
0.0
 11
-18.143499191714451
 21
-214.01016571474241
 31
0.0
  0
LINE
  8
DETAIL
  6
CONTINUOUS
 62
     5
 10
-18.143499191714451
 20
-214.01016571474241
 30
0.0
 11
-18.17012591374953
 21
-213.91157036260131
 31
0.0
  0
LINE
  8
DETAIL
  6
CONTINUOUS
 62
     5
 10
-18.17012591374953
 20
-213.91157036260131
 30
0.0
 11
-18.195961072685918
 21
-213.81272264224461
 31
0.0
  0
LINE
  8
DETAIL
  6
CONTINUOUS
 62
     5
 10
-18.195961072685918
 20
-213.81272264224461
 30
0.0
 11
-18.195961072685918
 21
-213.81272264224461
 31
0.0
  0
LINE
  8
DETAIL
  6
CONTINUOUS
 62
     5
 10
-18.195961072685918
 20
-213.81272264224461
 30
0.0
 11
-18.221070387428991
 21
-213.71364051684481
 31
0.0
  0
LINE
  8
DETAIL
  6
CONTINUOUS
 62
     5
 10
-18.221070387428991
 20
-213.71364051684481
 30
0.0
 11
-18.245390954631379
 21
-213.61448751632881
 31
0.0
  0
LINE
  8
DETAIL
  6
CONTINUOUS
 62
     5
 10
-18.245390954631379
 20
-213.61448751632881
 30
0.0
 11
-18.245390954631379
 21
-213.61448751632881
 31
0.0
  0
LINE
  8
DETAIL
  6
CONTINUOUS
 62
     5
 10
-18.245390954631379
 20
-213.61448751632881
 30
0.0
 11
-18.26886590542631
 21
-213.5153015720017
 31
0.0
  0
LINE
  8
DETAIL
  6
CONTINUOUS
 62
     5
 10
-18.26886590542631
 20
-213.5153015720017
 30
0.0
 11
-18.291591131125411
 21
-213.41547265393069
 31
0.0
  0
LINE
  8
DETAIL
  6
CONTINUOUS
 62
     5
 10
-18.291591131125411
 20
-213.41547265393069
 30
0.0
 11
-18.291591131125411
 21
-213.41547265393069
 31
0.0
  0
LINE
  8
DETAIL
  6
CONTINUOUS
 62
     5
 10
-18.291591131125411
 20
-213.41547265393069
 30
0.0
 11
-18.31358010846952
 21
-213.31484031142341
 31
0.0
  0
LINE
  8
DETAIL
  6
CONTINUOUS
 62
     5
 10
-18.31358010846952
 20
-213.31484031142341
 30
0.0
 11
-18.33436389574376
 21
-213.21569037198731
 31
0.0
  0
LINE
  8
DETAIL
  6
CONTINUOUS
 62
     5
 10
-18.33436389574376
 20
-213.21569037198731
 30
0.0
 11
-18.33436389574376
 21
-213.21569037198731
 31
0.0
  0
LINE
  8
DETAIL
  6
CONTINUOUS
 62
     5
 10
-18.33436389574376
 20
-213.21569037198731
 30
0.0
 11
-18.35355154183981
 21
-213.11995822430879
 31
0.0
  0
LINE
  8
DETAIL
  6
CONTINUOUS
 62
     5
 10
-18.35355154183981
 20
-213.11995822430879
 30
0.0
 11
-18.37154647653449
 21
-213.02573122358649
 31
0.0
  0
LINE
  8
DETAIL
  6
CONTINUOUS
 62
     5
 10
-18.37154647653449
 20
-213.02573122358649
 30
0.0
 11
-18.37154647653449
 21
-213.02573122358649
 31
0.0
  0
LINE
  8
DETAIL
  6
CONTINUOUS
 62
     5
 10
-18.37154647653449
 20
-213.02573122358649
 30
0.0
 11
-18.388819657514549
 21
-212.93073993646161
 31
0.0
  0
LINE
  8
DETAIL
  6
CONTINUOUS
 62
     5
 10
-18.388819657514549
 20
-212.93073993646161
 30
0.0
 11
-18.405317773219618
 21
-212.83513580882661
 31
0.0
  0
LINE
  8
DETAIL
  6
CONTINUOUS
 62
     5
 10
-18.405317773219618
 20
-212.83513580882661
 30
0.0
 11
-18.405317773219618
 21
-212.83513580882661
 31
0.0
  0
LINE
  8
DETAIL
  6
CONTINUOUS
 62
     5
 10
-18.405317773219618
 20
-212.83513580882661
 30
0.0
 11
-18.42089004256832
 21
-212.73952924106189
 31
0.0
  0
LINE
  8
DETAIL
  6
CONTINUOUS
 62
     5
 10
-18.42089004256832
 20
-212.73952924106189
 30
0.0
 11
-18.43552007563358
 21
-212.6439455722446
 31
0.0
  0
LINE
  8
DETAIL
  6
CONTINUOUS
 62
     5
 10
-18.43552007563358
 20
-212.6439455722446
 30
0.0
 11
-18.43552007563358
 21
-212.6439455722446
 31
0.0
  0
LINE
  8
DETAIL
  6
CONTINUOUS
 62
     5
 10
-18.43552007563358
 20
-212.6439455722446
 30
0.0
 11
-18.449221756433641
 21
-212.54824371761609
 31
0.0
  0
LINE
  8
DETAIL
  6
CONTINUOUS
 62
     5
 10
-18.449221756433641
 20
-212.54824371761609
 30
0.0
 11
-18.461995673612709
 21
-212.45220195837749
 31
0.0
  0
LINE
  8
DETAIL
  6
CONTINUOUS
 62
     5
 10
-18.461995673612709
 20
-212.45220195837749
 30
0.0
 11
-18.461995673612709
 21
-212.45220195837749
 31
0.0
  0
LINE
  8
DETAIL
  6
CONTINUOUS
 62
     5
 10
-18.461995673612709
 20
-212.45220195837749
 30
0.0
 11
-18.473818789556159
 21
-212.35580531658539
 31
0.0
  0
LINE
  8
DETAIL
  6
CONTINUOUS
 62
     5
 10
-18.473818789556159
 20
-212.35580531658539
 30
0.0
 11
-18.484586856991651
 21
-212.25994641176229
 31
0.0
  0
LINE
  8
DETAIL
  6
CONTINUOUS
 62
     5
 10
-18.484586856991651
 20
-212.25994641176229
 30
0.0
 11
-18.484586856991651
 21
-212.25994641176229
 31
0.0
  0
LINE
  8
DETAIL
  6
CONTINUOUS
 62
     5
 10
-18.484586856991651
 20
-212.25994641176229
 30
0.0
 11
-18.49421754179934
 21
-212.1653732856895
 31
0.0
  0
LINE
  8
DETAIL
  6
CONTINUOUS
 62
     5
 10
-18.49421754179934
 20
-212.1653732856895
 30
0.0
 11
-18.502797372128949
 21
-212.07134807172
 31
0.0
  0
LINE
  8
DETAIL
  6
CONTINUOUS
 62
     5
 10
-18.502797372128949
 20
-212.07134807172
 30
0.0
 11
-18.502797372128949
 21
-212.07134807172
 31
0.0
  0
LINE
  8
DETAIL
  6
CONTINUOUS
 62
     5
 10
-18.502797372128949
 20
-212.07134807172
 30
0.0
 11
-18.51042421870045
 21
-211.97699857933051
 31
0.0
  0
LINE
  8
DETAIL
  6
CONTINUOUS
 62
     5
 10
-18.51042421870045
 20
-211.97699857933051
 30
0.0
 11
-18.517072460243071
 21
-211.88240123092271
 31
0.0
  0
LINE
  8
DETAIL
  6
CONTINUOUS
 62
     5
 10
-18.517072460243071
 20
-211.88240123092271
 30
0.0
 11
-18.517072460243071
 21
-211.88240123092271
 31
0.0
  0
LINE
  8
DETAIL
  6
CONTINUOUS
 62
     5
 10
-18.517072460243071
 20
-211.88240123092271
 30
0.0
 11
-18.522703227629901
 21
-211.78780594503749
 31
0.0
  0
LINE
  8
DETAIL
  6
CONTINUOUS
 62
     5
 10
-18.522703227629901
 20
-211.78780594503749
 30
0.0
 11
-18.5273481522953
 21
-211.69320801185111
 31
0.0
  0
LINE
  8
DETAIL
  6
CONTINUOUS
 62
     5
 10
-18.5273481522953
 20
-211.69320801185111
 30
0.0
 11
-18.5273481522953
 21
-211.69320801185111
 31
0.0
  0
LINE
  8
DETAIL
  6
CONTINUOUS
 62
     5
 10
-18.5273481522953
 20
-211.69320801185111
 30
0.0
 11
-18.53101686324942
 21
-211.59855653958229
 31
0.0
  0
LINE
  8
DETAIL
  6
CONTINUOUS
 62
     5
 10
-18.53101686324942
 20
-211.59855653958229
 30
0.0
 11
-18.533560479247509
 21
-211.50387053698631
 31
0.0
  0
LINE
  8
DETAIL
  6
CONTINUOUS
 62
     5
 10
-18.533560479247509
 20
-211.50387053698631
 30
0.0
 11
-18.533560479247509
 21
-211.50387053698631
 31
0.0
  0
LINE
  8
DETAIL
  6
CONTINUOUS
 62
     5
 10
-18.533560479247509
 20
-211.50387053698631
 30
0.0
 11
-18.534931376595981
 21
-211.4091802445071
 31
0.0
  0
LINE
  8
DETAIL
  6
CONTINUOUS
 62
     5
 10
-18.534931376595981
 20
-211.4091802445071
 30
0.0
 11
-18.535645472061901
 21
-211.31449092880911
 31
0.0
  0
LINE
  8
DETAIL
  6
CONTINUOUS
 62
     5
 10
-18.535645472061901
 20
-215.65296116027309
 30
0.0
 11
-18.534920784459018
 21
-215.6055629545545
 31
0.0
  0
LINE
  8
DETAIL
  6
CONTINUOUS
 62
     5
 10
-18.534920784459018
 20
-215.6055629545545
 30
0.0
 11
-18.533534593754439
 21
-215.5581668627016
 31
0.0
  0
LINE
  8
DETAIL
  6
CONTINUOUS
 62
     5
 10
-18.533534593754439
 20
-215.5581668627016
 30
0.0
 11
-18.533534593754439
 21
-215.5581668627016
 31
0.0
  0
LINE
  8
DETAIL
  6
CONTINUOUS
 62
     5
 10
-18.533534593754439
 20
-215.5581668627016
 30
0.0
 11
-18.53096943857906
 21
-215.5107838997645
 31
0.0
  0
LINE
  8
DETAIL
  6
CONTINUOUS
 62
     5
 10
-18.53096943857906
 20
-215.5107838997645
 30
0.0
 11
-18.527284024500549
 21
-215.4634606855308
 31
0.0
  0
LINE
  8
DETAIL
  6
CONTINUOUS
 62
     5
 10
-18.527284024500549
 20
-215.4634606855308
 30
0.0
 11
-18.527284024500549
 21
-215.4634606855308
 31
0.0
  0
LINE
  8
DETAIL
  6
CONTINUOUS
 62
     5
 10
-18.527284024500549
 20
-215.4634606855308
 30
0.0
 11
-18.522637780565109
 21
-215.4162304321712
 31
0.0
  0
LINE
  8
DETAIL
  6
CONTINUOUS
 62
     5
 10
-18.522637780565109
 20
-215.4162304321712
 30
0.0
 11
-18.517016862803189
 21
-215.36903711665491
 31
0.0
  0
LINE
  8
DETAIL
  6
CONTINUOUS
 62
     5
 10
-18.517016862803189
 20
-215.36903711665491
 30
0.0
 11
-18.517016862803189
 21
-215.36903711665491
 31
0.0
  0
LINE
  8
DETAIL
  6
CONTINUOUS
 62
     5
 10
-18.517016862803189
 20
-215.36903711665491
 30
0.0
 11
-18.510393340273371
 21
-215.32188274116811
 31
0.0
  0
LINE
  8
DETAIL
  6
CONTINUOUS
 62
     5
 10
-18.510393340273371
 20
-215.32188274116811
 30
0.0
 11
-18.502856207165451
 21
-215.27509064396861
 31
0.0
  0
LINE
  8
DETAIL
  6
CONTINUOUS
 62
     5
 10
-18.502856207165451
 20
-215.27509064396861
 30
0.0
 11
-18.502856207165451
 21
-215.27509064396861
 31
0.0
  0
LINE
  8
DETAIL
  6
CONTINUOUS
 62
     5
 10
-18.502856207165451
 20
-215.27509064396861
 30
0.0
 11
-18.49445008207579
 21
-215.22876547006169
 31
0.0
  0
LINE
  8
DETAIL
  6
CONTINUOUS
 62
     5
 10
-18.49445008207579
 20
-215.22876547006169
 30
0.0
 11
-18.484925156090181
 21
-215.1818157553661
 31
0.0
  0
LINE
  8
DETAIL
  6
CONTINUOUS
 62
     5
 10
-18.484925156090181
 20
-215.1818157553661
 30
0.0
 11
-18.484925156090181
 21
-215.1818157553661
 31
0.0
  0
LINE
  8
DETAIL
  6
CONTINUOUS
 62
     5
 10
-18.484925156090181
 20
-215.1818157553661
 30
0.0
 11
-18.47406162610844
 21
-215.13332026172071
 31
0.0
  0
LINE
  8
DETAIL
  6
CONTINUOUS
 62
     5
 10
-18.47406162610844
 20
-215.13332026172071
 30
0.0
 11
-18.46205413979294
 21
-215.08423476373159
 31
0.0
  0
LINE
  8
DETAIL
  6
CONTINUOUS
 62
     5
 10
-18.46205413979294
 20
-215.08423476373159
 30
0.0
 11
-18.46205413979294
 21
-215.08423476373159
 31
0.0
  0
LINE
  8
DETAIL
  6
CONTINUOUS
 62
     5
 10
-18.46205413979294
 20
-215.08423476373159
 30
0.0
 11
-18.4491484684537
 21
-215.03569248031701
 31
0.0
  0
LINE
  8
DETAIL
  6
CONTINUOUS
 62
     5
 10
-18.4491484684537
 20
-215.03569248031701
 30
0.0
 11
-18.435380427225031
 21
-214.9876593948751
 31
0.0
  0
LINE
  8
DETAIL
  6
CONTINUOUS
 62
     5
 10
-18.435380427225031
 20
-214.9876593948751
 30
0.0
 11
-18.435380427225031
 21
-214.9876593948751
 31
0.0
  0
LINE
  8
DETAIL
  6
CONTINUOUS
 62
     5
 10
-18.435380427225031
 20
-214.9876593948751
 30
0.0
 11
-18.420730544980071
 21
-214.93984868951921
 31
0.0
  0
LINE
  8
DETAIL
  6
CONTINUOUS
 62
     5
 10
-18.420730544980071
 20
-214.93984868951921
 30
0.0
 11
-18.405168161719761
 21
-214.89212957673811
 31
0.0
  0
LINE
  8
DETAIL
  6
CONTINUOUS
 62
     5
 10
-18.405168161719761
 20
-214.89212957673811
 30
0.0
 11
-18.405168161719761
 21
-214.89212957673811
 31
0.0
  0
LINE
  8
DETAIL
  6
CONTINUOUS
 62
     5
 10
-18.405168161719761
 20
-214.89212957673811
 30
0.0
 11
-18.388723498142671
 21
-214.84454605511851
 31
0.0
  0
LINE
  8
DETAIL
  6
CONTINUOUS
 62
     5
 10
-18.388723498142671
 20
-214.84454605511851
 30
0.0
 11
-18.371681486610331
 21
-214.79768523726091
 31
0.0
  0
LINE
  8
DETAIL
  6
CONTINUOUS
 62
     5
 10
-18.371681486610331
 20
-214.79768523726091
 30
0.0
 11
-18.371681486610331
 21
-214.79768523726091
 31
0.0
  0
LINE
  8
DETAIL
  6
CONTINUOUS
 62
     5
 10
-18.371681486610331
 20
-214.79768523726091
 30
0.0
 11
-18.354138822954841
 21
-214.75168789266121
 31
0.0
  0
LINE
  8
DETAIL
  6
CONTINUOUS
 62
     5
 10
-18.354138822954841
 20
-214.75168789266121
 30
0.0
 11
-18.335184545229591
 21
-214.70436630438451
 31
0.0
  0
LINE
  8
DETAIL
  6
CONTINUOUS
 62
     5
 10
-18.335184545229591
 20
-214.70436630438451
 30
0.0
 11
-18.335184545229591
 21
-214.70436630438451
 31
0.0
  0
LINE
  8
DETAIL
  6
CONTINUOUS
 62
     5
 10
-18.335184545229591
 20
-214.70436630438451
 30
0.0
 11
-18.31403818692149
 21
-214.65388194435479
 31
0.0
  0
LINE
  8
DETAIL
  6
CONTINUOUS
 62
     5
 10
-18.31403818692149
 20
-214.65388194435479
 30
0.0
 11
-18.291448921030788
 21
-214.60212152636009
 31
0.0
  0
LINE
  8
DETAIL
  6
CONTINUOUS
 62
     5
 10
-18.291448921030788
 20
-214.60212152636009
 30
0.0
 11
-18.291448921030788
 21
-214.60212152636009
 31
0.0
  0
LINE
  8
DETAIL
  6
CONTINUOUS
 62
     5
 10
-18.291448921030788
 20
-214.60212152636009
 30
0.0
 11
-18.268315576988702
 21
-214.55130723866179
 31
0.0
  0
LINE
  8
DETAIL
  6
CONTINUOUS
 62
     5
 10
-18.268315576988702
 20
-214.55130723866179
 30
0.0
 11
-18.244605970435941
 21
-214.50127792554781
 31
0.0
  0
LINE
  8
DETAIL
  6
CONTINUOUS
 62
     5
 10
-18.244605970435941
 20
-214.50127792554781
 30
0.0
 11
-18.244605970435941
 21
-214.50127792554781
 31
0.0
  0
LINE
  8
DETAIL
  6
CONTINUOUS
 62
     5
 10
-18.244605970435941
 20
-214.50127792554781
 30
0.0
 11
-18.220121971148501
 21
-214.4514333789061
 31
0.0
  0
LINE
  8
DETAIL
  6
CONTINUOUS
 62
     5
 10
-18.220121971148501
 20
-214.4514333789061
 30
0.0
 11
-18.19493267923178
 21
-214.40180052499801
 31
0.0
  0
LINE
  8
DETAIL
  6
CONTINUOUS
 62
     5
 10
-18.19493267923178
 20
-214.40180052499801
 30
0.0
 11
-18.19493267923178
 21
-214.40180052499801
 31
0.0
  0
LINE
  8
DETAIL
  6
CONTINUOUS
 62
     5
 10
-18.19493267923178
 20
-214.40180052499801
 30
0.0
 11
-18.169139525491911
 21
-214.35253177529751
 31
0.0
  0
LINE
  8
DETAIL
  6
CONTINUOUS
 62
     5
 10
-18.169139525491911
 20
-214.35253177529751
 30
0.0
 11
-18.142706033205169
 21
-214.3036543477603
 31
0.0
  0
LINE
  8
DETAIL
  6
CONTINUOUS
 62
     5
 10
-18.142706033205169
 20
-214.3036543477603
 30
0.0
 11
-18.142706033205169
 21
-214.3036543477603
 31
0.0
  0
LINE
  8
DETAIL
  6
CONTINUOUS
 62
     5
 10
-18.142706033205169
 20
-214.3036543477603
 30
0.0
 11
-18.11563234871187
 21
-214.25513257188811
 31
0.0
  0
LINE
  8
DETAIL
  6
CONTINUOUS
 62
     5
 10
-18.11563234871187
 20
-214.25513257188811
 30
0.0
 11
-18.08820301814205
 21
-214.2068044168856
 31
0.0
  0
LINE
  8
DETAIL
  6
CONTINUOUS
 62
     5
 10
-18.08820301814205
 20
-217.09911790366101
 30
0.0
 11
-18.115624450464338
 21
-217.05080392102971
 31
0.0
  0
LINE
  8
DETAIL
  6
CONTINUOUS
 62
     5
 10
-18.115624450464338
 20
-217.05080392102971
 30
0.0
 11
-18.142690473430999
 21
-217.0022963750061
 31
0.0
  0
LINE
  8
DETAIL
  6
CONTINUOUS
 62
     5
 10
-18.142690473430999
 20
-217.0022963750061
 30
0.0
 11
-18.142690473430999
 21
-217.0022963750061
 31
0.0
  0
LINE
  8
DETAIL
  6
CONTINUOUS
 62
     5
 10
-18.142690473430999
 20
-217.0022963750061
 30
0.0
 11
-18.169116712935651
 21
-216.95343333703991
 31
0.0
  0
LINE
  8
DETAIL
  6
CONTINUOUS
 62
     5
 10
-18.169116712935651
 20
-216.95343333703991
 30
0.0
 11
-18.194902935872509
 21
-216.90417941794911
 31
0.0
  0
LINE
  8
DETAIL
  6
CONTINUOUS
 62
     5
 10
-18.194902935872509
 20
-216.90417941794911
 30
0.0
 11
-18.194902935872509
 21
-216.90417941794911
 31
0.0
  0
LINE
  8
DETAIL
  6
CONTINUOUS
 62
     5
 10
-18.194902935872509
 20
-216.90417941794911
 30
0.0
 11
-18.22008558818084
 21
-216.85456187736099
 31
0.0
  0
LINE
  8
DETAIL
  6
CONTINUOUS
 62
     5
 10
-18.22008558818084
 20
-216.85456187736099
 30
0.0
 11
-18.24456369097868
 21
-216.80473203077841
 31
0.0
  0
LINE
  8
DETAIL
  6
CONTINUOUS
 62
     5
 10
-18.24456369097868
 20
-216.80473203077841
 30
0.0
 11
-18.24456369097868
 21
-216.80473203077841
 31
0.0
  0
LINE
  8
DETAIL
  6
CONTINUOUS
 62
     5
 10
-18.24456369097868
 20
-216.80473203077841
 30
0.0
 11
-18.268268298750289
 21
-216.75471651695631
 31
0.0
  0
LINE
  8
DETAIL
  6
CONTINUOUS
 62
     5
 10
-18.268268298750289
 20
-216.75471651695631
 30
0.0
 11
-18.291396024260852
 21
-216.70391921178339
 31
0.0
  0
LINE
  8
DETAIL
  6
CONTINUOUS
 62
     5
 10
-18.291396024260852
 20
-216.70391921178339
 30
0.0
 11
-18.291396024260852
 21
-216.70391921178339
 31
0.0
  0
LINE
  8
DETAIL
  6
CONTINUOUS
 62
     5
 10
-18.291396024260852
 20
-216.70391921178339
 30
0.0
 11
-18.313978667769451
 21
-216.65218004932979
 31
0.0
  0
LINE
  8
DETAIL
  6
CONTINUOUS
 62
     5
 10
-18.313978667769451
 20
-216.65218004932979
 30
0.0
 11
-18.33512322123136
 21
-216.6017059592524
 31
0.0
  0
LINE
  8
DETAIL
  6
CONTINUOUS
 62
     5
 10
-18.33512322123136
 20
-216.6017059592524
 30
0.0
 11
-18.33512322123136
 21
-216.6017059592524
 31
0.0
  0
LINE
  8
DETAIL
  6
CONTINUOUS
 62
     5
 10
-18.33512322123136
 20
-216.6017059592524
 30
0.0
 11
-18.354085307364471
 21
-216.554370720642
 31
0.0
  0
LINE
  8
DETAIL
  6
CONTINUOUS
 62
     5
 10
-18.354085307364471
 20
-216.554370720642
 30
0.0
 11
-18.371639880244519
 21
-216.50834851473579
 31
0.0
  0
LINE
  8
DETAIL
  6
CONTINUOUS
 62
     5
 10
-18.371639880244519
 20
-216.50834851473579
 30
0.0
 11
-18.371639880244519
 21
-216.50834851473579
 31
0.0
  0
LINE
  8
DETAIL
  6
CONTINUOUS
 62
     5
 10
-18.371639880244519
 20
-216.50834851473579
 30
0.0
 11
-18.388691521080201
 21
-216.46146666332729
 31
0.0
  0
LINE
  8
DETAIL
  6
CONTINUOUS
 62
     5
 10
-18.388691521080201
 20
-216.46146666332729
 30
0.0
 11
-18.405143988254959
 21
-216.4138646482856
 31
0.0
  0
LINE
  8
DETAIL
  6
CONTINUOUS
 62
     5
 10
-18.405143988254959
 20
-216.4138646482856
 30
0.0
 11
-18.405143988254959
 21
-216.4138646482856
 31
0.0
  0
LINE
  8
DETAIL
  6
CONTINUOUS
 62
     5
 10
-18.405143988254959
 20
-216.4138646482856
 30
0.0
 11
-18.42071401664521
 21
-216.36612551035839
 31
0.0
  0
LINE
  8
DETAIL
  6
CONTINUOUS
 62
     5
 10
-18.42071401664521
 20
-216.36612551035839
 30
0.0
 11
-18.435371069921299
 21
-216.3182943657317
 31
0.0
  0
LINE
  8
DETAIL
  6
CONTINUOUS
 62
     5
 10
-18.435371069921299
 20
-216.3182943657317
 30
0.0
 11
-18.435371069921299
 21
-216.3182943657317
 31
0.0
  0
LINE
  8
DETAIL
  6
CONTINUOUS
 62
     5
 10
-18.435371069921299
 20
-216.3182943657317
 30
0.0
 11
-18.449145270864509
 21
-216.27024173399411
 31
0.0
  0
LINE
  8
DETAIL
  6
CONTINUOUS
 62
     5
 10
-18.449145270864509
 20
-216.27024173399411
 30
0.0
 11
-18.462056649902589
 21
-216.2216776729046
 31
0.0
  0
LINE
  8
DETAIL
  6
CONTINUOUS
 62
     5
 10
-18.462056649902589
 20
-216.2216776729046
 30
0.0
 11
-18.462056649902589
 21
-216.2216776729046
 31
0.0
  0
LINE
  8
DETAIL
  6
CONTINUOUS
 62
     5
 10
-18.462056649902589
 20
-216.2216776729046
 30
0.0
 11
-18.47406962453022
 21
-216.172567067735
 31
0.0
  0
LINE
  8
DETAIL
  6
CONTINUOUS
 62
     5
 10
-18.47406962453022
 20
-216.172567067735
 30
0.0
 11
-18.48493625285732
 21
-216.12405457563409
 31
0.0
  0
LINE
  8
DETAIL
  6
CONTINUOUS
 62
     5
 10
-18.48493625285732
 20
-216.12405457563409
 30
0.0
 11
-18.48493625285732
 21
-216.12405457563409
 31
0.0
  0
LINE
  8
DETAIL
  6
CONTINUOUS
 62
     5
 10
-18.48493625285732
 20
-216.12405457563409
 30
0.0
 11
-18.49446014265072
 21
-216.07710572486789
 31
0.0
  0
LINE
  8
DETAIL
  6
CONTINUOUS
 62
     5
 10
-18.49446014265072
 20
-216.07710572486789
 30
0.0
 11
-18.50286345968459
 21
-216.03078975629759
 31
0.0
  0
LINE
  8
DETAIL
  6
CONTINUOUS
 62
     5
 10
-18.50286345968459
 20
-216.03078975629759
 30
0.0
 11
-18.50286345968459
 21
-216.03078975629759
 31
0.0
  0
LINE
  8
DETAIL
  6
CONTINUOUS
 62
     5
 10
-18.50286345968459
 20
-216.03078975629759
 30
0.0
 11
-18.510398688044571
 21
-215.98400389459951
 31
0.0
  0
LINE
  8
DETAIL
  6
CONTINUOUS
 62
     5
 10
-18.510398688044571
 20
-215.98400389459951
 30
0.0
 11
-18.517021027050991
 21
-215.9368535871142
 31
0.0
  0
LINE
  8
DETAIL
  6
CONTINUOUS
 62
     5
 10
-18.517021027050991
 20
-215.9368535871142
 30
0.0
 11
-18.517021027050991
 21
-215.9368535871142
 31
0.0
  0
LINE
  8
DETAIL
  6
CONTINUOUS
 62
     5
 10
-18.517021027050991
 20
-215.9368535871142
 30
0.0
 11
-18.522640775258989
 21
-215.88966519175591
 31
0.0
  0
LINE
  8
DETAIL
  6
CONTINUOUS
 62
     5
 10
-18.522640775258989
 20
-215.88966519175591
 30
0.0
 11
-18.527285912924409
 21
-215.84244048606291
 31
0.0
  0
LINE
  8
DETAIL
  6
CONTINUOUS
 62
     5
 10
-18.527285912924409
 20
-215.84244048606291
 30
0.0
 11
-18.527285912924409
 21
-215.84244048606291
 31
0.0
  0
LINE
  8
DETAIL
  6
CONTINUOUS
 62
     5
 10
-18.527285912924409
 20
-215.84244048606291
 30
0.0
 11
-18.530970480218119
 21
-215.7951226271887
 31
0.0
  0
LINE
  8
DETAIL
  6
CONTINUOUS
 62
     5
 10
-18.530970480218119
 20
-215.7951226271887
 30
0.0
 11
-18.533535075271971
 21
-215.74774487112279
 31
0.0
  0
LINE
  8
DETAIL
  6
CONTINUOUS
 62
     5
 10
-18.533535075271971
 20
-215.74774487112279
 30
0.0
 11
-18.533535075271971
 21
-215.74774487112279
 31
0.0
  0
LINE
  8
DETAIL
  6
CONTINUOUS
 62
     5
 10
-18.533535075271971
 20
-215.74774487112279
 30
0.0
 11
-18.53492095732145
 21
-215.70035404482141
 31
0.0
  0
LINE
  8
DETAIL
  6
CONTINUOUS
 62
     5
 10
-18.53492095732145
 20
-215.70035404482141
 30
0.0
 11
-18.535645472061901
 21
-215.65296116027309
 31
0.0
  0
LINE
  8
DETAIL
  6
CONTINUOUS
 62
     5
 10
-232.0933240186674
 20
47.991793448790133
 30
0.0
 11
-232.1034519017222
 21
47.960233440794639
 31
0.0
  0
LINE
  8
DETAIL
  6
CONTINUOUS
 62
     5
 10
-232.1034519017222
 20
47.960233440794639
 30
0.0
 11
-232.11378887397211
 21
47.928656418443673
 31
0.0
  0
LINE
  8
DETAIL
  6
CONTINUOUS
 62
     5
 10
-232.11378887397211
 20
47.928656418443673
 30
0.0
 11
-232.11378887397211
 21
47.928656418443673
 31
0.0
  0
LINE
  8
DETAIL
  6
CONTINUOUS
 62
     5
 10
-232.11378887397211
 20
47.928656418443673
 30
0.0
 11
-232.12447358331201
 21
47.897108104717233
 31
0.0
  0
LINE
  8
DETAIL
  6
CONTINUOUS
 62
     5
 10
-232.12447358331201
 20
47.897108104717233
 30
0.0
 11
-232.13536291243861
 21
47.865885171936164
 31
0.0
  0
LINE
  8
DETAIL
  6
CONTINUOUS
 62
     5
 10
-232.13536291243861
 20
47.865885171936164
 30
0.0
 11
-232.13536291243861
 21
47.865885171936164
 31
0.0
  0
LINE
  8
DETAIL
  6
CONTINUOUS
 62
     5
 10
-232.13536291243861
 20
47.865885171936164
 30
0.0
 11
-232.14638074114691
 21
47.83505121308383
 31
0.0
  0
LINE
  8
DETAIL
  6
CONTINUOUS
 62
     5
 10
-232.14638074114691
 20
47.83505121308383
 30
0.0
 11
-232.15800070282319
 21
47.803486554452952
 31
0.0
  0
LINE
  8
DETAIL
  6
CONTINUOUS
 62
     5
 10
-232.15800070282319
 20
47.803486554452952
 30
0.0
 11
-232.15800070282319
 21
47.803486554452952
 31
0.0
  0
LINE
  8
DETAIL
  6
CONTINUOUS
 62
     5
 10
-232.15800070282319
 20
47.803486554452952
 30
0.0
 11
-232.17035455696021
 21
47.770896235018817
 31
0.0
  0
LINE
  8
DETAIL
  6
CONTINUOUS
 62
     5
 10
-232.17035455696021
 20
47.770896235018817
 30
0.0
 11
-232.1816568138828
 21
47.741467411179492
 31
0.0
  0
LINE
  8
DETAIL
  6
CONTINUOUS
 62
     5
 10
-232.1816568138828
 20
47.741467411179492
 30
0.0
 11
-232.1816568138828
 21
47.741467411179492
 31
0.0
  0
LINE
  8
DETAIL
  6
CONTINUOUS
 62
     5
 10
-232.1816568138828
 20
47.741467411179492
 30
0.0
 11
-232.19142248239299
 21
47.716321467938883
 31
0.0
  0
LINE
  8
DETAIL
  6
CONTINUOUS
 62
     5
 10
-232.19142248239299
 20
47.716321467938883
 30
0.0
 11
-232.2062858143739
 21
47.679834587301229
 31
0.0
  0
LINE
  8
DETAIL
  6
CONTINUOUS
 62
     5
 10
-232.2062858143739
 20
47.679834587301229
 30
0.0
 11
-232.2062858143739
 21
47.679834587301229
 31
0.0
  0
LINE
  8
DETAIL
  6
CONTINUOUS
 62
     5
 10
-232.2062858143739
 20
47.679834587301229
 30
0.0
 11
-232.2319396629415
 21
47.618838138256592
 31
0.0
  0
LINE
  8
DETAIL
  6
CONTINUOUS
 62
     5
 10
-232.2319396629415
 20
47.618838138256592
 30
0.0
 11
-232.26319204306799
 21
47.546729440736037
 31
0.0
  0
LINE
  8
DETAIL
  6
CONTINUOUS
 62
     5
 10
-232.26319204306799
 20
47.546729440736037
 30
0.0
 11
-232.26319204306799
 21
47.546729440736037
 31
0.0
  0
LINE
  8
DETAIL
  6
CONTINUOUS
 62
     5
 10
-232.26319204306799
 20
47.546729440736037
 30
0.0
 11
-232.29379365741119
 21
47.479312265071087
 31
0.0
  0
LINE
  8
DETAIL
  6
CONTINUOUS
 62
     5
 10
-232.29379365741119
 20
47.479312265071087
 30
0.0
 11
-232.3241507975192
 21
47.415450232253193
 31
0.0
  0
LINE
  8
DETAIL
  6
CONTINUOUS
 62
     5
 10
-232.3241507975192
 20
47.415450232253193
 30
0.0
 11
-232.3241507975192
 21
47.415450232253193
 31
0.0
  0
LINE
  8
DETAIL
  6
CONTINUOUS
 62
     5
 10
-232.3241507975192
 20
47.415450232253193
 30
0.0
 11
-232.35588214899181
 21
47.35090263983534
 31
0.0
  0
LINE
  8
DETAIL
  6
CONTINUOUS
 62
     5
 10
-232.35588214899181
 20
47.35090263983534
 30
0.0
 11
-232.38880038474539
 21
47.285951640957478
 31
0.0
  0
LINE
  8
DETAIL
  6
CONTINUOUS
 62
     5
 10
-232.38880038474539
 20
47.285951640957478
 30
0.0
 11
-232.38880038474539
 21
47.285951640957478
 31
0.0
  0
LINE
  8
DETAIL
  6
CONTINUOUS
 62
     5
 10
-232.38880038474539
 20
47.285951640957478
 30
0.0
 11
-232.42240878998601
 21
47.221722284404393
 31
0.0
  0
LINE
  8
DETAIL
  6
CONTINUOUS
 62
     5
 10
-232.42240878998601
 20
47.221722284404393
 30
0.0
 11
-232.45677911176321
 21
47.1581883459545
 31
0.0
  0
LINE
  8
DETAIL
  6
CONTINUOUS
 62
     5
 10
-232.45677911176321
 20
47.1581883459545
 30
0.0
 11
-232.45677911176321
 21
47.1581883459545
 31
0.0
  0
LINE
  8
DETAIL
  6
CONTINUOUS
 62
     5
 10
-232.45677911176321
 20
47.1581883459545
 30
0.0
 11
-232.49200825391461
 21
47.095056342244391
 31
0.0
  0
LINE
  8
DETAIL
  6
CONTINUOUS
 62
     5
 10
-232.49200825391461
 20
47.095056342244391
 30
0.0
 11
-232.5277252855893
 21
47.032115026349402
 31
0.0
  0
LINE
  8
DETAIL
  6
CONTINUOUS
 62
     5
 10
-231.94605009633949
 20
48.912118793534027
 30
0.0
 11
-231.9470028998694
 21
48.850426776547863
 31
0.0
  0
LINE
  8
DETAIL
  6
CONTINUOUS
 62
     5
 10
-231.9470028998694
 20
48.850426776547863
 30
0.0
 11
-231.9487971691286
 21
48.788821780573073
 31
0.0
  0
LINE
  8
DETAIL
  6
CONTINUOUS
 62
     5
 10
-231.9487971691286
 20
48.788821780573073
 30
0.0
 11
-231.9487971691286
 21
48.788821780573073
 31
0.0
  0
LINE
  8
DETAIL
  6
CONTINUOUS
 62
     5
 10
-231.9487971691286
 20
48.788821780573073
 30
0.0
 11
-231.9521063080131
 21
48.727318143920058
 31
0.0
  0
LINE
  8
DETAIL
  6
CONTINUOUS
 62
     5
 10
-231.9521063080131
 20
48.727318143920058
 30
0.0
 11
-231.95693147308549
 21
48.665639474095308
 31
0.0
  0
LINE
  8
DETAIL
  6
CONTINUOUS
 62
     5
 10
-231.95693147308549
 20
48.665639474095308
 30
0.0
 11
-231.95693147308549
 21
48.665639474095308
 31
0.0
  0
LINE
  8
DETAIL
  6
CONTINUOUS
 62
     5
 10
-231.95693147308549
 20
48.665639474095308
 30
0.0
 11
-231.96308455606061
 21
48.603744745767301
 31
0.0
  0
LINE
  8
DETAIL
  6
CONTINUOUS
 62
     5
 10
-231.96308455606061
 20
48.603744745767301
 30
0.0
 11
-231.97029263659331
 21
48.542825133055892
 31
0.0
  0
LINE
  8
DETAIL
  6
CONTINUOUS
 62
     5
 10
-231.97029263659331
 20
48.542825133055892
 30
0.0
 11
-231.97029263659331
 21
48.542825133055892
 31
0.0
  0
LINE
  8
DETAIL
  6
CONTINUOUS
 62
     5
 10
-231.97029263659331
 20
48.542825133055892
 30
0.0
 11
-231.9785144652169
 21
48.483220343193182
 31
0.0
  0
LINE
  8
DETAIL
  6
CONTINUOUS
 62
     5
 10
-231.9785144652169
 20
48.483220343193182
 30
0.0
 11
-231.98872028803521
 21
48.42063201641065
 31
0.0
  0
LINE
  8
DETAIL
  6
CONTINUOUS
 62
     5
 10
-231.98872028803521
 20
48.42063201641065
 30
0.0
 11
-231.98872028803521
 21
48.42063201641065
 31
0.0
  0
LINE
  8
DETAIL
  6
CONTINUOUS
 62
     5
 10
-231.98872028803521
 20
48.42063201641065
 30
0.0
 11
-232.0011429324893
 21
48.353932293327937
 31
0.0
  0
LINE
  8
DETAIL
  6
CONTINUOUS
 62
     5
 10
-232.0011429324893
 20
48.353932293327937
 30
0.0
 11
-232.01205405579509
 21
48.299313383115191
 31
0.0
  0
LINE
  8
DETAIL
  6
CONTINUOUS
 62
     5
 10
-232.01205405579509
 20
48.299313383115191
 30
0.0
 11
-232.01205405579509
 21
48.299313383115191
 31
0.0
  0
LINE
  8
DETAIL
  6
CONTINUOUS
 62
     5
 10
-232.01205405579509
 20
48.299313383115191
 30
0.0
 11
-232.0181974390222
 21
48.270436571938262
 31
0.0
  0
LINE
  8
DETAIL
  6
CONTINUOUS
 62
     5
 10
-232.0181974390222
 20
48.270436571938262
 30
0.0
 11
-232.02216652887611
 21
48.253519385393247
 31
0.0
  0
LINE
  8
DETAIL
  6
CONTINUOUS
 62
     5
 10
-232.02216652887611
 20
48.253519385393247
 30
0.0
 11
-232.02216652887611
 21
48.253519385393247
 31
0.0
  0
LINE
  8
DETAIL
  6
CONTINUOUS
 62
     5
 10
-232.02216652887611
 20
48.253519385393247
 30
0.0
 11
-232.02715996284999
 21
48.232280936973503
 31
0.0
  0
LINE
  8
DETAIL
  6
CONTINUOUS
 62
     5
 10
-232.02715996284999
 20
48.232280936973503
 30
0.0
 11
-232.03294747594941
 21
48.207890452333572
 31
0.0
  0
LINE
  8
DETAIL
  6
CONTINUOUS
 62
     5
 10
-232.03294747594941
 20
48.207890452333572
 30
0.0
 11
-232.03294747594941
 21
48.207890452333572
 31
0.0
  0
LINE
  8
DETAIL
  6
CONTINUOUS
 62
     5
 10
-232.03294747594941
 20
48.207890452333572
 30
0.0
 11
-232.03866984231081
 21
48.184710760896387
 31
0.0
  0
LINE
  8
DETAIL
  6
CONTINUOUS
 62
     5
 10
-232.03866984231081
 20
48.184710760896387
 30
0.0
 11
-232.0443808950732
 21
48.162428994997697
 31
0.0
  0
LINE
  8
DETAIL
  6
CONTINUOUS
 62
     5
 10
-232.0443808950732
 20
48.162428994997697
 30
0.0
 11
-232.0443808950732
 21
48.162428994997697
 31
0.0
  0
LINE
  8
DETAIL
  6
CONTINUOUS
 62
     5
 10
-232.0443808950732
 20
48.162428994997697
 30
0.0
 11
-232.05030689874459
 21
48.139876531748477
 31
0.0
  0
LINE
  8
DETAIL
  6
CONTINUOUS
 62
     5
 10
-232.05030689874459
 20
48.139876531748477
 30
0.0
 11
-232.05645078430629
 21
48.117137424446298
 31
0.0
  0
LINE
  8
DETAIL
  6
CONTINUOUS
 62
     5
 10
-232.05645078430629
 20
48.117137424446298
 30
0.0
 11
-232.05645078430629
 21
48.117137424446298
 31
0.0
  0
LINE
  8
DETAIL
  6
CONTINUOUS
 62
     5
 10
-232.05645078430629
 20
48.117137424446298
 30
0.0
 11
-232.0627547181339
 21
48.094525143520507
 31
0.0
  0
LINE
  8
DETAIL
  6
CONTINUOUS
 62
     5
 10
-232.0627547181339
 20
48.094525143520507
 30
0.0
 11
-232.06914114170641
 21
48.072018151740387
 31
0.0
  0
LINE
  8
DETAIL
  6
CONTINUOUS
 62
     5
 10
-232.5277252855893
 20
50.792122560068151
 30
0.0
 11
-232.4920234894748
 21
50.729217612841467
 31
0.0
  0
LINE
  8
DETAIL
  6
CONTINUOUS
 62
     5
 10
-232.4920234894748
 20
50.729217612841467
 30
0.0
 11
-232.45678533264129
 21
50.666060617654068
 31
0.0
  0
LINE
  8
DETAIL
  6
CONTINUOUS
 62
     5
 10
-232.45678533264129
 20
50.666060617654068
 30
0.0
 11
-232.45678533264129
 21
50.666060617654068
 31
0.0
  0
LINE
  8
DETAIL
  6
CONTINUOUS
 62
     5
 10
-232.45678533264129
 20
50.666060617654068
 30
0.0
 11
-232.4223816769553
 21
50.60244037097624
 31
0.0
  0
LINE
  8
DETAIL
  6
CONTINUOUS
 62
     5
 10
-232.4223816769553
 20
50.60244037097624
 30
0.0
 11
-232.38881227462869
 21
50.538309047001754
 31
0.0
  0
LINE
  8
DETAIL
  6
CONTINUOUS
 62
     5
 10
-232.38881227462869
 20
50.538309047001754
 30
0.0
 11
-232.38881227462869
 21
50.538309047001754
 31
0.0
  0
LINE
  8
DETAIL
  6
CONTINUOUS
 62
     5
 10
-232.38881227462869
 20
50.538309047001754
 30
0.0
 11
-232.35602954638989
 21
50.473701820125832
 31
0.0
  0
LINE
  8
DETAIL
  6
CONTINUOUS
 62
     5
 10
-232.35602954638989
 20
50.473701820125832
 30
0.0
 11
-232.3241676966893
 21
50.408822487826342
 31
0.0
  0
LINE
  8
DETAIL
  6
CONTINUOUS
 62
     5
 10
-232.3241676966893
 20
50.408822487826342
 30
0.0
 11
-232.3241676966893
 21
50.408822487826342
 31
0.0
  0
LINE
  8
DETAIL
  6
CONTINUOUS
 62
     5
 10
-232.3241676966893
 20
50.408822487826342
 30
0.0
 11
-232.29331736959941
 21
50.343707535838007
 31
0.0
  0
LINE
  8
DETAIL
  6
CONTINUOUS
 62
     5
 10
-232.29331736959941
 20
50.343707535838007
 30
0.0
 11
-232.2632131839604
 21
50.277555579843579
 31
0.0
  0
LINE
  8
DETAIL
  6
CONTINUOUS
 62
     5
 10
-232.2632131839604
 20
50.277555579843579
 30
0.0
 11
-232.2632131839604
 21
50.277555579843579
 31
0.0
  0
LINE
  8
DETAIL
  6
CONTINUOUS
 62
     5
 10
-232.2632131839604
 20
50.277555579843579
 30
0.0
 11
-232.23381133160629
 21
50.210151482294457
 31
0.0
  0
LINE
  8
DETAIL
  6
CONTINUOUS
 62
     5
 10
-232.23381133160629
 20
50.210151482294457
 30
0.0
 11
-232.20631032157971
 21
50.1444629627685
 31
0.0
  0
LINE
  8
DETAIL
  6
CONTINUOUS
 62
     5
 10
-232.20631032157971
 20
50.1444629627685
 30
0.0
 11
-232.20631032157971
 21
50.1444629627685
 31
0.0
  0
LINE
  8
DETAIL
  6
CONTINUOUS
 62
     5
 10
-232.20631032157971
 20
50.1444629627685
 30
0.0
 11
-232.1817088171301
 21
50.083009619258583
 31
0.0
  0
LINE
  8
DETAIL
  6
CONTINUOUS
 62
     5
 10
-232.1817088171301
 20
50.083009619258583
 30
0.0
 11
-232.1589637811237
 21
50.023335706291618
 31
0.0
  0
LINE
  8
DETAIL
  6
CONTINUOUS
 62
     5
 10
-232.1589637811237
 20
50.023335706291618
 30
0.0
 11
-232.1589637811237
 21
50.023335706291618
 31
0.0
  0
LINE
  8
DETAIL
  6
CONTINUOUS
 62
     5
 10
-232.1589637811237
 20
50.023335706291618
 30
0.0
 11
-232.13685805050511
 21
49.962519462898634
 31
0.0
  0
LINE
  8
DETAIL
  6
CONTINUOUS
 62
     5
 10
-232.13685805050511
 20
49.962519462898634
 30
0.0
 11
-232.1155196589159
 21
49.900750409594707
 31
0.0
  0
LINE
  8
DETAIL
  6
CONTINUOUS
 62
     5
 10
-232.1155196589159
 20
49.900750409594707
 30
0.0
 11
-232.1155196589159
 21
49.900750409594707
 31
0.0
  0
LINE
  8
DETAIL
  6
CONTINUOUS
 62
     5
 10
-232.1155196589159
 20
49.900750409594707
 30
0.0
 11
-232.09532762554159
 21
49.83881281223762
 31
0.0
  0
LINE
  8
DETAIL
  6
CONTINUOUS
 62
     5
 10
-232.09532762554159
 20
49.83881281223762
 30
0.0
 11
-232.07631971503861
 21
49.776758636573959
 31
0.0
  0
LINE
  8
DETAIL
  6
CONTINUOUS
 62
     5
 10
-232.07631971503861
 20
49.776758636573959
 30
0.0
 11
-232.07631971503861
 21
49.776758636573959
 31
0.0
  0
LINE
  8
DETAIL
  6
CONTINUOUS
 62
     5
 10
-232.07631971503861
 20
49.776758636573959
 30
0.0
 11
-232.0584533337848
 21
49.714411253063084
 31
0.0
  0
LINE
  8
DETAIL
  6
CONTINUOUS
 62
     5
 10
-232.0584533337848
 20
49.714411253063084
 30
0.0
 11
-232.0417057095743
 21
49.651411951125283
 31
0.0
  0
LINE
  8
DETAIL
  6
CONTINUOUS
 62
     5
 10
-232.0417057095743
 20
49.651411951125283
 30
0.0
 11
-232.0417057095743
 21
49.651411951125283
 31
0.0
  0
LINE
  8
DETAIL
  6
CONTINUOUS
 62
     5
 10
-232.0417057095743
 20
49.651411951125283
 30
0.0
 11
-232.02612451777119
 21
49.587721655987593
 31
0.0
  0
LINE
  8
DETAIL
  6
CONTINUOUS
 62
     5
 10
-232.02612451777119
 20
49.587721655987593
 30
0.0
 11
-232.01201940260569
 21
49.524761917144872
 31
0.0
  0
LINE
  8
DETAIL
  6
CONTINUOUS
 62
     5
 10
-232.01201940260569
 20
49.524761917144872
 30
0.0
 11
-232.01201940260569
 21
49.524761917144872
 31
0.0
  0
LINE
  8
DETAIL
  6
CONTINUOUS
 62
     5
 10
-232.01201940260569
 20
49.524761917144872
 30
0.0
 11
-231.99963546301191
 21
49.463731169187497
 31
0.0
  0
LINE
  8
DETAIL
  6
CONTINUOUS
 62
     5
 10
-231.99963546301191
 20
49.463731169187497
 30
0.0
 11
-231.98869764787409
 21
49.403474762823123
 31
0.0
  0
LINE
  8
DETAIL
  6
CONTINUOUS
 62
     5
 10
-231.98869764787409
 20
49.403474762823123
 30
0.0
 11
-231.98869764787409
 21
49.403474762823123
 31
0.0
  0
LINE
  8
DETAIL
  6
CONTINUOUS
 62
     5
 10
-231.98869764787409
 20
49.403474762823123
 30
0.0
 11
-231.97889331920271
 21
49.342624842885698
 31
0.0
  0
LINE
  8
DETAIL
  6
CONTINUOUS
 62
     5
 10
-231.97889331920271
 20
49.342624842885698
 30
0.0
 11
-231.97027964156021
 21
49.281313814598377
 31
0.0
  0
LINE
  8
DETAIL
  6
CONTINUOUS
 62
     5
 10
-231.97027964156021
 20
49.281313814598377
 30
0.0
 11
-231.97027964156021
 21
49.281313814598377
 31
0.0
  0
LINE
  8
DETAIL
  6
CONTINUOUS
 62
     5
 10
-231.97027964156021
 20
49.281313814598377
 30
0.0
 11
-231.96296909037559
 21
49.219948375396307
 31
0.0
  0
LINE
  8
DETAIL
  6
CONTINUOUS
 62
     5
 10
-231.96296909037559
 20
49.219948375396307
 30
0.0
 11
-231.95692558198519
 21
49.158532131173622
 31
0.0
  0
LINE
  8
DETAIL
  6
CONTINUOUS
 62
     5
 10
-231.95692558198519
 20
49.158532131173622
 30
0.0
 11
-231.95692558198519
 21
49.158532131173622
 31
0.0
  0
LINE
  8
DETAIL
  6
CONTINUOUS
 62
     5
 10
-231.95692558198519
 20
49.158532131173622
 30
0.0
 11
-231.95213200140631
 21
49.096995941382943
 31
0.0
  0
LINE
  8
DETAIL
  6
CONTINUOUS
 62
     5
 10
-231.95213200140631
 20
49.096995941382943
 30
0.0
 11
-231.94879566747099
 21
49.035382771251363
 31
0.0
  0
LINE
  8
DETAIL
  6
CONTINUOUS
 62
     5
 10
-231.94879566747099
 20
49.035382771251363
 30
0.0
 11
-231.94879566747099
 21
49.035382771251363
 31
0.0
  0
LINE
  8
DETAIL
  6
CONTINUOUS
 62
     5
 10
-231.94879566747099
 20
49.035382771251363
 30
0.0
 11
-231.9469927134229
 21
48.973752279560301
 31
0.0
  0
LINE
  8
DETAIL
  6
CONTINUOUS
 62
     5
 10
-231.9469927134229
 20
48.973752279560301
 30
0.0
 11
-231.94605009633949
 21
48.912118793534027
 31
0.0
  0
LINE
  8
DETAIL
  6
CONTINUOUS
 62
     5
 10
-232.5277252855893
 20
58.312137626854913
 30
0.0
 11
-232.4914216402359
 21
58.184139578209233
 31
0.0
  0
LINE
  8
DETAIL
  6
CONTINUOUS
 62
     5
 10
-232.4914216402359
 20
58.184139578209233
 30
0.0
 11
-232.4556987342994
 21
58.05598990477381
 31
0.0
  0
LINE
  8
DETAIL
  6
CONTINUOUS
 62
     5
 10
-232.4556987342994
 20
58.05598990477381
 30
0.0
 11
-232.4556987342994
 21
58.05598990477381
 31
0.0
  0
LINE
  8
DETAIL
  6
CONTINUOUS
 62
     5
 10
-232.4556987342994
 20
58.05598990477381
 30
0.0
 11
-232.4210190622905
 21
57.927557340293731
 31
0.0
  0
LINE
  8
DETAIL
  6
CONTINUOUS
 62
     5
 10
-232.4210190622905
 20
57.927557340293731
 30
0.0
 11
-232.3873721390986
 21
57.798792052649617
 31
0.0
  0
LINE
  8
DETAIL
  6
CONTINUOUS
 62
     5
 10
-232.3873721390986
 20
57.798792052649617
 30
0.0
 11
-232.3873721390986
 21
57.798792052649617
 31
0.0
  0
LINE
  8
DETAIL
  6
CONTINUOUS
 62
     5
 10
-232.3873721390986
 20
57.798792052649617
 30
0.0
 11
-232.3546720433728
 21
57.669716441998453
 31
0.0
  0
LINE
  8
DETAIL
  6
CONTINUOUS
 62
     5
 10
-232.3546720433728
 20
57.669716441998453
 30
0.0
 11
-232.32300408842781
 21
57.540560403464781
 31
0.0
  0
LINE
  8
DETAIL
  6
CONTINUOUS
 62
     5
 10
-232.32300408842781
 20
57.540560403464781
 30
0.0
 11
-232.32300408842781
 21
57.540560403464781
 31
0.0
  0
LINE
  8
DETAIL
  6
CONTINUOUS
 62
     5
 10
-232.32300408842781
 20
57.540560403464781
 30
0.0
 11
-232.29244340648461
 21
57.411377852413118
 31
0.0
  0
LINE
  8
DETAIL
  6
CONTINUOUS
 62
     5
 10
-232.29244340648461
 20
57.411377852413118
 30
0.0
 11
-232.2628531707264
 21
57.281311290202318
 31
0.0
  0
LINE
  8
DETAIL
  6
CONTINUOUS
 62
     5
 10
-232.2628531707264
 20
57.281311290202318
 30
0.0
 11
-232.2628531707264
 21
57.281311290202318
 31
0.0
  0
LINE
  8
DETAIL
  6
CONTINUOUS
 62
     5
 10
-232.2628531707264
 20
57.281311290202318
 30
0.0
 11
-232.23421271494891
 21
57.150134904953397
 31
0.0
  0
LINE
  8
DETAIL
  6
CONTINUOUS
 62
     5
 10
-232.23421271494891
 20
57.150134904953397
 30
0.0
 11
-232.2071779744347
 21
57.021061045845158
 31
0.0
  0
LINE
  8
DETAIL
  6
CONTINUOUS
 62
     5
 10
-232.2071779744347
 20
57.021061045845158
 30
0.0
 11
-232.2071779744347
 21
57.021061045845158
 31
0.0
  0
LINE
  8
DETAIL
  6
CONTINUOUS
 62
     5
 10
-232.2071779744347
 20
57.021061045845158
 30
0.0
 11
-232.18229525661039
 21
56.89680933004928
 31
0.0
  0
LINE
  8
DETAIL
  6
CONTINUOUS
 62
     5
 10
-232.18229525661039
 20
56.89680933004928
 30
0.0
 11
-232.15899575598539
 21
56.774690285651452
 31
0.0
  0
LINE
  8
DETAIL
  6
CONTINUOUS
 62
     5
 10
-232.15899575598539
 20
56.774690285651452
 30
0.0
 11
-232.15899575598539
 21
56.774690285651452
 31
0.0
  0
LINE
  8
DETAIL
  6
CONTINUOUS
 62
     5
 10
-232.15899575598539
 20
56.774690285651452
 30
0.0
 11
-232.13661601321871
 21
56.651513863429159
 31
0.0
  0
LINE
  8
DETAIL
  6
CONTINUOUS
 62
     5
 10
-232.13661601321871
 20
56.651513863429159
 30
0.0
 11
-232.11522906648241
 21
56.527496794012343
 31
0.0
  0
LINE
  8
DETAIL
  6
CONTINUOUS
 62
     5
 10
-232.11522906648241
 20
56.527496794012343
 30
0.0
 11
-232.11522906648241
 21
56.527496794012343
 31
0.0
  0
LINE
  8
DETAIL
  6
CONTINUOUS
 62
     5
 10
-232.11522906648241
 20
56.527496794012343
 30
0.0
 11
-232.09504448240389
 21
56.403497449555573
 31
0.0
  0
LINE
  8
DETAIL
  6
CONTINUOUS
 62
     5
 10
-232.09504448240389
 20
56.403497449555573
 30
0.0
 11
-232.0760814439185
 21
56.279533988461367
 31
0.0
  0
LINE
  8
DETAIL
  6
CONTINUOUS
 62
     5
 10
-232.0760814439185
 20
56.279533988461367
 30
0.0
 11
-232.0760814439185
 21
56.279533988461367
 31
0.0
  0
LINE
  8
DETAIL
  6
CONTINUOUS
 62
     5
 10
-232.0760814439185
 20
56.279533988461367
 30
0.0
 11
-232.0583177973518
 21
56.155403034483413
 31
0.0
  0
LINE
  8
DETAIL
  6
CONTINUOUS
 62
     5
 10
-232.0583177973518
 20
56.155403034483413
 30
0.0
 11
-232.0417564262857
 21
56.030855286531789
 31
0.0
  0
LINE
  8
DETAIL
  6
CONTINUOUS
 62
     5
 10
-232.0417564262857
 20
56.030855286531789
 30
0.0
 11
-232.0417564262857
 21
56.030855286531789
 31
0.0
  0
LINE
  8
DETAIL
  6
CONTINUOUS
 62
     5
 10
-232.0417564262857
 20
56.030855286531789
 30
0.0
 11
-232.0264290322834
 21
55.905885940587318
 31
0.0
  0
LINE
  8
DETAIL
  6
CONTINUOUS
 62
     5
 10
-232.0264290322834
 20
55.905885940587318
 30
0.0
 11
-232.01245755157711
 21
55.781514105756969
 31
0.0
  0
LINE
  8
DETAIL
  6
CONTINUOUS
 62
     5
 10
-232.01245755157711
 20
55.781514105756969
 30
0.0
 11
-232.01245755157711
 21
55.781514105756969
 31
0.0
  0
LINE
  8
DETAIL
  6
CONTINUOUS
 62
     5
 10
-232.01245755157711
 20
55.781514105756969
 30
0.0
 11
-231.99993805483419
 21
55.658591763786092
 31
0.0
  0
LINE
  8
DETAIL
  6
CONTINUOUS
 62
     5
 10
-231.99993805483419
 20
55.658591763786092
 30
0.0
 11
-231.98877291579279
 21
55.536278473848263
 31
0.0
  0
LINE
  8
DETAIL
  6
CONTINUOUS
 62
     5
 10
-231.98877291579279
 20
55.536278473848263
 30
0.0
 11
-231.98877291579279
 21
55.536278473848263
 31
0.0
  0
LINE
  8
DETAIL
  6
CONTINUOUS
 62
     5
 10
-231.98877291579279
 20
55.536278473848263
 30
0.0
 11
-231.9788517183961
 21
55.413581250581672
 31
0.0
  0
LINE
  8
DETAIL
  6
CONTINUOUS
 62
     5
 10
-231.9788517183961
 20
55.413581250581672
 30
0.0
 11
-231.9702065843388
 21
55.290589353054429
 31
0.0
  0
LINE
  8
DETAIL
  6
CONTINUOUS
 62
     5
 10
-231.9702065843388
 20
55.290589353054429
 30
0.0
 11
-231.9702065843388
 21
55.290589353054429
 31
0.0
  0
LINE
  8
DETAIL
  6
CONTINUOUS
 62
     5
 10
-231.9702065843388
 20
55.290589353054429
 30
0.0
 11
-231.9628835565635
 21
55.167589955329447
 31
0.0
  0
LINE
  8
DETAIL
  6
CONTINUOUS
 62
     5
 10
-231.9628835565635
 20
55.167589955329447
 30
0.0
 11
-231.95684182525329
 21
55.044579647017997
 31
0.0
  0
LINE
  8
DETAIL
  6
CONTINUOUS
 62
     5
 10
-231.95684182525329
 20
55.044579647017997
 30
0.0
 11
-231.95684182525329
 21
55.044579647017997
 31
0.0
  0
LINE
  8
DETAIL
  6
CONTINUOUS
 62
     5
 10
-231.95684182525329
 20
55.044579647017997
 30
0.0
 11
-231.95207008572339
 21
54.921502394962367
 31
0.0
  0
LINE
  8
DETAIL
  6
CONTINUOUS
 62
     5
 10
-231.95207008572339
 20
54.921502394962367
 30
0.0
 11
-231.9487619065743
 21
54.798382259381412
 31
0.0
  0
LINE
  8
DETAIL
  6
CONTINUOUS
 62
     5
 10
-231.9487619065743
 20
54.798382259381412
 30
0.0
 11
-231.9487619065743
 21
54.798382259381412
 31
0.0
  0
LINE
  8
DETAIL
  6
CONTINUOUS
 62
     5
 10
-231.9487619065743
 20
54.798382259381412
 30
0.0
 11
-231.94697891463139
 21
54.675255876574738
 31
0.0
  0
LINE
  8
DETAIL
  6
CONTINUOUS
 62
     5
 10
-231.94697891463139
 20
54.675255876574738
 30
0.0
 11
-231.94605009633949
 21
54.552130093786843
 31
0.0
  0
LINE
  8
DETAIL
  6
CONTINUOUS
 62
     5
 10
-231.94605009633949
 20
54.552130093786843
 30
0.0
 11
-231.9469972606893
 21
54.427819404843888
 31
0.0
  0
LINE
  8
DETAIL
  6
CONTINUOUS
 62
     5
 10
-231.9469972606893
 20
54.427819404843888
 30
0.0
 11
-231.94881484700741
 21
54.303510702348603
 31
0.0
  0
LINE
  8
DETAIL
  6
CONTINUOUS
 62
     5
 10
-231.94881484700741
 20
54.303510702348603
 30
0.0
 11
-231.94881484700741
 21
54.303510702348603
 31
0.0
  0
LINE
  8
DETAIL
  6
CONTINUOUS
 62
     5
 10
-231.94881484700741
 20
54.303510702348603
 30
0.0
 11
-231.95218682476431
 21
54.179211028242086
 31
0.0
  0
LINE
  8
DETAIL
  6
CONTINUOUS
 62
     5
 10
-231.95218682476431
 20
54.179211028242086
 30
0.0
 11
-231.95705135344099
 21
54.054947646439082
 31
0.0
  0
LINE
  8
DETAIL
  6
CONTINUOUS
 62
     5
 10
-231.95705135344099
 20
54.054947646439082
 30
0.0
 11
-231.95705135344099
 21
54.054947646439082
 31
0.0
  0
LINE
  8
DETAIL
  6
CONTINUOUS
 62
     5
 10
-231.95705135344099
 20
54.054947646439082
 30
0.0
 11
-231.9632111532454
 21
53.930742704115353
 31
0.0
  0
LINE
  8
DETAIL
  6
CONTINUOUS
 62
     5
 10
-231.9632111532454
 20
53.930742704115353
 30
0.0
 11
-231.97067299728269
 21
53.806577659518332
 31
0.0
  0
LINE
  8
DETAIL
  6
CONTINUOUS
 62
     5
 10
-231.97067299728269
 20
53.806577659518332
 30
0.0
 11
-231.97067299728269
 21
53.806577659518332
 31
0.0
  0
LINE
  8
DETAIL
  6
CONTINUOUS
 62
     5
 10
-231.97067299728269
 20
53.806577659518332
 30
0.0
 11
-231.97947707148191
 21
53.682459432098028
 31
0.0
  0
LINE
  8
DETAIL
  6
CONTINUOUS
 62
     5
 10
-231.97947707148191
 20
53.682459432098028
 30
0.0
 11
-231.98959316017621
 21
53.558537475045739
 31
0.0
  0
LINE
  8
DETAIL
  6
CONTINUOUS
 62
     5
 10
-231.98959316017621
 20
53.558537475045739
 30
0.0
 11
-231.98959316017621
 21
53.558537475045739
 31
0.0
  0
LINE
  8
DETAIL
  6
CONTINUOUS
 62
     5
 10
-231.98959316017621
 20
53.558537475045739
 30
0.0
 11
-232.0009928356715
 21
53.434864513479113
 31
0.0
  0
LINE
  8
DETAIL
  6
CONTINUOUS
 62
     5
 10
-232.0009928356715
 20
53.434864513479113
 30
0.0
 11
-232.01372522376491
 21
53.310963826481327
 31
0.0
  0
LINE
  8
DETAIL
  6
CONTINUOUS
 62
     5
 10
-232.01372522376491
 20
53.310963826481327
 30
0.0
 11
-232.01372522376491
 21
53.310963826481327
 31
0.0
  0
LINE
  8
DETAIL
  6
CONTINUOUS
 62
     5
 10
-232.01372522376491
 20
53.310963826481327
 30
0.0
 11
-232.0278334953116
 21
53.186431430987511
 31
0.0
  0
LINE
  8
DETAIL
  6
CONTINUOUS
 62
     5
 10
-232.0278334953116
 20
53.186431430987511
 30
0.0
 11
-232.04325944790401
 21
53.061683741374573
 31
0.0
  0
LINE
  8
DETAIL
  6
CONTINUOUS
 62
     5
 10
-232.04325944790401
 20
53.061683741374573
 30
0.0
 11
-232.04325944790401
 21
53.061683741374573
 31
0.0
  0
LINE
  8
DETAIL
  6
CONTINUOUS
 62
     5
 10
-232.04325944790401
 20
53.061683741374573
 30
0.0
 11
-232.0599295855782
 21
52.937222547345641
 31
0.0
  0
LINE
  8
DETAIL
  6
CONTINUOUS
 62
     5
 10
-232.0599295855782
 20
52.937222547345641
 30
0.0
 11
-232.0778106114021
 21
52.813070742467183
 31
0.0
  0
LINE
  8
DETAIL
  6
CONTINUOUS
 62
     5
 10
-232.0778106114021
 20
52.813070742467183
 30
0.0
 11
-232.0778106114021
 21
52.813070742467183
 31
0.0
  0
LINE
  8
DETAIL
  6
CONTINUOUS
 62
     5
 10
-232.0778106114021
 20
52.813070742467183
 30
0.0
 11
-232.09688705287439
 21
52.689115169779313
 31
0.0
  0
LINE
  8
DETAIL
  6
CONTINUOUS
 62
     5
 10
-232.09688705287439
 20
52.689115169779313
 30
0.0
 11
-232.1171745361805
 21
52.565177366355947
 31
0.0
  0
LINE
  8
DETAIL
  6
CONTINUOUS
 62
     5
 10
-232.1171745361805
 20
52.565177366355947
 30
0.0
 11
-232.1171745361805
 21
52.565177366355947
 31
0.0
  0
LINE
  8
DETAIL
  6
CONTINUOUS
 62
     5
 10
-232.1171745361805
 20
52.565177366355947
 30
0.0
 11
-232.13865531373219
 21
52.441247572780128
 31
0.0
  0
LINE
  8
DETAIL
  6
CONTINUOUS
 62
     5
 10
-232.13865531373219
 20
52.441247572780128
 30
0.0
 11
-232.16114704415821
 21
52.318056149639233
 31
0.0
  0
LINE
  8
DETAIL
  6
CONTINUOUS
 62
     5
 10
-232.16114704415821
 20
52.318056149639233
 30
0.0
 11
-232.16114704415821
 21
52.318056149639233
 31
0.0
  0
LINE
  8
DETAIL
  6
CONTINUOUS
 62
     5
 10
-232.16114704415821
 20
52.318056149639233
 30
0.0
 11
-232.18458305675259
 21
52.195794694008782
 31
0.0
  0
LINE
  8
DETAIL
  6
CONTINUOUS
 62
     5
 10
-232.18458305675259
 20
52.195794694008782
 30
0.0
 11
-232.20952395725499
 21
52.071759628914613
 31
0.0
  0
LINE
  8
DETAIL
  6
CONTINUOUS
 62
     5
 10
-232.20952395725499
 20
52.071759628914613
 30
0.0
 11
-232.20952395725499
 21
52.071759628914613
 31
0.0
  0
LINE
  8
DETAIL
  6
CONTINUOUS
 62
     5
 10
-232.20952395725499
 20
52.071759628914613
 30
0.0
 11
-232.23644977172671
 21
51.943670175265368
 31
0.0
  0
LINE
  8
DETAIL
  6
CONTINUOUS
 62
     5
 10
-232.23644977172671
 20
51.943670175265368
 30
0.0
 11
-232.2648909310669
 21
51.813831919550807
 31
0.0
  0
LINE
  8
DETAIL
  6
CONTINUOUS
 62
     5
 10
-232.2648909310669
 20
51.813831919550807
 30
0.0
 11
-232.2648909310669
 21
51.813831919550807
 31
0.0
  0
LINE
  8
DETAIL
  6
CONTINUOUS
 62
     5
 10
-232.2648909310669
 20
51.813831919550807
 30
0.0
 11
-232.29428481283409
 21
51.684968427187471
 31
0.0
  0
LINE
  8
DETAIL
  6
CONTINUOUS
 62
     5
 10
-232.29428481283409
 20
51.684968427187471
 30
0.0
 11
-232.3246461763828
 21
51.556888813718608
 31
0.0
  0
LINE
  8
DETAIL
  6
CONTINUOUS
 62
     5
 10
-232.3246461763828
 20
51.556888813718608
 30
0.0
 11
-232.3246461763828
 21
51.556888813718608
 31
0.0
  0
LINE
  8
DETAIL
  6
CONTINUOUS
 62
     5
 10
-232.3246461763828
 20
51.556888813718608
 30
0.0
 11
-232.3560879139649
 21
51.42886640970886
 31
0.0
  0
LINE
  8
DETAIL
  6
CONTINUOUS
 62
     5
 10
-232.3560879139649
 20
51.42886640970886
 30
0.0
 11
-232.3885380676262
 21
51.300945855683949
 31
0.0
  0
LINE
  8
DETAIL
  6
CONTINUOUS
 62
     5
 10
-232.3885380676262
 20
51.300945855683949
 30
0.0
 11
-232.3885380676262
 21
51.300945855683949
 31
0.0
  0
LINE
  8
DETAIL
  6
CONTINUOUS
 62
     5
 10
-232.3885380676262
 20
51.300945855683949
 30
0.0
 11
-232.4219189716182
 21
51.173321922167133
 31
0.0
  0
LINE
  8
DETAIL
  6
CONTINUOUS
 62
     5
 10
-232.4219189716182
 20
51.173321922167133
 30
0.0
 11
-232.45631497922059
 21
51.046018589711878
 31
0.0
  0
LINE
  8
DETAIL
  6
CONTINUOUS
 62
     5
 10
-232.45631497922059
 20
51.046018589711878
 30
0.0
 11
-232.45631497922059
 21
51.046018589711878
 31
0.0
  0
LINE
  8
DETAIL
  6
CONTINUOUS
 62
     5
 10
-232.45631497922059
 20
51.046018589711878
 30
0.0
 11
-232.49173514199319
 21
50.918995103859288
 31
0.0
  0
LINE
  8
DETAIL
  6
CONTINUOUS
 62
     5
 10
-232.49173514199319
 20
50.918995103859288
 30
0.0
 11
-232.5277252855893
 21
50.792122560068151
 31
0.0
  0
LINE
  8
DETAIL
  6
CONTINUOUS
 62
     5
 10
-231.9460500950382
 20
60.192141332232382
 30
0.0
 11
-231.9469932407475
 21
60.130491288726489
 31
0.0
  0
LINE
  8
DETAIL
  6
CONTINUOUS
 62
     5
 10
-231.9469932407475
 20
60.130491288726489
 30
0.0
 11
-231.948797168428
 21
60.068844326806413
 31
0.0
  0
LINE
  8
DETAIL
  6
CONTINUOUS
 62
     5
 10
-231.948797168428
 20
60.068844326806413
 30
0.0
 11
-231.948797168428
 21
60.068844326806413
 31
0.0
  0
LINE
  8
DETAIL
  6
CONTINUOUS
 62
     5
 10
-231.948797168428
 20
60.068844326806413
 30
0.0
 11
-231.95213528208151
 21
60.007214784805853
 31
0.0
  0
LINE
  8
DETAIL
  6
CONTINUOUS
 62
     5
 10
-231.95213528208151
 20
60.007214784805853
 30
0.0
 11
-231.95693147383369
 21
59.945662028048901
 31
0.0
  0
LINE
  8
DETAIL
  6
CONTINUOUS
 62
     5
 10
-231.95693147383369
 20
59.945662028048901
 30
0.0
 11
-231.95693147383369
 21
59.945662028048901
 31
0.0
  0
LINE
  8
DETAIL
  6
CONTINUOUS
 62
     5
 10
-231.95693147383369
 20
59.945662028048901
 30
0.0
 11
-231.9629783191973
 21
59.884228970642937
 31
0.0
  0
LINE
  8
DETAIL
  6
CONTINUOUS
 62
     5
 10
-231.9629783191973
 20
59.884228970642937
 30
0.0
 11
-231.97029263911
 21
59.822847694839197
 31
0.0
  0
LINE
  8
DETAIL
  6
CONTINUOUS
 62
     5
 10
-231.97029263911
 20
59.822847694839197
 30
0.0
 11
-231.97029263911
 21
59.822847694839197
 31
0.0
  0
LINE
  8
DETAIL
  6
CONTINUOUS
 62
     5
 10
-231.97029263911
 20
59.822847694839197
 30
0.0
 11
-231.9789104484104
 21
59.761522150033443
 31
0.0
  0
LINE
  8
DETAIL
  6
CONTINUOUS
 62
     5
 10
-231.9789104484104
 20
59.761522150033443
 30
0.0
 11
-231.988720292111
 21
59.700654586056658
 31
0.0
  0
LINE
  8
DETAIL
  6
CONTINUOUS
 62
     5
 10
-231.988720292111
 20
59.700654586056658
 30
0.0
 11
-231.988720292111
 21
59.700654586056658
 31
0.0
  0
LINE
  8
DETAIL
  6
CONTINUOUS
 62
     5
 10
-231.988720292111
 20
59.700654586056658
 30
0.0
 11
-231.99966525623731
 21
59.64037623537746
 31
0.0
  0
LINE
  8
DETAIL
  6
CONTINUOUS
 62
     5
 10
-231.99966525623731
 20
59.64037623537746
 30
0.0
 11
-232.0120540606919
 21
59.579335960580643
 31
0.0
  0
LINE
  8
DETAIL
  6
CONTINUOUS
 62
     5
 10
-232.0120540606919
 20
59.579335960580643
 30
0.0
 11
-232.0120540606919
 21
59.579335960580643
 31
0.0
  0
LINE
  8
DETAIL
  6
CONTINUOUS
 62
     5
 10
-232.0120540606919
 20
59.579335960580643
 30
0.0
 11
-232.0261582911063
 21
59.516393192986811
 31
0.0
  0
LINE
  8
DETAIL
  6
CONTINUOUS
 62
     5
 10
-232.0261582911063
 20
59.516393192986811
 30
0.0
 11
-232.04173536215839
 21
59.452732008743283
 31
0.0
  0
LINE
  8
DETAIL
  6
CONTINUOUS
 62
     5
 10
-232.04173536215839
 20
59.452732008743283
 30
0.0
 11
-232.04173536215839
 21
59.452732008743283
 31
0.0
  0
LINE
  8
DETAIL
  6
CONTINUOUS
 62
     5
 10
-232.04173536215839
 20
59.452732008743283
 30
0.0
 11
-232.05847878135171
 21
59.389757066956861
 31
0.0
  0
LINE
  8
DETAIL
  6
CONTINUOUS
 62
     5
 10
-232.05847878135171
 20
59.389757066956861
 30
0.0
 11
-232.07634059844449
 21
59.327430713745969
 31
0.0
  0
LINE
  8
DETAIL
  6
CONTINUOUS
 62
     5
 10
-232.07634059844449
 20
59.327430713745969
 30
0.0
 11
-232.07634059844449
 21
59.327430713745969
 31
0.0
  0
LINE
  8
DETAIL
  6
CONTINUOUS
 62
     5
 10
-232.07634059844449
 20
59.327430713745969
 30
0.0
 11
-232.09534277278661
 21
59.265398800940893
 31
0.0
  0
LINE
  8
DETAIL
  6
CONTINUOUS
 62
     5
 10
-232.09534277278661
 20
59.265398800940893
 30
0.0
 11
-232.11552835983659
 21
59.203483516209467
 31
0.0
  0
LINE
  8
DETAIL
  6
CONTINUOUS
 62
     5
 10
-232.11552835983659
 20
59.203483516209467
 30
0.0
 11
-232.11552835983659
 21
59.203483516209467
 31
0.0
  0
LINE
  8
DETAIL
  6
CONTINUOUS
 62
     5
 10
-232.11552835983659
 20
59.203483516209467
 30
0.0
 11
-232.13685995740721
 21
59.141735373588922
 31
0.0
  0
LINE
  8
DETAIL
  6
CONTINUOUS
 62
     5
 10
-232.13685995740721
 20
59.141735373588922
 30
0.0
 11
-232.15895723662189
 21
59.08094185675543
 31
0.0
  0
LINE
  8
DETAIL
  6
CONTINUOUS
 62
     5
 10
-232.15895723662189
 20
59.08094185675543
 30
0.0
 11
-232.15895723662189
 21
59.08094185675543
 31
0.0
  0
LINE
  8
DETAIL
  6
CONTINUOUS
 62
     5
 10
-232.15895723662189
 20
59.08094185675543
 30
0.0
 11
-232.18169178959349
 21
59.021293638196248
 31
0.0
  0
LINE
  8
DETAIL
  6
CONTINUOUS
 62
     5
 10
-232.18169178959349
 20
59.021293638196248
 30
0.0
 11
-232.2062858190869
 21
58.959857176005023
 31
0.0
  0
LINE
  8
DETAIL
  6
CONTINUOUS
 62
     5
 10
-232.2062858190869
 20
58.959857176005023
 30
0.0
 11
-232.2062858190869
 21
58.959857176005023
 31
0.0
  0
LINE
  8
DETAIL
  6
CONTINUOUS
 62
     5
 10
-232.2062858190869
 20
58.959857176005023
 30
0.0
 11
-232.2337867202265
 21
58.894166736324792
 31
0.0
  0
LINE
  8
DETAIL
  6
CONTINUOUS
 62
     5
 10
-232.2337867202265
 20
58.894166736324792
 30
0.0
 11
-232.26319204692379
 21
58.826752031892283
 31
0.0
  0
LINE
  8
DETAIL
  6
CONTINUOUS
 62
     5
 10
-232.26319204692379
 20
58.826752031892283
 30
0.0
 11
-232.26319204692379
 21
58.826752031892283
 31
0.0
  0
LINE
  8
DETAIL
  6
CONTINUOUS
 62
     5
 10
-232.26319204692379
 20
58.826752031892283
 30
0.0
 11
-232.29329869892311
 21
58.760592724526653
 31
0.0
  0
LINE
  8
DETAIL
  6
CONTINUOUS
 62
     5
 10
-232.29329869892311
 20
58.760592724526653
 30
0.0
 11
-232.3241508005118
 21
58.695472825786567
 31
0.0
  0
LINE
  8
DETAIL
  6
CONTINUOUS
 62
     5
 10
-232.3241508005118
 20
58.695472825786567
 30
0.0
 11
-232.3241508005118
 21
58.695472825786567
 31
0.0
  0
LINE
  8
DETAIL
  6
CONTINUOUS
 62
     5
 10
-232.3241508005118
 20
58.695472825786567
 30
0.0
 11
-232.35601494619871
 21
58.630587757998569
 31
0.0
  0
LINE
  8
DETAIL
  6
CONTINUOUS
 62
     5
 10
-232.35601494619871
 20
58.630587757998569
 30
0.0
 11
-232.3888003868316
 21
58.565974236822228
 31
0.0
  0
LINE
  8
DETAIL
  6
CONTINUOUS
 62
     5
 10
-232.3888003868316
 20
58.565974236822228
 30
0.0
 11
-232.3888003868316
 21
58.565974236822228
 31
0.0
  0
LINE
  8
DETAIL
  6
CONTINUOUS
 62
     5
 10
-232.3888003868316
 20
58.565974236822228
 30
0.0
 11
-232.42237257486809
 21
58.501836920482447
 31
0.0
  0
LINE
  8
DETAIL
  6
CONTINUOUS
 62
     5
 10
-232.42237257486809
 20
58.501836920482447
 30
0.0
 11
-232.45677911286421
 21
58.438210944133523
 31
0.0
  0
LINE
  8
DETAIL
  6
CONTINUOUS
 62
     5
 10
-232.45677911286421
 20
58.438210944133523
 30
0.0
 11
-232.45677911286421
 21
58.438210944133523
 31
0.0
  0
LINE
  8
DETAIL
  6
CONTINUOUS
 62
     5
 10
-232.45677911286421
 20
58.438210944133523
 30
0.0
 11
-232.4920203267167
 21
58.375048261899849
 31
0.0
  0
LINE
  8
DETAIL
  6
CONTINUOUS
 62
     5
 10
-232.4920203267167
 20
58.375048261899849
 30
0.0
 11
-232.5277252855893
 21
58.312137626854913
 31
0.0
  0
LINE
  8
DETAIL
  6
CONTINUOUS
 62
     5
 10
-232.5277252855893
 20
62.072145160573541
 30
0.0
 11
-232.4920234889255
 21
62.009240212531438
 31
0.0
  0
LINE
  8
DETAIL
  6
CONTINUOUS
 62
     5
 10
-232.4920234889255
 20
62.009240212531438
 30
0.0
 11
-232.45678533157201
 21
61.946083216501393
 31
0.0
  0
LINE
  8
DETAIL
  6
CONTINUOUS
 62
     5
 10
-232.45678533157201
 20
61.946083216501393
 30
0.0
 11
-232.45678533157201
 21
61.946083216501393
 31
0.0
  0
LINE
  8
DETAIL
  6
CONTINUOUS
 62
     5
 10
-232.45678533157201
 20
61.946083216501393
 30
0.0
 11
-232.42238167541811
 21
61.882462968932941
 31
0.0
  0
LINE
  8
DETAIL
  6
CONTINUOUS
 62
     5
 10
-232.42238167541811
 20
61.882462968932941
 30
0.0
 11
-232.3888122726687
 21
61.818331644026223
 31
0.0
  0
LINE
  8
DETAIL
  6
CONTINUOUS
 62
     5
 10
-232.3888122726687
 20
61.818331644026223
 30
0.0
 11
-232.3888122726687
 21
61.818331644026223
 31
0.0
  0
LINE
  8
DETAIL
  6
CONTINUOUS
 62
     5
 10
-232.3888122726687
 20
61.818331644026223
 30
0.0
 11
-232.3560295440401
 21
61.753724416188327
 31
0.0
  0
LINE
  8
DETAIL
  6
CONTINUOUS
 62
     5
 10
-232.3560295440401
 20
61.753724416188327
 30
0.0
 11
-232.32416769397901
 21
61.688845082906248
 31
0.0
  0
LINE
  8
DETAIL
  6
CONTINUOUS
 62
     5
 10
-232.32416769397901
 20
61.688845082906248
 30
0.0
 11
-232.32416769397901
 21
61.688845082906248
 31
0.0
  0
LINE
  8
DETAIL
  6
CONTINUOUS
 62
     5
 10
-232.32416769397901
 20
61.688845082906248
 30
0.0
 11
-232.2933173665559
 21
61.623730129919409
 31
0.0
  0
LINE
  8
DETAIL
  6
CONTINUOUS
 62
     5
 10
-232.2933173665559
 20
61.623730129919409
 30
0.0
 11
-232.26321318060141
 21
61.557578172900492
 31
0.0
  0
LINE
  8
DETAIL
  6
CONTINUOUS
 62
     5
 10
-232.26321318060141
 20
61.557578172900492
 30
0.0
 11
-232.26321318060141
 21
61.557578172900492
 31
0.0
  0
LINE
  8
DETAIL
  6
CONTINUOUS
 62
     5
 10
-232.26321318060141
 20
61.557578172900492
 30
0.0
 11
-232.23381132794319
 21
61.490174074302793
 31
0.0
  0
LINE
  8
DETAIL
  6
CONTINUOUS
 62
     5
 10
-232.23381132794319
 20
61.490174074302793
 30
0.0
 11
-232.2063103176358
 21
61.424485553767113
 31
0.0
  0
LINE
  8
DETAIL
  6
CONTINUOUS
 62
     5
 10
-232.2063103176358
 20
61.424485553767113
 30
0.0
 11
-232.2063103176358
 21
61.424485553767113
 31
0.0
  0
LINE
  8
DETAIL
  6
CONTINUOUS
 62
     5
 10
-232.2063103176358
 20
61.424485553767113
 30
0.0
 11
-232.181708812941
 21
61.363032209338598
 31
0.0
  0
LINE
  8
DETAIL
  6
CONTINUOUS
 62
     5
 10
-232.181708812941
 20
61.363032209338598
 30
0.0
 11
-232.15896377671871
 21
61.303358295489367
 31
0.0
  0
LINE
  8
DETAIL
  6
CONTINUOUS
 62
     5
 10
-232.15896377671871
 20
61.303358295489367
 30
0.0
 11
-232.15896377671871
 21
61.303358295489367
 31
0.0
  0
LINE
  8
DETAIL
  6
CONTINUOUS
 62
     5
 10
-232.15896377671871
 20
61.303358295489367
 30
0.0
 11
-232.13685804590941
 21
61.242542051192061
 31
0.0
  0
LINE
  8
DETAIL
  6
CONTINUOUS
 62
     5
 10
-232.13685804590941
 20
61.242542051192061
 30
0.0
 11
-232.11551965417621
 21
61.1807729969928
 31
0.0
  0
LINE
  8
DETAIL
  6
CONTINUOUS
 62
     5
 10
-232.11551965417621
 20
61.1807729969928
 30
0.0
 11
-232.11551965417621
 21
61.1807729969928
 31
0.0
  0
LINE
  8
DETAIL
  6
CONTINUOUS
 62
     5
 10
-232.11551965417621
 20
61.1807729969928
 30
0.0
 11
-232.09532762072371
 21
61.118835398770948
 31
0.0
  0
LINE
  8
DETAIL
  6
CONTINUOUS
 62
     5
 10
-232.09532762072371
 20
61.118835398770948
 30
0.0
 11
-232.07631971020061
 21
61.056781222167388
 31
0.0
  0
LINE
  8
DETAIL
  6
CONTINUOUS
 62
     5
 10
-232.07631971020061
 20
61.056781222167388
 30
0.0
 11
-232.07631971020061
 21
61.056781222167388
 31
0.0
  0
LINE
  8
DETAIL
  6
CONTINUOUS
 62
     5
 10
-232.07631971020061
 20
61.056781222167388
 30
0.0
 11
-232.05845332899199
 21
60.994433837608817
 31
0.0
  0
LINE
  8
DETAIL
  6
CONTINUOUS
 62
     5
 10
-232.05845332899199
 20
60.994433837608817
 30
0.0
 11
-232.0417057049834
 21
60.931434534902792
 31
0.0
  0
LINE
  8
DETAIL
  6
CONTINUOUS
 62
     5
 10
-232.0417057049834
 20
60.931434534902792
 30
0.0
 11
-232.0417057049834
 21
60.931434534902792
 31
0.0
  0
LINE
  8
DETAIL
  6
CONTINUOUS
 62
     5
 10
-232.0417057049834
 20
60.931434534902792
 30
0.0
 11
-232.02612451357459
 21
60.867744239380897
 31
0.0
  0
LINE
  8
DETAIL
  6
CONTINUOUS
 62
     5
 10
-232.02612451357459
 20
60.867744239380897
 30
0.0
 11
-232.0120193987166
 21
60.804784499088953
 31
0.0
  0
LINE
  8
DETAIL
  6
CONTINUOUS
 62
     5
 10
-232.0120193987166
 20
60.804784499088953
 30
0.0
 11
-232.0120193987166
 21
60.804784499088953
 31
0.0
  0
LINE
  8
DETAIL
  6
CONTINUOUS
 62
     5
 10
-232.0120193987166
 20
60.804784499088953
 30
0.0
 11
-231.99963545911291
 21
60.743753747390826
 31
0.0
  0
LINE
  8
DETAIL
  6
CONTINUOUS
 62
     5
 10
-231.99963545911291
 20
60.743753747390826
 30
0.0
 11
-231.98869764392111
 21
60.683497336206472
 31
0.0
  0
LINE
  8
DETAIL
  6
CONTINUOUS
 62
     5
 10
-231.98869764392111
 20
60.683497336206472
 30
0.0
 11
-231.98869764392111
 21
60.683497336206472
 31
0.0
  0
LINE
  8
DETAIL
  6
CONTINUOUS
 62
     5
 10
-231.98869764392111
 20
60.683497336206472
 30
0.0
 11
-231.97889331545619
 21
60.622647411808941
 31
0.0
  0
LINE
  8
DETAIL
  6
CONTINUOUS
 62
     5
 10
-231.97889331545619
 20
60.622647411808941
 30
0.0
 11
-231.97027963820719
 21
60.561336379325212
 31
0.0
  0
LINE
  8
DETAIL
  6
CONTINUOUS
 62
     5
 10
-231.97027963820719
 20
60.561336379325212
 30
0.0
 11
-231.97027963820719
 21
60.561336379325212
 31
0.0
  0
LINE
  8
DETAIL
  6
CONTINUOUS
 62
     5
 10
-231.97027963820719
 20
60.561336379325212
 30
0.0
 11
-231.9629690874616
 21
60.499970935813167
 31
0.0
  0
LINE
  8
DETAIL
  6
CONTINUOUS
 62
     5
 10
-231.9629690874616
 20
60.499970935813167
 30
0.0
 11
-231.9569255795233
 21
60.438554687199712
 31
0.0
  0
LINE
  8
DETAIL
  6
CONTINUOUS
 62
     5
 10
-231.9569255795233
 20
60.438554687199712
 30
0.0
 11
-231.9569255795233
 21
60.438554687199712
 31
0.0
  0
LINE
  8
DETAIL
  6
CONTINUOUS
 62
     5
 10
-231.9569255795233
 20
60.438554687199712
 30
0.0
 11
-231.95213199938971
 21
60.377018493046478
 31
0.0
  0
LINE
  8
DETAIL
  6
CONTINUOUS
 62
     5
 10
-231.95213199938971
 20
60.377018493046478
 30
0.0
 11
-231.9487956658173
 21
60.315405318583998
 31
0.0
  0
LINE
  8
DETAIL
  6
CONTINUOUS
 62
     5
 10
-231.9487956658173
 20
60.315405318583998
 30
0.0
 11
-231.9487956658173
 21
60.315405318583998
 31
0.0
  0
LINE
  8
DETAIL
  6
CONTINUOUS
 62
     5
 10
-231.9487956658173
 20
60.315405318583998
 30
0.0
 11
-231.94699271198871
 21
60.253774822573632
 31
0.0
  0
LINE
  8
DETAIL
  6
CONTINUOUS
 62
     5
 10
-231.94699271198871
 20
60.253774822573632
 30
0.0
 11
-231.9460500950382
 21
60.192141332232382
 31
0.0
  0
LINE
  8
DETAIL
  6
CONTINUOUS
 62
     5
 10
-232.0933240186674
 20
-61.112466738783333
 30
0.0
 11
-232.1034519017222
 21
-61.144026746778927
 31
0.0
  0
LINE
  8
DETAIL
  6
CONTINUOUS
 62
     5
 10
-232.1034519017222
 20
-61.144026746778927
 30
0.0
 11
-232.11378887397211
 21
-61.175603769130419
 31
0.0
  0
LINE
  8
DETAIL
  6
CONTINUOUS
 62
     5
 10
-232.11378887397211
 20
-61.175603769130419
 30
0.0
 11
-232.11378887397211
 21
-61.175603769130419
 31
0.0
  0
LINE
  8
DETAIL
  6
CONTINUOUS
 62
     5
 10
-232.11378887397211
 20
-61.175603769130419
 30
0.0
 11
-232.12447358331201
 21
-61.207152082858272
 31
0.0
  0
LINE
  8
DETAIL
  6
CONTINUOUS
 62
     5
 10
-232.12447358331201
 20
-61.207152082858272
 30
0.0
 11
-232.13536291243861
 21
-61.238375015641573
 31
0.0
  0
LINE
  8
DETAIL
  6
CONTINUOUS
 62
     5
 10
-232.13536291243861
 20
-61.238375015641573
 30
0.0
 11
-232.13536291243861
 21
-61.238375015641573
 31
0.0
  0
LINE
  8
DETAIL
  6
CONTINUOUS
 62
     5
 10
-232.13536291243861
 20
-61.238375015641573
 30
0.0
 11
-232.14638074114691
 21
-61.269208974497531
 31
0.0
  0
LINE
  8
DETAIL
  6
CONTINUOUS
 62
     5
 10
-232.14638074114691
 20
-61.269208974497531
 30
0.0
 11
-232.15800070282319
 21
-61.300773633134611
 31
0.0
  0
LINE
  8
DETAIL
  6
CONTINUOUS
 62
     5
 10
-232.15800070282319
 20
-61.300773633134611
 30
0.0
 11
-232.15800070282319
 21
-61.300773633134611
 31
0.0
  0
LINE
  8
DETAIL
  6
CONTINUOUS
 62
     5
 10
-232.15800070282319
 20
-61.300773633134611
 30
0.0
 11
-232.17035455696021
 21
-61.333363952578168
 31
0.0
  0
LINE
  8
DETAIL
  6
CONTINUOUS
 62
     5
 10
-232.17035455696021
 20
-61.333363952578168
 30
0.0
 11
-232.1816568138828
 21
-61.362792776427057
 31
0.0
  0
LINE
  8
DETAIL
  6
CONTINUOUS
 62
     5
 10
-232.1816568138828
 20
-61.362792776427057
 30
0.0
 11
-232.1816568138828
 21
-61.362792776427057
 31
0.0
  0
LINE
  8
DETAIL
  6
CONTINUOUS
 62
     5
 10
-232.1816568138828
 20
-61.362792776427057
 30
0.0
 11
-232.19142248239299
 21
-61.387938719676697
 31
0.0
  0
LINE
  8
DETAIL
  6
CONTINUOUS
 62
     5
 10
-232.19142248239299
 20
-61.387938719676697
 30
0.0
 11
-232.2062858143739
 21
-61.424425600336633
 31
0.0
  0
LINE
  8
DETAIL
  6
CONTINUOUS
 62
     5
 10
-232.2062858143739
 20
-61.424425600336633
 30
0.0
 11
-232.2062858143739
 21
-61.424425600336633
 31
0.0
  0
LINE
  8
DETAIL
  6
CONTINUOUS
 62
     5
 10
-232.2062858143739
 20
-61.424425600336633
 30
0.0
 11
-232.2319396629415
 21
-61.485422049428678
 31
0.0
  0
LINE
  8
DETAIL
  6
CONTINUOUS
 62
     5
 10
-232.2319396629415
 20
-61.485422049428678
 30
0.0
 11
-232.26319204306799
 21
-61.557530747011413
 31
0.0
  0
LINE
  8
DETAIL
  6
CONTINUOUS
 62
     5
 10
-232.26319204306799
 20
-61.557530747011413
 30
0.0
 11
-232.26319204306799
 21
-61.557530747011413
 31
0.0
  0
LINE
  8
DETAIL
  6
CONTINUOUS
 62
     5
 10
-232.26319204306799
 20
-61.557530747011413
 30
0.0
 11
-232.29379365741119
 21
-61.6249479227385
 31
0.0
  0
LINE
  8
DETAIL
  6
CONTINUOUS
 62
     5
 10
-232.29379365741119
 20
-61.6249479227385
 30
0.0
 11
-232.3241507975192
 21
-61.688809955609877
 31
0.0
  0
LINE
  8
DETAIL
  6
CONTINUOUS
 62
     5
 10
-232.3241507975192
 20
-61.688809955609877
 30
0.0
 11
-232.3241507975192
 21
-61.688809955609877
 31
0.0
  0
LINE
  8
DETAIL
  6
CONTINUOUS
 62
     5
 10
-232.3241507975192
 20
-61.688809955609877
 30
0.0
 11
-232.35588214899181
 21
-61.753357548065708
 31
0.0
  0
LINE
  8
DETAIL
  6
CONTINUOUS
 62
     5
 10
-232.35588214899181
 20
-61.753357548065708
 30
0.0
 11
-232.38880038474539
 21
-61.818308546960047
 31
0.0
  0
LINE
  8
DETAIL
  6
CONTINUOUS
 62
     5
 10
-232.38880038474539
 20
-61.818308546960047
 30
0.0
 11
-232.38880038474539
 21
-61.818308546960047
 31
0.0
  0
LINE
  8
DETAIL
  6
CONTINUOUS
 62
     5
 10
-232.38880038474539
 20
-61.818308546960047
 30
0.0
 11
-232.42240878998601
 21
-61.882537903499667
 31
0.0
  0
LINE
  8
DETAIL
  6
CONTINUOUS
 62
     5
 10
-232.42240878998601
 20
-61.882537903499667
 30
0.0
 11
-232.45677911176321
 21
-61.946071841889022
 31
0.0
  0
LINE
  8
DETAIL
  6
CONTINUOUS
 62
     5
 10
-232.45677911176321
 20
-61.946071841889022
 30
0.0
 11
-232.45677911176321
 21
-61.946071841889022
 31
0.0
  0
LINE
  8
DETAIL
  6
CONTINUOUS
 62
     5
 10
-232.45677911176321
 20
-61.946071841889022
 30
0.0
 11
-232.49200825391461
 21
-62.009203845480727
 31
0.0
  0
LINE
  8
DETAIL
  6
CONTINUOUS
 62
     5
 10
-232.49200825391461
 20
-62.009203845480727
 30
0.0
 11
-232.5277252855893
 21
-62.072145161224107
 31
0.0
  0
LINE
  8
DETAIL
  6
CONTINUOUS
 62
     5
 10
-231.94605009633949
 20
-60.192141394039417
 30
0.0
 11
-231.9470028998694
 21
-60.253833411025603
 31
0.0
  0
LINE
  8
DETAIL
  6
CONTINUOUS
 62
     5
 10
-231.9470028998694
 20
-60.253833411025603
 30
0.0
 11
-231.9487971691286
 21
-60.315438407000393
 31
0.0
  0
LINE
  8
DETAIL
  6
CONTINUOUS
 62
     5
 10
-231.9487971691286
 20
-60.315438407000393
 30
0.0
 11
-231.9487971691286
 21
-60.315438407000393
 31
0.0
  0
LINE
  8
DETAIL
  6
CONTINUOUS
 62
     5
 10
-231.9487971691286
 20
-60.315438407000393
 30
0.0
 11
-231.9521063080131
 21
-60.376942043653507
 31
0.0
  0
LINE
  8
DETAIL
  6
CONTINUOUS
 62
     5
 10
-231.9521063080131
 20
-60.376942043653507
 30
0.0
 11
-231.95693147308549
 21
-60.438620713478308
 31
0.0
  0
LINE
  8
DETAIL
  6
CONTINUOUS
 62
     5
 10
-231.95693147308549
 20
-60.438620713478308
 30
0.0
 11
-231.95693147308549
 21
-60.438620713478308
 31
0.0
  0
LINE
  8
DETAIL
  6
CONTINUOUS
 62
     5
 10
-231.95693147308549
 20
-60.438620713478308
 30
0.0
 11
-231.96308455606061
 21
-60.500515441806272
 31
0.0
  0
LINE
  8
DETAIL
  6
CONTINUOUS
 62
     5
 10
-231.96308455606061
 20
-60.500515441806272
 30
0.0
 11
-231.97029263659331
 21
-60.561435054517631
 31
0.0
  0
LINE
  8
DETAIL
  6
CONTINUOUS
 62
     5
 10
-231.97029263659331
 20
-60.561435054517631
 30
0.0
 11
-231.97029263659331
 21
-60.561435054517631
 31
0.0
  0
LINE
  8
DETAIL
  6
CONTINUOUS
 62
     5
 10
-231.97029263659331
 20
-60.561435054517631
 30
0.0
 11
-231.9785144652169
 21
-60.621039844380391
 31
0.0
  0
LINE
  8
DETAIL
  6
CONTINUOUS
 62
     5
 10
-231.9785144652169
 20
-60.621039844380391
 30
0.0
 11
-231.98872028803521
 21
-60.683628171162752
 31
0.0
  0
LINE
  8
DETAIL
  6
CONTINUOUS
 62
     5
 10
-231.98872028803521
 20
-60.683628171162752
 30
0.0
 11
-231.98872028803521
 21
-60.683628171162752
 31
0.0
  0
LINE
  8
DETAIL
  6
CONTINUOUS
 62
     5
 10
-231.98872028803521
 20
-60.683628171162752
 30
0.0
 11
-232.0011429324893
 21
-60.750327894245572
 31
0.0
  0
LINE
  8
DETAIL
  6
CONTINUOUS
 62
     5
 10
-232.0011429324893
 20
-60.750327894245572
 30
0.0
 11
-232.01205405579509
 21
-60.804946804458439
 31
0.0
  0
LINE
  8
DETAIL
  6
CONTINUOUS
 62
     5
 10
-232.01205405579509
 20
-60.804946804458439
 30
0.0
 11
-232.01205405579509
 21
-60.804946804458439
 31
0.0
  0
LINE
  8
DETAIL
  6
CONTINUOUS
 62
     5
 10
-232.01205405579509
 20
-60.804946804458439
 30
0.0
 11
-232.0181974390222
 21
-60.833823615635247
 31
0.0
  0
LINE
  8
DETAIL
  6
CONTINUOUS
 62
     5
 10
-232.0181974390222
 20
-60.833823615635247
 30
0.0
 11
-232.02216652887611
 21
-60.850740802180383
 31
0.0
  0
LINE
  8
DETAIL
  6
CONTINUOUS
 62
     5
 10
-232.02216652887611
 20
-60.850740802180383
 30
0.0
 11
-232.02216652887611
 21
-60.850740802180383
 31
0.0
  0
LINE
  8
DETAIL
  6
CONTINUOUS
 62
     5
 10
-232.02216652887611
 20
-60.850740802180383
 30
0.0
 11
-232.02715996284999
 21
-60.871979250599964
 31
0.0
  0
LINE
  8
DETAIL
  6
CONTINUOUS
 62
     5
 10
-232.02715996284999
 20
-60.871979250599964
 30
0.0
 11
-232.03294747594941
 21
-60.89636973523983
 31
0.0
  0
LINE
  8
DETAIL
  6
CONTINUOUS
 62
     5
 10
-232.03294747594941
 20
-60.89636973523983
 30
0.0
 11
-232.03294747594941
 21
-60.89636973523983
 31
0.0
  0
LINE
  8
DETAIL
  6
CONTINUOUS
 62
     5
 10
-232.03294747594941
 20
-60.89636973523983
 30
0.0
 11
-232.03866984231081
 21
-60.919549426676951
 31
0.0
  0
LINE
  8
DETAIL
  6
CONTINUOUS
 62
     5
 10
-232.03866984231081
 20
-60.919549426676951
 30
0.0
 11
-232.0443808950732
 21
-60.941831192575762
 31
0.0
  0
LINE
  8
DETAIL
  6
CONTINUOUS
 62
     5
 10
-232.0443808950732
 20
-60.941831192575762
 30
0.0
 11
-232.0443808950732
 21
-60.941831192575762
 31
0.0
  0
LINE
  8
DETAIL
  6
CONTINUOUS
 62
     5
 10
-232.0443808950732
 20
-60.941831192575762
 30
0.0
 11
-232.05030689874459
 21
-60.964383655824967
 31
0.0
  0
LINE
  8
DETAIL
  6
CONTINUOUS
 62
     5
 10
-232.05030689874459
 20
-60.964383655824967
 30
0.0
 11
-232.05645078430629
 21
-60.987122763127161
 31
0.0
  0
LINE
  8
DETAIL
  6
CONTINUOUS
 62
     5
 10
-232.05645078430629
 20
-60.987122763127161
 30
0.0
 11
-232.05645078430629
 21
-60.987122763127161
 31
0.0
  0
LINE
  8
DETAIL
  6
CONTINUOUS
 62
     5
 10
-232.05645078430629
 20
-60.987122763127161
 30
0.0
 11
-232.0627547181339
 21
-61.009735044053002
 31
0.0
  0
LINE
  8
DETAIL
  6
CONTINUOUS
 62
     5
 10
-232.0627547181339
 20
-61.009735044053002
 30
0.0
 11
-232.06914114170641
 21
-61.032242035833121
 31
0.0
  0
LINE
  8
DETAIL
  6
CONTINUOUS
 62
     5
 10
-232.5277252855893
 20
-58.312137627505358
 30
0.0
 11
-232.4920234894748
 21
-58.375042574745457
 31
0.0
  0
LINE
  8
DETAIL
  6
CONTINUOUS
 62
     5
 10
-232.4920234894748
 20
-58.375042574745457
 30
0.0
 11
-232.45678533264129
 21
-58.438199569956339
 31
0.0
  0
LINE
  8
DETAIL
  6
CONTINUOUS
 62
     5
 10
-232.45678533264129
 20
-58.438199569956339
 30
0.0
 11
-232.45678533264129
 21
-58.438199569956339
 31
0.0
  0
LINE
  8
DETAIL
  6
CONTINUOUS
 62
     5
 10
-232.45678533264129
 20
-58.438199569956339
 30
0.0
 11
-232.4223816769553
 21
-58.501819816674747
 31
0.0
  0
LINE
  8
DETAIL
  6
CONTINUOUS
 62
     5
 10
-232.4223816769553
 20
-58.501819816674747
 30
0.0
 11
-232.38881227462869
 21
-58.565951140702907
 31
0.0
  0
LINE
  8
DETAIL
  6
CONTINUOUS
 62
     5
 10
-232.38881227462869
 20
-58.565951140702907
 30
0.0
 11
-232.38881227462869
 21
-58.565951140702907
 31
0.0
  0
LINE
  8
DETAIL
  6
CONTINUOUS
 62
     5
 10
-232.38881227462869
 20
-58.565951140702907
 30
0.0
 11
-232.35602954638989
 21
-58.630558367639587
 31
0.0
  0
LINE
  8
DETAIL
  6
CONTINUOUS
 62
     5
 10
-232.35602954638989
 20
-58.630558367639587
 30
0.0
 11
-232.3241676966893
 21
-58.69543770000422
 31
0.0
  0
LINE
  8
DETAIL
  6
CONTINUOUS
 62
     5
 10
-232.3241676966893
 20
-58.69543770000422
 30
0.0
 11
-232.3241676966893
 21
-58.69543770000422
 31
0.0
  0
LINE
  8
DETAIL
  6
CONTINUOUS
 62
     5
 10
-232.3241676966893
 20
-58.69543770000422
 30
0.0
 11
-232.29331736959941
 21
-58.76055265205963
 31
0.0
  0
LINE
  8
DETAIL
  6
CONTINUOUS
 62
     5
 10
-232.29331736959941
 20
-58.76055265205963
 30
0.0
 11
-232.2632131839604
 21
-58.826704608119996
 31
0.0
  0
LINE
  8
DETAIL
  6
CONTINUOUS
 62
     5
 10
-232.2632131839604
 20
-58.826704608119996
 30
0.0
 11
-232.2632131839604
 21
-58.826704608119996
 31
0.0
  0
LINE
  8
DETAIL
  6
CONTINUOUS
 62
     5
 10
-232.2632131839604
 20
-58.826704608119996
 30
0.0
 11
-232.23381133160629
 21
-58.894108705730957
 31
0.0
  0
LINE
  8
DETAIL
  6
CONTINUOUS
 62
     5
 10
-232.23381133160629
 20
-58.894108705730957
 30
0.0
 11
-232.20631032157971
 21
-58.959797225309963
 31
0.0
  0
LINE
  8
DETAIL
  6
CONTINUOUS
 62
     5
 10
-232.20631032157971
 20
-58.959797225309963
 30
0.0
 11
-232.20631032157971
 21
-58.959797225309963
 31
0.0
  0
LINE
  8
DETAIL
  6
CONTINUOUS
 62
     5
 10
-232.20631032157971
 20
-58.959797225309963
 30
0.0
 11
-232.1817088171301
 21
-59.021250568860133
 31
0.0
  0
LINE
  8
DETAIL
  6
CONTINUOUS
 62
     5
 10
-232.1817088171301
 20
-59.021250568860133
 30
0.0
 11
-232.1589637811237
 21
-59.080924481856577
 31
0.0
  0
LINE
  8
DETAIL
  6
CONTINUOUS
 62
     5
 10
-232.1589637811237
 20
-59.080924481856577
 30
0.0
 11
-232.1589637811237
 21
-59.080924481856577
 31
0.0
  0
LINE
  8
DETAIL
  6
CONTINUOUS
 62
     5
 10
-232.1589637811237
 20
-59.080924481856577
 30
0.0
 11
-232.13685805050511
 21
-59.141740725270608
 31
0.0
  0
LINE
  8
DETAIL
  6
CONTINUOUS
 62
     5
 10
-232.13685805050511
 20
-59.141740725270608
 30
0.0
 11
-232.1155196589159
 21
-59.20350977858692
 31
0.0
  0
LINE
  8
DETAIL
  6
CONTINUOUS
 62
     5
 10
-232.1155196589159
 20
-59.20350977858692
 30
0.0
 11
-232.1155196589159
 21
-59.20350977858692
 31
0.0
  0
LINE
  8
DETAIL
  6
CONTINUOUS
 62
     5
 10
-232.1155196589159
 20
-59.20350977858692
 30
0.0
 11
-232.09532762554159
 21
-59.265447375946849
 31
0.0
  0
LINE
  8
DETAIL
  6
CONTINUOUS
 62
     5
 10
-232.09532762554159
 20
-59.265447375946849
 30
0.0
 11
-232.07631971503861
 21
-59.327501551603923
 31
0.0
  0
LINE
  8
DETAIL
  6
CONTINUOUS
 62
     5
 10
-232.07631971503861
 20
-59.327501551603923
 30
0.0
 11
-232.07631971503861
 21
-59.327501551603923
 31
0.0
  0
LINE
  8
DETAIL
  6
CONTINUOUS
 62
     5
 10
-232.07631971503861
 20
-59.327501551603923
 30
0.0
 11
-232.0584533337848
 21
-59.389848935098428
 31
0.0
  0
LINE
  8
DETAIL
  6
CONTINUOUS
 62
     5
 10
-232.0584533337848
 20
-59.389848935098428
 30
0.0
 11
-232.0417057095743
 21
-59.45284823700996
 31
0.0
  0
LINE
  8
DETAIL
  6
CONTINUOUS
 62
     5
 10
-232.0417057095743
 20
-59.45284823700996
 30
0.0
 11
-232.0417057095743
 21
-59.45284823700996
 31
0.0
  0
LINE
  8
DETAIL
  6
CONTINUOUS
 62
     5
 10
-232.0417057095743
 20
-59.45284823700996
 30
0.0
 11
-232.02612451777119
 21
-59.516538532110808
 31
0.0
  0
LINE
  8
DETAIL
  6
CONTINUOUS
 62
     5
 10
-232.02612451777119
 20
-59.516538532110808
 30
0.0
 11
-232.01201940260569
 21
-59.579498270907997
 31
0.0
  0
LINE
  8
DETAIL
  6
CONTINUOUS
 62
     5
 10
-232.01201940260569
 20
-59.579498270907997
 30
0.0
 11
-232.01201940260569
 21
-59.579498270907997
 31
0.0
  0
LINE
  8
DETAIL
  6
CONTINUOUS
 62
     5
 10
-232.01201940260569
 20
-59.579498270907997
 30
0.0
 11
-231.99963546301191
 21
-59.640529018812167
 31
0.0
  0
LINE
  8
DETAIL
  6
CONTINUOUS
 62
     5
 10
-231.99963546301191
 20
-59.640529018812167
 30
0.0
 11
-231.98869764787409
 21
-59.700785425117537
 31
0.0
  0
LINE
  8
DETAIL
  6
CONTINUOUS
 62
     5
 10
-231.98869764787409
 20
-59.700785425117537
 30
0.0
 11
-231.98869764787409
 21
-59.700785425117537
 31
0.0
  0
LINE
  8
DETAIL
  6
CONTINUOUS
 62
     5
 10
-231.98869764787409
 20
-59.700785425117537
 30
0.0
 11
-231.97889331920271
 21
-59.761635344992037
 31
0.0
  0
LINE
  8
DETAIL
  6
CONTINUOUS
 62
     5
 10
-231.97889331920271
 20
-59.761635344992037
 30
0.0
 11
-231.97027964156021
 21
-59.82294637321553
 31
0.0
  0
LINE
  8
DETAIL
  6
CONTINUOUS
 62
     5
 10
-231.97027964156021
 20
-59.82294637321553
 30
0.0
 11
-231.97027964156021
 21
-59.82294637321553
 31
0.0
  0
LINE
  8
DETAIL
  6
CONTINUOUS
 62
     5
 10
-231.97027964156021
 20
-59.82294637321553
 30
0.0
 11
-231.96296909037559
 21
-59.884311812356088
 31
0.0
  0
LINE
  8
DETAIL
  6
CONTINUOUS
 62
     5
 10
-231.96296909037559
 20
-59.884311812356088
 30
0.0
 11
-231.95692558198519
 21
-59.945728056521773
 31
0.0
  0
LINE
  8
DETAIL
  6
CONTINUOUS
 62
     5
 10
-231.95692558198519
 20
-59.945728056521773
 30
0.0
 11
-231.95692558198519
 21
-59.945728056521773
 31
0.0
  0
LINE
  8
DETAIL
  6
CONTINUOUS
 62
     5
 10
-231.95692558198519
 20
-59.945728056521773
 30
0.0
 11
-231.95213200140631
 21
-60.007264246262537
 31
0.0
  0
LINE
  8
DETAIL
  6
CONTINUOUS
 62
     5
 10
-231.95213200140631
 20
-60.007264246262537
 30
0.0
 11
-231.94879566747099
 21
-60.068877416356543
 31
0.0
  0
LINE
  8
DETAIL
  6
CONTINUOUS
 62
     5
 10
-231.94879566747099
 20
-60.068877416356543
 30
0.0
 11
-231.94879566747099
 21
-60.068877416356543
 31
0.0
  0
LINE
  8
DETAIL
  6
CONTINUOUS
 62
     5
 10
-231.94879566747099
 20
-60.068877416356543
 30
0.0
 11
-231.9469927134229
 21
-60.130507908025777
 31
0.0
  0
LINE
  8
DETAIL
  6
CONTINUOUS
 62
     5
 10
-231.9469927134229
 20
-60.130507908025777
 30
0.0
 11
-231.94605009633949
 21
-60.192141394039417
 31
0.0
  0
LINE
  8
DETAIL
  6
CONTINUOUS
 62
     5
 10
-232.5277252855893
 20
-50.792122560718717
 30
0.0
 11
-232.4914216402359
 21
-50.920120609377527
 31
0.0
  0
LINE
  8
DETAIL
  6
CONTINUOUS
 62
     5
 10
-232.4914216402359
 20
-50.920120609377527
 30
0.0
 11
-232.4556987342994
 21
-51.048270282834949
 31
0.0
  0
LINE
  8
DETAIL
  6
CONTINUOUS
 62
     5
 10
-232.4556987342994
 20
-51.048270282834949
 30
0.0
 11
-232.4556987342994
 21
-51.048270282834949
 31
0.0
  0
LINE
  8
DETAIL
  6
CONTINUOUS
 62
     5
 10
-232.4556987342994
 20
-51.048270282834949
 30
0.0
 11
-232.4210190622905
 21
-51.176702847352487
 31
0.0
  0
LINE
  8
DETAIL
  6
CONTINUOUS
 62
     5
 10
-232.4210190622905
 20
-51.176702847352487
 30
0.0
 11
-232.3873721390986
 21
-51.305468135044691
 31
0.0
  0
LINE
  8
DETAIL
  6
CONTINUOUS
 62
     5
 10
-232.3873721390986
 20
-51.305468135044691
 30
0.0
 11
-232.3873721390986
 21
-51.305468135044691
 31
0.0
  0
LINE
  8
DETAIL
  6
CONTINUOUS
 62
     5
 10
-232.3873721390986
 20
-51.305468135044691
 30
0.0
 11
-232.3546720433728
 21
-51.434543745748499
 31
0.0
  0
LINE
  8
DETAIL
  6
CONTINUOUS
 62
     5
 10
-232.3546720433728
 20
-51.434543745748499
 30
0.0
 11
-232.32300408842781
 21
-51.563699784335597
 31
0.0
  0
LINE
  8
DETAIL
  6
CONTINUOUS
 62
     5
 10
-232.32300408842781
 20
-51.563699784335597
 30
0.0
 11
-232.32300408842781
 21
-51.563699784335597
 31
0.0
  0
LINE
  8
DETAIL
  6
CONTINUOUS
 62
     5
 10
-232.32300408842781
 20
-51.563699784335597
 30
0.0
 11
-232.29244340648461
 21
-51.692882335438469
 31
0.0
  0
LINE
  8
DETAIL
  6
CONTINUOUS
 62
     5
 10
-232.29244340648461
 20
-51.692882335438469
 30
0.0
 11
-232.2628531707264
 21
-51.82294889769463
 31
0.0
  0
LINE
  8
DETAIL
  6
CONTINUOUS
 62
     5
 10
-232.2628531707264
 20
-51.82294889769463
 30
0.0
 11
-232.2628531707264
 21
-51.82294889769463
 31
0.0
  0
LINE
  8
DETAIL
  6
CONTINUOUS
 62
     5
 10
-232.2628531707264
 20
-51.82294889769463
 30
0.0
 11
-232.23421271494891
 21
-51.954125282978957
 31
0.0
  0
LINE
  8
DETAIL
  6
CONTINUOUS
 62
     5
 10
-232.23421271494891
 20
-51.954125282978957
 30
0.0
 11
-232.2071779744347
 21
-52.083199142108867
 31
0.0
  0
LINE
  8
DETAIL
  6
CONTINUOUS
 62
     5
 10
-232.2071779744347
 20
-52.083199142108867
 30
0.0
 11
-232.2071779744347
 21
-52.083199142108867
 31
0.0
  0
LINE
  8
DETAIL
  6
CONTINUOUS
 62
     5
 10
-232.2071779744347
 20
-52.083199142108867
 30
0.0
 11
-232.18229525661039
 21
-52.207450857911063
 31
0.0
  0
LINE
  8
DETAIL
  6
CONTINUOUS
 62
     5
 10
-232.18229525661039
 20
-52.207450857911063
 30
0.0
 11
-232.15899575598539
 21
-52.329569902302133
 31
0.0
  0
LINE
  8
DETAIL
  6
CONTINUOUS
 62
     5
 10
-232.15899575598539
 20
-52.329569902302133
 30
0.0
 11
-232.15899575598539
 21
-52.329569902302133
 31
0.0
  0
LINE
  8
DETAIL
  6
CONTINUOUS
 62
     5
 10
-232.15899575598539
 20
-52.329569902302133
 30
0.0
 11
-232.13661601321871
 21
-52.452746324508723
 31
0.0
  0
LINE
  8
DETAIL
  6
CONTINUOUS
 62
     5
 10
-232.13661601321871
 20
-52.452746324508723
 30
0.0
 11
-232.11522906648241
 21
-52.576763393904287
 31
0.0
  0
LINE
  8
DETAIL
  6
CONTINUOUS
 62
     5
 10
-232.11522906648241
 20
-52.576763393904287
 30
0.0
 11
-232.11522906648241
 21
-52.576763393904287
 31
0.0
  0
LINE
  8
DETAIL
  6
CONTINUOUS
 62
     5
 10
-232.11522906648241
 20
-52.576763393904287
 30
0.0
 11
-232.09504448240389
 21
-52.700762738336998
 31
0.0
  0
LINE
  8
DETAIL
  6
CONTINUOUS
 62
     5
 10
-232.09504448240389
 20
-52.700762738336998
 30
0.0
 11
-232.0760814439185
 21
-52.824726199407507
 31
0.0
  0
LINE
  8
DETAIL
  6
CONTINUOUS
 62
     5
 10
-232.0760814439185
 20
-52.824726199407507
 30
0.0
 11
-232.0760814439185
 21
-52.824726199407507
 31
0.0
  0
LINE
  8
DETAIL
  6
CONTINUOUS
 62
     5
 10
-232.0760814439185
 20
-52.824726199407507
 30
0.0
 11
-232.0583177973518
 21
-52.948857153365623
 31
0.0
  0
LINE
  8
DETAIL
  6
CONTINUOUS
 62
     5
 10
-232.0583177973518
 20
-52.948857153365623
 30
0.0
 11
-232.0417564262857
 21
-53.073404901304059
 31
0.0
  0
LINE
  8
DETAIL
  6
CONTINUOUS
 62
     5
 10
-232.0417564262857
 20
-53.073404901304059
 30
0.0
 11
-232.0417564262857
 21
-53.073404901304059
 31
0.0
  0
LINE
  8
DETAIL
  6
CONTINUOUS
 62
     5
 10
-232.0417564262857
 20
-53.073404901304059
 30
0.0
 11
-232.0264290322834
 21
-53.198374247245681
 31
0.0
  0
LINE
  8
DETAIL
  6
CONTINUOUS
 62
     5
 10
-232.0264290322834
 20
-53.198374247245681
 30
0.0
 11
-232.01245755157711
 21
-53.322746082086212
 31
0.0
  0
LINE
  8
DETAIL
  6
CONTINUOUS
 62
     5
 10
-232.01245755157711
 20
-53.322746082086212
 30
0.0
 11
-232.01245755157711
 21
-53.322746082086212
 31
0.0
  0
LINE
  8
DETAIL
  6
CONTINUOUS
 62
     5
 10
-232.01245755157711
 20
-53.322746082086212
 30
0.0
 11
-231.99993805483419
 21
-53.445668424082037
 31
0.0
  0
LINE
  8
DETAIL
  6
CONTINUOUS
 62
     5
 10
-231.99993805483419
 20
-53.445668424082037
 30
0.0
 11
-231.98877291579279
 21
-53.567981714057112
 31
0.0
  0
LINE
  8
DETAIL
  6
CONTINUOUS
 62
     5
 10
-231.98877291579279
 20
-53.567981714057112
 30
0.0
 11
-231.98877291579279
 21
-53.567981714057112
 31
0.0
  0
LINE
  8
DETAIL
  6
CONTINUOUS
 62
     5
 10
-231.98877291579279
 20
-53.567981714057112
 30
0.0
 11
-231.9788517183961
 21
-53.69067893736991
 31
0.0
  0
LINE
  8
DETAIL
  6
CONTINUOUS
 62
     5
 10
-231.9788517183961
 20
-53.69067893736991
 30
0.0
 11
-231.9702065843388
 21
-53.813670834948248
 31
0.0
  0
LINE
  8
DETAIL
  6
CONTINUOUS
 62
     5
 10
-231.9702065843388
 20
-53.813670834948248
 30
0.0
 11
-231.9702065843388
 21
-53.813670834948248
 31
0.0
  0
LINE
  8
DETAIL
  6
CONTINUOUS
 62
     5
 10
-231.9702065843388
 20
-53.813670834948248
 30
0.0
 11
-231.9628835565635
 21
-53.936670232725817
 31
0.0
  0
LINE
  8
DETAIL
  6
CONTINUOUS
 62
     5
 10
-231.9628835565635
 20
-53.936670232725817
 30
0.0
 11
-231.95684182525329
 21
-54.059680541088881
 31
0.0
  0
LINE
  8
DETAIL
  6
CONTINUOUS
 62
     5
 10
-231.95684182525329
 20
-54.059680541088881
 30
0.0
 11
-231.95684182525329
 21
-54.059680541088881
 31
0.0
  0
LINE
  8
DETAIL
  6
CONTINUOUS
 62
     5
 10
-231.95684182525329
 20
-54.059680541088881
 30
0.0
 11
-231.95207008572339
 21
-54.182757793191463
 31
0.0
  0
LINE
  8
DETAIL
  6
CONTINUOUS
 62
     5
 10
-231.95207008572339
 20
-54.182757793191463
 30
0.0
 11
-231.9487619065743
 21
-54.305877928808798
 31
0.0
  0
LINE
  8
DETAIL
  6
CONTINUOUS
 62
     5
 10
-231.9487619065743
 20
-54.305877928808798
 30
0.0
 11
-231.9487619065743
 21
-54.305877928808798
 31
0.0
  0
LINE
  8
DETAIL
  6
CONTINUOUS
 62
     5
 10
-231.9487619065743
 20
-54.305877928808798
 30
0.0
 11
-231.94697891463139
 21
-54.429004311636788
 31
0.0
  0
LINE
  8
DETAIL
  6
CONTINUOUS
 62
     5
 10
-231.94697891463139
 20
-54.429004311636788
 30
0.0
 11
-231.94605009633949
 21
-54.552130094437253
 31
0.0
  0
LINE
  8
DETAIL
  6
CONTINUOUS
 62
     5
 10
-231.94605009633949
 20
-54.552130094437253
 30
0.0
 11
-231.9469972606893
 21
-54.676440783211042
 31
0.0
  0
LINE
  8
DETAIL
  6
CONTINUOUS
 62
     5
 10
-231.9469972606893
 20
-54.676440783211042
 30
0.0
 11
-231.94881484700741
 21
-54.800749485558008
 31
0.0
  0
LINE
  8
DETAIL
  6
CONTINUOUS
 62
     5
 10
-231.94881484700741
 20
-54.800749485558008
 30
0.0
 11
-231.94881484700741
 21
-54.800749485558008
 31
0.0
  0
LINE
  8
DETAIL
  6
CONTINUOUS
 62
     5
 10
-231.94881484700741
 20
-54.800749485558008
 30
0.0
 11
-231.95218682476431
 21
-54.925049159552543
 31
0.0
  0
LINE
  8
DETAIL
  6
CONTINUOUS
 62
     5
 10
-231.95218682476431
 20
-54.925049159552543
 30
0.0
 11
-231.95705135344099
 21
-55.049312541274901
 31
0.0
  0
LINE
  8
DETAIL
  6
CONTINUOUS
 62
     5
 10
-231.95705135344099
 20
-55.049312541274901
 30
0.0
 11
-231.95705135344099
 21
-55.049312541274901
 31
0.0
  0
LINE
  8
DETAIL
  6
CONTINUOUS
 62
     5
 10
-231.95705135344099
 20
-55.049312541274901
 30
0.0
 11
-231.9632111532454
 21
-55.173517483539911
 31
0.0
  0
LINE
  8
DETAIL
  6
CONTINUOUS
 62
     5
 10
-231.9632111532454
 20
-55.173517483539911
 30
0.0
 11
-231.97067299728269
 21
-55.2976825280968
 31
0.0
  0
LINE
  8
DETAIL
  6
CONTINUOUS
 62
     5
 10
-231.97067299728269
 20
-55.2976825280968
 30
0.0
 11
-231.97067299728269
 21
-55.2976825280968
 31
0.0
  0
LINE
  8
DETAIL
  6
CONTINUOUS
 62
     5
 10
-231.97067299728269
 20
-55.2976825280968
 30
0.0
 11
-231.97947707148191
 21
-55.421800755492711
 31
0.0
  0
LINE
  8
DETAIL
  6
CONTINUOUS
 62
     5
 10
-231.97947707148191
 20
-55.421800755492711
 30
0.0
 11
-231.98959316017621
 21
-55.54572271253295
 31
0.0
  0
LINE
  8
DETAIL
  6
CONTINUOUS
 62
     5
 10
-231.98959316017621
 20
-55.54572271253295
 30
0.0
 11
-231.98959316017621
 21
-55.54572271253295
 31
0.0
  0
LINE
  8
DETAIL
  6
CONTINUOUS
 62
     5
 10
-231.98959316017621
 20
-55.54572271253295
 30
0.0
 11
-232.0009928356715
 21
-55.669395674095028
 31
0.0
  0
LINE
  8
DETAIL
  6
CONTINUOUS
 62
     5
 10
-232.0009928356715
 20
-55.669395674095028
 30
0.0
 11
-232.01372522376491
 21
-55.793296361092132
 31
0.0
  0
LINE
  8
DETAIL
  6
CONTINUOUS
 62
     5
 10
-232.01372522376491
 20
-55.793296361092132
 30
0.0
 11
-232.01372522376491
 21
-55.793296361092132
 31
0.0
  0
LINE
  8
DETAIL
  6
CONTINUOUS
 62
     5
 10
-232.01372522376491
 20
-55.793296361092132
 30
0.0
 11
-232.0278334953116
 21
-55.917828756585948
 31
0.0
  0
LINE
  8
DETAIL
  6
CONTINUOUS
 62
     5
 10
-232.0278334953116
 20
-55.917828756585948
 30
0.0
 11
-232.04325944790401
 21
-56.04257644619878
 31
0.0
  0
LINE
  8
DETAIL
  6
CONTINUOUS
 62
     5
 10
-232.04325944790401
 20
-56.04257644619878
 30
0.0
 11
-232.04325944790401
 21
-56.04257644619878
 31
0.0
  0
LINE
  8
DETAIL
  6
CONTINUOUS
 62
     5
 10
-232.04325944790401
 20
-56.04257644619878
 30
0.0
 11
-232.0599295855782
 21
-56.167037640227761
 31
0.0
  0
LINE
  8
DETAIL
  6
CONTINUOUS
 62
     5
 10
-232.0599295855782
 20
-56.167037640227761
 30
0.0
 11
-232.0778106114021
 21
-56.29118944510634
 31
0.0
  0
LINE
  8
DETAIL
  6
CONTINUOUS
 62
     5
 10
-232.0778106114021
 20
-56.29118944510634
 30
0.0
 11
-232.0778106114021
 21
-56.29118944510634
 31
0.0
  0
LINE
  8
DETAIL
  6
CONTINUOUS
 62
     5
 10
-232.0778106114021
 20
-56.29118944510634
 30
0.0
 11
-232.09688705287439
 21
-56.415145017794153
 31
0.0
  0
LINE
  8
DETAIL
  6
CONTINUOUS
 62
     5
 10
-232.09688705287439
 20
-56.415145017794153
 30
0.0
 11
-232.1171745361805
 21
-56.539082821217512
 31
0.0
  0
LINE
  8
DETAIL
  6
CONTINUOUS
 62
     5
 10
-232.1171745361805
 20
-56.539082821217512
 30
0.0
 11
-232.1171745361805
 21
-56.539082821217512
 31
0.0
  0
LINE
  8
DETAIL
  6
CONTINUOUS
 62
     5
 10
-232.1171745361805
 20
-56.539082821217512
 30
0.0
 11
-232.13865531373219
 21
-56.663012614793331
 31
0.0
  0
LINE
  8
DETAIL
  6
CONTINUOUS
 62
     5
 10
-232.13865531373219
 20
-56.663012614793331
 30
0.0
 11
-232.16114704415821
 21
-56.786204037934283
 31
0.0
  0
LINE
  8
DETAIL
  6
CONTINUOUS
 62
     5
 10
-232.16114704415821
 20
-56.786204037934283
 30
0.0
 11
-232.16114704415821
 21
-56.786204037934283
 31
0.0
  0
LINE
  8
DETAIL
  6
CONTINUOUS
 62
     5
 10
-232.16114704415821
 20
-56.786204037934283
 30
0.0
 11
-232.18458305675259
 21
-56.908465493564727
 31
0.0
  0
LINE
  8
DETAIL
  6
CONTINUOUS
 62
     5
 10
-232.18458305675259
 20
-56.908465493564727
 30
0.0
 11
-232.20952395725499
 21
-57.03250055865891
 31
0.0
  0
LINE
  8
DETAIL
  6
CONTINUOUS
 62
     5
 10
-232.20952395725499
 20
-57.03250055865891
 30
0.0
 11
-232.20952395725499
 21
-57.03250055865891
 31
0.0
  0
LINE
  8
DETAIL
  6
CONTINUOUS
 62
     5
 10
-232.20952395725499
 20
-57.03250055865891
 30
0.0
 11
-232.23644977172671
 21
-57.160590012308212
 31
0.0
  0
LINE
  8
DETAIL
  6
CONTINUOUS
 62
     5
 10
-232.23644977172671
 20
-57.160590012308212
 30
0.0
 11
-232.2648909310669
 21
-57.290428268022822
 31
0.0
  0
LINE
  8
DETAIL
  6
CONTINUOUS
 62
     5
 10
-232.2648909310669
 20
-57.290428268022822
 30
0.0
 11
-232.2648909310669
 21
-57.290428268022822
 31
0.0
  0
LINE
  8
DETAIL
  6
CONTINUOUS
 62
     5
 10
-232.2648909310669
 20
-57.290428268022822
 30
0.0
 11
-232.29428481283409
 21
-57.419291760385988
 31
0.0
  0
LINE
  8
DETAIL
  6
CONTINUOUS
 62
     5
 10
-232.29428481283409
 20
-57.419291760385988
 30
0.0
 11
-232.3246461763828
 21
-57.547371373854787
 31
0.0
  0
LINE
  8
DETAIL
  6
CONTINUOUS
 62
     5
 10
-232.3246461763828
 20
-57.547371373854787
 30
0.0
 11
-232.3246461763828
 21
-57.547371373854787
 31
0.0
  0
LINE
  8
DETAIL
  6
CONTINUOUS
 62
     5
 10
-232.3246461763828
 20
-57.547371373854787
 30
0.0
 11
-232.3560879139649
 21
-57.675393777864599
 31
0.0
  0
LINE
  8
DETAIL
  6
CONTINUOUS
 62
     5
 10
-232.3560879139649
 20
-57.675393777864599
 30
0.0
 11
-232.3885380676262
 21
-57.803314331889567
 31
0.0
  0
LINE
  8
DETAIL
  6
CONTINUOUS
 62
     5
 10
-232.3885380676262
 20
-57.803314331889567
 30
0.0
 11
-232.3885380676262
 21
-57.803314331889567
 31
0.0
  0
LINE
  8
DETAIL
  6
CONTINUOUS
 62
     5
 10
-232.3885380676262
 20
-57.803314331889567
 30
0.0
 11
-232.4219189716182
 21
-57.930938265406382
 31
0.0
  0
LINE
  8
DETAIL
  6
CONTINUOUS
 62
     5
 10
-232.4219189716182
 20
-57.930938265406382
 30
0.0
 11
-232.45631497922059
 21
-58.058241597861468
 31
0.0
  0
LINE
  8
DETAIL
  6
CONTINUOUS
 62
     5
 10
-232.45631497922059
 20
-58.058241597861468
 30
0.0
 11
-232.45631497922059
 21
-58.058241597861468
 31
0.0
  0
LINE
  8
DETAIL
  6
CONTINUOUS
 62
     5
 10
-232.45631497922059
 20
-58.058241597861468
 30
0.0
 11
-232.49173514199319
 21
-58.185265083714107
 31
0.0
  0
LINE
  8
DETAIL
  6
CONTINUOUS
 62
     5
 10
-232.49173514199319
 20
-58.185265083714107
 30
0.0
 11
-232.5277252855893
 21
-58.312137627505358
 31
0.0
  0
LINE
  8
DETAIL
  6
CONTINUOUS
 62
     5
 10
-231.9460500950382
 20
-48.912118855341127
 30
0.0
 11
-231.9469932407475
 21
-48.973768898847027
 31
0.0
  0
LINE
  8
DETAIL
  6
CONTINUOUS
 62
     5
 10
-231.9469932407475
 20
-48.973768898847027
 30
0.0
 11
-231.948797168428
 21
-49.035415860766932
 31
0.0
  0
LINE
  8
DETAIL
  6
CONTINUOUS
 62
     5
 10
-231.948797168428
 20
-49.035415860766932
 30
0.0
 11
-231.948797168428
 21
-49.035415860766932
 31
0.0
  0
LINE
  8
DETAIL
  6
CONTINUOUS
 62
     5
 10
-231.948797168428
 20
-49.035415860766932
 30
0.0
 11
-231.95213528208151
 21
-49.097045402767492
 31
0.0
  0
LINE
  8
DETAIL
  6
CONTINUOUS
 62
     5
 10
-231.95213528208151
 20
-49.097045402767492
 30
0.0
 11
-231.95693147383369
 21
-49.158598159524622
 31
0.0
  0
LINE
  8
DETAIL
  6
CONTINUOUS
 62
     5
 10
-231.95693147383369
 20
-49.158598159524622
 30
0.0
 11
-231.95693147383369
 21
-49.158598159524622
 31
0.0
  0
LINE
  8
DETAIL
  6
CONTINUOUS
 62
     5
 10
-231.95693147383369
 20
-49.158598159524622
 30
0.0
 11
-231.9629783191973
 21
-49.220031216930643
 31
0.0
  0
LINE
  8
DETAIL
  6
CONTINUOUS
 62
     5
 10
-231.9629783191973
 20
-49.220031216930643
 30
0.0
 11
-231.97029263911
 21
-49.281412492734198
 31
0.0
  0
LINE
  8
DETAIL
  6
CONTINUOUS
 62
     5
 10
-231.97029263911
 20
-49.281412492734198
 30
0.0
 11
-231.97029263911
 21
-49.281412492734198
 31
0.0
  0
LINE
  8
DETAIL
  6
CONTINUOUS
 62
     5
 10
-231.97029263911
 20
-49.281412492734198
 30
0.0
 11
-231.9789104484104
 21
-49.342738037540073
 31
0.0
  0
LINE
  8
DETAIL
  6
CONTINUOUS
 62
     5
 10
-231.9789104484104
 20
-49.342738037540073
 30
0.0
 11
-231.988720292111
 21
-49.403605601516858
 31
0.0
  0
LINE
  8
DETAIL
  6
CONTINUOUS
 62
     5
 10
-231.988720292111
 20
-49.403605601516858
 30
0.0
 11
-231.988720292111
 21
-49.403605601516858
 31
0.0
  0
LINE
  8
DETAIL
  6
CONTINUOUS
 62
     5
 10
-231.988720292111
 20
-49.403605601516858
 30
0.0
 11
-231.99966525623731
 21
-49.463883952196113
 31
0.0
  0
LINE
  8
DETAIL
  6
CONTINUOUS
 62
     5
 10
-231.99966525623731
 20
-49.463883952196113
 30
0.0
 11
-232.0120540606919
 21
-49.524924226992937
 31
0.0
  0
LINE
  8
DETAIL
  6
CONTINUOUS
 62
     5
 10
-232.0120540606919
 20
-49.524924226992937
 30
0.0
 11
-232.0120540606919
 21
-49.524924226992937
 31
0.0
  0
LINE
  8
DETAIL
  6
CONTINUOUS
 62
     5
 10
-232.0120540606919
 20
-49.524924226992937
 30
0.0
 11
-232.0261582911063
 21
-49.587866994586932
 31
0.0
  0
LINE
  8
DETAIL
  6
CONTINUOUS
 62
     5
 10
-232.0261582911063
 20
-49.587866994586932
 30
0.0
 11
-232.04173536215839
 21
-49.65152817883137
 31
0.0
  0
LINE
  8
DETAIL
  6
CONTINUOUS
 62
     5
 10
-232.04173536215839
 20
-49.65152817883137
 30
0.0
 11
-232.04173536215839
 21
-49.65152817883137
 31
0.0
  0
LINE
  8
DETAIL
  6
CONTINUOUS
 62
     5
 10
-232.04173536215839
 20
-49.65152817883137
 30
0.0
 11
-232.05847878135171
 21
-49.714503120620691
 31
0.0
  0
LINE
  8
DETAIL
  6
CONTINUOUS
 62
     5
 10
-232.05847878135171
 20
-49.714503120620691
 30
0.0
 11
-232.07634059844449
 21
-49.77682947383704
 31
0.0
  0
LINE
  8
DETAIL
  6
CONTINUOUS
 62
     5
 10
-232.07634059844449
 20
-49.77682947383704
 30
0.0
 11
-232.07634059844449
 21
-49.77682947383704
 31
0.0
  0
LINE
  8
DETAIL
  6
CONTINUOUS
 62
     5
 10
-232.07634059844449
 20
-49.77682947383704
 30
0.0
 11
-232.09534277278661
 21
-49.838861386650763
 31
0.0
  0
LINE
  8
DETAIL
  6
CONTINUOUS
 62
     5
 10
-232.09534277278661
 20
-49.838861386650763
 30
0.0
 11
-232.11552835983659
 21
-49.900776671395477
 31
0.0
  0
LINE
  8
DETAIL
  6
CONTINUOUS
 62
     5
 10
-232.11552835983659
 20
-49.900776671395477
 30
0.0
 11
-232.11552835983659
 21
-49.900776671395477
 31
0.0
  0
LINE
  8
DETAIL
  6
CONTINUOUS
 62
     5
 10
-232.11552835983659
 20
-49.900776671395477
 30
0.0
 11
-232.13685995740721
 21
-49.96252481403468
 31
0.0
  0
LINE
  8
DETAIL
  6
CONTINUOUS
 62
     5
 10
-232.13685995740721
 20
-49.96252481403468
 30
0.0
 11
-232.15895723662189
 21
-50.02331833089255
 31
0.0
  0
LINE
  8
DETAIL
  6
CONTINUOUS
 62
     5
 10
-232.15895723662189
 20
-50.02331833089255
 30
0.0
 11
-232.15895723662189
 21
-50.02331833089255
 31
0.0
  0
LINE
  8
DETAIL
  6
CONTINUOUS
 62
     5
 10
-232.15895723662189
 20
-50.02331833089255
 30
0.0
 11
-232.18169178959349
 21
-50.082966549482357
 31
0.0
  0
LINE
  8
DETAIL
  6
CONTINUOUS
 62
     5
 10
-232.18169178959349
 20
-50.082966549482357
 30
0.0
 11
-232.2062858190869
 21
-50.144403011714019
 31
0.0
  0
LINE
  8
DETAIL
  6
CONTINUOUS
 62
     5
 10
-232.2062858190869
 20
-50.144403011714019
 30
0.0
 11
-232.2062858190869
 21
-50.144403011714019
 31
0.0
  0
LINE
  8
DETAIL
  6
CONTINUOUS
 62
     5
 10
-232.2062858190869
 20
-50.144403011714019
 30
0.0
 11
-232.2337867202265
 21
-50.210093451446433
 31
0.0
  0
LINE
  8
DETAIL
  6
CONTINUOUS
 62
     5
 10
-232.2337867202265
 20
-50.210093451446433
 30
0.0
 11
-232.26319204692379
 21
-50.277508155936459
 31
0.0
  0
LINE
  8
DETAIL
  6
CONTINUOUS
 62
     5
 10
-232.26319204692379
 20
-50.277508155936459
 30
0.0
 11
-232.26319204692379
 21
-50.277508155936459
 31
0.0
  0
LINE
  8
DETAIL
  6
CONTINUOUS
 62
     5
 10
-232.26319204692379
 20
-50.277508155936459
 30
0.0
 11
-232.29329869892311
 21
-50.343667463355978
 31
0.0
  0
LINE
  8
DETAIL
  6
CONTINUOUS
 62
     5
 10
-232.29329869892311
 20
-50.343667463355978
 30
0.0
 11
-232.3241508005118
 21
-50.408787362138753
 31
0.0
  0
LINE
  8
DETAIL
  6
CONTINUOUS
 62
     5
 10
-232.3241508005118
 20
-50.408787362138753
 30
0.0
 11
-232.3241508005118
 21
-50.408787362138753
 31
0.0
  0
LINE
  8
DETAIL
  6
CONTINUOUS
 62
     5
 10
-232.3241508005118
 20
-50.408787362138753
 30
0.0
 11
-232.35601494619871
 21
-50.473672429951819
 31
0.0
  0
LINE
  8
DETAIL
  6
CONTINUOUS
 62
     5
 10
-232.35601494619871
 20
-50.473672429951819
 30
0.0
 11
-232.3888003868316
 21
-50.538285951130263
 31
0.0
  0
LINE
  8
DETAIL
  6
CONTINUOUS
 62
     5
 10
-232.3888003868316
 20
-50.538285951130263
 30
0.0
 11
-232.3888003868316
 21
-50.538285951130263
 31
0.0
  0
LINE
  8
DETAIL
  6
CONTINUOUS
 62
     5
 10
-232.3888003868316
 20
-50.538285951130263
 30
0.0
 11
-232.42237257486809
 21
-50.602423267443037
 31
0.0
  0
LINE
  8
DETAIL
  6
CONTINUOUS
 62
     5
 10
-232.42237257486809
 20
-50.602423267443037
 30
0.0
 11
-232.45677911286421
 21
-50.666049243720579
 31
0.0
  0
LINE
  8
DETAIL
  6
CONTINUOUS
 62
     5
 10
-232.45677911286421
 20
-50.666049243720579
 30
0.0
 11
-232.45677911286421
 21
-50.666049243720579
 31
0.0
  0
LINE
  8
DETAIL
  6
CONTINUOUS
 62
     5
 10
-232.45677911286421
 20
-50.666049243720579
 30
0.0
 11
-232.4920203267167
 21
-50.729211925829361
 31
0.0
  0
LINE
  8
DETAIL
  6
CONTINUOUS
 62
     5
 10
-232.4920203267167
 20
-50.729211925829361
 30
0.0
 11
-232.5277252855893
 21
-50.792122560718717
 31
0.0
  0
LINE
  8
DETAIL
  6
CONTINUOUS
 62
     5
 10
-232.5277252855893
 20
-47.032115026999968
 30
0.0
 11
-232.4920234889255
 21
-47.095019975197538
 31
0.0
  0
LINE
  8
DETAIL
  6
CONTINUOUS
 62
     5
 10
-232.4920234889255
 20
-47.095019975197538
 30
0.0
 11
-232.45678533157201
 21
-47.158176971352589
 31
0.0
  0
LINE
  8
DETAIL
  6
CONTINUOUS
 62
     5
 10
-232.45678533157201
 20
-47.158176971352589
 30
0.0
 11
-232.45678533157201
 21
-47.158176971352589
 31
0.0
  0
LINE
  8
DETAIL
  6
CONTINUOUS
 62
     5
 10
-232.45678533157201
 20
-47.158176971352589
 30
0.0
 11
-232.42238167541811
 21
-47.221797218992549
 31
0.0
  0
LINE
  8
DETAIL
  6
CONTINUOUS
 62
     5
 10
-232.42238167541811
 20
-47.221797218992549
 30
0.0
 11
-232.3888122726687
 21
-47.285928543926453
 31
0.0
  0
LINE
  8
DETAIL
  6
CONTINUOUS
 62
     5
 10
-232.3888122726687
 20
-47.285928543926453
 30
0.0
 11
-232.3888122726687
 21
-47.285928543926453
 31
0.0
  0
LINE
  8
DETAIL
  6
CONTINUOUS
 62
     5
 10
-232.3888122726687
 20
-47.285928543926453
 30
0.0
 11
-232.3560295440401
 21
-47.350535771762047
 31
0.0
  0
LINE
  8
DETAIL
  6
CONTINUOUS
 62
     5
 10
-232.3560295440401
 20
-47.350535771762047
 30
0.0
 11
-232.32416769397901
 21
-47.415415105019122
 31
0.0
  0
LINE
  8
DETAIL
  6
CONTINUOUS
 62
     5
 10
-232.32416769397901
 20
-47.415415105019122
 30
0.0
 11
-232.32416769397901
 21
-47.415415105019122
 31
0.0
  0
LINE
  8
DETAIL
  6
CONTINUOUS
 62
     5
 10
-232.32416769397901
 20
-47.415415105019122
 30
0.0
 11
-232.2933173665559
 21
-47.480530057963222
 31
0.0
  0
LINE
  8
DETAIL
  6
CONTINUOUS
 62
     5
 10
-232.2933173665559
 20
-47.480530057963222
 30
0.0
 11
-232.26321318060141
 21
-47.546682014928308
 31
0.0
  0
LINE
  8
DETAIL
  6
CONTINUOUS
 62
     5
 10
-232.26321318060141
 20
-47.546682014928308
 30
0.0
 11
-232.26321318060141
 21
-47.546682014928308
 31
0.0
  0
LINE
  8
DETAIL
  6
CONTINUOUS
 62
     5
 10
-232.26321318060141
 20
-47.546682014928308
 30
0.0
 11
-232.23381132794319
 21
-47.614086113468552
 31
0.0
  0
LINE
  8
DETAIL
  6
CONTINUOUS
 62
     5
 10
-232.23381132794319
 20
-47.614086113468552
 30
0.0
 11
-232.2063103176358
 21
-47.679774633952043
 31
0.0
  0
LINE
  8
DETAIL
  6
CONTINUOUS
 62
     5
 10
-232.2063103176358
 20
-47.679774633952043
 30
0.0
 11
-232.2063103176358
 21
-47.679774633952043
 31
0.0
  0
LINE
  8
DETAIL
  6
CONTINUOUS
 62
     5
 10
-232.2063103176358
 20
-47.679774633952043
 30
0.0
 11
-232.181708812941
 21
-47.741227978340191
 31
0.0
  0
LINE
  8
DETAIL
  6
CONTINUOUS
 62
     5
 10
-232.181708812941
 20
-47.741227978340191
 30
0.0
 11
-232.15896377671871
 21
-47.800901892158613
 31
0.0
  0
LINE
  8
DETAIL
  6
CONTINUOUS
 62
     5
 10
-232.15896377671871
 20
-47.800901892158613
 30
0.0
 11
-232.15896377671871
 21
-47.800901892158613
 31
0.0
  0
LINE
  8
DETAIL
  6
CONTINUOUS
 62
     5
 10
-232.15896377671871
 20
-47.800901892158613
 30
0.0
 11
-232.13685804590941
 21
-47.861718136431648
 31
0.0
  0
LINE
  8
DETAIL
  6
CONTINUOUS
 62
     5
 10
-232.13685804590941
 20
-47.861718136431648
 30
0.0
 11
-232.11551965417621
 21
-47.923487190612207
 31
0.0
  0
LINE
  8
DETAIL
  6
CONTINUOUS
 62
     5
 10
-232.11551965417621
 20
-47.923487190612207
 30
0.0
 11
-232.11551965417621
 21
-47.923487190612207
 31
0.0
  0
LINE
  8
DETAIL
  6
CONTINUOUS
 62
     5
 10
-232.11551965417621
 20
-47.923487190612207
 30
0.0
 11
-232.09532762072371
 21
-47.985424788820808
 31
0.0
  0
LINE
  8
DETAIL
  6
CONTINUOUS
 62
     5
 10
-232.09532762072371
 20
-47.985424788820808
 30
0.0
 11
-232.07631971020061
 21
-48.047478965415557
 31
0.0
  0
LINE
  8
DETAIL
  6
CONTINUOUS
 62
     5
 10
-232.07631971020061
 20
-48.047478965415557
 30
0.0
 11
-232.07631971020061
 21
-48.047478965415557
 31
0.0
  0
LINE
  8
DETAIL
  6
CONTINUOUS
 62
     5
 10
-232.07631971020061
 20
-48.047478965415557
 30
0.0
 11
-232.05845332899199
 21
-48.109826349968607
 31
0.0
  0
LINE
  8
DETAIL
  6
CONTINUOUS
 62
     5
 10
-232.05845332899199
 20
-48.109826349968607
 30
0.0
 11
-232.0417057049834
 21
-48.172825652671861
 31
0.0
  0
LINE
  8
DETAIL
  6
CONTINUOUS
 62
     5
 10
-232.0417057049834
 20
-48.172825652671861
 30
0.0
 11
-232.0417057049834
 21
-48.172825652671861
 31
0.0
  0
LINE
  8
DETAIL
  6
CONTINUOUS
 62
     5
 10
-232.0417057049834
 20
-48.172825652671861
 30
0.0
 11
-232.02612451357459
 21
-48.236515948192789
 31
0.0
  0
LINE
  8
DETAIL
  6
CONTINUOUS
 62
     5
 10
-232.02612451357459
 20
-48.236515948192789
 30
0.0
 11
-232.0120193987166
 21
-48.29947568848462
 31
0.0
  0
LINE
  8
DETAIL
  6
CONTINUOUS
 62
     5
 10
-232.0120193987166
 20
-48.29947568848462
 30
0.0
 11
-232.0120193987166
 21
-48.29947568848462
 31
0.0
  0
LINE
  8
DETAIL
  6
CONTINUOUS
 62
     5
 10
-232.0120193987166
 20
-48.29947568848462
 30
0.0
 11
-231.99963545911291
 21
-48.36050644018286
 31
0.0
  0
LINE
  8
DETAIL
  6
CONTINUOUS
 62
     5
 10
-231.99963545911291
 20
-48.36050644018286
 30
0.0
 11
-231.98869764392111
 21
-48.420762851366987
 31
0.0
  0
LINE
  8
DETAIL
  6
CONTINUOUS
 62
     5
 10
-231.98869764392111
 20
-48.420762851366987
 30
0.0
 11
-231.98869764392111
 21
-48.420762851366987
 31
0.0
  0
LINE
  8
DETAIL
  6
CONTINUOUS
 62
     5
 10
-231.98869764392111
 20
-48.420762851366987
 30
0.0
 11
-231.97889331545619
 21
-48.481612775764631
 31
0.0
  0
LINE
  8
DETAIL
  6
CONTINUOUS
 62
     5
 10
-231.97889331545619
 20
-48.481612775764631
 30
0.0
 11
-231.97027963820719
 21
-48.542923808248297
 31
0.0
  0
LINE
  8
DETAIL
  6
CONTINUOUS
 62
     5
 10
-231.97027963820719
 20
-48.542923808248297
 30
0.0
 11
-231.97027963820719
 21
-48.542923808248297
 31
0.0
  0
LINE
  8
DETAIL
  6
CONTINUOUS
 62
     5
 10
-231.97027963820719
 20
-48.542923808248297
 30
0.0
 11
-231.9629690874616
 21
-48.604289251760463
 31
0.0
  0
LINE
  8
DETAIL
  6
CONTINUOUS
 62
     5
 10
-231.9629690874616
 20
-48.604289251760463
 30
0.0
 11
-231.9569255795233
 21
-48.665705500373797
 31
0.0
  0
LINE
  8
DETAIL
  6
CONTINUOUS
 62
     5
 10
-231.9569255795233
 20
-48.665705500373797
 30
0.0
 11
-231.9569255795233
 21
-48.665705500373797
 31
0.0
  0
LINE
  8
DETAIL
  6
CONTINUOUS
 62
     5
 10
-231.9569255795233
 20
-48.665705500373797
 30
0.0
 11
-231.95213199938971
 21
-48.727241694526981
 31
0.0
  0
LINE
  8
DETAIL
  6
CONTINUOUS
 62
     5
 10
-231.95213199938971
 20
-48.727241694526981
 30
0.0
 11
-231.9487956658173
 21
-48.788854868989397
 31
0.0
  0
LINE
  8
DETAIL
  6
CONTINUOUS
 62
     5
 10
-231.9487956658173
 20
-48.788854868989397
 30
0.0
 11
-231.9487956658173
 21
-48.788854868989397
 31
0.0
  0
LINE
  8
DETAIL
  6
CONTINUOUS
 62
     5
 10
-231.9487956658173
 20
-48.788854868989397
 30
0.0
 11
-231.94699271198871
 21
-48.85048536499977
 31
0.0
  0
LINE
  8
DETAIL
  6
CONTINUOUS
 62
     5
 10
-231.94699271198871
 20
-48.85048536499977
 30
0.0
 11
-231.9460500950382
 21
-48.912118855341127
 31
0.0
  0
ARC
  8
DETAIL
  6
CONTINUOUS
 62
     5
 10
-1.5028901734106059
 20
258.49710982658962
 30
0.0
 40
1.5028901734103779
 50
0.0
 51
180.0
  0
ARC
  8
DETAIL
  6
CONTINUOUS
 62
     5
 10
-97.587668593449166
 20
238.33333333333329
 30
0.0
 40
2.0038535645471569
 50
0.0
 51
180.0
  0
ARC
  8
DETAIL
  6
CONTINUOUS
 62
     5
 10
-15.80542497074816
 20
184.36575291379521
 30
0.0
 40
2.743146275454774
 50
162.54626623239861
 51
163.89867457989689
  0
ARC
  8
DETAIL
  6
CONTINUOUS
 62
     5
 10
-13.025048169557181
 20
154.10038740535001
 30
0.0
 40
3.0057803468208282
 50
270.0
 51
356.25000462239819
  0
ARC
  8
DETAIL
  6
CONTINUOUS
 62
     5
 10
-6.4123314065512886
 20
253.38728323699411
 30
0.0
 40
3.6069364161849649
 50
90.0
 51
180.0
  0
ARC
  8
DETAIL
  6
CONTINUOUS
 62
     5
 10
-16.431599229287372
 20
243.368015414258
 30
0.0
 40
3.6069364161849928
 50
90.0
 51
180.0
  0
ARC
  8
DETAIL
  6
CONTINUOUS
 62
     5
 10
-16.431599229287372
 20
147.48767064234431
 30
0.0
 40
3.6069364161849791
 50
90.0
 51
180.0
  0
ARC
  8
DETAIL
  6
CONTINUOUS
 62
     5
 10
-6.4123314065512886
 20
189.28735474048489
 30
0.0
 40
3.6069364161849928
 50
90.0
 51
180.0
  0
ARC
  8
DETAIL
  6
CONTINUOUS
 62
     5
 10
-112.4161849710985
 20
-21.040462427745581
 30
0.0
 40
2.0038535645471711
 50
0.0000010029977404
 51
90.0
  0
ARC
  8
DETAIL
  6
CONTINUOUS
 62
     5
 10
-112.4161849710985
 20
21.040462427745691
 30
0.0
 40
2.0038535645472528
 50
270.0
 51
359.99999899699583
  0
ARC
  8
DETAIL
  6
CONTINUOUS
 62
     5
 10
-133.15606936416211
 20
32.863198458574168
 30
0.0
 40
5.0096339113680699
 50
180.0
 51
270.0
  0
ARC
  8
DETAIL
  6
CONTINUOUS
 62
     5
 10
-133.15606936416211
 20
-32.863198458574118
 30
0.0
 40
5.0096339113679864
 50
90.0
 51
180.0
  0
ARC
  8
DETAIL
  6
CONTINUOUS
 62
     5
 10
-125.8688537260781
 20
21.861655999126359
 30
0.0
 40
5.9382504065868824
 50
359.81038403952118
 51
90.707672302236716
  0
ARC
  8
DETAIL
  6
CONTINUOUS
 62
     5
 10
-125.94219653179211
 20
-21.84200385356456
 30
0.0
 40
6.0115606936416563
 50
270.0
 51
0.0
  0
ARC
  8
DETAIL
  6
CONTINUOUS
 62
     5
 10
-152.49325626204259
 20
58.31213872832376
 30
0.0
 40
7.0134874759152472
 50
0.0
 51
90.0
  0
ARC
  8
DETAIL
  6
CONTINUOUS
 62
     5
 10
-152.49325626204259
 20
-58.312138728323653
 30
0.0
 40
7.013487475915241
 50
270.0
 51
0.0
  0
ARC
  8
DETAIL
  6
CONTINUOUS
 62
     5
 10
-248.47784200385391
 20
88.67052023121397
 30
0.0
 40
6.0115606936416626
 50
0.0
 51
80.400096747698754
  0
ARC
  8
DETAIL
  6
CONTINUOUS
 62
     5
 10
-242.65627030418159
 20
14.7515412082177
 30
0.0
 40
0.189989038860997
 50
0.0392889050000926
 51
11.22797271990072
  0
ARC
  8
DETAIL
  6
CONTINUOUS
 62
     5
 10
-242.65627030418159
 20
-14.751541208868099
 30
0.0
 40
0.189989038861041
 50
348.77202728009928
 51
359.96071109499991
  0
ARC
  8
DETAIL
  6
CONTINUOUS
 62
     5
 10
-236.45472061657051
 20
-68.131021194604898
 30
0.0
 40
2.0038535645472559
 50
90.0
 51
179.99999999529709
  0
ARC
  8
DETAIL
  6
CONTINUOUS
 62
     5
 10
-236.45472061657051
 20
68.131021194605012
 30
0.0
 40
2.0038535645471609
 50
180.0000000046964
 51
270.0
  0
ARC
  8
DETAIL
  6
CONTINUOUS
 62
     5
 10
-235.49497048544919
 20
49.060940513825358
 30
0.0
 40
3.565708082876712
 50
342.55191978549902
 51
343.8983398911015
  0
ARC
  8
DETAIL
  6
CONTINUOUS
 62
     5
 10
-235.49497048544919
 20
-60.043319673748158
 30
0.0
 40
3.565708082876712
 50
342.55191978549902
 51
343.89833989120348
  0
ARC
  8
DETAIL
  6
CONTINUOUS
 62
     5
 10
-248.47784200385391
 20
-88.670520231213857
 30
0.0
 40
6.0115606936416626
 50
279.59990325230132
 51
0.0
  0
ARC
  8
DETAIL
  6
CONTINUOUS
 62
     5
 10
-301.65761078998088
 20
-48.593448940269752
 30
0.0
 40
6.5350674373796167
 50
133.89739816710161
 51
226.10260183289839
  0
ARC
  8
DETAIL
  6
CONTINUOUS
 62
     5
 10
-298.67437379576131
 20
58.31213872832376
 30
0.0
 40
7.0134874759152392
 50
90.0
 51
180.0
  0
ARC
  8
DETAIL
  6
CONTINUOUS
 62
     5
 10
-298.67437379576131
 20
-58.312138728323653
 30
0.0
 40
7.013487475915241
 50
180.0
 51
270.0
  0
ARC
  8
DETAIL
  6
CONTINUOUS
 62
     5
 10
-428.33643339934463
 20
15.951402373145189
 30
0.0
 40
185.87015347036009
 50
359.64153550500021
 51
359.99301579749732
  0
ARC
  8
DETAIL
  6
CONTINUOUS
 62
     5
 10
-428.33643339934463
 20
-15.9514023737957
 30
0.0
 40
185.87015347036009
 50
0.0069842024961222
 51
0.3584644949998101
  0
ARC
  8
DETAIL
  6
CONTINUOUS
 62
     5
 10
-1.5028901734106059
 20
-258.49710982658962
 30
0.0
 40
1.5028901734103499
 50
180.0
 51
0.0
  0
ARC
  8
DETAIL
  6
CONTINUOUS
 62
     5
 10
-97.587668593449166
 20
-238.3333333333332
 30
0.0
 40
2.0038535645471569
 50
180.0
 51
0.0
  0
ARC
  8
DETAIL
  6
CONTINUOUS
 62
     5
 10
-13.025048169557181
 20
-154.10038740600061
 30
0.0
 40
3.0057803468207278
 50
0.0
 51
90.0
  0
ARC
  8
DETAIL
  6
CONTINUOUS
 62
     5
 10
-6.4123314065512886
 20
-253.38728323699431
 30
0.0
 40
3.60693641618488
 50
180.0
 51
270.0
  0
ARC
  8
DETAIL
  6
CONTINUOUS
 62
     5
 10
-16.431599229287372
 20
-243.36801541425831
 30
0.0
 40
3.606936416184908
 50
180.0
 51
270.0
  0
ARC
  8
DETAIL
  6
CONTINUOUS
 62
     5
 10
-16.431599229287372
 20
-147.48767064299469
 30
0.0
 40
3.606936416184908
 50
180.0
 51
270.0
  0
ARC
  8
DETAIL
  6
CONTINUOUS
 62
     5
 10
-6.4123314065512886
 20
-189.28735474113549
 30
0.0
 40
3.60693641618488
 50
180.0
 51
270.0
  0
LINE
  8
DETAIL
  6
CONTINUOUS
 62
     5
 10
-6.4123314065512886
 20
256.99421965317919
 30
0.0
 11
-3.0057803468209841
 21
256.99421965317919
 31
0.0
  0
LINE
  8
DETAIL
  6
CONTINUOUS
 62
     5
 10
-3.0057803468209841
 20
253.8226442482796
 30
0.0
 11
-5.1098265895956274
 21
253.8226442482796
 31
0.0
  0
LINE
  8
DETAIL
  6
CONTINUOUS
 62
     5
 10
-16.431599229287372
 20
246.97495183044319
 30
0.0
 11
-13.894357251557841
 21
246.97495183044319
 31
0.0
  0
LINE
  8
DETAIL
  6
CONTINUOUS
 62
     5
 10
-177.3410404624282
 20
208.12637942957241
 30
0.0
 11
-14.527938342967561
 21
208.12637942957241
 31
0.0
  0
LINE
  8
DETAIL
  6
CONTINUOUS
 62
     5
 10
-5.1098265895956274
 20
204.22979870900591
 30
0.0
 11
-3.0057803468209841
 21
204.22979870900591
 31
0.0
  0
LINE
  8
DETAIL
  6
CONTINUOUS
 62
     5
 10
-14.527938342967561
 20
201.75015643174939
 30
0.0
 11
-177.3410404624282
 21
201.75015643174939
 31
0.0
  0
LINE
  8
DETAIL
  6
CONTINUOUS
 62
     5
 10
-3.0057803468209841
 20
192.89429115666991
 30
0.0
 11
-6.4123314065512886
 21
192.89429115666991
 31
0.0
  0
LINE
  8
DETAIL
  6
CONTINUOUS
 62
     5
 10
-14.527938342967561
 20
185.92647213522511
 30
0.0
 11
-18.08820301814205
 21
185.92647213522511
 31
0.0
  0
LINE
  8
DETAIL
  6
CONTINUOUS
 62
     5
 10
-14.527938342967561
 20
183.0341586477991
 30
0.0
 11
-18.08820301814205
 21
183.0341586477991
 31
0.0
  0
LINE
  8
DETAIL
  6
CONTINUOUS
 62
     5
 10
-177.3410404624282
 20
179.07914132772819
 30
0.0
 11
-18.535645472061901
 21
179.07914132772819
 31
0.0
  0
LINE
  8
DETAIL
  6
CONTINUOUS
 62
     5
 10
-14.527938342967561
 20
177.24953167359811
 30
0.0
 11
-18.08820301814205
 21
177.24953167359811
 31
0.0
  0
LINE
  8
DETAIL
  6
CONTINUOUS
 62
     5
 10
-18.08820301814205
 20
174.35721818617219
 30
0.0
 11
-18.535645472061901
 21
175.13221124965591
 31
0.0
  0
LINE
  8
DETAIL
  6
CONTINUOUS
 62
     5
 10
-14.527938342967561
 20
174.35721818617219
 30
0.0
 11
-18.08820301814205
 21
174.35721818617219
 31
0.0
  0
LINE
  8
DETAIL
  6
CONTINUOUS
 62
     5
 10
-14.527938342967561
 20
163.1385838328454
 30
0.0
 11
-10.0192678227362
 21
163.1385838328454
 31
0.0
  0
LINE
  8
DETAIL
  6
CONTINUOUS
 62
     5
 10
-13.025048169557181
 20
151.09460705852891
 30
0.0
 11
-16.431599229287372
 21
151.09460705852891
 31
0.0
  0
LINE
  8
DETAIL
  6
CONTINUOUS
 62
     5
 10
-247.47591522158029
 20
95.248140658409113
 30
0.0
 11
-279.53757225433549
 21
95.248140658409113
 31
0.0
  0
LINE
  8
DETAIL
  6
CONTINUOUS
 62
     5
 10
-279.53757225433549
 20
94.682080924855484
 30
0.0
 11
-283.54527938342977
 21
94.682080924855484
 31
0.0
  0
LINE
  8
DETAIL
  6
CONTINUOUS
 62
     5
 10
-0.0000000000002274
 20
-258.49710982658962
 30
0.0
 11
-0.0000000000002274
 21
258.49710982658962
 31
0.0
  0
LINE
  8
DETAIL
  6
CONTINUOUS
 62
     5
 10
-3.0057803468209841
 20
-258.49710982658962
 30
0.0
 11
-3.0057803468209841
 21
258.49710982658962
 31
0.0
  0
LINE
  8
DETAIL
  6
CONTINUOUS
 62
     5
 10
-5.1098265895956274
 20
203.82636743547781
 30
0.0
 11
-5.1098265895956274
 21
253.8226442482796
 31
0.0
  0
LINE
  8
DETAIL
  6
CONTINUOUS
 62
     5
 10
-5.1098265895956274
 20
-253.8226442489302
 30
0.0
 11
-5.1098265895956274
 21
-203.82636743612829
 31
0.0
  0
LINE
  8
DETAIL
  6
CONTINUOUS
 62
     5
 10
-195.37572254335291
 20
80.111795044316011
 30
0.0
 11
-235.4527938342969
 21
80.111795044316011
 31
0.0
  0
LINE
  8
DETAIL
  6
CONTINUOUS
 62
     5
 10
-195.37572254335291
 20
79.97789295263118
 30
0.0
 11
-235.4527938342969
 21
79.97789295263118
 31
0.0
  0
LINE
  8
DETAIL
  6
CONTINUOUS
 62
     5
 10
-195.37572254335291
 20
68.110431043615392
 30
0.0
 11
-235.4527938342969
 21
68.110431043615392
 31
0.0
  0
LINE
  8
DETAIL
  6
CONTINUOUS
 62
     5
 10
-195.37572254335291
 20
66.127167630057841
 30
0.0
 11
-181.8137434292222
 21
66.127167630057841
 31
0.0
  0
LINE
  8
DETAIL
  6
CONTINUOUS
 62
     5
 10
-236.45472061657051
 20
66.127167630057841
 30
0.0
 11
-235.4527938342969
 21
66.127167630057841
 31
0.0
  0
LINE
  8
DETAIL
  6
CONTINUOUS
 62
     5
 10
-180.4254329552839
 20
65.325626204238972
 30
0.0
 11
-152.49325626204259
 21
65.325626204238972
 31
0.0
  0
LINE
  8
DETAIL
  6
CONTINUOUS
 62
     5
 10
-298.67437379576131
 20
65.325626204238972
 30
0.0
 11
-283.54527938342977
 21
65.325626204238972
 31
0.0
  0
LINE
  8
DETAIL
  6
CONTINUOUS
 62
     5
 10
-242.46628131021211
 20
63.569471134249227
 30
0.0
 11
-238.45857418111771
 21
63.569471134249227
 31
0.0
  0
LINE
  8
DETAIL
  6
CONTINUOUS
 62
     5
 10
-238.45857418111771
 20
62.072145160573541
 30
0.0
 11
-232.5277252855893
 21
62.072145160573541
 31
0.0
  0
LINE
  8
DETAIL
  6
CONTINUOUS
 62
     5
 10
-10.0192678227362
 20
250.17586801186101
 30
0.0
 11
-10.0192678227362
 21
253.38728323699411
 31
0.0
  0
LINE
  8
DETAIL
  6
CONTINUOUS
 62
     5
 10
-10.0192678227362
 20
189.28735474048489
 30
0.0
 11
-10.0192678227362
 21
194.9077150939618
 31
0.0
  0
LINE
  8
DETAIL
  6
CONTINUOUS
 62
     5
 10
-10.0192678227362
 20
-189.28735474113549
 30
0.0
 11
-10.0192678227362
 21
189.28735474048489
 31
0.0
  0
LINE
  8
DETAIL
  6
CONTINUOUS
 62
     5
 10
-10.0192678227362
 20
-253.38728323699431
 30
0.0
 11
-10.0192678227362
 21
-250.1758680125115
 31
0.0
  0
LINE
  8
DETAIL
  6
CONTINUOUS
 62
     5
 10
-10.0192678227362
 20
-189.28735474113549
 30
0.0
 11
-10.0192678227362
 21
-194.9077150946124
 31
0.0
  0
LINE
  8
DETAIL
  6
CONTINUOUS
 62
     5
 10
-14.527938342967561
 20
201.75015643174939
 30
0.0
 11
-14.527938342967561
 21
244.50056063388641
 31
0.0
  0
LINE
  8
DETAIL
  6
CONTINUOUS
 62
     5
 10
-14.527938342967561
 20
163.1385838328454
 30
0.0
 11
-14.527938342967561
 21
200.20483555238599
 31
0.0
  0
LINE
  8
DETAIL
  6
CONTINUOUS
 62
     5
 10
-14.527938342967561
 20
200.20483555238599
 30
0.0
 11
-14.527938342967561
 21
201.75015643174939
 31
0.0
  0
LINE
  8
DETAIL
  6
CONTINUOUS
 62
     5
 10
-14.527938342967561
 20
-200.2048355530365
 30
0.0
 11
-14.527938342967561
 21
-163.13858383349589
 31
0.0
  0
LINE
  8
DETAIL
  6
CONTINUOUS
 62
     5
 10
-14.527938342967561
 20
-244.50056063453681
 30
0.0
 11
-14.527938342967561
 21
-201.75015643239999
 31
0.0
  0
LINE
  8
DETAIL
  6
CONTINUOUS
 62
     5
 10
-14.527938342967561
 20
-200.2048355530365
 30
0.0
 11
-14.527938342967561
 21
-201.75015643239999
 31
0.0
  0
LINE
  8
DETAIL
  6
CONTINUOUS
 62
     5
 10
-18.535645472061901
 20
175.13221124965591
 30
0.0
 11
-18.535645472061901
 21
185.15147907239199
 31
0.0
  0
LINE
  8
DETAIL
  6
CONTINUOUS
 62
     5
 10
-18.535645472061901
 20
-216.32412484082761
 30
0.0
 11
-18.535645472061901
 21
-208.12637943022301
 31
0.0
  0
LINE
  8
DETAIL
  6
CONTINUOUS
 62
     5
 10
-20.03853564547228
 20
208.12637942957241
 30
0.0
 11
-20.03853564547228
 21
243.368015414258
 31
0.0
  0
LINE
  8
DETAIL
  6
CONTINUOUS
 62
     5
 10
-20.03853564547228
 20
-179.07914132837871
 30
0.0
 11
-20.03853564547228
 21
179.07914132772819
 31
0.0
  0
LINE
  8
DETAIL
  6
CONTINUOUS
 62
     5
 10
-20.03853564547228
 20
-243.36801541425831
 30
0.0
 11
-20.03853564547228
 21
-208.12637943022301
 31
0.0
  0
LINE
  8
DETAIL
  6
CONTINUOUS
 62
     5
 10
-20.53949903660919
 20
-241.96531791907509
 30
0.0
 11
-20.53949903660919
 21
-227.92134759747759
 31
0.0
  0
LINE
  8
DETAIL
  6
CONTINUOUS
 62
     5
 10
-238.45857418111771
 20
58.312137626854913
 30
0.0
 11
-232.5277252855893
 21
58.312137626854913
 31
0.0
  0
LINE
  8
DETAIL
  6
CONTINUOUS
 62
     5
 10
-224.73217726396939
 20
57.808392136175939
 30
0.0
 11
-231.94605009633949
 21
57.808392136175939
 31
0.0
  0
LINE
  8
DETAIL
  6
CONTINUOUS
 62
     5
 10
-195.37572254335291
 20
53.393605738307997
 30
0.0
 11
-224.73217726396939
 21
53.393605738307997
 31
0.0
  0
LINE
  8
DETAIL
  6
CONTINUOUS
 62
     5
 10
-224.73217726396939
 20
51.295868051397633
 30
0.0
 11
-231.94605009633949
 21
51.295868051397633
 31
0.0
  0
LINE
  8
DETAIL
  6
CONTINUOUS
 62
     5
 10
-238.45857418111771
 20
50.792122560068151
 30
0.0
 11
-232.5277252855893
 21
50.792122560068151
 31
0.0
  0
LINE
  8
DETAIL
  6
CONTINUOUS
 62
     5
 10
-238.45857418111771
 20
47.032115026349402
 30
0.0
 11
-232.5277252855893
 21
47.032115026349402
 31
0.0
  0
LINE
  8
DETAIL
  6
CONTINUOUS
 62
     5
 10
-195.37572254335291
 20
46.316122813702748
 30
0.0
 11
-235.4527938342969
 21
46.316122813702748
 31
0.0
  0
LINE
  8
DETAIL
  6
CONTINUOUS
 62
     5
 10
-180.4254329552839
 20
65.325626204238972
 30
0.0
 11
-181.8137434292222
 21
66.127167630057841
 31
0.0
  0
LINE
  8
DETAIL
  6
CONTINUOUS
 62
     5
 10
-138.16570327553021
 20
35.06743737957612
 30
0.0
 11
-138.96724470134899
 21
35.06743737957612
 31
0.0
  0
LINE
  8
DETAIL
  6
CONTINUOUS
 62
     5
 10
-195.37572254335291
 20
34.205911122338193
 30
0.0
 11
-235.4527938342969
 21
34.205911122338193
 31
0.0
  0
LINE
  8
DETAIL
  6
CONTINUOUS
 62
     5
 10
-125.9421964491714
 20
27.799453464205381
 30
0.0
 11
-133.15606936416211
 21
27.85356454720619
 31
0.0
  0
LINE
  8
DETAIL
  6
CONTINUOUS
 62
     5
 10
-110.4123314065513
 20
23.044315992292979
 30
0.0
 11
-102.3969171483625
 21
23.044315992292979
 31
0.0
  0
LINE
  8
DETAIL
  6
CONTINUOUS
 62
     5
 10
-116.4238920936868
 20
19.03660886319852
 30
0.0
 11
-112.4161849710985
 21
19.03660886319852
 31
0.0
  0
LINE
  8
DETAIL
  6
CONTINUOUS
 62
     5
 10
-195.37572254335291
 20
17.912954125716229
 30
0.0
 11
-235.4527938342969
 21
17.912954125716229
 31
0.0
  0
LINE
  8
DETAIL
  6
CONTINUOUS
 62
     5
 10
-247.47591522158029
 20
15.028901734104069
 30
0.0
 11
-279.53757225433549
 21
15.028901734104069
 31
0.0
  0
LINE
  8
DETAIL
  6
CONTINUOUS
 62
     5
 10
-119.93063583815049
 20
14.02697495183048
 30
0.0
 11
-117.4258188824665
 21
14.02697495183048
 31
0.0
  0
LINE
  8
DETAIL
  6
CONTINUOUS
 62
     5
 10
-195.37572254335291
 20
9.8106766156695926
 30
0.0
 11
-235.4527938342969
 21
9.8106766156695926
 31
0.0
  0
LINE
  8
DETAIL
  6
CONTINUOUS
 62
     5
 10
-145.47976878612749
 20
8.5163776493256478
 30
0.0
 11
-138.96724470134899
 21
8.5163776493256478
 31
0.0
  0
LINE
  8
DETAIL
  6
CONTINUOUS
 62
     5
 10
-145.47976878612749
 20
-8.5163776493256478
 30
0.0
 11
-138.96724470134899
 21
-8.5163776493256478
 31
0.0
  0
LINE
  8
DETAIL
  6
CONTINUOUS
 62
     5
 10
-95.583815028901995
 20
-208.12637943022301
 30
0.0
 11
-95.583815028901995
 21
-238.3333333333332
 31
0.0
  0
LINE
  8
DETAIL
  6
CONTINUOUS
 62
     5
 10
-95.583815028901995
 20
179.07914132772819
 30
0.0
 11
-95.583815028901995
 21
-179.07914132837871
 31
0.0
  0
LINE
  8
DETAIL
  6
CONTINUOUS
 62
     5
 10
-95.583815028901995
 20
238.27157755338689
 30
0.0
 11
-95.583815028901995
 21
208.12637942957241
 31
0.0
  0
LINE
  8
DETAIL
  6
CONTINUOUS
 62
     5
 10
-99.591522157996451
 20
-208.12637943022301
 30
0.0
 11
-99.591522157996451
 21
-238.3333333333332
 31
0.0
  0
LINE
  8
DETAIL
  6
CONTINUOUS
 62
     5
 10
-99.591522157996451
 20
179.07914132772819
 30
0.0
 11
-99.591522157996451
 21
-179.07914132837871
 31
0.0
  0
LINE
  8
DETAIL
  6
CONTINUOUS
 62
     5
 10
-99.591522157996451
 20
238.33333333333329
 30
0.0
 11
-99.591522157996451
 21
208.12637942957241
 31
0.0
  0
LINE
  8
DETAIL
  6
CONTINUOUS
 62
     5
 10
-117.42582269824609
 20
-18.034685891499581
 30
0.0
 11
-116.42389612156261
 21
-19.036612891724811
 31
0.0
  0
LINE
  8
DETAIL
  6
CONTINUOUS
 62
     5
 10
-195.37572254335291
 20
-10.383630196231421
 30
0.0
 11
-235.4527938342969
 21
-10.383630196231421
 31
0.0
  0
LINE
  8
DETAIL
  6
CONTINUOUS
 62
     5
 10
-119.93063583815049
 20
-14.02697495183037
 30
0.0
 11
-117.4258188824665
 21
-14.02697495183037
 31
0.0
  0
LINE
  8
DETAIL
  6
CONTINUOUS
 62
     5
 10
-247.47591522158029
 20
-15.02890173410395
 30
0.0
 11
-279.53757225433549
 21
-15.02890173410395
 31
0.0
  0
LINE
  8
DETAIL
  6
CONTINUOUS
 62
     5
 10
-195.37572254335291
 20
-18.586125400795648
 30
0.0
 11
-235.4527938342969
 21
-18.586125400795648
 31
0.0
  0
LINE
  8
DETAIL
  6
CONTINUOUS
 62
     5
 10
-116.4238920936868
 20
-19.03660886319841
 30
0.0
 11
-112.4161849710985
 21
-19.03660886319841
 31
0.0
  0
LINE
  8
DETAIL
  6
CONTINUOUS
 62
     5
 10
-110.4123314065513
 20
-23.044315992292869
 30
0.0
 11
-102.3969171483625
 21
-23.044315992292869
 31
0.0
  0
LINE
  8
DETAIL
  6
CONTINUOUS
 62
     5
 10
-125.94219653179211
 20
-27.85356454720608
 30
0.0
 11
-133.15606936416211
 21
-27.85356454720608
 31
0.0
  0
LINE
  8
DETAIL
  6
CONTINUOUS
 62
     5
 10
-102.3969171483625
 20
-31.682921625772678
 30
0.0
 11
-102.3969171483625
 21
35.176074846482997
 31
0.0
  0
LINE
  8
DETAIL
  6
CONTINUOUS
 62
     5
 10
-110.4123314065513
 20
23.044315992292979
 30
0.0
 11
-110.4123314065513
 21
-23.044315992292869
 31
0.0
  0
LINE
  8
DETAIL
  6
CONTINUOUS
 62
     5
 10
-116.4238921112532
 20
-19.03660886319841
 30
0.0
 11
-116.4238921112532
 21
19.03660886319852
 31
0.0
  0
LINE
  8
DETAIL
  6
CONTINUOUS
 62
     5
 10
-117.4258188824665
 20
-18.03447260145634
 30
0.0
 11
-117.4258188824665
 21
18.03447260080571
 31
0.0
  0
LINE
  8
DETAIL
  6
CONTINUOUS
 62
     5
 10
-119.93063583815049
 20
21.84200385356468
 30
0.0
 11
-119.93063583815049
 21
-21.84200385356456
 31
0.0
  0
LINE
  8
DETAIL
  6
CONTINUOUS
 62
     5
 10
-18.08820301814205
 20
-217.09911790366101
 30
0.0
 11
-18.535645472061901
 21
-216.32412484082761
 31
0.0
  0
LINE
  8
DETAIL
  6
CONTINUOUS
 62
     5
 10
-195.37572254335291
 20
-34.701531117583777
 30
0.0
 11
-235.4527938342969
 21
-34.701531117583777
 31
0.0
  0
LINE
  8
DETAIL
  6
CONTINUOUS
 62
     5
 10
-138.16570327553021
 20
-35.06743737957612
 30
0.0
 11
-138.96724470134899
 21
-35.06743737957612
 31
0.0
  0
LINE
  8
DETAIL
  6
CONTINUOUS
 62
     5
 10
-306.18882466281332
 20
-43.884393063583794
 30
0.0
 11
-305.68786127167652
 21
-43.884393063583794
 31
0.0
  0
LINE
  8
DETAIL
  6
CONTINUOUS
 62
     5
 10
-195.37572254335291
 20
-46.886809864774882
 30
0.0
 11
-235.4527938342969
 21
-46.886809864774882
 31
0.0
  0
LINE
  8
DETAIL
  6
CONTINUOUS
 62
     5
 10
-238.45857418111771
 20
-47.032115026999968
 30
0.0
 11
-232.5277252855893
 21
-47.032115026999968
 31
0.0
  0
LINE
  8
DETAIL
  6
CONTINUOUS
 62
     5
 10
-238.45857418111771
 20
-50.792122560718717
 30
0.0
 11
-232.5277252855893
 21
-50.792122560718717
 31
0.0
  0
LINE
  8
DETAIL
  6
CONTINUOUS
 62
     5
 10
-224.73217726396939
 20
-51.295868052048213
 30
0.0
 11
-231.94605009633949
 21
-51.295868052048213
 31
0.0
  0
LINE
  8
DETAIL
  6
CONTINUOUS
 62
     5
 10
-306.18882466281332
 20
-53.302504816955718
 30
0.0
 11
-305.68786127167652
 21
-53.302504816955718
 31
0.0
  0
LINE
  8
DETAIL
  6
CONTINUOUS
 62
     5
 10
-195.37572254335291
 20
-53.736438496359092
 30
0.0
 11
-224.73217726396939
 21
-53.736438496359092
 31
0.0
  0
LINE
  8
DETAIL
  6
CONTINUOUS
 62
     5
 10
-180.4254329552839
 20
-65.325626204238858
 30
0.0
 11
-181.8137434292222
 21
-66.127167630057727
 31
0.0
  0
LINE
  8
DETAIL
  6
CONTINUOUS
 62
     5
 10
-18.08820301814205
 20
185.92647213522511
 30
0.0
 11
-18.535645472061901
 21
185.15147907239199
 31
0.0
  0
LINE
  8
DETAIL
  6
CONTINUOUS
 62
     5
 10
-138.16570327553021
 20
-35.06743737957612
 30
0.0
 11
-138.16570327553021
 21
35.06743737957612
 31
0.0
  0
LINE
  8
DETAIL
  6
CONTINUOUS
 62
     5
 10
-138.96724470134899
 20
-35.06743737957612
 30
0.0
 11
-138.96724470134899
 21
35.06743737957612
 31
0.0
  0
LINE
  8
DETAIL
  6
CONTINUOUS
 62
     5
 10
-145.47976878612749
 20
58.31213872832376
 30
0.0
 11
-145.47976878612749
 21
-58.312138728323653
 31
0.0
  0
LINE
  8
DETAIL
  6
CONTINUOUS
 62
     5
 10
-224.73217726396939
 20
-57.808392136826512
 30
0.0
 11
-231.94605009633949
 21
-57.808392136826512
 31
0.0
  0
LINE
  8
DETAIL
  6
CONTINUOUS
 62
     5
 10
-238.45857418111771
 20
-58.312137627505358
 30
0.0
 11
-232.5277252855893
 21
-58.312137627505358
 31
0.0
  0
LINE
  8
DETAIL
  6
CONTINUOUS
 62
     5
 10
-238.45857418111771
 20
-62.072145161224107
 30
0.0
 11
-232.5277252855893
 21
-62.072145161224107
 31
0.0
  0
LINE
  8
DETAIL
  6
CONTINUOUS
 62
     5
 10
-180.4254329552839
 20
-65.325626204238858
 30
0.0
 11
-152.49325626204259
 21
-65.325626204238858
 31
0.0
  0
LINE
  8
DETAIL
  6
CONTINUOUS
 62
     5
 10
-298.67437379576131
 20
-65.325626204238858
 30
0.0
 11
-290.35322275690038
 21
-65.325626204238858
 31
0.0
  0
LINE
  8
DETAIL
  6
CONTINUOUS
 62
     5
 10
-195.37572254335291
 20
-66.127167630057727
 30
0.0
 11
-181.8137434292222
 21
-66.127167630057727
 31
0.0
  0
LINE
  8
DETAIL
  6
CONTINUOUS
 62
     5
 10
-236.45472061657051
 20
-66.127167630057727
 30
0.0
 11
-235.4527938342969
 21
-66.127167630057727
 31
0.0
  0
LINE
  8
DETAIL
  6
CONTINUOUS
 62
     5
 10
-195.37572254335291
 20
-68.49175194004448
 30
0.0
 11
-235.4527938342969
 21
-68.49175194004448
 31
0.0
  0
LINE
  8
DETAIL
  6
CONTINUOUS
 62
     5
 10
-117.42582269824609
 20
18.034685890849062
 30
0.0
 11
-116.42389612156261
 21
19.036612891074181
 31
0.0
  0
LINE
  8
DETAIL
  6
CONTINUOUS
 62
     5
 10
-232.5277252855893
 20
62.072145160573541
 30
0.0
 11
-231.94605009633949
 21
61.064654178565213
 31
0.0
  0
LINE
  8
DETAIL
  6
CONTINUOUS
 62
     5
 10
-195.37572254335291
 20
-80.111795044966527
 30
0.0
 11
-235.4527938342969
 21
-80.111795044966527
 31
0.0
  0
LINE
  8
DETAIL
  6
CONTINUOUS
 62
     5
 10
-279.53757225433549
 20
-94.68208092485537
 30
0.0
 11
-283.54527938342977
 21
-94.68208092485537
 31
0.0
  0
LINE
  8
DETAIL
  6
CONTINUOUS
 62
     5
 10
-247.47591522158029
 20
-95.248140659059516
 30
0.0
 11
-279.53757225433549
 21
-95.248140659059516
 31
0.0
  0
LINE
  8
DETAIL
  6
CONTINUOUS
 62
     5
 10
-180.4254329552839
 20
65.325626204238972
 30
0.0
 11
-180.4254329552839
 21
-65.325626204238858
 31
0.0
  0
LINE
  8
DETAIL
  6
CONTINUOUS
 62
     5
 10
-181.8137434292222
 20
66.127167630057841
 30
0.0
 11
-181.8137434292222
 21
-66.127167630057727
 31
0.0
  0
LINE
  8
DETAIL
  6
CONTINUOUS
 62
     5
 10
-232.5277252855893
 20
-62.072145161224107
 30
0.0
 11
-231.94605009633949
 21
-61.064654179215673
 31
0.0
  0
LINE
  8
DETAIL
  6
CONTINUOUS
 62
     5
 10
-195.37572254335291
 20
-80.111794284413065
 30
0.0
 11
-195.37572254335291
 21
80.111794283762492
 31
0.0
  0
LINE
  8
DETAIL
  6
CONTINUOUS
 62
     5
 10
-232.5277252855893
 20
-47.032115026999968
 30
0.0
 11
-231.94605009633949
 21
-48.039606009658939
 31
0.0
  0
LINE
  8
DETAIL
  6
CONTINUOUS
 62
     5
 10
-224.73217726396939
 20
51.295868051397633
 30
0.0
 11
-224.73217726396939
 21
57.808392136175939
 31
0.0
  0
LINE
  8
DETAIL
  6
CONTINUOUS
 62
     5
 10
-224.73217726396939
 20
-57.808392136826512
 30
0.0
 11
-224.73217726396939
 21
-51.295868052048213
 31
0.0
  0
LINE
  8
DETAIL
  6
CONTINUOUS
 62
     5
 10
-231.94605009633949
 20
-48.039606009658939
 30
0.0
 11
-231.94605009633949
 21
-61.064654179215673
 31
0.0
  0
LINE
  8
DETAIL
  6
CONTINUOUS
 62
     5
 10
-231.94605009633949
 20
61.064654178565213
 30
0.0
 11
-231.94605009633949
 21
48.039606009008367
 31
0.0
  0
LINE
  8
DETAIL
  6
CONTINUOUS
 62
     5
 10
-235.4527938342969
 20
62.072145160573541
 30
0.0
 11
-235.4527938342969
 21
80.111624044040809
 31
0.0
  0
LINE
  8
DETAIL
  6
CONTINUOUS
 62
     5
 10
-235.4527938342969
 20
-47.032115026999968
 30
0.0
 11
-235.4527938342969
 21
47.032115026349402
 31
0.0
  0
LINE
  8
DETAIL
  6
CONTINUOUS
 62
     5
 10
-235.4527938342969
 20
-80.111624044691268
 30
0.0
 11
-235.4527938342969
 21
-62.072145161224107
 31
0.0
  0
LINE
  8
DETAIL
  6
CONTINUOUS
 62
     5
 10
-16.431599229287372
 20
-151.09460705917979
 30
0.0
 11
-13.025048169557181
 21
-151.09460705917979
 31
0.0
  0
LINE
  8
DETAIL
  6
CONTINUOUS
 62
     5
 10
-14.527938342967561
 20
-163.13858383349589
 30
0.0
 11
-10.0192678227362
 21
-163.13858383349589
 31
0.0
  0
LINE
  8
DETAIL
  6
CONTINUOUS
 62
     5
 10
-232.5277252855893
 20
47.032115026349402
 30
0.0
 11
-231.94605009633949
 21
48.039606009008367
 31
0.0
  0
LINE
  8
DETAIL
  6
CONTINUOUS
 62
     5
 10
-238.45857418111771
 20
85.664658086830343
 30
0.0
 11
-238.45857418111771
 21
-85.664658086830343
 31
0.0
  0
LINE
  8
DETAIL
  6
CONTINUOUS
 62
     5
 10
-242.46628131021211
 20
-88.670520231213857
 30
0.0
 11
-242.46628131021211
 21
88.67052023121397
 31
0.0
  0
LINE
  8
DETAIL
  6
CONTINUOUS
 62
     5
 10
-247.47591522158029
 20
15.028901734104069
 30
0.0
 11
-247.47591522158029
 21
129.4862957878037
 31
0.0
  0
LINE
  8
DETAIL
  6
CONTINUOUS
 62
     5
 10
-247.47591522158029
 20
-129.48629578845421
 30
0.0
 11
-247.47591522158029
 21
-15.02890173410395
 31
0.0
  0
LINE
  8
DETAIL
  6
CONTINUOUS
 62
     5
 10
-14.527938342967561
 20
-179.07914132837871
 30
0.0
 11
-177.3410404624282
 21
-179.07914132837871
 31
0.0
  0
LINE
  8
DETAIL
  6
CONTINUOUS
 62
     5
 10
-6.4123314065512886
 20
-192.89429115732051
 30
0.0
 11
-3.0057803468209841
 21
-192.89429115732051
 31
0.0
  0
LINE
  8
DETAIL
  6
CONTINUOUS
 62
     5
 10
-279.53757225433549
 20
-15.02890173410395
 30
0.0
 11
-279.53757225433549
 21
-129.48629578845421
 31
0.0
  0
LINE
  8
DETAIL
  6
CONTINUOUS
 62
     5
 10
-279.53757225433549
 20
129.4862957878037
 30
0.0
 11
-279.53757225433549
 21
15.028901734104069
 31
0.0
  0
LINE
  8
DETAIL
  6
CONTINUOUS
 62
     5
 10
-283.54527938342977
 20
-94.682066276555815
 30
0.0
 11
-283.54527938342977
 21
94.682080924855484
 31
0.0
  0
LINE
  8
DETAIL
  6
CONTINUOUS
 62
     5
 10
-177.3410404624282
 20
-201.75015643239999
 30
0.0
 11
-14.527938342967561
 21
-201.75015643239999
 31
0.0
  0
LINE
  8
DETAIL
  6
CONTINUOUS
 62
     5
 10
-5.1098265895956274
 20
-204.22979870900571
 30
0.0
 11
-3.0057803468209841
 21
-204.22979870900571
 31
0.0
  0
LINE
  8
DETAIL
  6
CONTINUOUS
 62
     5
 10
-14.527938342967561
 20
-208.12637943022301
 30
0.0
 11
-177.3410404624282
 21
-208.12637943022301
 31
0.0
  0
LINE
  8
DETAIL
  6
CONTINUOUS
 62
     5
 10
-14.527938342967561
 20
-208.4221774420339
 30
0.0
 11
-18.08820301814205
 21
-208.4221774420339
 31
0.0
  0
LINE
  8
DETAIL
  6
CONTINUOUS
 62
     5
 10
-14.527938342967561
 20
-214.2068044168856
 30
0.0
 11
-18.08820301814205
 21
-214.2068044168856
 31
0.0
  0
LINE
  8
DETAIL
  6
CONTINUOUS
 62
     5
 10
-14.527938342967561
 20
-217.09911790366101
 30
0.0
 11
-18.08820301814205
 21
-217.09911790366101
 31
0.0
  0
LINE
  8
DETAIL
  6
CONTINUOUS
 62
     5
 10
-305.68786127167652
 20
-58.312138728323653
 30
0.0
 11
-305.68786127167652
 21
58.31213872832376
 31
0.0
  0
LINE
  8
DETAIL
  6
CONTINUOUS
 62
     5
 10
-306.18882466281332
 20
-43.884393063583794
 30
0.0
 11
-306.18882466281332
 21
-53.302504816955718
 31
0.0
  0
LINE
  8
DETAIL
  6
CONTINUOUS
 62
     5
 10
-20.03853564547228
 20
-241.96531791907509
 30
0.0
 11
-20.53949903660919
 21
-241.96531791907509
 31
0.0
  0
LINE
  8
DETAIL
  6
CONTINUOUS
 62
     5
 10
-13.894357251557841
 20
-246.9749518304431
 30
0.0
 11
-16.431599229287372
 21
-246.9749518304431
 31
0.0
  0
LINE
  8
DETAIL
  6
CONTINUOUS
 62
     5
 10
-5.1098265895956274
 20
-253.8226442489302
 30
0.0
 11
-3.0057803468209841
 21
-253.8226442489302
 31
0.0
  0
LINE
  8
DETAIL
  6
CONTINUOUS
 62
     5
 10
-3.0057803468209841
 20
-256.99421965317907
 30
0.0
 11
-6.4123314065512886
 21
-256.99421965317907
 31
0.0
  0
ARC
  8
DETAIL
  6
CONTINUOUS
 62
     5
 10
-49.49518304431615
 20
233.3236994219653
 30
0.0
 40
29.456647398843881
 50
301.17926167420239
 51
0.0000012020978172
  0
ARC
  8
DETAIL
  6
CONTINUOUS
 62
     5
 10
-64.524084778420274
 20
238.33333333333329
 30
0.0
 40
34.466281310211919
 50
205.68763667250269
 51
241.23134989640121
  0
ARC
  8
DETAIL
  6
CONTINUOUS
 62
     5
 10
-49.49518304431615
 20
-233.32369942196519
 30
0.0
 40
29.456647398843941
 50
1.0440761733983059
 51
58.82073832579762
  0
ARC
  8
DETAIL
  6
CONTINUOUS
 62
     5
 10
-64.524084778420274
 20
-238.3333333333332
 30
0.0
 40
34.466281310211983
 50
118.7686501035988
 51
154.31236332749731
  0
LINE
  8
DETAIL
  6
CONTINUOUS
 62
     5
 10
-235.4527938342969
 20
79.653179190751416
 30
0.0
 11
-238.45857418111771
 21
79.653179190751416
 31
0.0
  0
LINE
  8
DETAIL
  6
CONTINUOUS
 62
     5
 10
-235.4527938342969
 20
74.643545279383432
 30
0.0
 11
-238.45857418111771
 21
74.643545279383432
 31
0.0
  0
LINE
  8
DETAIL
  6
CONTINUOUS
 62
     5
 10
-99.591522157996451
 20
208.12637942957241
 30
0.0
 11
-99.591522157996451
 21
238.33333333333329
 31
0.0
  0
LINE
  8
DETAIL
  6
CONTINUOUS
 62
     5
 10
-99.591522157996451
 20
-179.07914132837871
 30
0.0
 11
-99.591522157996451
 21
179.07914132772819
 31
0.0
  0
LINE
  8
DETAIL
  6
CONTINUOUS
 62
     5
 10
-99.591522157996451
 20
-238.26974793358849
 30
0.0
 11
-99.591522157996451
 21
-208.12637943022301
 31
0.0
  0
LINE
  8
DETAIL
  6
CONTINUOUS
 62
     5
 10
-242.46628131021211
 20
-63.569471134899743
 30
0.0
 11
-238.45857418111771
 21
-63.569471134899743
 31
0.0
  0
LINE
  8
DETAIL
  6
CONTINUOUS
 62
     5
 10
-235.4527938342969
 20
-74.643545279383432
 30
0.0
 11
-238.45857418111771
 21
-74.643545279383432
 31
0.0
  0
LINE
  8
DETAIL
  6
CONTINUOUS
 62
     5
 10
-235.4527938342969
 20
-79.653179190751359
 30
0.0
 11
-238.45857418111771
 21
-79.653179190751359
 31
0.0
  0
LINE
  8
DETAIL
  6
CONTINUOUS
 62
     5
 10
-242.46628131021211
 20
-85.6647398843931
 30
0.0
 11
-238.45857418111771
 21
-85.6647398843931
 31
0.0
  0
LINE
  8
DETAIL
  6
CONTINUOUS
 62
     5
 10
-242.46628131021211
 20
85.6647398843931
 30
0.0
 11
-238.45857418111771
 21
85.6647398843931
 31
0.0
  0
ARC
  8
OUTLINE
  6
CONTINUOUS
 62
     3
 10
-1.5028901734106059
 20
258.49710982658962
 30
0.0
 40
1.5028901734103779
 50
0.0
 51
180.0
  0
ARC
  8
OUTLINE
  6
CONTINUOUS
 62
     3
 10
-97.58766859344928
 20
238.33333333333329
 30
0.0
 40
2.0038535645471569
 50
0.0
 51
180.0
  0
ARC
  8
OUTLINE
  6
CONTINUOUS
 62
     3
 10
-6.4123314065514023
 20
253.38728323699411
 30
0.0
 40
3.6069364161849649
 50
90.0
 51
180.0
  0
ARC
  8
OUTLINE
  6
CONTINUOUS
 62
     3
 10
-16.431599229287489
 20
243.368015414258
 30
0.0
 40
3.6069364161849928
 50
90.0
 51
180.0
  0
ARC
  8
OUTLINE
  6
CONTINUOUS
 62
     3
 10
-298.67437379576148
 20
58.31213872832376
 30
0.0
 40
7.0134874759152392
 50
90.0
 51
180.0
  0
ARC
  8
OUTLINE
  6
CONTINUOUS
 62
     3
 10
-298.67437379576148
 20
-58.312138728323653
 30
0.0
 40
7.013487475915241
 50
180.0
 51
270.0
  0
ARC
  8
OUTLINE
  6
CONTINUOUS
 62
     3
 10
-1.5028901734106059
 20
-258.49710982658962
 30
0.0
 40
1.5028901734103499
 50
180.0
 51
0.0
  0
ARC
  8
OUTLINE
  6
CONTINUOUS
 62
     3
 10
-97.58766859344928
 20
-238.3333333333332
 30
0.0
 40
2.0038535645471569
 50
180.0
 51
0.0
  0
ARC
  8
OUTLINE
  6
CONTINUOUS
 62
     3
 10
-6.4123314065514023
 20
-253.38728323699431
 30
0.0
 40
3.60693641618488
 50
180.0
 51
270.0
  0
ARC
  8
OUTLINE
  6
CONTINUOUS
 62
     3
 10
-16.431599229287489
 20
-243.36801541425831
 30
0.0
 40
3.606936416184908
 50
180.0
 51
270.0
  0
LINE
  8
OUTLINE
  6
CONTINUOUS
 62
     3
 10
-6.4123314065514023
 20
256.99421965317919
 30
0.0
 11
-3.0057803468209841
 21
256.99421965317919
 31
0.0
  0
LINE
  8
OUTLINE
  6
CONTINUOUS
 62
     3
 10
-16.431599229287489
 20
246.97495183044319
 30
0.0
 11
-13.894357251557951
 21
246.97495183044319
 31
0.0
  0
LINE
  8
OUTLINE
  6
CONTINUOUS
 62
     3
 10
-177.3410404624282
 20
208.12637942957241
 30
0.0
 11
-99.591522157996451
 21
208.12637942957241
 31
0.0
  0
LINE
  8
OUTLINE
  6
CONTINUOUS
 62
     3
 10
-279.5375722543356
 20
94.682080924855484
 30
0.0
 11
-283.54527938342989
 21
94.682080924855484
 31
0.0
  0
LINE
  8
OUTLINE
  6
CONTINUOUS
 62
     3
 10
-0.0000000000002274
 20
-258.49710982658962
 30
0.0
 11
-0.0000000000002274
 21
258.49710982658962
 31
0.0
  0
LINE
  8
OUTLINE
  6
CONTINUOUS
 62
     3
 10
-3.0057803468209841
 20
256.99421965317919
 30
0.0
 11
-3.0057803468209841
 21
258.49710982658962
 31
0.0
  0
LINE
  8
OUTLINE
  6
CONTINUOUS
 62
     3
 10
-3.0057803468209841
 20
-258.49710982658962
 30
0.0
 11
-3.0057803468209841
 21
-256.99421965317907
 31
0.0
  0
LINE
  8
OUTLINE
  6
CONTINUOUS
 62
     3
 10
-298.67437379576148
 20
65.325626204238972
 30
0.0
 11
-283.54527938342989
 21
65.325626204238972
 31
0.0
  0
LINE
  8
OUTLINE
  6
CONTINUOUS
 62
     3
 10
-10.01926782273631
 20
250.17586801186101
 30
0.0
 11
-10.01926782273631
 21
253.38728323699411
 31
0.0
  0
LINE
  8
OUTLINE
  6
CONTINUOUS
 62
     3
 10
-10.01926782273631
 20
-253.38728323699431
 30
0.0
 11
-10.01926782273631
 21
-250.1758680125115
 31
0.0
  0
LINE
  8
OUTLINE
  6
CONTINUOUS
 62
     3
 10
-20.038535645472169
 20
233.3236994219653
 30
0.0
 11
-20.03853564547239
 21
243.368015414258
 31
0.0
  0
LINE
  8
OUTLINE
  6
CONTINUOUS
 62
     3
 10
-20.03853564547239
 20
-243.36801541425831
 30
0.0
 11
-20.03853564547239
 21
-241.96531791907509
 31
0.0
  0
LINE
  8
OUTLINE
  6
CONTINUOUS
 62
     3
 10
-20.53949903660919
 20
-241.96531791907509
 30
0.0
 11
-20.53949903660919
 21
-227.92134759747759
 31
0.0
  0
LINE
  8
OUTLINE
  6
CONTINUOUS
 62
     3
 10
-95.583815028902109
 20
-223.39286131528809
 30
0.0
 11
-95.583815028902109
 21
-238.3333333333332
 31
0.0
  0
LINE
  8
OUTLINE
  6
CONTINUOUS
 62
     3
 10
-95.583815028902109
 20
238.27157755338689
 30
0.0
 11
-95.583815028902109
 21
223.3928613152884
 31
0.0
  0
LINE
  8
OUTLINE
  6
CONTINUOUS
 62
     3
 10
-99.591522157996451
 20
-208.12637943022301
 30
0.0
 11
-99.591522157996451
 21
-238.3333333333332
 31
0.0
  0
LINE
  8
OUTLINE
  6
CONTINUOUS
 62
     3
 10
-99.591522157996451
 20
238.33333333333329
 30
0.0
 11
-99.591522157996451
 21
208.12637942957241
 31
0.0
  0
LINE
  8
OUTLINE
  6
CONTINUOUS
 62
     3
 10
-298.67437379576148
 20
-65.325626204238858
 30
0.0
 11
-290.3536841650361
 21
-65.325626204238858
 31
0.0
  0
LINE
  8
OUTLINE
  6
CONTINUOUS
 62
     3
 10
-279.5375722543356
 20
-94.68208092485537
 30
0.0
 11
-283.54527938342989
 21
-94.68208092485537
 31
0.0
  0
LINE
  8
OUTLINE
  6
CONTINUOUS
 62
     3
 10
-279.5375722543356
 20
-94.68208092485537
 30
0.0
 11
-279.5375722543356
 21
-129.48629578845421
 31
0.0
  0
LINE
  8
OUTLINE
  6
CONTINUOUS
 62
     3
 10
-279.5375722543356
 20
129.4862957878037
 30
0.0
 11
-279.5375722543356
 21
94.682080924855484
 31
0.0
  0
LINE
  8
OUTLINE
  6
CONTINUOUS
 62
     3
 10
-283.54527938342989
 20
-94.682066276555815
 30
0.0
 11
-283.54527938342977
 21
-75.764796754873601
 31
0.0
  0
LINE
  8
OUTLINE
  6
CONTINUOUS
 62
     3
 10
-305.68786127167658
 20
-58.312138728323653
 30
0.0
 11
-305.68786127167658
 21
58.31213872832376
 31
0.0
  0
LINE
  8
OUTLINE
  6
CONTINUOUS
 62
     3
 10
-20.03853564547239
 20
-241.96531791907509
 30
0.0
 11
-20.53949903660919
 21
-241.96531791907509
 31
0.0
  0
LINE
  8
OUTLINE
  6
CONTINUOUS
 62
     3
 10
-13.894357251557951
 20
-246.9749518304431
 30
0.0
 11
-16.431599229287489
 21
-246.9749518304431
 31
0.0
  0
LINE
  8
OUTLINE
  6
CONTINUOUS
 62
     3
 10
-3.0057803468209841
 20
-256.99421965317907
 30
0.0
 11
-6.4123314065514023
 21
-256.99421965317907
 31
0.0
  0
ARC
  8
OUTLINE
  6
CONTINUOUS
 62
     3
 10
-49.495183044316263
 20
233.3236994219653
 30
0.0
 40
29.456647398843881
 50
301.17926167420239
 51
0.0000012020978172
  0
ARC
  8
OUTLINE
  6
CONTINUOUS
 62
     3
 10
-64.524084778420502
 20
238.33333333333329
 30
0.0
 40
34.466281310211919
 50
205.68763667250269
 51
241.23134989639391
  0
ARC
  8
OUTLINE
  6
CONTINUOUS
 62
     3
 10
-64.524084778420502
 20
-238.3333333333332
 30
0.0
 40
34.466281310211983
 50
118.76865010360611
 51
154.31236332749731
  0
LINE
  8
OUTLINE
  6
CONTINUOUS
 62
     3
 10
-99.591522157996451
 20
208.12637942957241
 30
0.0
 11
-99.591522157996451
 21
238.33333333333329
 31
0.0
  0
LINE
  8
OUTLINE
  6
CONTINUOUS
 62
     3
 10
-99.591522157996451
 20
-238.26974793358849
 30
0.0
 11
-99.591522157996451
 21
-208.30420669709821
 31
0.0
  0
LINE
  8
OUTLINE
  6
CONTINUOUS
 62
     3
 10
-81.121207517338917
 20
208.12637942957241
 30
0.0
 11
-34.237753995463663
 21
208.12637942957241
 31
0.0
  0
LINE
  8
OUTLINE
  6
CONTINUOUS
 62
     3
 10
-283.54527938342989
 20
65.325626204238972
 30
0.0
 11
-283.54527938342989
 21
94.682080924855484
 31
0.0
  0
LINE
  8
OUTLINE
  6
CONTINUOUS
 62
     3
 10
-99.591522157996451
 20
-208.12637943022301
 30
0.0
 11
-177.3410404624282
 21
-208.12637943022301
 31
0.0
  0
LINE
  8
OUTLINE
  6
CONTINUOUS
 62
     3
 10
-34.240276784872087
 20
-208.1248520079389
 30
0.0
 11
-81.111814089112613
 21
-208.12122013895569
 31
0.0
  0
ARC
  8
OUTLINE
  6
CONTINUOUS
 62
     3
 10
-49.495183044316263
 20
-233.32369942196519
 30
0.0
 40
29.456647398843941
 50
10.56834305107264
 51
58.82073832579762
  0
LINE
  8
SIZE
  6
CONTINUOUS
 62
    30
 10
-10.0192678227362
 20
273.38728323699428
 30
0.0
 11
-10.0192678227362
 21
477.70755252576868
 31
0.0
  0
LINE
  8
SIZE
  6
CONTINUOUS
 62
    30
 10
-20.03853564547239
 20
263.36801541425802
 30
0.0
 11
-20.03853564547239
 21
477.70755252576868
 31
0.0
  0
LINE
  8
SIZE
  6
CONTINUOUS
 62
    30
 10
1.9807321772638029
 20
457.70755252576868
 30
0.0
 11
13.9807321772638
 21
457.70755252576868
 31
0.0
  0
LINE
  8
SIZE
  6
CONTINUOUS
 62
    30
 10
-32.038535645472393
 20
457.70755252576868
 30
0.0
 11
-180.19035184701281
 21
457.70755252576868
 31
0.0
  0
LINE
  8
SIZE
  6
CONTINUOUS
 62
    30
 10
-10.0192678227362
 20
457.70755252576868
 30
0.0
 11
-20.03853564547239
 21
457.70755252576868
 31
0.0
  0
CIRCLE
  8
SIZE
  6
CONTINUOUS
 62
    30
 10
-10.0192678227362
 20
457.70755252576868
 30
0.0
 40
6.0
  0
LINE
  8
SIZE
  6
CONTINUOUS
 62
    30
 10
-10.0192678227362
 20
457.70755252576868
 30
0.0
 11
1.9807321772638029
 21
457.70755252576868
 31
0.0
  0
CIRCLE
  8
SIZE
  6
CONTINUOUS
 62
    30
 10
-20.03853564547239
 20
457.70755252576868
 30
0.0
 40
6.0
  0
LINE
  8
SIZE
  6
CONTINUOUS
 62
    30
 10
-20.03853564547239
 20
457.70755252576868
 30
0.0
 11
-32.038535645472393
 21
457.70755252576868
 31
0.0
  0
TEXT
  8
SIZE
  6
CONTINUOUS
 62
    30
 10
-155.19035184701289
 20
482.70755252576868
 30
0.0
 40
64.0
  1
10
 41
0.9
 72
     1
 11
-114.0474947041557
 21
482.70755252576868
 31
0.0
  0
POINT
  8
DEFPOINTS
  6
CONTINUOUS
 62
    30
 10
-10.0192678227362
 20
253.38728323699411
 30
0.0
  0
POINT
  8
DEFPOINTS
  6
CONTINUOUS
 62
    30
 10
-20.03853564547239
 20
243.368015414258
 30
0.0
  0
POINT
  8
DEFPOINTS
  6
CONTINUOUS
 62
    30
 10
-20.03853564547239
 20
457.70755252576868
 30
0.0
  0
LINE
  8
SIZE
  6
CONTINUOUS
 62
    30
 10
18.497109826589391
 20
260.0
 30
0.0
 11
419.39690483289911
 21
259.99999999999989
 31
0.0
  0
LINE
  8
SIZE
  6
CONTINUOUS
 62
    30
 10
18.497109826589391
 20
-259.99999999999989
 30
0.0
 11
419.39690483289911
 21
-260.0
 31
0.0
  0
LINE
  8
SIZE
  6
CONTINUOUS
 62
    30
 10
399.39690483289911
 20
247.99999999999989
 30
0.0
 11
399.39690483289911
 21
-248.0
 31
0.0
  0
CIRCLE
  8
SIZE
  6
CONTINUOUS
 62
    30
 10
399.39690483289911
 20
259.99999999999989
 30
0.0
 40
6.0
  0
LINE
  8
SIZE
  6
CONTINUOUS
 62
    30
 10
399.39690483289911
 20
259.99999999999989
 30
0.0
 11
399.39690483289911
 21
247.99999999999989
 31
0.0
  0
CIRCLE
  8
SIZE
  6
CONTINUOUS
 62
    30
 10
399.39690483289911
 20
-260.0
 30
0.0
 40
6.0
  0
LINE
  8
SIZE
  6
CONTINUOUS
 62
    30
 10
399.39690483289911
 20
-260.0
 30
0.0
 11
399.39690483289911
 21
-248.0
 31
0.0
  0
TEXT
  8
SIZE
  6
CONTINUOUS
 62
    30
 10
374.39690483289911
 20
-74.05714285714285
 30
0.0
 40
64.0
  1
520
 50
90.0
 41
0.9
 72
     1
 11
374.39690483289911
 21
0.0
 31
0.0
  0
POINT
  8
DEFPOINTS
  6
CONTINUOUS
 62
    30
 10
-1.5028901734106059
 20
260.0
 30
0.0
  0
POINT
  8
DEFPOINTS
  6
CONTINUOUS
 62
    30
 10
-1.5028901734106059
 20
-259.99999999999989
 30
0.0
  0
POINT
  8
DEFPOINTS
  6
CONTINUOUS
 62
    30
 10
399.39690483289911
 20
-260.0
 30
0.0
  0
LINE
  8
SIZE
  6
CONTINUOUS
 62
    30
 10
59.543577809473618
 20
230.44315992292869
 30
0.0
 11
273.24517238824228
 21
230.44315992292849
 31
0.0
  0
LINE
  8
SIZE
  6
CONTINUOUS
 62
    30
 10
59.543577809473618
 20
-230.44315992292869
 30
0.0
 11
273.24517238824228
 21
-230.4431599229288
 31
0.0
  0
LINE
  8
SIZE
  6
CONTINUOUS
 62
    30
 10
253.24517238824231
 20
218.44315992292849
 30
0.0
 11
253.2451723882422
 21
-218.44315992292869
 31
0.0
  0
CIRCLE
  8
SIZE
  6
CONTINUOUS
 62
    30
 10
253.24517238824231
 20
230.44315992292849
 30
0.0
 40
6.0
  0
LINE
  8
SIZE
  6
CONTINUOUS
 62
    30
 10
253.24517238824231
 20
230.44315992292849
 30
0.0
 11
253.24517238824231
 21
218.44315992292849
 31
0.0
  0
CIRCLE
  8
SIZE
  6
CONTINUOUS
 62
    30
 10
253.2451723882422
 20
-230.44315992292869
 30
0.0
 40
6.0
  0
LINE
  8
SIZE
  6
CONTINUOUS
 62
    30
 10
253.2451723882422
 20
-230.44315992292869
 30
0.0
 11
253.2451723882422
 21
-218.44315992292869
 31
0.0
  0
TEXT
  8
SIZE
  6
CONTINUOUS
 62
    30
 10
228.24517238824231
 20
-74.05714285714285
 30
0.0
 40
64.0
  1
460
 50
90.0
 41
0.9
 72
     1
 11
228.24517238824231
 21
0.0
 31
0.0
  0
POINT
  8
DEFPOINTS
  6
CONTINUOUS
 62
    30
 10
39.543577809473618
 20
230.44315992292869
 30
0.0
  0
POINT
  8
DEFPOINTS
  6
CONTINUOUS
 62
    30
 10
39.543577809473618
 20
-230.44315992292869
 30
0.0
  0
POINT
  8
DEFPOINTS
  6
CONTINUOUS
 62
    30
 10
253.2451723882422
 20
-230.44315992292869
 30
0.0
  0
TEXT
  8
NOTE
  6
CONTINUOUS
 62
     4
 10
-263.69517435209889
 20
-312.11438677651762
 30
0.0
 40
64.0
  1
EL
 41
0.9
  0
LINE
  8
SIZE
  6
CONTINUOUS
 62
    30
 10
-318.67437379576131
 20
65.325626204238972
 30
0.0
 11
-412.37426521236557
 21
65.325626204238972
 31
0.0
  0
LINE
  8
SIZE
  6
CONTINUOUS
 62
    30
 10
-318.67437379576148
 20
-65.325626204238858
 30
0.0
 11
-412.37426521236557
 21
-65.325626204238858
 31
0.0
  0
LINE
  8
SIZE
  6
CONTINUOUS
 62
    30
 10
-392.37426521236557
 20
77.325626204238972
 30
0.0
 11
-392.37426521236557
 21
89.325626204238972
 31
0.0
  0
LINE
  8
SIZE
  6
CONTINUOUS
 62
    30
 10
-392.37426521236557
 20
-77.325626204238858
 30
0.0
 11
-392.37426521236557
 21
-89.325626204238802
 31
0.0
  0
LINE
  8
SIZE
  6
CONTINUOUS
 62
    30
 10
-392.37426521236557
 20
65.325626204238972
 30
0.0
 11
-392.37426521236557
 21
-65.325626204238858
 31
0.0
  0
CIRCLE
  8
SIZE
  6
CONTINUOUS
 62
    30
 10
-392.37426521236557
 20
65.325626204238972
 30
0.0
 40
6.0
  0
LINE
  8
SIZE
  6
CONTINUOUS
 62
    30
 10
-392.37426521236557
 20
65.325626204238972
 30
0.0
 11
-392.37426521236557
 21
77.325626204238972
 31
0.0
  0
CIRCLE
  8
SIZE
  6
CONTINUOUS
 62
    30
 10
-392.37426521236557
 20
-65.325626204238858
 30
0.0
 40
6.0
  0
LINE
  8
SIZE
  6
CONTINUOUS
 62
    30
 10
-392.37426521236557
 20
-65.325626204238858
 30
0.0
 11
-392.37426521236557
 21
-77.325626204238858
 31
0.0
  0
TEXT
  8
SIZE
  6
CONTINUOUS
 62
    30
 10
-428.0409318790322
 20
-96.548571428571364
 30
0.0
 40
64.0
  1
φ131
 50
90.0
 41
0.9
 72
     1
 11
-428.0409318790322
 21
0.0000000000000568
 31
0.0
  0
POINT
  8
DEFPOINTS
  6
CONTINUOUS
 62
    30
 10
-298.67437379576131
 20
65.325626204238972
 30
0.0
  0
POINT
  8
DEFPOINTS
  6
CONTINUOUS
 62
    30
 10
-298.67437379576148
 20
-65.325626204238858
 30
0.0
  0
POINT
  8
DEFPOINTS
  6
CONTINUOUS
 62
    30
 10
-392.37426521236557
 20
-65.325626204238858
 30
0.0
  0
LINE
  8
SIZE
  6
CONTINUOUS
 62
    30
 10
0.0
 20
321.35307858947658
 30
0.0
 11
0.0
 21
366.15613838661102
 31
0.0
  0
LINE
  8
SIZE
  6
CONTINUOUS
 62
    30
 10
-99.591522157996451
 20
258.33333333333331
 30
0.0
 11
-99.591522157996451
 21
366.15613838661102
 31
0.0
  0
LINE
  8
SIZE
  6
CONTINUOUS
 62
    30
 10
-12.0
 20
346.15613838661102
 30
0.0
 11
-87.591522157996451
 21
346.15613838661102
 31
0.0
  0
LINE
  8
SIZE
  6
CONTINUOUS
 62
    30
 10
-99.591522157996451
 20
346.15613838661102
 30
0.0
 11
-281.48431939852992
 21
346.15613838661102
 31
0.0
  0
CIRCLE
  8
SIZE
  6
CONTINUOUS
 62
    30
 10
0.0
 20
346.15613838661102
 30
0.0
 40
6.0
  0
LINE
  8
SIZE
  6
CONTINUOUS
 62
    30
 10
0.0
 20
346.15613838661102
 30
0.0
 11
-12.0
 21
346.15613838661102
 31
0.0
  0
CIRCLE
  8
SIZE
  6
CONTINUOUS
 62
    30
 10
-99.591522157996451
 20
346.15613838661102
 30
0.0
 40
6.0
  0
LINE
  8
SIZE
  6
CONTINUOUS
 62
    30
 10
-99.591522157996451
 20
346.15613838661102
 30
0.0
 11
-87.591522157996451
 21
346.15613838661102
 31
0.0
  0
TEXT
  8
SIZE
  6
CONTINUOUS
 62
    30
 10
-256.48431939852998
 20
371.15613838661102
 30
0.0
 40
64.0
  1
99
 41
0.9
 72
     1
 11
-211.22717654138719
 21
371.15613838661102
 31
0.0
  0
POINT
  8
DEFPOINTS
  6
CONTINUOUS
 62
    30
 10
0.0
 20
301.35307858947658
 30
0.0
  0
POINT
  8
DEFPOINTS
  6
CONTINUOUS
 62
    30
 10
-99.591522157996451
 20
238.33333333333329
 30
0.0
  0
POINT
  8
DEFPOINTS
  6
CONTINUOUS
 62
    30
 10
-99.591522157996451
 20
346.15613838661102
 30
0.0
  0
LINE
  8
DETAIL
  6
CONTINUOUS
 62
     4
 10
-59.119737001642477
 20
-212.0693024058148
 30
0.0
 11
-54.322563265220538
 21
-208.12318742616921
 31
0.0
  0
LINE
  8
DETAIL
  6
CONTINUOUS
 62
     4
 10
-54.322563265220538
 20
-208.12318742616921
 30
0.0
 11
-56.50397133308519
 21
-213.93921340027339
 31
0.0
  0
LINE
  8
DETAIL
  6
CONTINUOUS
 62
     4
 10
-54.322563265220538
 20
-208.12318742616921
 30
0.0
 11
-61.301145069507129
 21
-217.88532837991889
 31
0.0
  0
LINE
  8
NOTE
  6
CONTINUOUS
 62
     4
 10
-61.301145069507129
 20
-217.885328379919
 30
0.0
 11
-149.18645901027779
 21
-340.82561145109582
 31
0.0
  0
LINE
  8
NOTE
  6
CONTINUOUS
 62
     4
 10
-149.18645901027779
 20
-340.82561145109582
 30
0.0
 11
-271.21503043884928
 21
-340.82561145109582
 31
0.0
  0
ARC
  8
DETAIL
  6
CONTINUOUS
 62
     5
 10
-7.434675095950638
 20
-194.71600823209431
 30
0.0
 40
2.5916927064155608
 50
184.24202891535191
 51
255.98509350748711
  0
ARC
  8
DETAIL
  6
CONTINUOUS
 62
     5
 10
-10.541280470920469
 20
-210.59185320260991
 30
0.0
 40
13.58931915512612
 50
56.311381449145841
 51
79.489248747470711
  0
ARC
  8
DETAIL
  6
CONTINUOUS
 62
     5
 10
-8.0794983657355033
 20
-194.43226356615111
 30
0.0
 40
6.4659440374839088
 50
184.21685902020539
 51
255.06085877076779
  0
ARC
  8
DETAIL
  6
CONTINUOUS
 62
     5
 10
-9.8698550613511316
 20
-205.85084148326811
 30
0.0
 40
5.1726556254472236
 50
23.04039538273673
 51
88.632099070931844
  0
ARC
  8
DETAIL
  6
CONTINUOUS
 62
     5
 10
-8.2323180326803822
 20
-244.127670549231
 30
0.0
 40
6.3066537963497042
 50
183.38967333439069
 51
253.5401388989585
  0
ARC
  8
DETAIL
  6
CONTINUOUS
 62
     5
 10
-9.9511880313151551
 20
-255.41019132464359
 30
0.0
 40
5.2347660304861217
 50
22.354595942661941
 51
90.745170780002098
  0
ARC
  8
DETAIL
  6
CONTINUOUS
 62
     5
 10
-181.41114233928391
 20
107.6910000267108
 30
0.0
 40
100.51781516336
 50
87.679382205651024
 51
167.47707798699631
  0
ARC
  8
DETAIL
  6
CONTINUOUS
 62
     5
 10
-180.27583859556009
 20
97.504796788519798
 30
0.0
 40
104.2866628444331
 50
88.387389674372301
 51
162.141389690739
  0
ARC
  8
DETAIL
  6
CONTINUOUS
 62
     5
 10
-179.2343325833294
 20
107.3673924125783
 30
0.0
 40
71.73673736325452
 50
88.487661284954498
 51
162.04111807990449
  0
ARC
  8
DETAIL
  6
CONTINUOUS
 62
     5
 10
-7.434675095950638
 20
194.71600823209431
 30
0.0
 40
2.5916927064155608
 50
104.01490649251291
 51
175.7579710846482
  0
ARC
  8
DETAIL
  6
CONTINUOUS
 62
     5
 10
-10.541280470920469
 20
210.59185320260991
 30
0.0
 40
13.58931915512612
 50
280.5107512525293
 51
303.68861855085419
  0
ARC
  8
DETAIL
  6
CONTINUOUS
 62
     5
 10
-8.0794983657355033
 20
194.43226356615119
 30
0.0
 40
6.4659440374839088
 50
104.93914122923221
 51
175.7831409797945
  0
ARC
  8
DETAIL
  6
CONTINUOUS
 62
     5
 10
-9.8698550613511316
 20
205.8508414832686
 30
0.0
 40
5.1726556254472236
 50
271.36790092906813
 51
336.95960461726332
  0
ARC
  8
DETAIL
  6
CONTINUOUS
 62
     5
 10
-8.2323180326802685
 20
244.127670549231
 30
0.0
 40
6.3066537963497042
 50
106.4598611010415
 51
176.61032666560931
  0
ARC
  8
DETAIL
  6
CONTINUOUS
 62
     5
 10
-9.9511880313150414
 20
255.4101913246441
 30
0.0
 40
5.2347660304861217
 50
269.25482921999787
 51
337.645404057338
  0
ARC
  8
DETAIL
  6
CONTINUOUS
 62
     5
 10
-181.4111423392842
 20
-107.6910000267103
 30
0.0
 40
100.51781516336
 50
192.52292201300369
 51
272.320617794349
  0
ARC
  8
DETAIL
  6
CONTINUOUS
 62
     5
 10
-180.27583859556049
 20
-97.504796788519343
 30
0.0
 40
104.2866628444331
 50
197.858610309261
 51
271.61261032561458
  0
ARC
  8
DETAIL
  6
CONTINUOUS
 62
     5
 10
-179.23433258332989
 20
-107.3673924125778
 30
0.0
 40
71.73673736325452
 50
197.95888192009551
 51
271.51233871503251
  0
ARC
  8
DETAIL
  6
CONTINUOUS
 62
     5
 10
-234.1019327153011
 20
119.37018553553899
 30
0.0
 40
86.677803009336486
 50
21.134733506703611
 51
43.540323582702413
  0
ARC
  8
DETAIL
  6
CONTINUOUS
 62
     5
 10
-220.77304571126669
 20
99.830970474484047
 30
0.0
 40
84.490102929544989
 50
16.481134931946599
 51
36.952931650366097
  0
ARC
  8
DETAIL
  6
CONTINUOUS
 62
     5
 10
170.40736113033481
 20
230.37103614903589
 30
0.0
 40
327.95963052344428
 50
198.96250380081079
 51
204.6052770876569
  0
ARC
  8
DETAIL
  6
CONTINUOUS
 62
     5
 10
-1.941351975650718
 20
126.40549788242591
 30
0.0
 40
129.98211552736711
 50
194.51834828411651
 51
217.26240846351831
  0
ARC
  8
DETAIL
  6
CONTINUOUS
 62
     5
 10
-125.2410825248643
 20
36.340825680019982
 30
0.0
 40
22.87383956079935
 50
357.08119923299648
 51
29.791833750452781
  0
ARC
  8
DETAIL
  6
CONTINUOUS
 62
     5
 10
881.0488263440111
 20
-518.52972707641436
 30
0.0
 40
1142.6911760520679
 50
153.49176108131209
 51
153.94117916040079
  0
ARC
  8
DETAIL
  6
CONTINUOUS
 62
     5
 10
-166.65617439754141
 20
-14.10079736195576
 30
0.0
 40
34.900941323770667
 50
324.70981344055599
 51
336.36004486572261
  0
ARC
  8
DETAIL
  6
CONTINUOUS
 62
     5
 10
-68.040836842544024
 20
-73.900987866138848
 30
0.0
 40
80.6494245940643
 50
151.21577242721801
 51
163.78008015200709
  0
ARC
  8
DETAIL
  6
CONTINUOUS
 62
     5
 10
-97.776607539960025
 20
-24.74667539978179
 30
0.0
 40
4.6894950435644152
 50
112.77113315548669
 51
170.09712183974261
  0
ARC
  8
DETAIL
  6
CONTINUOUS
 62
     5
 10
-567.16743645378438
 20
-258.81112763802969
 30
0.0
 40
608.92192664455752
 50
39.83657487437398
 51
45.982318187684257
  0
ARC
  8
DETAIL
  6
CONTINUOUS
 62
     5
 10
362.26804028819151
 20
-249.3809280518492
 30
0.0
 40
558.60773673741448
 50
147.40687022909049
 51
150.3303488671126
  0
ARC
  8
DETAIL
  6
CONTINUOUS
 62
     5
 10
288.72111151095032
 20
-251.68889138315021
 30
0.0
 40
493.05826883910379
 50
157.7917486933263
 51
159.77891877560131
  0
ARC
  8
DETAIL
  6
CONTINUOUS
 62
     5
 10
494.46195801522839
 20
-356.58975077583358
 30
0.0
 40
723.12863132396194
 50
159.1043864320348
 51
160.37417085104411
  0
ARC
  8
DETAIL
  6
CONTINUOUS
 62
     5
 10
-185.25495311651889
 20
-114.2535579826629
 30
0.0
 40
1.504747885364166
 50
158.74429636882431
 51
304.82623207313361
  0
ARC
  8
DETAIL
  6
CONTINUOUS
 62
     5
 10
-231.72083415710861
 20
-71.131610421564631
 30
0.0
 40
64.863211564579842
 50
316.8541983670018
 51
326.27115306760447
  0
ARC
  8
DETAIL
  6
CONTINUOUS
 62
     5
 10
-951.70461634859373
 20
457.8828892429251
 30
0.0
 40
956.6424275460098
 50
325.27558193132711
 51
326.86136052850162
  0
ARC
  8
DETAIL
  6
CONTINUOUS
 62
     5
 10
18.70031500480275
 20
-89.586979247800741
 30
0.0
 40
134.22898168522599
 50
154.4446595748903
 51
166.82246371151061
  0
ARC
  8
DETAIL
  6
CONTINUOUS
 62
     5
 10
-113.5887708496675
 20
-59.144020104552169
 30
0.0
 40
1.665267561117165
 50
10.792085828827281
 51
150.96349744235911
  0
ARC
  8
DETAIL
  6
CONTINUOUS
 62
     5
 10
-100.8931448778122
 20
-79.537116759666048
 30
0.0
 40
25.49110429655337
 50
123.7198316544912
 51
181.01696768818519
  0
ARC
  8
DETAIL
  6
CONTINUOUS
 62
     5
 10
-130.83632998990441
 20
-79.76245887830828
 30
0.0
 40
4.4618786257382137
 50
258.2622930825861
 51
357.08267735385778
  0
ARC
  8
DETAIL
  6
CONTINUOUS
 62
     5
 10
-133.3863680563372
 20
-89.667392279197202
 30
0.0
 40
5.7657942530253683
 50
74.367791094825037
 51
168.86474308660721
  0
ARC
  8
DETAIL
  6
CONTINUOUS
 62
     5
 10
-142.17892533113539
 20
-87.515179414277043
 30
0.0
 40
3.3066387008406268
 50
211.92947242571211
 51
341.41729822728041
  0
ARC
  8
DETAIL
  6
CONTINUOUS
 62
     5
 10
-151.8483313441742
 20
-86.102716561493821
 30
0.0
 40
3.5806247493725079
 50
40.697657079862132
 51
146.1285844919569
  0
ARC
  8
DETAIL
  6
CONTINUOUS
 62
     5
 10
-237.30323945425519
 20
-154.75504076854199
 30
0.0
 40
113.194748437505
 50
35.299371996361081
 51
38.83824692701765
  0
ARC
  8
DETAIL
  6
CONTINUOUS
 62
     5
 10
-163.007131322954
 20
-75.236079554350226
 30
0.0
 40
12.060812372317541
 50
223.94579565793509
 51
313.54488954148547
  0
ARC
  8
DETAIL
  6
CONTINUOUS
 62
     5
 10
-192.2458045277981
 20
-100.7479865690229
 30
0.0
 40
26.744166919408691
 50
40.309377013833434
 51
66.282932994864439
  0
ARC
  8
DETAIL
  6
CONTINUOUS
 62
     5
 10
-183.16474373760491
 20
-78.753068633978046
 30
0.0
 40
3.036787020810733
 50
51.171126959996087
 51
155.23096451307541
  0
ARC
  8
DETAIL
  6
CONTINUOUS
 62
     5
 10
-173.4359934205722
 20
-81.379343299799871
 30
0.0
 40
13.080641380065909
 50
162.660003330634
 51
204.23003754961431
  0
ARC
  8
DETAIL
  6
CONTINUOUS
 62
     5
 10
91.347820320251799
 20
4.5980693373035706
 30
0.0
 40
291.39944560373232
 50
198.26862675620359
 51
210.50763396721709
  0
ARC
  8
DETAIL
  6
CONTINUOUS
 62
     5
 10
-27.686033413762861
 20
-58.966384061610029
 30
0.0
 40
156.67814463567419
 50
212.57907507013991
 51
229.90788435458009
  0
LINE
  8
DETAIL
  6
CONTINUOUS
 62
     5
 10
-31.722375064930471
 20
-301.29831312561151
 30
0.0
 11
-31.679621254443649
 21
-331.04562245283518
 31
0.0
  0
LINE
  8
DETAIL
  6
CONTINUOUS
 62
     5
 10
-34.64508470928422
 20
-301.29076913623368
 30
0.0
 11
-25.450974433535979
 21
-301.36772301825789
 31
0.0
  0
LINE
  8
DETAIL
  6
CONTINUOUS
 62
     5
 10
-31.679621254443649
 20
-331.04562245283518
 30
0.0
 11
-28.566155289414841
 21
-330.42837975458679
 31
0.0
  0
ARC
  8
DETAIL
  6
CONTINUOUS
 62
     5
 10
-83.212824187883371
 20
-246.94304607935609
 30
0.0
 40
59.196294783461717
 50
0.3986711434010208
 51
40.976190764400592
  0
ARC
  8
DETAIL
  6
CONTINUOUS
 62
     5
 10
-76.675631459203714
 20
-245.94848742382871
 30
0.0
 40
43.931743046141648
 50
353.69344948241712
 51
59.421042245618636
  0
LINE
  8
DETAIL
  6
CONTINUOUS
 62
     5
 10
-28.541115810023712
 20
-301.28557511644328
 30
0.0
 11
-28.566155289414841
 21
-330.42837975458679
 31
0.0
  0
ARC
  8
DETAIL
  6
CONTINUOUS
 62
     5
 10
-656.40585975779391
 20
-257.4423390696594
 30
0.0
 40
632.48202082713738
 50
356.01764705583781
 51
0.9884800406790193
  0
ARC
  8
DETAIL
  6
CONTINUOUS
 62
     5
 10
-1247.1747099527761
 20
-236.75357664525481
 30
0.0
 40
1214.2459146761589
 50
356.95329267203772
 51
359.33839918777107
  0
ARC
  8
DETAIL
  6
CONTINUOUS
 62
     5
 10
59.977548613596348
 20
-301.27894868172137
 30
0.0
 40
88.518690516924991
 50
180.0199172338427
 51
199.0489425623087
  0
LINE
  8
DETAIL
  6
CONTINUOUS
 62
     5
 10
-23.692884705199049
 20
-330.16365253159847
 30
0.0
 11
-26.526308201553999
 21
-331.09381967743781
 31
0.0
  0
LINE
  8
DETAIL
  6
CONTINUOUS
 62
     5
 10
-26.526308201553999
 20
-331.09381967743781
 30
0.0
 11
-28.535498662065489
 21
-324.9009977790115
 31
0.0
  0
ARC
  8
DETAIL
  6
CONTINUOUS
 62
     5
 10
-258.00476642847519
 20
-51.668959629936239
 30
0.0
 40
35.113062651294157
 50
181.53135466624909
 51
223.33485130590839
  0
ARC
  8
DETAIL
  6
CONTINUOUS
 62
     5
 10
-289.37076232909322
 20
-61.526218191434793
 30
0.0
 40
9.6746847315946791
 50
52.965043572375571
 51
149.47727050221971
  0
ARC
  8
DETAIL
  6
CONTINUOUS
 62
     5
 10
-293.03012401817278
 20
-54.717195737238058
 30
0.0
 40
5.0443370666004643
 50
202.07107470408039
 51
279.59647991650343
  0
ARC
  8
OUTLINE
  6
CONTINUOUS
 62
     3
 10
-8.2323180326803822
 20
-244.127670549231
 30
0.0
 40
6.3066537963497042
 50
183.38967333439069
 51
253.5401388989585
  0
ARC
  8
OUTLINE
  6
CONTINUOUS
 62
     3
 10
-181.41114233928391
 20
107.6910000267108
 30
0.0
 40
100.51781516336
 50
87.679382205651024
 51
167.47707798699631
  0
ARC
  8
OUTLINE
  6
CONTINUOUS
 62
     3
 10
-8.2323180326802685
 20
244.127670549231
 30
0.0
 40
6.3066537963497042
 50
106.4598611010415
 51
176.61032666560931
  0
ARC
  8
OUTLINE
  6
CONTINUOUS
 62
     3
 10
-181.4111423392842
 20
-107.6910000267103
 30
0.0
 40
100.51781516336
 50
192.52292201300369
 51
272.320617794349
  0
ARC
  8
OUTLINE
  6
CONTINUOUS
 62
     3
 10
-258.00560153639952
 20
-51.668074483502103
 30
0.0
 40
35.113062651294094
 50
202.8897585244755
 51
223.33485130590611
  0
ENDSEC
  0
EOF
