  0
SECTION
  2
HEADER
  9
$ACADVER
  1
AC1009
  9
$DWGCODEPAGE
  3
dos932
  9
$INSBASE
 10
0.0
 20
0.0
 30
0.0
  9
$EXTMIN
 10
-606.81608449297164
 20
-332.29063757729091
 30
-0.0015257624927045
  9
$EXTMAX
 10
1229.040539147145
 20
629.33350416055509
 30
0.0022888765696933
  9
$LIMMIN
 10
-2970.0
 20
-2100.0
  9
$LIMMAX
 10
2970.0
 20
2100.0
  9
$ORTHOMODE
 70
     1
  9
$REGENMODE
 70
     1
  9
$FILLMODE
 70
     1
  9
$QTEXTMODE
 70
     0
  9
$MIRRTEXT
 70
     0
  9
$LTSCALE
 40
20.0
  9
$ATTMODE
 70
     1
  9
$TEXTSIZE
 40
64.0
  9
$TRACEWID
 40
0.05
  9
$TEXTSTYLE
  7
STANDARD
  9
$CLAYER
  8
SIZE
  9
$CELTYPE
  6
CONTINUOUS
  9
$CECOLOR
 62
     7
  9
$DIMSCALE
 40
1.0
  9
$DIMASZ
 40
12.0
  9
$DIMEXO
 40
20.0
  9
$DIMDLI
 40
200.0
  9
$DIMRND
 40
0.0
  9
$DIMDLE
 40
0.0
  9
$DIMEXE
 40
20.0
  9
$DIMTP
 40
0.0
  9
$DIMTM
 40
0.0
  9
$DIMTXT
 40
64.0
  9
$DIMCEN
 40
0.09
  9
$DIMTSZ
 40
0.0
  9
$DIMTOL
 70
     0
  9
$DIMLIM
 70
     0
  9
$DIMTIH
 70
     0
  9
$DIMTOH
 70
     0
  9
$DIMSE1
 70
     0
  9
$DIMSE2
 70
     0
  9
$DIMTAD
 70
     1
  9
$DIMZIN
 70
     8
  9
$DIMBLK
  1

  9
$DIMASO
 70
     1
  9
$DIMSHO
 70
     0
  9
$DIMPOST
  1

  9
$DIMAPOST
  1

  9
$DIMALT
 70
     0
  9
$DIMALTD
 70
     2
  9
$DIMALTF
 40
25.399999999999999
  9
$DIMLFAC
 40
1.0
  9
$DIMTOFL
 70
     1
  9
$DIMTVP
 40
0.0
  9
$DIMTIX
 70
     1
  9
$DIMSOXD
 70
     0
  9
$DIMSAH
 70
     0
  9
$DIMBLK1
  1

  9
$DIMBLK2
  1

  9
$DIMSTYLE
  2
STANDARD
  9
$DIMCLRD
 70
     7
  9
$DIMCLRE
 70
     7
  9
$DIMCLRT
 70
     7
  9
$DIMTFAC
 40
1.0
  9
$DIMGAP
 40
25.0
  9
$LUNITS
 70
     2
  9
$LUPREC
 70
     4
  9
$SKETCHINC
 40
0.1
  9
$FILLETRAD
 40
3.0
  9
$AUNITS
 70
     1
  9
$AUPREC
 70
     3
  9
$MENU
  1
ACAD
  9
$ELEVATION
 40
0.0
  9
$PELEVATION
 40
0.0
  9
$THICKNESS
 40
50.0
  9
$LIMCHECK
 70
     0
  9
$CHAMFERA
 40
0.0
  9
$CHAMFERB
 40
0.0
  9
$SKPOLY
 70
     0
  9
$TDCREATE
 40
2453019.62301037
  9
$TDUPDATE
 40
2458949.445505799
  9
$TDINDWG
 40
1.7133840394
  9
$TDUSRTIMER
 40
1.7133840394
  9
$USRTIMER
 70
     1
  9
$ANGBASE
 50
0.0
  9
$ANGDIR
 70
     0
  9
$PDMODE
 70
     3
  9
$PDSIZE
 40
-2.0
  9
$PLINEWID
 40
0.0
  9
$SPLFRAME
 70
     0
  9
$SPLINETYPE
 70
     6
  9
$SPLINESEGS
 70
     8
  9
$SURFTAB1
 70
     6
  9
$SURFTAB2
 70
     6
  9
$SURFTYPE
 70
     6
  9
$SURFU
 70
     6
  9
$SURFV
 70
     6
  9
$UCSNAME
  2

  9
$UCSORG
 10
0.0
 20
0.0
 30
0.0
  9
$UCSXDIR
 10
1.0
 20
0.0
 30
0.0
  9
$UCSYDIR
 10
0.0
 20
1.0
 30
0.0
  9
$PUCSNAME
  2

  9
$PUCSORG
 10
0.0
 20
0.0
 30
0.0
  9
$PUCSXDIR
 10
1.0
 20
0.0
 30
0.0
  9
$PUCSYDIR
 10
0.0
 20
1.0
 30
0.0
  9
$USERI1
 70
     0
  9
$USERI2
 70
     0
  9
$USERI3
 70
     0
  9
$USERI4
 70
     0
  9
$USERI5
 70
     0
  9
$USERR1
 40
20.0
  9
$USERR2
 40
0.0
  9
$USERR3
 40
0.0
  9
$USERR4
 40
0.0
  9
$USERR5
 40
0.0
  9
$WORLDVIEW
 70
     1
  9
$SHADEDGE
 70
     3
  9
$SHADEDIF
 70
    70
  9
$TILEMODE
 70
     1
  9
$MAXACTVP
 70
    48
  9
$PINSBASE
 10
0.0
 20
0.0
 30
0.0
  9
$PLIMCHECK
 70
     0
  9
$PEXTMIN
 10
-100000000000000000000.0
 20
-100000000000000000000.0
 30
-100000000000000000000.0
  9
$PEXTMAX
 10
100000000000000000000.0
 20
100000000000000000000.0
 30
100000000000000000000.0
  9
$PLIMMIN
 10
0.0
 20
0.0
  9
$PLIMMAX
 10
12.0
 20
9.0
  9
$UNITMODE
 70
     0
  9
$VISRETAIN
 70
     0
  9
$PLINEGEN
 70
     0
  9
$PSLTSCALE
 70
     0
  9
$TREEDEPTH
 70
  3020
  9
$ATTDIA
 70
     0
  9
$ATTREQ
 70
     1
  9
$BLIPMODE
 70
     1
  9
$COORDS
 70
     1
  9
$DRAGMODE
 70
     2
  9
$OSMODE
 70
     0
  9
$HANDLING
 70
     0
  9
$HANDSEED
  5
101D5
  0
ENDSEC
  0
SECTION
  2
TABLES
  0
TABLE
  2
LTYPE
 70
     2
  0
LTYPE
  2
CONTINUOUS
 70
     0
  3
実線
 72
    65
 73
     0
 40
0.0
  0
LTYPE
  2
DASHDOT
 70
     0
  3
____ _ ____ _ ____ _ ____ _ ____ _ ____ _ ____
 72
    65
 73
     4
 40
5.5
 49
4.0
 49
-0.6
 49
0.3
 49
-0.6
  0
ENDTAB
  0
TABLE
  2
LAYER
 70
    12
  0
LAYER
  2
0
 70
     0
 62
     7
  6
CONTINUOUS
  0
LAYER
  2
BASIS
 70
     0
 62
     6
  6
DASHDOT
  0
LAYER
  2
OUTLINE
 70
     0
 62
     3
  6
CONTINUOUS
  0
LAYER
  2
DETAIL
 70
     0
 62
     5
  6
CONTINUOUS
  0
LAYER
  2
SIZE
 70
     0
 62
    30
  6
CONTINUOUS
  0
LAYER
  2
ARRANGE
 70
     0
 62
     1
  6
CONTINUOUS
  0
LAYER
  2
DEFPOINTS
 70
     0
 62
     7
  6
CONTINUOUS
  0
LAYER
  2
ETC
 70
     0
 62
    61
  6
CONTINUOUS
  0
LAYER
  2
FIX
 70
     0
 62
    11
  6
CONTINUOUS
  0
LAYER
  2
NOTE
 70
     0
 62
     4
  6
CONTINUOUS
  0
LAYER
  2
SERVICESPACE
 70
    64
 62
     2
  6
DASHDOT
  0
LAYER
  2
SYMBOLLINE
 70
    64
 62
    15
  6
CONTINUOUS
  0
ENDTAB
  0
TABLE
  2
STYLE
 70
     1
  0
STYLE
  2
STANDARD
 70
     0
 40
64.0
 41
0.9
 50
0.0
 71
     0
 42
64.0
  3
SIMPLEX.shx
  4
BIGFONT.shx
  0
ENDTAB
  0
TABLE
  2
APPID
 70
    19
  0
APPID
  2
ACAD
 70
     0
  0
APPID
  2
AUTOCAD_POSTSCRIPT_FIGURE
 70
     0
  0
APPID
  2
ACAD_EXEMPT_FROM_CAD_STANDARDS
 70
     0
  0
APPID
  2
ACAD_PSEXT
 70
     0
  0
APPID
  2
ACAUTHENVIRON
 70
     0
  0
APPID
  2
GENIUS_GENOENT_13
 70
     0
  0
APPID
  2
GENIUS_GENCFG_13
 70
     0
  0
APPID
  2
GENIUS_GENCFG0_13
 70
     0
  0
APPID
  2
GENIUS_GENCFG1_13
 70
     0
  0
APPID
  2
GENIUS_GENCFG2_13
 70
     0
  0
APPID
  2
GENIUS_GENCFG3_13
 70
     0
  0
APPID
  2
GENIUS_GENCFG4_13
 70
     0
  0
APPID
  2
GENIUS_GEVCFG0_13
 70
     0
  0
APPID
  2
CONTENTBLOCKICON
 70
     0
  0
APPID
  2
CONTENTBLOCKDESCRIPTION
 70
     0
  0
APPID
  2
ACAD_NAV_VCDISPLAY
 70
     0
  0
APPID
  2
ACAD_MLEADERVER
 70
     0
  0
APPID
  2
ACDBDYNAMICBLOCKTRUENAME
 70
     0
  0
APPID
  2
ACDBDYNAMICBLOCKGUID
 70
     0
  0
ENDTAB
  0
TABLE
  2
DIMSTYLE
 70
     1
  0
DIMSTYLE
  2
STANDARD
 70
     0
  3

  4

  5
_ORIGIN
  6

  7

 40
1.0
 41
12.0
 42
20.0
 43
200.0
 44
20.0
 45
0.0
 46
0.0
 47
0.0
 48
0.0
140
64.0
141
0.09
142
0.0
143
25.399999999999999
144
1.0
145
0.0
146
1.0
147
25.0
 71
     0
 72
     0
 73
     0
 74
     0
 75
     0
 76
     0
 77
     1
 78
     8
170
     0
171
     2
172
     1
173
     0
174
     1
175
     0
176
     7
177
     7
178
     7
  0
ENDTAB
  0
TABLE
  2
VIEW
 70
     1
  0
VIEW
  2
ALL
 70
     0
 40
4282.6198079999986
 10
0.0
 20
41.309904000000003
 41
5940.0
 11
0.0
 21
0.0
 31
1.0
 12
0.0
 22
0.0
 32
0.0
 42
50.0
 43
0.0
 44
0.0
 50
0.0
 71
     0
  0
ENDTAB
  0
TABLE
  2
UCS
 70
     0
  0
ENDTAB
  0
TABLE
  2
VPORT
 70
     1
  0
VPORT
  2
*ACTIVE
 70
     0
 10
0.0
 20
0.0
 11
1.0
 21
1.0
 12
311.11222732708671
 22
148.52143329163209
 13
0.0
 23
0.0
 14
1.0
 24
1.0
 15
0.0
 25
0.0
 16
0.0
 26
0.0
 36
1.0
 17
0.0
 27
0.0
 37
0.0
 40
1054.37326391442
 41
1.747787610619469
 42
50.0
 43
0.0
 44
0.0
 50
0.0
 51
0.0
 71
     0
 72
  1000
 73
     1
 74
     3
 75
     0
 76
     0
 77
     0
 78
     0
  0
ENDTAB
  0
ENDSEC
  0
SECTION
  2
BLOCKS
  0
BLOCK
  8
0
  2
_ORIGIN
 70
     0
 10
0.0
 20
0.0
 30
0.0
  3
_ORIGIN
  1
_ORIGIN
  0
CIRCLE
  8
0
  6
CONTINUOUS
 62
     7
 10
0.0
 20
0.0
 30
0.0
 40
0.5
  0
LINE
  8
0
  6
CONTINUOUS
 62
     7
 10
0.0
 20
0.0
 30
0.0
 11
-1.0
 21
0.0
 31
0.0
  0
ENDBLK
  8
0
  0
ENDSEC
  0
SECTION
  2
ENTITIES
  0
POINT
  8
ARRANGE
  6
CONTINUOUS
 62
     1
 10
0.0
 20
0.0
 30
0.0
  0
CIRCLE
  8
ARRANGE
  6
CONTINUOUS
 62
     1
 10
0.0
 20
0.0
 30
0.0
 40
40.0
  0
TEXT
  8
ETC
  6
CONTINUOUS
 62
    61
 10
422.44220436437581
 20
565.14461564764088
 30
0.0
 40
64.0
  1
EWF-40ETA2-HQ_3
 41
0.9
  0
TEXT
  8
ETC
  6
CONTINUOUS
 62
    61
 10
418.25621036437542
 20
447.18930563280952
 30
0.0
 40
64.0
  1
産業扇
 41
0.9
  0
TEXT
  8
ETC
  6
CONTINUOUS
 62
    61
 10
468.95760861293138
 20
339.04053274658418
 30
0.0
 40
40.0
  1
EWF-40ETA2-HQ
 41
0.9
  0
CIRCLE
  8
FIX
  6
CONTINUOUS
 62
    11
 10
-230.4431599229292
 20
230.4431599229288
 30
0.0
 40
9.8378378699999995
  0
CIRCLE
  8
FIX
  6
CONTINUOUS
 62
    11
 10
230.44315992292829
 20
230.4431599229288
 30
0.0
 40
9.8378378699999995
  0
LINE
  8
SIZE
  6
CONTINUOUS
 62
    30
 10
-230.4431599229292
 20
289.98673773240262
 30
0.0
 11
-230.4431599229292
 21
354.829391094946
 31
0.0
  0
LINE
  8
SIZE
  6
CONTINUOUS
 62
    30
 10
230.44315992292829
 20
289.98673773240262
 30
0.0
 11
230.44315992292829
 21
354.829391094946
 31
0.0
  0
LINE
  8
SIZE
  6
CONTINUOUS
 62
    30
 10
-218.4431599229292
 20
334.829391094946
 30
0.0
 11
218.44315992292829
 21
334.829391094946
 31
0.0
  0
CIRCLE
  8
SIZE
  6
CONTINUOUS
 62
    30
 10
-230.4431599229292
 20
334.829391094946
 30
0.0
 40
6.0
  0
LINE
  8
SIZE
  6
CONTINUOUS
 62
    30
 10
-230.4431599229292
 20
334.829391094946
 30
0.0
 11
-218.4431599229292
 21
334.829391094946
 31
0.0
  0
CIRCLE
  8
SIZE
  6
CONTINUOUS
 62
    30
 10
230.44315992292829
 20
334.829391094946
 30
0.0
 40
6.0
  0
LINE
  8
SIZE
  6
CONTINUOUS
 62
    30
 10
230.44315992292829
 20
334.829391094946
 30
0.0
 11
218.44315992292829
 21
334.829391094946
 31
0.0
  0
TEXT
  8
SIZE
  6
CONTINUOUS
 62
    30
 10
-80.183684066220309
 20
359.829391094946
 30
0.0
 40
64.0
  1
460
 41
0.9
 72
     1
 11
-6.1265412090774589
 21
359.829391094946
 31
0.0
  0
POINT
  8
DEFPOINTS
  6
CONTINUOUS
 62
    30
 10
-230.4431599229292
 20
269.98673773240262
 30
0.0
  0
POINT
  8
DEFPOINTS
  6
CONTINUOUS
 62
    30
 10
230.44315992292829
 20
269.98673773240262
 30
0.0
  0
POINT
  8
DEFPOINTS
  6
CONTINUOUS
 62
    30
 10
230.44315992292829
 20
334.829391094946
 30
0.0
  0
LINE
  8
SIZE
  6
CONTINUOUS
 62
    30
 10
-260.0
 20
239.92292870905609
 30
0.0
 11
-260.0
 21
466.68643423610769
 31
0.0
  0
LINE
  8
SIZE
  6
CONTINUOUS
 62
    30
 10
259.99999748318533
 20
239.93713198585971
 30
0.0
 11
259.99999748318533
 21
466.68643423610769
 31
0.0
  0
LINE
  8
SIZE
  6
CONTINUOUS
 62
    30
 10
-247.9999999999998
 20
446.68643423610769
 30
0.0
 11
247.9999974831853
 21
446.68643423610769
 31
0.0
  0
CIRCLE
  8
SIZE
  6
CONTINUOUS
 62
    30
 10
-260.0
 20
446.68643423610769
 30
0.0
 40
6.0
  0
LINE
  8
SIZE
  6
CONTINUOUS
 62
    30
 10
-260.0
 20
446.68643423610769
 30
0.0
 11
-247.9999999999998
 21
446.68643423610769
 31
0.0
  0
CIRCLE
  8
SIZE
  6
CONTINUOUS
 62
    30
 10
259.99999748318533
 20
446.68643423610769
 30
0.0
 40
6.0
  0
LINE
  8
SIZE
  6
CONTINUOUS
 62
    30
 10
259.99999748318533
 20
446.68643423610769
 30
0.0
 11
247.9999974831853
 21
446.68643423610769
 31
0.0
  0
TEXT
  8
SIZE
  6
CONTINUOUS
 62
    30
 10
-79.184734726249559
 20
471.68643423610769
 30
0.0
 40
64.0
  1
520
 41
0.9
 72
     1
 11
-5.1275918691067091
 21
471.68643423610769
 31
0.0
  0
POINT
  8
DEFPOINTS
  6
CONTINUOUS
 62
    30
 10
-260.0
 20
219.92292870905609
 30
0.0
  0
POINT
  8
DEFPOINTS
  6
CONTINUOUS
 62
    30
 10
259.99999748318533
 20
219.93713198585971
 30
0.0
  0
POINT
  8
DEFPOINTS
  6
CONTINUOUS
 62
    30
 10
259.99999748318533
 20
446.68643423610769
 30
0.0
  0
LINE
  8
SIZE
  6
CONTINUOUS
 62
    30
 10
-239.9229287090559
 20
-259.99999999999989
 30
0.0
 11
-462.1249527977393
 21
-259.99999999999977
 31
0.0
  0
LINE
  8
SIZE
  6
CONTINUOUS
 62
    30
 10
-239.9229287090559
 20
260.0
 30
0.0
 11
-462.1249527977393
 21
260.0
 31
0.0
  0
LINE
  8
SIZE
  6
CONTINUOUS
 62
    30
 10
-442.1249527977393
 20
-247.99999999999989
 30
0.0
 11
-442.1249527977393
 21
248.0
 31
0.0
  0
CIRCLE
  8
SIZE
  6
CONTINUOUS
 62
    30
 10
-442.1249527977393
 20
-259.99999999999977
 30
0.0
 40
6.0
  0
LINE
  8
SIZE
  6
CONTINUOUS
 62
    30
 10
-442.1249527977393
 20
-259.99999999999977
 30
0.0
 11
-442.1249527977393
 21
-247.9999999999998
 31
0.0
  0
CIRCLE
  8
SIZE
  6
CONTINUOUS
 62
    30
 10
-442.1249527977393
 20
260.0
 30
0.0
 40
6.0
  0
LINE
  8
SIZE
  6
CONTINUOUS
 62
    30
 10
-442.1249527977393
 20
260.0
 30
0.0
 11
-442.1249527977393
 21
248.0
 31
0.0
  0
TEXT
  8
SIZE
  6
CONTINUOUS
 62
    30
 10
-467.1249527977393
 20
-73.757385719727409
 30
0.0
 40
64.0
  1
520
 50
90.0
 41
0.9
 72
     1
 11
-467.1249527977393
 21
0.2997571374154404
 31
0.0
  0
POINT
  8
DEFPOINTS
  6
CONTINUOUS
 62
    30
 10
-219.9229287090559
 20
-259.99999999999989
 30
0.0
  0
POINT
  8
DEFPOINTS
  6
CONTINUOUS
 62
    30
 10
-219.9229287090559
 20
260.0
 30
0.0
  0
POINT
  8
DEFPOINTS
  6
CONTINUOUS
 62
    30
 10
-442.1249527977393
 20
260.0
 30
0.0
  0
TEXT
  8
NOTE
  6
CONTINUOUS
 62
     4
 10
-604.86139766620818
 20
352.86692557230208
 30
0.0
 40
64.0
  1
4-φ14
 41
0.9
  0
LINE
  8
DETAIL
  6
CONTINUOUS
 62
     4
 10
-232.74491955584429
 20
236.21261413301519
 30
0.0
 11
-230.4431599229292
 21
230.4431599229288
 31
0.0
  0
LINE
  8
DETAIL
  6
CONTINUOUS
 62
     4
 10
-230.4431599229292
 20
230.4431599229288
 30
0.0
 11
-235.3212751386009
 21
234.2887666673362
 31
0.0
  0
LINE
  8
DETAIL
  6
CONTINUOUS
 62
     4
 10
-230.4431599229292
 20
230.4431599229288
 30
0.0
 11
-237.62303477151571
 21
240.0582208774226
 31
0.0
  0
LINE
  8
NOTE
  6
CONTINUOUS
 62
     4
 10
-237.62303477151571
 20
240.0582208774226
 30
0.0
 11
-297.86134289026199
 21
320.72745489218278
 31
0.0
  0
LINE
  8
NOTE
  6
CONTINUOUS
 62
     4
 10
-297.86134289026199
 20
320.72745489218278
 30
0.0
 11
-606.4042000331192
 21
320.72745489218278
 31
0.0
  0
LINE
  8
NOTE
  6
CONTINUOUS
 62
     4
 10
269.98673773240222
 20
-230.44315992292869
 30
0.0
 11
190.8995821134545
 21
-230.44315992292869
 31
0.0
  0
LINE
  8
NOTE
  6
CONTINUOUS
 62
     4
 10
230.44315992292829
 20
-190.89958211345481
 30
0.0
 11
230.44315992292829
 21
-269.98673773240239
 31
0.0
  0
LINE
  8
NOTE
  6
CONTINUOUS
 62
     4
 10
-190.89958211345541
 20
-230.44315992292869
 30
0.0
 11
-269.98673773240279
 21
-230.44315992292869
 31
0.0
  0
LINE
  8
NOTE
  6
CONTINUOUS
 62
     4
 10
-230.4431599229288
 20
-190.89958211345481
 30
0.0
 11
-230.4431599229288
 21
-269.98673773240239
 31
0.0
  0
LINE
  8
NOTE
  6
CONTINUOUS
 62
     4
 10
269.98673773240222
 20
230.4431599229288
 30
0.0
 11
190.8995821134545
 21
230.4431599229288
 31
0.0
  0
LINE
  8
NOTE
  6
CONTINUOUS
 62
     4
 10
230.44315992292829
 20
269.98673773240262
 30
0.0
 11
230.44315992292829
 21
190.89958211345501
 31
0.0
  0
LINE
  8
NOTE
  6
CONTINUOUS
 62
     4
 10
-190.89958211345541
 20
230.4431599229288
 30
0.0
 11
-269.98673773240279
 21
230.4431599229288
 31
0.0
  0
LINE
  8
NOTE
  6
CONTINUOUS
 62
     4
 10
-230.4431599229292
 20
269.98673773240262
 30
0.0
 11
-230.4431599229292
 21
190.89958211345501
 31
0.0
  0
LINE
  8
BASIS
  6
DASHDOT
 62
     6
 10
-0.0000000000004547
 20
-301.35307858947681
 30
0.0
 11
-0.0000000000004547
 21
301.35307858947658
 31
0.0
  0
LINE
  8
BASIS
  6
DASHDOT
 62
     6
 10
-295.19681022686251
 20
0.0
 30
0.0
 11
295.19681022686149
 21
0.0
 31
0.0
  0
ARC
  8
OUTLINE
  6
CONTINUOUS
 62
     3
 10
219.9229287090557
 20
219.92292870905609
 30
0.0
 40
40.077071290944097
 50
0.0
 51
90.0
  0
ARC
  8
OUTLINE
  6
CONTINUOUS
 62
     3
 10
-219.9229287090559
 20
219.92292870905609
 30
0.0
 40
40.077071290944097
 50
90.0
 51
180.0
  0
ARC
  8
OUTLINE
  6
CONTINUOUS
 62
     3
 10
219.9229287090557
 20
-219.92292870905581
 30
0.0
 40
40.077071290944097
 50
270.0
 51
0.0
  0
ARC
  8
OUTLINE
  6
CONTINUOUS
 62
     3
 10
-219.9229287090559
 20
-219.92292870905581
 30
0.0
 40
40.077071290944097
 50
180.0
 51
270.0
  0
LINE
  8
OUTLINE
  6
CONTINUOUS
 62
     3
 10
219.9229287090557
 20
260.0
 30
0.0
 11
-219.9229287090559
 21
260.0
 31
0.0
  0
LINE
  8
OUTLINE
  6
CONTINUOUS
 62
     3
 10
259.99999999999949
 20
-219.92292870905581
 30
0.0
 11
259.99999999999949
 21
219.92292870905609
 31
0.0
  0
LINE
  8
OUTLINE
  6
CONTINUOUS
 62
     3
 10
200.44024526467001
 20
-259.99999999999989
 30
0.0
 11
219.9229287090557
 21
-259.99999999999989
 31
0.0
  0
LINE
  8
OUTLINE
  6
CONTINUOUS
 62
     3
 10
-219.9229287090559
 20
-259.99999999999989
 30
0.0
 11
200.44024526467001
 21
-259.99999999999989
 31
0.0
  0
LINE
  8
OUTLINE
  6
CONTINUOUS
 62
     3
 10
-260.0
 20
219.92292870905609
 30
0.0
 11
-260.0
 21
-219.92292870905581
 31
0.0
  0
CIRCLE
  8
FIX
  6
CONTINUOUS
 62
    11
 10
230.44315992292829
 20
-230.44315992292869
 30
0.0
 40
9.8378378699999995
  0
CIRCLE
  8
FIX
  6
CONTINUOUS
 62
    11
 10
-230.4431599229288
 20
-230.44315992292869
 30
0.0
 40
9.8378378699999995
  0
LINE
  8
SIZE
  6
CONTINUOUS
 62
    30
 10
-289.98673773240279
 20
230.4431599229288
 30
0.0
 11
-348.24421945758559
 21
230.4431599229288
 31
0.0
  0
LINE
  8
SIZE
  6
CONTINUOUS
 62
    30
 10
-289.98673773240279
 20
-230.44315992292869
 30
0.0
 11
-348.24421945758559
 21
-230.44315992292849
 31
0.0
  0
LINE
  8
SIZE
  6
CONTINUOUS
 62
    30
 10
-328.24421945758559
 20
218.4431599229288
 30
0.0
 11
-328.24421945758559
 21
-218.44315992292849
 31
0.0
  0
CIRCLE
  8
SIZE
  6
CONTINUOUS
 62
    30
 10
-328.24421945758559
 20
230.4431599229288
 30
0.0
 40
6.0
  0
LINE
  8
SIZE
  6
CONTINUOUS
 62
    30
 10
-328.24421945758559
 20
230.4431599229288
 30
0.0
 11
-328.24421945758559
 21
218.4431599229288
 31
0.0
  0
CIRCLE
  8
SIZE
  6
CONTINUOUS
 62
    30
 10
-328.24421945758559
 20
-230.44315992292849
 30
0.0
 40
6.0
  0
LINE
  8
SIZE
  6
CONTINUOUS
 62
    30
 10
-328.24421945758559
 20
-230.44315992292849
 30
0.0
 11
-328.24421945758559
 21
-218.44315992292849
 31
0.0
  0
TEXT
  8
SIZE
  6
CONTINUOUS
 62
    30
 10
-353.24421945758559
 20
-74.05714285714285
 30
0.0
 40
64.0
  1
460
 50
90.0
 41
0.9
 72
     1
 11
-353.24421945758559
 21
0.0
 31
0.0
  0
POINT
  8
DEFPOINTS
  6
CONTINUOUS
 62
    30
 10
-269.98673773240279
 20
230.4431599229288
 30
0.0
  0
POINT
  8
DEFPOINTS
  6
CONTINUOUS
 62
    30
 10
-269.98673773240279
 20
-230.44315992292869
 30
0.0
  0
POINT
  8
DEFPOINTS
  6
CONTINUOUS
 62
    30
 10
-328.24421945758559
 20
-230.44315992292849
 30
0.0
  0
LINE
  8
SIZE
  6
CONTINUOUS
 62
    30
 10
591.83946690404082
 20
-86.276185478192815
 30
0.0
 11
213.0144373206704
 21
-31.05246292537424
 31
0.0
  0
LINE
  8
SIZE
  6
CONTINUOUS
 62
    30
 10
-213.01443732067131
 20
31.05246292537436
 30
0.0
 11
-224.8889297316623
 21
32.783482850539599
 31
0.0
  0
TEXT
  8
SIZE
  6
CONTINUOUS
 62
    30
 10
361.17333218634229
 20
-27.386285088856798
 30
0.0
 40
64.0
  1
φ406
 50
351.70605308866129
 41
0.9
 72
     1
 11
472.99712357670251
 21
-43.687547012698587
 31
0.0
  0
LINE
  8
SIZE
  6
CONTINUOUS
 62
    30
 10
-201.13994490968051
 20
29.321443000209229
 30
0.0
 11
201.1399449096798
 21
-29.321443000209111
 31
0.0
  0
CIRCLE
  8
SIZE
  6
CONTINUOUS
 62
    30
 10
-201.13994490968051
 20
29.321443000209229
 30
0.0
 40
6.0
  0
LINE
  8
SIZE
  6
CONTINUOUS
 62
    30
 10
-201.13994490968051
 20
29.321443000209229
 30
0.0
 11
-213.01443732067131
 21
31.05246292537436
 31
0.0
  0
CIRCLE
  8
SIZE
  6
CONTINUOUS
 62
    30
 10
201.1399449096798
 20
-29.321443000209111
 30
0.0
 40
6.0
  0
LINE
  8
SIZE
  6
CONTINUOUS
 62
    30
 10
201.1399449096798
 20
-29.321443000209111
 30
0.0
 11
213.0144373206704
 21
-31.05246292537436
 31
0.0
  0
POINT
  8
DEFPOINTS
  6
CONTINUOUS
 62
    30
 10
201.1399449096798
 20
-29.321443000209111
 30
0.0
  0
POINT
  8
DEFPOINTS
  6
CONTINUOUS
 62
    30
 10
-201.13994490968051
 20
29.321443000209229
 30
0.0
  0
LINE
  8
SIZE
  6
CONTINUOUS
 62
    30
 10
607.27459820320064
 20
157.67228863457839
 30
0.0
 11
204.49726896971521
 21
53.09550656882061
 31
0.0
  0
LINE
  8
SIZE
  6
CONTINUOUS
 62
    30
 10
-204.4972689697158
 20
-53.095506568820497
 30
0.0
 11
-216.1121589766683
 21
-56.111187275791622
 31
0.0
  0
TEXT
  8
SIZE
  6
CONTINUOUS
 62
    30
 10
369.18638002492497
 20
121.6841694300772
 30
0.0
 40
64.0
  1
φ400
 50
14.554850946208431
 41
0.9
 72
     1
 11
479.89287449119092
 21
150.42791468280831
 31
0.0
  0
LINE
  8
SIZE
  6
CONTINUOUS
 62
    30
 10
-192.8823789627634
 20
-50.079825861849258
 30
0.0
 11
192.88237896276269
 21
50.079825861849493
 31
0.0
  0
CIRCLE
  8
SIZE
  6
CONTINUOUS
 62
    30
 10
-192.8823789627634
 20
-50.079825861849258
 30
0.0
 40
6.0
  0
LINE
  8
SIZE
  6
CONTINUOUS
 62
    30
 10
-192.8823789627634
 20
-50.079825861849258
 30
0.0
 11
-204.49726896971561
 21
-53.095506568820497
 31
0.0
  0
CIRCLE
  8
SIZE
  6
CONTINUOUS
 62
    30
 10
192.88237896276269
 20
50.079825861849493
 30
0.0
 40
6.0
  0
LINE
  8
SIZE
  6
CONTINUOUS
 62
    30
 10
192.88237896276269
 20
50.079825861849493
 30
0.0
 11
204.49726896971521
 21
53.095506568820497
 31
0.0
  0
POINT
  8
DEFPOINTS
  6
CONTINUOUS
 62
    30
 10
192.88237896276269
 20
50.079825861849493
 30
0.0
  0
POINT
  8
DEFPOINTS
  6
CONTINUOUS
 62
    30
 10
-192.8823789627634
 20
-50.079825861849258
 30
0.0
  0
ARC
  8
DETAIL
  6
CONTINUOUS
 62
     5
 10
3514.4130272532111
 20
-3809.0942685063678
 30
0.0
 40
5173.9685501344238
 50
134.77031450400679
 51
134.94303101269699
  0
ARC
  8
DETAIL
  6
CONTINUOUS
 62
     5
 10
227.96172853689589
 20
237.17540664084279
 30
0.0
 40
35.668593448940101
 50
180.0
 51
225.0000000000046
  0
ARC
  8
DETAIL
  6
CONTINUOUS
 62
     5
 10
237.1754066414928
 20
227.961728536246
 30
0.0
 40
35.66859344894015
 50
225.0000000000046
 51
270.0
  0
ARC
  8
DETAIL
  6
CONTINUOUS
 62
     5
 10
219.92292870905479
 20
219.9229287090559
 30
0.0
 40
40.077071290944218
 50
0.0
 51
90.0
  0
ARC
  8
DETAIL
  6
CONTINUOUS
 62
     5
 10
241.96531791907461
 20
177.86538942256601
 30
0.0
 40
14.42774566473997
 50
0.0
 51
90.0
  0
ARC
  8
DETAIL
  6
CONTINUOUS
 62
     5
 10
210.40462427745621
 20
171.13314270465159
 30
0.0
 40
20.6396917148362
 50
225.0000000000046
 51
270.0
  0
ARC
  8
DETAIL
  6
CONTINUOUS
 62
     5
 10
216.91714836223451
 20
121.0368035909715
 30
0.0
 40
29.45664739884398
 50
0.0
 51
90.0
  0
ARC
  8
DETAIL
  6
CONTINUOUS
 62
     5
 10
177.8653894232157
 20
241.9653179190752
 30
0.0
 40
14.427745664739859
 50
0.0
 51
90.0
  0
CIRCLE
  8
DETAIL
  6
CONTINUOUS
 62
     5
 10
180.14184516102341
 20
211.31449092880919
 30
0.0
 40
2.5048169556839639
  0
CIRCLE
  8
DETAIL
  6
CONTINUOUS
 62
     5
 10
180.14184516102341
 20
211.31449092880919
 30
0.0
 40
3.5067437379576631
  0
CIRCLE
  8
DETAIL
  6
CONTINUOUS
 62
     5
 10
180.14184516102341
 20
211.31449092880919
 30
0.0
 40
5.0096339113680406
  0
ARC
  8
DETAIL
  6
CONTINUOUS
 62
     5
 10
171.13314270465119
 20
210.4046242774568
 30
0.0
 40
20.6396917148362
 50
180.0
 51
225.0000000000046
  0
ARC
  8
DETAIL
  6
CONTINUOUS
 62
     5
 10
121.036803590971
 20
216.91714836223511
 30
0.0
 40
29.45664739884398
 50
0.0
 51
90.0
  0
ARC
  8
DETAIL
  6
CONTINUOUS
 62
     5
 10
-0.0000000000004547
 20
205.8959537572255
 30
0.0
 40
300.5780346820809
 50
278.49461418927882
 51
286.20706939738608
  0
ARC
  8
DETAIL
  6
CONTINUOUS
 62
     5
 10
241.96531791907461
 20
-177.86538942321661
 30
0.0
 40
14.42774566473987
 50
270.0
 51
0.0
  0
ARC
  8
DETAIL
  6
CONTINUOUS
 62
     5
 10
216.91714836223451
 20
-121.0368035909717
 30
0.0
 40
29.456647398843931
 50
270.0
 51
0.0
  0
CIRCLE
  8
DETAIL
  6
CONTINUOUS
 62
     5
 10
211.3144909294592
 20
-180.14184516102401
 30
0.0
 40
2.5048169556839639
  0
CIRCLE
  8
DETAIL
  6
CONTINUOUS
 62
     5
 10
211.3144909294592
 20
-180.14184516102401
 30
0.0
 40
3.5067437379576631
  0
CIRCLE
  8
DETAIL
  6
CONTINUOUS
 62
     5
 10
211.3144909294592
 20
-180.14184516102401
 30
0.0
 40
5.0096339113680406
  0
ARC
  8
DETAIL
  6
CONTINUOUS
 62
     5
 10
210.40462427745621
 20
-171.13314270465179
 30
0.0
 40
20.63969171483625
 50
90.0
 51
134.9999999999954
  0
ARC
  8
DETAIL
  6
CONTINUOUS
 62
     5
 10
237.1754066414928
 20
-227.9617285368968
 30
0.0
 40
35.668593448940257
 50
90.0
 51
134.9999999999954
  0
ARC
  8
DETAIL
  6
CONTINUOUS
 62
     5
 10
227.96172853689589
 20
-237.17540664149351
 30
0.0
 40
35.668593448940193
 50
134.9999999999954
 51
180.0
  0
ARC
  8
DETAIL
  6
CONTINUOUS
 62
     5
 10
219.92292870905479
 20
-219.92292870905581
 30
0.0
 40
40.077071290944097
 50
270.0
 51
0.0
  0
ARC
  8
DETAIL
  6
CONTINUOUS
 62
     5
 10
81.657032755298133
 20
-75.040010247078499
 30
0.0
 40
8.0154142581888337
 50
286.20706939738608
 51
0.0
  0
CIRCLE
  8
DETAIL
  6
CONTINUOUS
 62
     5
 10
27.614795524709731
 20
26.645286060055579
 30
0.0
 40
2.003853564547228
  0
ARC
  8
DETAIL
  6
CONTINUOUS
 62
     5
 10
15.00736645712232
 20
77.206207376373186
 30
0.0
 40
2.1040462427745479
 50
349.00000000000131
 51
169.00000000000131
  0
ARC
  8
DETAIL
  6
CONTINUOUS
 62
     5
 10
43.410535145759241
 20
65.586164270800509
 30
0.0
 40
2.104046242774595
 50
87.490625305917931
 51
146.50000000000779
  0
ARC
  8
DETAIL
  6
CONTINUOUS
 62
     5
 10
43.410535145759241
 20
65.586164270800509
 30
0.0
 40
2.9055876685934221
 50
83.286667853108611
 51
146.50000000000779
  0
ARC
  8
DETAIL
  6
CONTINUOUS
 62
     5
 10
15.00736645712232
 20
77.206207376373186
 30
0.0
 40
2.905587668593471
 50
349.00000000000131
 51
169.00000000000131
  0
ARC
  8
DETAIL
  6
CONTINUOUS
 62
     5
 10
16.687603138652779
 20
76.860545190100879
 30
0.0
 40
6.512524084778442
 50
77.750325396810439
 51
201.30159873290989
  0
ARC
  8
DETAIL
  6
CONTINUOUS
 62
     5
 10
-0.0000000000004547
 20
77.148362235067566
 30
0.0
 40
8.5163776493256016
 50
12.52293896059542
 51
167.47706103940459
  0
ARC
  8
DETAIL
  6
CONTINUOUS
 62
     5
 10
18.09466902875101
 20
81.167454895778633
 30
0.0
 40
10.01926782273603
 50
192.52293896059541
 51
227.85638305679859
  0
ARC
  8
DETAIL
  6
CONTINUOUS
 62
     5
 10
18.09466902875101
 20
81.167454895778633
 30
0.0
 40
10.019267822735999
 50
233.07603888449611
 51
257.43254818249329
  0
ARC
  8
DETAIL
  6
CONTINUOUS
 62
     5
 10
44.131968228110509
 20
70.483630452918987
 30
0.0
 40
10.01926782273603
 50
237.9480520158875
 51
259.44857442069588
  0
ARC
  8
DETAIL
  6
CONTINUOUS
 62
     5
 10
65.586164271450798
 20
-43.410535145759923
 30
0.0
 40
2.104046242774539
 50
236.4999999999844
 51
56.499999999984361
  0
ARC
  8
DETAIL
  6
CONTINUOUS
 62
     5
 10
43.981222196180617
 20
-65.204843375672453
 30
0.0
 40
2.104046242774583
 50
213.9999999999973
 51
33.999999999997321
  0
ARC
  8
DETAIL
  6
CONTINUOUS
 62
     5
 10
43.981222196180617
 20
-65.204843375672453
 30
0.0
 40
2.905587668593502
 50
213.9999999999973
 51
33.999999999997321
  0
ARC
  8
DETAIL
  6
CONTINUOUS
 62
     5
 10
65.586164271450798
 20
-43.410535145759923
 30
0.0
 40
2.9055876685934798
 50
236.4999999999844
 51
56.499999999984361
  0
CIRCLE
  8
DETAIL
  6
CONTINUOUS
 62
     5
 10
54.552130093786218
 20
-54.552130093786793
 30
0.0
 40
3.2562620423891531
  0
CIRCLE
  8
DETAIL
  6
CONTINUOUS
 62
     5
 10
54.552130093786218
 20
-54.552130093786793
 30
0.0
 40
4.2581888246628523
  0
CIRCLE
  8
DETAIL
  6
CONTINUOUS
 62
     5
 10
54.552130093786218
 20
-54.552130093786793
 30
0.0
 40
4.7591522157996442
  0
ARC
  8
DETAIL
  6
CONTINUOUS
 62
     5
 10
42.548695368715471
 20
-66.148530050596833
 30
0.0
 40
6.5125240847784678
 50
302.75032539679631
 51
57.62818490880467
  0
CIRCLE
  8
DETAIL
  6
CONTINUOUS
 62
     5
 10
54.552130093786218
 20
-54.552130093786793
 30
0.0
 40
6.5125240847784198
  0
ARC
  8
DETAIL
  6
CONTINUOUS
 62
     5
 10
66.103776100242158
 20
-39.77638219983487
 30
0.0
 40
8.0154142581888337
 50
232.99999999999631
 51
328.96357011830833
  0
ARC
  8
DETAIL
  6
CONTINUOUS
 62
     5
 10
54.552130093786218
 20
-54.552130093786793
 30
0.0
 40
9.0173410404623979
 50
236.8128941533935
 51
33.187105846602933
  0
ARC
  8
DETAIL
  6
CONTINUOUS
 62
     5
 10
44.131968228110509
 20
-70.483630453569504
 30
0.0
 40
10.019267822736079
 50
56.812894153393508
 51
89.092440834798083
  0
ARC
  8
DETAIL
  6
CONTINUOUS
 62
     5
 10
44.131968228110509
 20
-70.483630453569504
 30
0.0
 40
10.019267822736079
 50
94.500976734604436
 51
119.8583791479808
  0
ARC
  8
DETAIL
  6
CONTINUOUS
 62
     5
 10
70.483630452918533
 20
-44.131968228110964
 30
0.0
 40
10.01926782273606
 50
147.94805201590549
 51
171.32995916539659
  0
ARC
  8
DETAIL
  6
CONTINUOUS
 62
     5
 10
70.483630452918533
 20
-44.131968228110964
 30
0.0
 40
10.019267822736049
 50
176.4912352691012
 51
213.18710584660289
  0
CIRCLE
  8
DETAIL
  6
CONTINUOUS
 62
     5
 10
-0.0000000000004547
 20
0.0
 30
0.0
 40
6.0115606936416279
  0
CIRCLE
  8
DETAIL
  6
CONTINUOUS
 62
     5
 10
-0.0000000000004547
 20
0.0
 30
0.0
 40
6.5321771212871909
  0
CIRCLE
  8
DETAIL
  6
CONTINUOUS
 62
     5
 10
-0.0000000000004547
 20
0.0
 30
0.0
 40
9.5183044315992316
  0
CIRCLE
  8
DETAIL
  6
CONTINUOUS
 62
     5
 10
-0.0000000000004547
 20
0.0
 30
0.0
 40
12.023121387283259
  0
CIRCLE
  8
DETAIL
  6
CONTINUOUS
 62
     5
 10
-0.0000000000004547
 20
0.0
 30
0.0
 40
18.034684362585381
  0
CIRCLE
  8
DETAIL
  6
CONTINUOUS
 62
     5
 10
-0.0000000000004547
 20
0.0
 30
0.0
 40
19.03660886319847
  0
CIRCLE
  8
DETAIL
  6
CONTINUOUS
 62
     5
 10
-0.0000000000004547
 20
0.0
 30
0.0
 40
23.044315992292859
  0
ARC
  8
DETAIL
  6
CONTINUOUS
 62
     5
 10
-0.0000000000004547
 20
0.0
 30
0.0
 40
65.32562620423893
 50
172.94167025640209
 51
232.11772066528761
  0
ARC
  8
DETAIL
  6
CONTINUOUS
 62
     5
 10
-0.0000000000004547
 20
0.0
 30
0.0
 40
65.325626204239001
 50
52.940588502988582
 51
112.1230607200018
  0
ARC
  8
DETAIL
  6
CONTINUOUS
 62
     5
 10
-0.0000000000004547
 20
0.0
 30
0.0
 40
65.325626204238915
 50
292.9405888367009
 51
352.11971963029941
  0
ARC
  8
DETAIL
  6
CONTINUOUS
 62
     5
 10
-0.0000000000004547
 20
0.0
 30
0.0
 40
66.127167630057855
 50
292.59529566728162
 51
352.572159252696
  0
ARC
  8
DETAIL
  6
CONTINUOUS
 62
     5
 10
-0.0000000000004547
 20
0.0
 30
0.0
 40
66.127167630057826
 50
172.59122669439819
 51
232.56586570838209
  0
ARC
  8
DETAIL
  6
CONTINUOUS
 62
     5
 10
-0.0000000000004547
 20
0.0
 30
0.0
 40
66.127167630057798
 50
52.59593663320738
 51
112.5671631790141
  0
ARC
  8
DETAIL
  6
CONTINUOUS
 62
     5
 10
-0.0000000000004547
 20
0.0
 30
0.0
 40
66.427745664739859
 50
329.00695006749709
 51
346.49304993250269
  0
ARC
  8
DETAIL
  6
CONTINUOUS
 62
     5
 10
-0.0000000000004547
 20
0.0
 30
0.0
 40
66.427745664739888
 50
306.50695006750448
 51
323.99304993249308
  0
ARC
  8
DETAIL
  6
CONTINUOUS
 62
     5
 10
-0.0000000000004547
 20
0.0
 30
0.0
 40
66.427745664739888
 50
292.46381380970541
 51
301.4930499324982
  0
ARC
  8
DETAIL
  6
CONTINUOUS
 62
     5
 10
-0.0000000000004547
 20
0.0
 30
0.0
 40
66.427745664739859
 50
216.50695006749541
 51
232.730791914413
  0
ARC
  8
DETAIL
  6
CONTINUOUS
 62
     5
 10
-0.0000000000004547
 20
0.0
 30
0.0
 40
66.42774566473993
 50
194.0069500674995
 51
211.49304993250161
  0
ARC
  8
DETAIL
  6
CONTINUOUS
 62
     5
 10
-0.0000000000004547
 20
0.0
 30
0.0
 40
66.427745664739831
 50
172.4669901107001
 51
188.9930499324993
  0
ARC
  8
DETAIL
  6
CONTINUOUS
 62
     5
 10
-0.0000000000004547
 20
0.0
 30
0.0
 40
66.42774566473993
 50
104.0069500674979
 51
112.7376472348938
  0
ARC
  8
DETAIL
  6
CONTINUOUS
 62
     5
 10
-0.0000000000004547
 20
0.0
 30
0.0
 40
66.427745664739859
 50
81.506950067499957
 51
98.993049932491886
  0
ARC
  8
DETAIL
  6
CONTINUOUS
 62
     5
 10
-0.0000000000004547
 20
0.0
 30
0.0
 40
66.427745664739888
 50
59.006950067499332
 51
76.493049932501222
  0
ARC
  8
DETAIL
  6
CONTINUOUS
 62
     5
 10
-0.0000000000004547
 20
0.0
 30
0.0
 40
73.140655105972982
 50
77.351441336909971
 51
77.432548182493321
  0
ARC
  8
DETAIL
  6
CONTINUOUS
 62
     5
 10
-0.0000000000004547
 20
0.0
 30
0.0
 40
73.140655105973011
 50
58.777204440403501
 51
76.722765866091095
  0
ARC
  8
DETAIL
  6
CONTINUOUS
 62
     5
 10
-0.0000000000004547
 20
0.0
 30
0.0
 40
73.140655105972982
 50
57.948052015887519
 51
58.148666220794013
  0
ARC
  8
DETAIL
  6
CONTINUOUS
 62
     5
 10
-0.0000000000004547
 20
0.0
 30
0.0
 40
73.140655105973067
 50
328.77718899700432
 51
338.73050877060189
  0
ARC
  8
DETAIL
  6
CONTINUOUS
 62
     5
 10
-0.0000000000004547
 20
0.0
 30
0.0
 40
73.140655105973039
 50
327.94805201590549
 51
328.14866309930312
  0
ARC
  8
DETAIL
  6
CONTINUOUS
 62
     5
 10
-0.0000000000004547
 20
0.0
 30
0.0
 40
73.140655105973067
 50
294.77694284139739
 51
301.72279469728102
  0
ARC
  8
DETAIL
  6
CONTINUOUS
 62
     5
 10
-0.0000000000004547
 20
0.0
 30
0.0
 40
73.140655105973011
 50
193.77718827910221
 51
211.72294176319781
  0
ARC
  8
DETAIL
  6
CONTINUOUS
 62
     5
 10
-0.0000000000004547
 20
0.0
 30
0.0
 40
73.140655105972982
 50
192.94805201590299
 51
193.14866278820159
  0
ARC
  8
DETAIL
  6
CONTINUOUS
 62
     5
 10
-0.0000000000004547
 20
0.0
 30
0.0
 40
85.163776493256336
 50
189.9999999999975
 51
211.0364298816917
  0
ARC
  8
DETAIL
  6
CONTINUOUS
 62
     5
 10
-0.0000000000004547
 20
0.0
 30
0.0
 40
85.163776493256293
 50
328.96357011830833
 51
341.12907789269519
  0
ARC
  8
DETAIL
  6
CONTINUOUS
 62
     5
 10
-0.0000000000004547
 20
0.0
 30
0.0
 40
85.163776493256293
 50
297.74067566899993
 51
302.75032539679631
  0
ARC
  8
DETAIL
  6
CONTINUOUS
 62
     5
 10
-0.0000000000004547
 20
0.0
 30
0.0
 40
85.163776493256265
 50
57.740737434799676
 51
77.750325396810439
  0
ARC
  8
DETAIL
  6
CONTINUOUS
 62
     5
 10
108.7090558766854
 20
-88.163448439256285
 30
0.0
 40
10.01926782273619
 50
180.0
 51
225.0000000000046
  0
ARC
  8
DETAIL
  6
CONTINUOUS
 62
     5
 10
177.8653894232157
 20
-241.96531791907509
 30
0.0
 40
14.427745664739859
 50
270.0
 51
0.0
  0
ARC
  8
DETAIL
  6
CONTINUOUS
 62
     5
 10
108.7090558766854
 20
-88.163448439256285
 30
0.0
 40
19.03660886319836
 50
180.0
 51
225.0000000000046
  0
ARC
  8
DETAIL
  6
CONTINUOUS
 62
     5
 10
171.13314270465119
 20
-210.40462427745661
 30
0.0
 40
20.639691714836299
 50
134.9999999999954
 51
180.0
  0
ARC
  8
DETAIL
  6
CONTINUOUS
 62
     5
 10
121.036803590971
 20
-216.91714836223511
 30
0.0
 40
29.456647398843931
 50
270.0
 51
0.0
  0
ARC
  8
DETAIL
  6
CONTINUOUS
 62
     5
 10
-0.0000000000004547
 20
-205.8959537572255
 30
0.0
 40
300.5780346820809
 50
79.062158528309197
 51
94.342029504397473
  0
ARC
  8
DETAIL
  6
CONTINUOUS
 62
     5
 10
-177.8653894225663
 20
241.9653179190752
 30
0.0
 40
14.42774566473997
 50
90.0
 51
180.0
  0
ARC
  8
DETAIL
  6
CONTINUOUS
 62
     5
 10
-171.1331427046525
 20
210.4046242774568
 30
0.0
 40
20.63969171483625
 50
314.99999999999528
 51
0.0
  0
ARC
  8
DETAIL
  6
CONTINUOUS
 62
     5
 10
-121.0368035909723
 20
216.91714836223511
 30
0.0
 40
29.45664739884387
 50
90.0
 51
180.0
  0
ARC
  8
DETAIL
  6
CONTINUOUS
 62
     5
 10
-219.92292870905661
 20
219.9229287090559
 30
0.0
 40
40.077071290944097
 50
90.0
 51
180.0
  0
CIRCLE
  8
DETAIL
  6
CONTINUOUS
 62
     5
 10
-211.31449092880979
 20
180.14184516102401
 30
0.0
 40
2.5048169556840212
  0
CIRCLE
  8
DETAIL
  6
CONTINUOUS
 62
     5
 10
-211.31449092880979
 20
180.14184516102401
 30
0.0
 40
3.506743737957605
  0
CIRCLE
  8
DETAIL
  6
CONTINUOUS
 62
     5
 10
-211.31449092880979
 20
180.14184516102401
 30
0.0
 40
5.0096339113680406
  0
ARC
  8
DETAIL
  6
CONTINUOUS
 62
     5
 10
-237.17540664084339
 20
227.961728536246
 30
0.0
 40
35.668593448940271
 50
270.0
 51
314.99999999999528
  0
ARC
  8
DETAIL
  6
CONTINUOUS
 62
     5
 10
-227.96172853624671
 20
237.17540664084279
 30
0.0
 40
35.668593448940371
 50
314.99999999999528
 51
0.0
  0
ARC
  8
DETAIL
  6
CONTINUOUS
 62
     5
 10
-241.96531791907549
 20
177.86538942256601
 30
0.0
 40
14.427745664739909
 50
90.0
 51
180.0
  0
ARC
  8
DETAIL
  6
CONTINUOUS
 62
     5
 10
-210.40462427745729
 20
171.13314270465159
 30
0.0
 40
20.6396917148362
 50
270.0
 51
314.99999999999528
  0
ARC
  8
DETAIL
  6
CONTINUOUS
 62
     5
 10
-216.91714836223559
 20
121.0368035909715
 30
0.0
 40
29.456647398843931
 50
90.0
 51
180.0
  0
CIRCLE
  8
DETAIL
  6
CONTINUOUS
 62
     5
 10
-77.148362235067907
 20
0.0
 30
0.0
 40
4.2581888246627964
  0
ARC
  8
DETAIL
  6
CONTINUOUS
 62
     5
 10
-16.687603138653689
 20
76.860545190100879
 30
0.0
 40
6.5125240847784784
 50
338.69840126709011
 51
86.828094249476791
  0
ARC
  8
DETAIL
  6
CONTINUOUS
 62
     5
 10
-77.148362235067907
 20
0.0
 30
0.0
 40
9.0173410404623873
 50
157.971706361401
 51
258.18710584660369
  0
ARC
  8
DETAIL
  6
CONTINUOUS
 62
     5
 10
-18.094669028101631
 20
81.167454895778633
 30
0.0
 40
10.019267822736021
 50
311.91316199598327
 51
347.47706103940459
  0
ARC
  8
DETAIL
  6
CONTINUOUS
 62
     5
 10
-65.204843375022392
 20
-43.981222196181527
 30
0.0
 40
2.1040462427745239
 50
124.0000000000027
 51
304.00000000000267
  0
ARC
  8
DETAIL
  6
CONTINUOUS
 62
     5
 10
-77.072305284038521
 20
-15.680537732202311
 30
0.0
 40
2.1040462427745119
 50
101.5000000000062
 51
281.49999999997942
  0
ARC
  8
DETAIL
  6
CONTINUOUS
 62
     5
 10
-77.072305284038521
 20
-15.680537732202311
 30
0.0
 40
2.905587668593451
 50
101.5000000000062
 51
281.49999999997942
  0
ARC
  8
DETAIL
  6
CONTINUOUS
 62
     5
 10
-65.204843375022392
 20
-43.981222196181527
 30
0.0
 40
2.9055876685934958
 50
124.0000000000027
 51
304.00000000000631
  0
ARC
  8
DETAIL
  6
CONTINUOUS
 62
     5
 10
-66.103776099592778
 20
-39.77638219983487
 30
0.0
 40
8.0154142581889438
 50
211.0364298816917
 51
307.00000000000369
  0
ARC
  8
DETAIL
  6
CONTINUOUS
 62
     5
 10
-54.552130093787582
 20
-54.552130093786793
 30
0.0
 40
9.0173410404624299
 50
146.81289415339711
 51
183.01582646239819
  0
ARC
  8
DETAIL
  6
CONTINUOUS
 62
     5
 10
-81.045467057028418
 20
-18.633439055476291
 30
0.0
 40
10.01926782273612
 50
12.94805201590305
 51
36.329959165391699
  0
ARC
  8
DETAIL
  6
CONTINUOUS
 62
     5
 10
-81.045467057028418
 20
-18.633439055476291
 30
0.0
 40
10.01926782273595
 50
41.491235269108238
 51
78.187105846603757
  0
ARC
  8
DETAIL
  6
CONTINUOUS
 62
     5
 10
-70.483630452919442
 20
-44.131968228110964
 30
0.0
 40
10.01926782273596
 50
326.81289415339711
 51
359.09244083479803
  0
ARC
  8
DETAIL
  6
CONTINUOUS
 62
     5
 10
-70.483630452919442
 20
-44.131968228110964
 30
0.0
 40
10.01926782273596
 50
4.5009767345979341
 51
29.858379148000989
  0
ARC
  8
DETAIL
  6
CONTINUOUS
 62
     5
 10
-108.70905587668631
 20
-88.163448439256285
 30
0.0
 40
10.01926782273604
 50
314.99999999999528
 51
0.0
  0
ARC
  8
DETAIL
  6
CONTINUOUS
 62
     5
 10
-108.70905587668631
 20
-88.163448439256285
 30
0.0
 40
19.036608863198449
 50
314.99999999999528
 51
0.0
  0
ARC
  8
DETAIL
  6
CONTINUOUS
 62
     5
 10
-121.0368035909723
 20
-216.91714836223511
 30
0.0
 40
29.45664739884398
 50
180.0
 51
270.0
  0
CIRCLE
  8
DETAIL
  6
CONTINUOUS
 62
     5
 10
-180.1418451610248
 20
-211.31449092945971
 30
0.0
 40
2.5048169556840212
  0
CIRCLE
  8
DETAIL
  6
CONTINUOUS
 62
     5
 10
-180.1418451610248
 20
-211.31449092945971
 30
0.0
 40
3.506743737957605
  0
CIRCLE
  8
DETAIL
  6
CONTINUOUS
 62
     5
 10
-180.1418451610248
 20
-211.31449092945971
 30
0.0
 40
5.0096339113680406
  0
ARC
  8
DETAIL
  6
CONTINUOUS
 62
     5
 10
-171.1331427046525
 20
-210.40462427745661
 30
0.0
 40
20.639691714836321
 50
0.0
 51
45.000000000004597
  0
ARC
  8
DETAIL
  6
CONTINUOUS
 62
     5
 10
-177.8653894225663
 20
-241.96531791907509
 30
0.0
 40
14.427745664739909
 50
180.0
 51
270.0
  0
ARC
  8
DETAIL
  6
CONTINUOUS
 62
     5
 10
-241.96531791907549
 20
-177.86538942321661
 30
0.0
 40
14.427745664739909
 50
180.0
 51
270.0
  0
ARC
  8
DETAIL
  6
CONTINUOUS
 62
     5
 10
-210.40462427745729
 20
-171.13314270465179
 30
0.0
 40
20.63969171483625
 50
45.000000000004597
 51
90.0
  0
ARC
  8
DETAIL
  6
CONTINUOUS
 62
     5
 10
-216.91714836223559
 20
-121.0368035909717
 30
0.0
 40
29.45664739884398
 50
180.0
 51
270.0
  0
ARC
  8
DETAIL
  6
CONTINUOUS
 62
     5
 10
-227.96172853624671
 20
-237.17540664149351
 30
0.0
 40
35.668593448940371
 50
0.0
 51
45.000000000004597
  0
ARC
  8
DETAIL
  6
CONTINUOUS
 62
     5
 10
-237.17540664084339
 20
-227.9617285368968
 30
0.0
 40
35.668593448940307
 50
45.000000000004597
 51
90.0
  0
ARC
  8
DETAIL
  6
CONTINUOUS
 62
     5
 10
-219.92292870905661
 20
-219.92292870905581
 30
0.0
 40
40.077071290944097
 50
180.0
 51
270.0
  0
LINE
  8
DETAIL
  6
CONTINUOUS
 62
     5
 10
211.9539023382122
 20
202.7402242329654
 30
0.0
 11
202.74022423361569
 21
211.95390233756231
 31
0.0
  0
LINE
  8
DETAIL
  6
CONTINUOUS
 62
     5
 10
185.15147907239131
 20
214.20680441623489
 30
0.0
 11
180.14184516102341
 21
217.09911790301021
 31
0.0
  0
LINE
  8
DETAIL
  6
CONTINUOUS
 62
     5
 10
175.13221124965551
 20
208.42217744138341
 30
0.0
 11
180.14184516102341
 21
205.52986395395749
 31
0.0
  0
LINE
  8
DETAIL
  6
CONTINUOUS
 62
     5
 10
156.53867673172641
 20
195.81015830388111
 30
0.0
 11
195.81015830453131
 21
156.53867673107621
 31
0.0
  0
LINE
  8
DETAIL
  6
CONTINUOUS
 62
     5
 10
-219.92292870905661
 20
260.0
 30
0.0
 11
219.92292870905479
 21
260.0
 31
0.0
  0
LINE
  8
DETAIL
  6
CONTINUOUS
 62
     5
 10
177.8653894232157
 20
256.39306358381509
 30
0.0
 11
-177.8653894225663
 21
256.39306358381509
 31
0.0
  0
LINE
  8
DETAIL
  6
CONTINUOUS
 62
     5
 10
-121.0368035909723
 20
246.37379576107901
 30
0.0
 11
121.036803590971
 21
246.37379576107901
 31
0.0
  0
LINE
  8
DETAIL
  6
CONTINUOUS
 62
     5
 10
202.74022423361569
 20
-211.95390233821291
 30
0.0
 11
211.9539023382122
 21
-202.74022423361609
 31
0.0
  0
LINE
  8
DETAIL
  6
CONTINUOUS
 62
     5
 10
259.99999999999949
 20
219.9229287090559
 30
0.0
 11
259.99999999999949
 21
-219.92292870905581
 31
0.0
  0
LINE
  8
DETAIL
  6
CONTINUOUS
 62
     5
 10
256.39306358381458
 20
-177.86538942321661
 30
0.0
 11
256.39306358381458
 21
177.86538942256601
 31
0.0
  0
LINE
  8
DETAIL
  6
CONTINUOUS
 62
     5
 10
246.37379576107881
 20
121.0368035909715
 30
0.0
 11
246.37379576107881
 21
-121.0368035909717
 31
0.0
  0
LINE
  8
DETAIL
  6
CONTINUOUS
 62
     5
 10
-237.17540664084339
 20
192.29313508730559
 30
0.0
 11
-241.96531791907549
 21
192.29313508730559
 31
0.0
  0
LINE
  8
DETAIL
  6
CONTINUOUS
 62
     5
 10
241.96531791907461
 20
192.29313508730559
 30
0.0
 11
237.1754066414928
 21
192.29313508730559
 31
0.0
  0
LINE
  8
DETAIL
  6
CONTINUOUS
 62
     5
 10
211.3144909294592
 20
-185.92647213587571
 30
0.0
 11
216.32412484082721
 21
-183.03415864844959
 31
0.0
  0
LINE
  8
DETAIL
  6
CONTINUOUS
 62
     5
 10
211.3144909294592
 20
-174.35721818682279
 30
0.0
 11
206.30485701809079
 21
-177.24953167424869
 31
0.0
  0
LINE
  8
DETAIL
  6
CONTINUOUS
 62
     5
 10
195.81015830453131
 20
-156.53867673172681
 30
0.0
 11
156.53867673172641
 21
-195.8101583045316
 31
0.0
  0
LINE
  8
DETAIL
  6
CONTINUOUS
 62
     5
 10
216.32412484082721
 20
-183.03415864844959
 30
0.0
 11
216.32412484082721
 21
-177.24953167424869
 31
0.0
  0
LINE
  8
DETAIL
  6
CONTINUOUS
 62
     5
 10
206.30485701809079
 20
-177.24953167424869
 30
0.0
 11
206.30485701809079
 21
-183.03415864844959
 31
0.0
  0
LINE
  8
DETAIL
  6
CONTINUOUS
 62
     5
 10
192.29313508795579
 20
237.17540664084279
 30
0.0
 11
192.29313508795579
 21
241.9653179190752
 31
0.0
  0
LINE
  8
DETAIL
  6
CONTINUOUS
 62
     5
 10
192.29313508795579
 20
-241.96531791907509
 30
0.0
 11
192.29313508795579
 21
-237.17540664149351
 31
0.0
  0
LINE
  8
DETAIL
  6
CONTINUOUS
 62
     5
 10
185.15147907239131
 20
208.42217744138341
 30
0.0
 11
185.15147907239131
 21
214.20680441623489
 31
0.0
  0
LINE
  8
DETAIL
  6
CONTINUOUS
 62
     5
 10
210.40462427745621
 20
150.4934509898155
 30
0.0
 11
216.91714836223451
 21
150.4934509898155
 31
0.0
  0
LINE
  8
DETAIL
  6
CONTINUOUS
 62
     5
 10
-216.91714836223559
 20
150.4934509898155
 30
0.0
 11
-210.40462427745729
 21
150.4934509898155
 31
0.0
  0
LINE
  8
DETAIL
  6
CONTINUOUS
 62
     5
 10
175.13221124965551
 20
214.20680441623489
 30
0.0
 11
175.13221124965551
 21
208.42217744138341
 31
0.0
  0
LINE
  8
DETAIL
  6
CONTINUOUS
 62
     5
 10
150.49345098981479
 20
-210.40462427745661
 30
0.0
 11
150.49345098981479
 21
-216.91714836223511
 31
0.0
  0
LINE
  8
DETAIL
  6
CONTINUOUS
 62
     5
 10
150.49345098981479
 20
216.91714836223511
 30
0.0
 11
150.49345098981479
 21
210.4046242774568
 31
0.0
  0
LINE
  8
DETAIL
  6
CONTINUOUS
 62
     5
 10
-206.30485701744189
 20
183.0341586477991
 30
0.0
 11
-211.31449092880979
 21
185.92647213522511
 31
0.0
  0
LINE
  8
DETAIL
  6
CONTINUOUS
 62
     5
 10
98.689788053949542
 20
-26.501484794484899
 30
0.0
 11
98.689788053949542
 21
-88.163448439256285
 31
0.0
  0
LINE
  8
DETAIL
  6
CONTINUOUS
 62
     5
 10
89.672447013486817
 20
-27.406799560393321
 30
0.0
 11
89.672447013486817
 21
-88.163448439256285
 31
0.0
  0
LINE
  8
DETAIL
  6
CONTINUOUS
 62
     5
 10
-216.3241248401778
 20
177.249531673598
 30
0.0
 11
-211.31449092880979
 21
174.3572181861721
 31
0.0
  0
LINE
  8
DETAIL
  6
CONTINUOUS
 62
     5
 10
-180.1418451610248
 20
-217.09911790366081
 30
0.0
 11
-175.13221124965639
 21
-214.20680441623489
 31
0.0
  0
LINE
  8
DETAIL
  6
CONTINUOUS
 62
     5
 10
-180.1418451610248
 20
-205.529863954608
 30
0.0
 11
-185.1514790723925
 21
-208.4221774420339
 31
0.0
  0
LINE
  8
DETAIL
  6
CONTINUOUS
 62
     5
 10
54.552130093786218
 20
-62.072145161224057
 30
0.0
 11
61.064654178564517
 21
-58.312137627505422
 31
0.0
  0
LINE
  8
DETAIL
  6
CONTINUOUS
 62
     5
 10
61.064654178564517
 20
-58.312137627505422
 30
0.0
 11
61.064654178564517
 21
-50.792122560718667
 31
0.0
  0
LINE
  8
DETAIL
  6
CONTINUOUS
 62
     5
 10
143.22351328779089
 20
-136.84729028996821
 30
0.0
 11
146.8985764136319
 21
-140.52235341580959
 31
0.0
  0
LINE
  8
DETAIL
  6
CONTINUOUS
 62
     5
 10
101.624363656882
 20
-95.248140659059686
 30
0.0
 11
109.74039511227831
 21
-103.3641721138052
 31
0.0
  0
LINE
  8
DETAIL
  6
CONTINUOUS
 62
     5
 10
-136.83175394354839
 20
143.20797694137079
 30
0.0
 11
-140.52235341515961
 21
146.89857641298201
 31
0.0
  0
LINE
  8
DETAIL
  6
CONTINUOUS
 62
     5
 10
61.279979382378308
 20
-46.177776654305262
 30
0.0
 11
60.584490396416193
 21
-45.653688111853398
 31
0.0
  0
LINE
  8
DETAIL
  6
CONTINUOUS
 62
     5
 10
56.943841092559978
 20
-34.205911122988709
 30
0.0
 11
67.18986556955133
 21
-40.987606783724907
 31
0.0
  0
LINE
  8
DETAIL
  6
CONTINUOUS
 62
     5
 10
56.274791711732632
 20
-34.724289438130199
 30
0.0
 11
66.747465211320105
 21
-41.656000814653453
 31
0.0
  0
LINE
  8
DETAIL
  6
CONTINUOUS
 62
     5
 10
9.5183044315986081
 20
5.4953956256538277
 30
0.0
 11
-0.0000000000004547
 21
10.99079125130754
 31
0.0
  0
LINE
  8
DETAIL
  6
CONTINUOUS
 62
     5
 10
65.69928476345558
 20
-9.8106766163200518
 30
0.0
 11
68.245824902133791
 21
-10.305673875684869
 31
0.0
  0
LINE
  8
DETAIL
  6
CONTINUOUS
 62
     5
 10
65.270538604859212
 20
-10.543880437304439
 30
0.0
 11
68.147084978704697
 21
-11.103024410930059
 31
0.0
  0
LINE
  8
DETAIL
  6
CONTINUOUS
 62
     5
 10
67.44557284352959
 20
-15.253518333908911
 30
0.0
 11
64.466301226334053
 21
-14.67440659580109
 31
0.0
  0
LINE
  8
DETAIL
  6
CONTINUOUS
 62
     5
 10
67.28386489722925
 20
-16.038629125341
 30
0.0
 11
64.590460235867795
 21
-15.515084294722669
 31
0.0
  0
LINE
  8
DETAIL
  6
CONTINUOUS
 62
     5
 10
-77.849524596302217
 20
-13.72697162170005
 30
0.0
 11
-72.868218595451253
 21
-12.84863297450136
 31
0.0
  0
LINE
  8
DETAIL
  6
CONTINUOUS
 62
     5
 10
-83.86994736616407
 20
-14.788534591547201
 30
0.0
 11
-79.444800156645215
 21
-14.008261744763789
 31
0.0
  0
LINE
  8
DETAIL
  6
CONTINUOUS
 62
     5
 10
-77.651586295723973
 20
-12.83328059419955
 30
0.0
 11
-65.611169918325231
 21
-10.383630196231479
 31
0.0
  0
LINE
  8
DETAIL
  6
CONTINUOUS
 62
     5
 10
-77.491784637440105
 20
-13.618730839076081
 30
0.0
 11
-65.185059231189371
 21
-11.11489925691262
 31
0.0
  0
LINE
  8
DETAIL
  6
CONTINUOUS
 62
     5
 10
54.552130093786218
 20
-47.032115026999918
 30
0.0
 11
48.039606009007912
 21
-50.792122560718667
 31
0.0
  0
LINE
  8
DETAIL
  6
CONTINUOUS
 62
     5
 10
48.039606009007912
 20
-50.792122560718667
 30
0.0
 11
48.039606009007912
 21
-58.312137627505422
 31
0.0
  0
LINE
  8
DETAIL
  6
CONTINUOUS
 62
     5
 10
-11.260019304707381
 20
69.918760007757214
 30
0.0
 11
-10.383630195581651
 21
65.611169918324435
 31
0.0
  0
LINE
  8
DETAIL
  6
CONTINUOUS
 62
     5
 10
-11.865083044016499
 20
68.872330348872765
 30
0.0
 11
-11.114901026549891
 21
65.185067929735055
 31
0.0
  0
LINE
  8
DETAIL
  6
CONTINUOUS
 62
     5
 10
-15.235799979631789
 20
64.33276539549081
 30
0.0
 11
-15.86758036463789
 21
67.438065194705132
 31
0.0
  0
LINE
  8
DETAIL
  6
CONTINUOUS
 62
     5
 10
-16.078144471586711
 20
64.452607894302218
 30
0.0
 11
-16.64263727948401
 21
67.227178688536924
 31
0.0
  0
LINE
  8
DETAIL
  6
CONTINUOUS
 62
     5
 10
39.519213812776343
 20
-53.393605738958513
 30
0.0
 11
46.390063543777607
 21
-63.580059370918093
 31
0.0
  0
LINE
  8
DETAIL
  6
CONTINUOUS
 62
     5
 10
38.696834919449877
 20
-53.607768729174381
 30
0.0
 11
45.725555585415798
 21
-64.028275648024419
 31
0.0
  0
LINE
  8
DETAIL
  6
CONTINUOUS
 62
     5
 10
42.236888806295163
 20
-66.381411102669972
 30
0.0
 11
35.20890526436915
 21
-55.961997016590317
 31
0.0
  0
LINE
  8
DETAIL
  6
CONTINUOUS
 62
     5
 10
41.572380848584537
 20
-66.829627379776298
 30
0.0
 11
34.701531116932529
 21
-56.643173747816718
 31
0.0
  0
LINE
  8
DETAIL
  6
CONTINUOUS
 62
     5
 10
136.9728034933305
 20
-143.34902649115421
 30
0.0
 11
140.52235341580899
 21
-146.89857641363261
 31
0.0
  0
LINE
  8
DETAIL
  6
CONTINUOUS
 62
     5
 10
95.248140659059118
 20
-101.62436365688249
 30
0.0
 11
98.14176517223359
 21
-104.51798817070799
 31
0.0
  0
LINE
  8
DETAIL
  6
CONTINUOUS
 62
     5
 10
-144.39996721347319
 20
138.02374421564949
 30
0.0
 11
-146.89857641298249
 21
140.5223534151589
 31
0.0
  0
LINE
  8
DETAIL
  6
CONTINUOUS
 62
     5
 10
64.424863330930293
 20
-45.165069476215422
 30
0.0
 11
53.940873626554087
 21
-38.225868067212097
 31
0.0
  0
LINE
  8
DETAIL
  6
CONTINUOUS
 62
     5
 10
63.982462973349811
 20
-45.833463507144067
 30
0.0
 11
53.736438495708171
 21
-39.051767846407976
 31
0.0
  0
LINE
  8
DETAIL
  6
CONTINUOUS
 62
     5
 10
-9.5183044315999723
 20
-5.4953956263043438
 30
0.0
 11
-0.0000000000004547
 21
-10.99079125195806
 31
0.0
  0
LINE
  8
DETAIL
  6
CONTINUOUS
 62
     5
 10
61.064654178564517
 20
-50.792122560718667
 30
0.0
 11
54.552130093786218
 21
-47.032115026999918
 31
0.0
  0
LINE
  8
DETAIL
  6
CONTINUOUS
 62
     5
 10
48.039606009007912
 20
-58.312137627505422
 30
0.0
 11
54.552130093786218
 21
-62.072145161224057
 31
0.0
  0
LINE
  8
DETAIL
  6
CONTINUOUS
 62
     5
 10
-98.689788053950451
 20
-15.028901734104011
 30
0.0
 11
-89.672447013488181
 21
-15.028901734104011
 31
0.0
  0
LINE
  8
DETAIL
  6
CONTINUOUS
 62
     5
 10
-64.332782778270484
 20
-15.235803516953069
 30
0.0
 11
-76.652825930636482
 21
-17.742344625328428
 31
0.0
  0
LINE
  8
DETAIL
  6
CONTINUOUS
 62
     5
 10
-64.452607894953417
 20
-16.078144472236769
 30
0.0
 11
-76.493024272352613
 21
-18.527794870204961
 31
0.0
  0
LINE
  8
DETAIL
  6
CONTINUOUS
 62
     5
 10
17.859570296974201
 20
76.65179511192855
 30
0.0
 11
15.51508429472233
 21
64.59046023521762
 31
0.0
  0
LINE
  8
DETAIL
  6
CONTINUOUS
 62
     5
 10
17.07275544473578
 20
76.804736426594559
 30
0.0
 11
14.674402204238049
 21
64.466278631584146
 31
0.0
  0
LINE
  8
DETAIL
  6
CONTINUOUS
 62
     5
 10
9.5183044315986081
 20
-5.4953956263043438
 30
0.0
 11
9.5183044315986081
 21
5.4953956256538277
 31
0.0
  0
LINE
  8
DETAIL
  6
CONTINUOUS
 62
     5
 10
216.32412484082721
 20
-177.24953167424869
 30
0.0
 11
211.3144909294592
 21
-174.35721818682279
 31
0.0
  0
LINE
  8
DETAIL
  6
CONTINUOUS
 62
     5
 10
-0.0000000000004547
 20
-10.99079125195806
 30
0.0
 11
9.5183044315986081
 21
-5.4953956263043438
 31
0.0
  0
LINE
  8
DETAIL
  6
CONTINUOUS
 62
     5
 10
-53.393605738308452
 20
-39.519213812776677
 30
0.0
 11
-63.580059370268373
 21
-46.390063543778069
 31
0.0
  0
LINE
  8
DETAIL
  6
CONTINUOUS
 62
     5
 10
-53.607776043891143
 20
-38.696839853614513
 30
0.0
 11
-64.028275647374358
 21
-45.725555586067117
 31
0.0
  0
LINE
  8
DETAIL
  6
CONTINUOUS
 62
     5
 10
-61.279979382379217
 20
-46.177776654305262
 30
0.0
 11
-60.584490396417102
 21
-45.653688111853398
 31
0.0
  0
LINE
  8
DETAIL
  6
CONTINUOUS
 62
     5
 10
-140.4957309727001
 20
-146.91014877401591
 30
0.0
 11
-140.50360507234251
 21
-146.91800594499909
 31
0.0
  0
LINE
  8
DETAIL
  6
CONTINUOUS
 62
     5
 10
-103.55683356594911
 20
-127.4124644265445
 30
0.0
 11
-106.03647584320559
 21
-129.89210670380101
 31
0.0
  0
LINE
  8
DETAIL
  6
CONTINUOUS
 62
     5
 10
-140.52235341515961
 20
-146.89857641363261
 30
0.0
 11
-95.248140658409739
 21
-101.62436365688249
 31
0.0
  0
LINE
  8
DETAIL
  6
CONTINUOUS
 62
     5
 10
146.8985764136319
 20
140.5223534151589
 30
0.0
 11
143.26713629702411
 21
136.8909132992018
 31
0.0
  0
LINE
  8
DETAIL
  6
CONTINUOUS
 62
     5
 10
-146.89857641298249
 20
-140.52235341580959
 30
0.0
 11
-101.6243636562326
 21
-95.248140659059686
 31
0.0
  0
LINE
  8
DETAIL
  6
CONTINUOUS
 62
     5
 10
140.52235341580899
 20
146.89857641298201
 30
0.0
 11
136.80435784900959
 21
143.18058084683341
 31
0.0
  0
LINE
  8
DETAIL
  6
CONTINUOUS
 62
     5
 10
-119.4265441388288
 20
-111.54275385431519
 30
0.0
 11
-121.9061864160858
 21
-114.02239613092119
 31
0.0
  0
LINE
  8
DETAIL
  6
CONTINUOUS
 62
     5
 10
41.922629288341341
 20
58.073836998623619
 30
0.0
 11
39.051767845756792
 21
53.736438495708512
 31
0.0
  0
LINE
  8
DETAIL
  6
CONTINUOUS
 62
     5
 10
42.209782928958703
 20
59.95991240827766
 30
0.0
 11
38.225866151839909
 21
53.940870732677809
 31
0.0
  0
LINE
  8
DETAIL
  6
CONTINUOUS
 62
     5
 10
34.724272777518763
 20
56.274766539949383
 30
0.0
 11
41.656000814652998
 21
66.747465211320446
 31
0.0
  0
LINE
  8
DETAIL
  6
CONTINUOUS
 62
     5
 10
34.205911122988248
 20
56.943841091909917
 30
0.0
 11
40.987606783724459
 21
67.189865569551785
 31
0.0
  0
LINE
  8
DETAIL
  6
CONTINUOUS
 62
     5
 10
10.54388276255486
 20
65.270550566173597
 30
0.0
 11
12.9419774701596
 21
77.607678326151699
 31
0.0
  0
LINE
  8
DETAIL
  6
CONTINUOUS
 62
     5
 10
9.8106766156688536
 20
65.699284763456262
 30
0.0
 11
12.15516261792118
 21
77.760619640167192
 31
0.0
  0
LINE
  8
DETAIL
  6
CONTINUOUS
 62
     5
 10
-9.5183044315999723
 20
5.4953956256538277
 30
0.0
 11
-9.5183044315999723
 21
-5.4953956263043438
 31
0.0
  0
LINE
  8
DETAIL
  6
CONTINUOUS
 62
     5
 10
206.30485701809079
 20
-183.03415864844959
 30
0.0
 11
211.3144909294592
 21
-185.92647213587571
 31
0.0
  0
LINE
  8
DETAIL
  6
CONTINUOUS
 62
     5
 10
-0.0000000000004547
 20
10.99079125130754
 30
0.0
 11
-9.5183044315999723
 21
5.4953956256538277
 31
0.0
  0
LINE
  8
DETAIL
  6
CONTINUOUS
 62
     5
 10
-66.381411102670427
 20
-42.236888806295717
 30
0.0
 11
-55.962018548257667
 21
-35.208919788404273
 31
0.0
  0
LINE
  8
DETAIL
  6
CONTINUOUS
 62
     5
 10
-66.829627379776866
 20
-41.572380848584999
 30
0.0
 11
-56.6431737478174
 21
-34.701531117583727
 31
0.0
  0
LINE
  8
DETAIL
  6
CONTINUOUS
 62
     5
 10
-119.99331951615299
 20
-110.9759784763405
 30
0.0
 11
-122.4729617934095
 21
-113.455620753597
 31
0.0
  0
LINE
  8
DETAIL
  6
CONTINUOUS
 62
     5
 10
-123.32312486004589
 20
-112.60545768696031
 30
0.0
 11
-120.8434825827899
 21
-110.1258154097039
 31
0.0
  0
LINE
  8
DETAIL
  6
CONTINUOUS
 62
     5
 10
-124.8463336870109
 20
-112.9951157592773
 30
0.0
 11
-120.4538245104727
 21
-108.6026065827389
 31
0.0
  0
LINE
  8
DETAIL
  6
CONTINUOUS
 62
     5
 10
-89.672447013488181
 20
-88.163448439256285
 30
0.0
 11
-89.672447013488181
 21
4.1408756067363583
 31
0.0
  0
LINE
  8
DETAIL
  6
CONTINUOUS
 62
     5
 10
-98.689788053950451
 20
-88.163448439256285
 30
0.0
 11
-98.689788053950451
 21
-15.028901734104011
 31
0.0
  0
LINE
  8
DETAIL
  6
CONTINUOUS
 62
     5
 10
-210.40462427745729
 20
-150.4934509898155
 30
0.0
 11
-216.91714836223559
 21
-150.4934509898155
 31
0.0
  0
LINE
  8
DETAIL
  6
CONTINUOUS
 62
     5
 10
216.91714836223451
 20
-150.4934509898155
 30
0.0
 11
210.40462427745621
 21
-150.4934509898155
 31
0.0
  0
LINE
  8
DETAIL
  6
CONTINUOUS
 62
     5
 10
180.14184516102341
 20
205.52986395395749
 30
0.0
 11
185.15147907239131
 21
208.42217744138341
 31
0.0
  0
LINE
  8
DETAIL
  6
CONTINUOUS
 62
     5
 10
180.14184516102341
 20
217.09911790301021
 30
0.0
 11
175.13221124965551
 21
214.20680441623489
 31
0.0
  0
LINE
  8
DETAIL
  6
CONTINUOUS
 62
     5
 10
-120.4538245104727
 20
-108.6026065827389
 30
0.0
 11
-117.716327045518
 21
-111.3401040476942
 31
0.0
  0
LINE
  8
DETAIL
  6
CONTINUOUS
 62
     5
 10
-112.29653749733551
 20
-118.6727604958086
 30
0.0
 11
-103.55689437249519
 21
-127.4124036206491
 31
0.0
  0
LINE
  8
DETAIL
  6
CONTINUOUS
 62
     5
 10
-120.8434825827899
 20
-110.1258154097039
 30
0.0
 11
-119.99331951615299
 21
-110.9759784763405
 31
0.0
  0
LINE
  8
DETAIL
  6
CONTINUOUS
 62
     5
 10
-118.6727604951584
 20
-112.296537497335
 30
0.0
 11
-119.4265441388288
 21
-111.54275385431519
 31
0.0
  0
LINE
  8
DETAIL
  6
CONTINUOUS
 62
     5
 10
-121.5519518047699
 20
-110.8342846316842
 30
0.0
 11
-120.7017887381335
 21
-111.6844476983208
 31
0.0
  0
LINE
  8
DETAIL
  6
CONTINUOUS
 62
     5
 10
-121.7644925714294
 20
-112.74715153161669
 30
0.0
 11
-122.6146556380659
 21
-111.89698846498
 31
0.0
  0
LINE
  8
DETAIL
  6
CONTINUOUS
 62
     5
 10
-122.4729617934095
 20
-113.455620753597
 30
0.0
 11
-123.32312486004589
 21
-112.60545768696031
 31
0.0
  0
LINE
  8
DETAIL
  6
CONTINUOUS
 62
     5
 10
-121.1524027724149
 20
-114.7761797745914
 30
0.0
 11
-121.9061864160858
 21
-114.02239613092119
 31
0.0
  0
LINE
  8
DETAIL
  6
CONTINUOUS
 62
     5
 10
-106.036536649101
 20
-129.89204589790549
 30
0.0
 11
-114.77617977394171
 21
-121.1524027724145
 31
0.0
  0
LINE
  8
DETAIL
  6
CONTINUOUS
 62
     5
 10
-124.8463336870109
 20
-112.9951157592773
 30
0.0
 11
-122.1088362220557
 21
-115.7326132242324
 31
0.0
  0
LINE
  8
DETAIL
  6
CONTINUOUS
 62
     5
 10
-150.49345098981621
 20
210.4046242774568
 30
0.0
 11
-150.49345098981621
 21
216.91714836223511
 31
0.0
  0
LINE
  8
DETAIL
  6
CONTINUOUS
 62
     5
 10
-150.49345098981621
 20
-216.91714836223511
 30
0.0
 11
-150.49345098981621
 21
-210.40462427745661
 31
0.0
  0
LINE
  8
DETAIL
  6
CONTINUOUS
 62
     5
 10
237.1754066414928
 20
-192.2931350879563
 30
0.0
 11
241.96531791907461
 21
-192.2931350879563
 31
0.0
  0
LINE
  8
DETAIL
  6
CONTINUOUS
 62
     5
 10
-241.96531791907549
 20
-192.2931350879563
 30
0.0
 11
-237.17540664084339
 21
-192.2931350879563
 31
0.0
  0
LINE
  8
DETAIL
  6
CONTINUOUS
 62
     5
 10
-175.13221124965639
 20
-214.20680441623489
 30
0.0
 11
-175.13221124965639
 21
-208.4221774420339
 31
0.0
  0
LINE
  8
DETAIL
  6
CONTINUOUS
 62
     5
 10
-185.1514790723925
 20
-208.4221774420339
 30
0.0
 11
-185.1514790723925
 21
-214.20680441623489
 31
0.0
  0
LINE
  8
DETAIL
  6
CONTINUOUS
 62
     5
 10
-192.29313508730641
 20
-237.17540664149351
 30
0.0
 11
-192.29313508730641
 21
-241.96531791907509
 31
0.0
  0
LINE
  8
DETAIL
  6
CONTINUOUS
 62
     5
 10
-192.29313508730641
 20
241.9653179190752
 30
0.0
 11
-192.29313508730641
 21
237.17540664084279
 31
0.0
  0
LINE
  8
DETAIL
  6
CONTINUOUS
 62
     5
 10
-206.30485701744189
 20
177.249531673598
 30
0.0
 11
-206.30485701744189
 21
183.0341586477991
 31
0.0
  0
LINE
  8
DETAIL
  6
CONTINUOUS
 62
     5
 10
-216.3241248401778
 20
183.0341586477991
 30
0.0
 11
-216.3241248401778
 21
177.249531673598
 31
0.0
  0
LINE
  8
DETAIL
  6
CONTINUOUS
 62
     5
 10
-156.538676731077
 20
-195.8101583045316
 30
0.0
 11
-195.81015830388171
 21
-156.53867673172681
 31
0.0
  0
LINE
  8
DETAIL
  6
CONTINUOUS
 62
     5
 10
-175.13221124965639
 20
-208.4221774420339
 30
0.0
 11
-180.1418451610248
 21
-205.529863954608
 31
0.0
  0
LINE
  8
DETAIL
  6
CONTINUOUS
 62
     5
 10
121.036803590971
 20
-246.37379576107901
 30
0.0
 11
-121.0368035909723
 21
-246.37379576107901
 31
0.0
  0
LINE
  8
DETAIL
  6
CONTINUOUS
 62
     5
 10
-177.8653894225663
 20
-256.39306358381492
 30
0.0
 11
177.8653894232157
 21
-256.39306358381492
 31
0.0
  0
LINE
  8
DETAIL
  6
CONTINUOUS
 62
     5
 10
219.92292870905479
 20
-260.0
 30
0.0
 11
-219.92292870905661
 21
-260.0
 31
0.0
  0
LINE
  8
DETAIL
  6
CONTINUOUS
 62
     5
 10
-185.1514790723925
 20
-214.20680441623489
 30
0.0
 11
-180.1418451610248
 21
-217.09911790366081
 31
0.0
  0
LINE
  8
DETAIL
  6
CONTINUOUS
 62
     5
 10
-246.37379576107969
 20
-121.0368035909717
 30
0.0
 11
-246.37379576107969
 21
121.0368035909715
 31
0.0
  0
LINE
  8
DETAIL
  6
CONTINUOUS
 62
     5
 10
-256.39306358381549
 20
177.86538942256601
 30
0.0
 11
-256.39306358381549
 21
-177.86538942321661
 31
0.0
  0
LINE
  8
DETAIL
  6
CONTINUOUS
 62
     5
 10
-260.00000000000068
 20
-219.92292870905581
 30
0.0
 11
-260.00000000000068
 21
219.9229287090559
 31
0.0
  0
LINE
  8
DETAIL
  6
CONTINUOUS
 62
     5
 10
-211.95390233821351
 20
-202.74022423361609
 30
0.0
 11
-202.7402242336166
 21
-211.95390233821291
 31
0.0
  0
LINE
  8
DETAIL
  6
CONTINUOUS
 62
     5
 10
-211.31449092880979
 20
174.3572181861721
 30
0.0
 11
-206.30485701744189
 21
177.249531673598
 31
0.0
  0
LINE
  8
DETAIL
  6
CONTINUOUS
 62
     5
 10
-211.31449092880979
 20
185.92647213522511
 30
0.0
 11
-216.3241248401778
 21
183.0341586477991
 31
0.0
  0
LINE
  8
DETAIL
  6
CONTINUOUS
 62
     5
 10
-195.81015830388171
 20
156.53867673107621
 30
0.0
 11
-156.538676731077
 21
195.81015830388111
 31
0.0
  0
LINE
  8
DETAIL
  6
CONTINUOUS
 62
     5
 10
-202.7402242336166
 20
211.95390233756231
 30
0.0
 11
-211.95390233821351
 21
202.7402242329654
 31
0.0
  0
CIRCLE
  8
DETAIL
  6
CONTINUOUS
 62
     5
 10
230.44315992292789
 20
230.4431599229288
 30
0.0
 40
7.0134874759152126
  0
CIRCLE
  8
DETAIL
  6
CONTINUOUS
 62
     5
 10
230.44315992292789
 20
230.4431599229288
 30
0.0
 40
8.0154142581887982
  0
CIRCLE
  8
DETAIL
  6
CONTINUOUS
 62
     5
 10
230.44315992292789
 20
-230.44315992292849
 30
0.0
 40
7.0134874759152126
  0
CIRCLE
  8
DETAIL
  6
CONTINUOUS
 62
     5
 10
230.44315992292789
 20
-230.44315992292849
 30
0.0
 40
8.0154142581887982
  0
CIRCLE
  8
DETAIL
  6
CONTINUOUS
 62
     5
 10
-0.0000000000004547
 20
77.148362235067566
 30
0.0
 40
2.5048169556840212
  0
CIRCLE
  8
DETAIL
  6
CONTINUOUS
 62
     5
 10
70.846922199984419
 20
-70.846922199984988
 30
0.0
 40
3.0057803468207571
  0
CIRCLE
  8
DETAIL
  6
CONTINUOUS
 62
     5
 10
-0.0000000000004547
 20
0.0
 30
0.0
 40
203.29094412331409
  0
CIRCLE
  8
DETAIL
  6
CONTINUOUS
 62
     5
 10
-230.44315992292951
 20
230.4431599229288
 30
0.0
 40
7.0134874759152126
  0
CIRCLE
  8
DETAIL
  6
CONTINUOUS
 62
     5
 10
-230.44315992292951
 20
230.4431599229288
 30
0.0
 40
8.0154142581888248
  0
CIRCLE
  8
DETAIL
  6
CONTINUOUS
 62
     5
 10
-230.44315992292951
 20
-230.44315992292849
 30
0.0
 40
7.0134874759152126
  0
CIRCLE
  8
DETAIL
  6
CONTINUOUS
 62
     5
 10
-230.44315992292951
 20
-230.44315992292849
 30
0.0
 40
8.0154142581888248
  0
CIRCLE
  8
DETAIL
  6
CONTINUOUS
 62
     5
 10
180.14184516102341
 20
211.31449092880919
 30
0.0
 40
3.0057803468207571
  0
CIRCLE
  8
DETAIL
  6
CONTINUOUS
 62
     5
 10
211.3144909294592
 20
-180.14184516102401
 30
0.0
 40
3.0057803468207571
  0
CIRCLE
  8
DETAIL
  6
CONTINUOUS
 62
     5
 10
-211.31449092880979
 20
180.14184516102401
 30
0.0
 40
3.005780346820814
  0
CIRCLE
  8
DETAIL
  6
CONTINUOUS
 62
     5
 10
-180.1418451610248
 20
-211.31449092945971
 30
0.0
 40
3.005780346820814
  0
CIRCLE
  8
DETAIL
  6
CONTINUOUS
 62
     5
 10
-0.0000000000004547
 20
0.0
 30
0.0
 40
200.0
  0
ARC
  8
DETAIL
  6
CONTINUOUS
 62
     5
 10
-122.7782314988613
 20
20.809264722470179
 30
0.0
 40
123.4140143161725
 50
25.541923805232599
 51
97.067312653315653
  0
ARC
  8
DETAIL
  6
CONTINUOUS
 62
     5
 10
30.20544676225882
 20
-20.468595688899089
 30
0.0
 40
234.7251693358331
 50
135.76184850207329
 51
148.76409857707151
  0
ARC
  8
DETAIL
  6
CONTINUOUS
 62
     5
 10
-1.4324049672709409
 20
0.9306484649600861
 30
0.0
 40
196.58579788558251
 50
149.31524239559479
 51
205.64756611944011
  0
ARC
  8
DETAIL
  6
CONTINUOUS
 62
     5
 10
-174.27405868192639
 20
-83.302630158675356
 30
0.0
 40
4.4581455460909272
 50
191.0673156583405
 51
353.35388766152511
  0
ARC
  8
DETAIL
  6
CONTINUOUS
 62
     5
 10
-127.2055875892333
 20
-82.08447191288144
 30
0.0
 40
42.675532439905467
 50
123.1220056920357
 51
182.32886669901711
  0
ARC
  8
DETAIL
  6
CONTINUOUS
 62
     5
 10
-153.96152450627869
 20
-32.107187345350781
 30
0.0
 40
14.645167356497041
 50
283.57311562888788
 51
4.3415185999406427
  0
ARC
  8
DETAIL
  6
CONTINUOUS
 62
     5
 10
-120.786532563799
 20
-30.080486903408659
 30
0.0
 40
18.594524767714798
 50
98.077794347184124
 51
182.82993708097911
  0
ARC
  8
DETAIL
  6
CONTINUOUS
 62
     5
 10
-134.43278077303509
 20
15.37734962324657
 30
0.0
 40
29.211630924503801
 50
292.19162388393232
 51
333.19347794877069
  0
ARC
  8
DETAIL
  6
CONTINUOUS
 62
     5
 10
-994.72330388468481
 20
728.01073510021774
 30
0.0
 40
1231.992922662419
 50
314.33847683630489
 51
316.01242852815773
  0
ARC
  8
DETAIL
  6
CONTINUOUS
 62
     5
 10
-99.12220666493613
 20
-3.0805864836852379
 30
0.0
 40
10.64264029995325
 50
50.774749485038953
 51
150.2311096978585
  0
ARC
  8
DETAIL
  6
CONTINUOUS
 62
     5
 10
-84.370070110381221
 20
24.215089295194051
 30
0.0
 40
20.67125606355215
 50
247.16509359933659
 51
297.79752700756592
  0
ARC
  8
DETAIL
  6
CONTINUOUS
 62
     5
 10
-15.07569068383145
 20
71.978660338848613
 30
0.0
 40
4.2132013358876597
 50
284.03871488510612
 51
31.24508640562026
  0
ARC
  8
DETAIL
  6
CONTINUOUS
 62
     5
 10
2.0394193988677221
 20
-0.5048598973921799
 30
0.0
 40
70.263943928264354
 50
103.24041558267039
 51
114.7860136478274
  0
ARC
  8
DETAIL
  6
CONTINUOUS
 62
     5
 10
7.6229516241778583
 20
104.9911623288576
 30
0.0
 40
54.47640573228535
 50
229.97499059963761
 51
265.12980584272668
  0
ARC
  8
DETAIL
  6
CONTINUOUS
 62
     5
 10
29.615317868104281
 20
144.07802692664751
 30
0.0
 40
97.078164855423864
 50
254.05911351237131
 51
260.24939327922891
  0
ARC
  8
DETAIL
  6
CONTINUOUS
 62
     5
 10
-33.92811578374176
 20
-95.962352409140749
 30
0.0
 40
109.75348700911231
 50
108.5907733568329
 51
111.94089356248421
  0
ARC
  8
DETAIL
  6
CONTINUOUS
 62
     5
 10
-69.585326605756109
 20
10.56301003186684
 30
0.0
 40
2.5863431919651991
 50
284.94659262169012
 51
339.62829595122071
  0
ARC
  8
DETAIL
  6
CONTINUOUS
 62
     5
 10
-133.18260680771709
 20
-64.034542913587984
 30
0.0
 40
98.946782246414131
 50
31.09383850763718
 51
48.137868215744902
  0
ARC
  8
DETAIL
  6
CONTINUOUS
 62
     5
 10
79.410467633165354
 20
95.924435148505381
 30
0.0
 40
123.4140143161725
 50
265.54192380523
 51
337.06731265333178
  0
ARC
  8
DETAIL
  6
CONTINUOUS
 62
     5
 10
-32.829047227508447
 20
-15.924386384325089
 30
0.0
 40
234.7251693358331
 50
15.7618485020823
 51
28.764098577078052
  0
ARC
  8
DETAIL
  6
CONTINUOUS
 62
     5
 10
1.5221676962837589
 20
0.7751748576833961
 30
0.0
 40
196.58579788558251
 50
29.315242395580238
 51
85.647566119422194
  0
ARC
  8
DETAIL
  6
CONTINUOUS
 62
     5
 10
14.994835421491191
 20
192.57707711850611
 30
0.0
 40
4.4581455460909263
 50
71.067315658344157
 51
233.3538876615338
  0
ARC
  8
DETAIL
  6
CONTINUOUS
 62
     5
 10
-7.484444138168783
 20
151.20550631204301
 30
0.0
 40
42.675532439905467
 50
3.122005692034211
 51
62.328866699012927
  0
ARC
  8
DETAIL
  6
CONTINUOUS
 62
     5
 10
49.175122367999393
 20
149.38818510049319
 30
0.0
 40
14.645167356497041
 50
163.57311562888361
 51
244.34151859992599
  0
ARC
  8
DETAIL
  6
CONTINUOUS
 62
     5
 10
34.342800465342862
 20
119.6444490869906
 30
0.0
 40
18.594524767714791
 50
338.07779434717719
 51
62.829937080967817
  0
ARC
  8
DETAIL
  6
CONTINUOUS
 62
     5
 10
80.533565803124475
 20
108.73352843920949
 30
0.0
 40
29.21163092450379
 50
172.19162388392161
 51
213.19347794877649
  0
ARC
  8
DETAIL
  6
CONTINUOUS
 62
     5
 10
46.893237179041527
 20
87.382642292848118
 30
0.0
 40
10.64264029995325
 50
290.77474948506028
 51
30.231109697847341
  0
ARC
  8
DETAIL
  6
CONTINUOUS
 62
     5
 10
63.155917539736947
 20
60.959079387067277
 30
0.0
 40
20.671256063552139
 50
127.1650935993146
 51
177.79752700754389
  0
ARC
  8
DETAIL
  6
CONTINUOUS
 62
     5
 10
69.873193725729834
 20
-22.93339905763003
 30
0.0
 40
4.2132013358876588
 50
164.03871488510919
 51
271.2450864055931
  0
ARC
  8
DETAIL
  6
CONTINUOUS
 62
     5
 10
-1.456931195927609
 20
-1.5137590596940531
 30
0.0
 40
70.263943928264339
 50
343.24041558267231
 51
354.78601364783623
  0
ARC
  8
DETAIL
  6
CONTINUOUS
 62
     5
 10
87.113537937557794
 20
-59.097250922786657
 30
0.0
 40
54.47640573228535
 50
109.9749905996196
 51
145.1298058427395
  0
ARC
  8
DETAIL
  6
CONTINUOUS
 62
     5
 10
109.96757251156301
 20
-97.686631078253185
 30
0.0
 40
97.078164855423864
 50
134.0591135123895
 51
140.24939327924389
  0
ARC
  8
DETAIL
  6
CONTINUOUS
 62
     5
 10
-66.141777101359821
 20
77.363786375830614
 30
0.0
 40
109.75348700911231
 50
348.5907733568236
 51
351.94089356249788
  0
ARC
  8
DETAIL
  6
CONTINUOUS
 62
     5
 10
43.940498330905029
 20
54.981155555288296
 30
0.0
 40
2.5863431919651978
 50
164.94659262169921
 51
219.6282959512013
  0
ARC
  8
DETAIL
  6
CONTINUOUS
 62
     5
 10
10.709802217199471
 20
149.26661008536641
 30
0.0
 40
100.894483360343
 50
271.39959751984429
 51
288.03011859221078
  0
ARC
  8
DETAIL
  6
CONTINUOUS
 62
     5
 10
43.367763865695913
 20
-116.7336998709758
 30
0.0
 40
123.4140143161725
 50
145.54192380522579
 51
217.06731265332331
  0
ARC
  8
DETAIL
  6
CONTINUOUS
 62
     5
 10
2.6236004652496381
 20
36.392982073224182
 30
0.0
 40
234.7251693358331
 50
255.7618485020769
 51
268.76409857708973
  0
ARC
  8
DETAIL
  6
CONTINUOUS
 62
     5
 10
-0.0897627290132732
 20
-1.7058233226438231
 30
0.0
 40
196.58579788558251
 50
269.31524239558752
 51
325.64756611944563
  0
ARC
  8
DETAIL
  6
CONTINUOUS
 62
     5
 10
159.2792232604356
 20
-109.2744469598309
 30
0.0
 40
4.4581455460909272
 50
311.06731565836208
 51
113.3538876615014
  0
ARC
  8
DETAIL
  6
CONTINUOUS
 62
     5
 10
134.6900317274017
 20
-69.121034399161886
 30
0.0
 40
42.675532439905467
 50
243.12200569203259
 51
302.32886669902382
  0
ARC
  8
DETAIL
  6
CONTINUOUS
 62
     5
 10
104.7864021382793
 20
-117.28099775514281
 30
0.0
 40
14.645167356497041
 50
43.573115628891458
 51
124.3415185999558
  0
ARC
  8
DETAIL
  6
CONTINUOUS
 62
     5
 10
86.443732098456167
 20
-89.563962183582134
 30
0.0
 40
18.594524767714798
 50
218.07779434715869
 51
302.82993708097558
  0
ARC
  8
DETAIL
  6
CONTINUOUS
 62
     5
 10
53.8992149699111
 20
-124.11087806245629
 30
0.0
 40
29.211630924503801
 50
52.19162388392072
 51
93.193477948772994
  0
ARC
  8
DETAIL
  6
CONTINUOUS
 62
     5
 10
52.22896948589414
 20
-84.302055809163221
 30
0.0
 40
10.64264029995325
 50
170.77474948504479
 51
270.23110969785102
  0
ARC
  8
DETAIL
  6
CONTINUOUS
 62
     5
 10
21.214152570643819
 20
-85.174168682261097
 30
0.0
 40
20.67125606355215
 50
7.1650935993294649
 51
57.797527007531627
  0
ARC
  8
DETAIL
  6
CONTINUOUS
 62
     5
 10
-54.797503041898842
 20
-49.045261281218593
 30
0.0
 40
4.2132013358876597
 50
44.03871488510655
 51
151.24508640559961
  0
ARC
  8
DETAIL
  6
CONTINUOUS
 62
     5
 10
-0.5824882029401124
 20
2.018618957086233
 30
0.0
 40
70.263943928264354
 50
223.2404155826795
 51
234.78601364784959
  0
ARC
  8
DETAIL
  6
CONTINUOUS
 62
     5
 10
-94.736489561735198
 20
-45.89391140607097
 30
0.0
 40
54.47640573228535
 50
349.97499059962922
 51
25.129805842725681
  0
ARC
  8
DETAIL
  6
CONTINUOUS
 62
     5
 10
-139.5828903796673
 20
-46.391395848394268
 30
0.0
 40
97.078164855423864
 50
14.05911351237639
 51
20.249393279225941
  0
ARC
  8
DETAIL
  6
CONTINUOUS
 62
     5
 10
100.06989288510159
 20
18.598566033310139
 30
0.0
 40
109.75348700911231
 50
228.59077335683369
 51
231.940893562512
  0
ARC
  8
DETAIL
  6
CONTINUOUS
 62
     5
 10
25.644828274851079
 20
-65.544165587155248
 30
0.0
 40
2.5863431919651991
 50
44.946592621700532
 51
99.628295951205772
  0
ARC
  8
DETAIL
  6
CONTINUOUS
 62
     5
 10
123.9288196576645
 20
-83.912988193466617
 30
0.0
 40
100.9101801567418
 50
151.40231145960809
 51
168.02926719621871
  0
LINE
  8
DETAIL
  6
CONTINUOUS
 62
     5
 10
-189.99425960212969
 20
-300.57676240035488
 30
0.0
 11
-180.87672588344
 21
-300.57676240035488
 31
0.0
  0
ARC
  8
DETAIL
  6
CONTINUOUS
 62
     5
 10
-671.8221409367784
 20
-304.43510944891858
 30
0.0
 40
491.02431143180922
 50
0.4502206339486879
 51
5.1922617606454962
  0
ARC
  8
DETAIL
  6
CONTINUOUS
 62
     5
 10
-699.27209399478761
 20
-306.18430257214578
 30
0.0
 40
509.30870511945272
 50
0.6308450526093189
 51
5.202893280371601
  0
ARC
  8
DETAIL
  6
CONTINUOUS
 62
     5
 10
-162.03286200868621
 20
-300.50541602933322
 30
0.0
 40
27.86129626618855
 50
180.1467214723796
 51
203.6229885532498
  0
ARC
  8
DETAIL
  6
CONTINUOUS
 62
     5
 10
-277.60617657241261
 20
-300.65460908480429
 30
0.0
 40
90.717923396754074
 50
341.0356880512295
 51
0.0491665469566358
  0
ARC
  8
DETAIL
  6
CONTINUOUS
 62
     5
 10
-189.47627568277269
 20
-328.30812248291488
 30
0.0
 40
2.9662051321883252
 50
218.04271896428739
 51
278.11097127813281
  0
ARC
  8
DETAIL
  6
CONTINUOUS
 62
     5
 10
-277.66029980845502
 20
-300.64387466568058
 30
0.0
 40
93.777817593269688
 50
340.95926152691908
 51
0.0410038322551329
  0
ARC
  8
DETAIL
  6
CONTINUOUS
 62
     5
 10
15870.752375125739
 20
-349.64286563204058
 30
0.0
 40
16051.640355796169
 50
179.82485995524809
 51
179.93215051032291
  0
ARC
  8
DETAIL
  6
CONTINUOUS
 62
     5
 10
65763.011317548517
 20
-315.60566537421232
 30
0.0
 40
65946.895536276803
 50
179.98694263448931
 51
180.0130573633482
  0
ARC
  8
DETAIL
  6
CONTINUOUS
 62
     5
 10
-182.37961605684501
 20
-326.21075097420112
 30
0.0
 40
4.6721319644216761
 50
251.23597945762199
 51
288.7640205420484
  0
ARC
  8
DETAIL
  6
CONTINUOUS
 62
     5
 10
-42.126390799181991
 20
-241.60458112725999
 30
0.0
 40
158.4523983394331
 50
206.05092688623259
 51
206.53785758270789
  0
ARC
  8
DETAIL
  6
CONTINUOUS
 62
     5
 10
-176.48220560580151
 20
-311.44503937996222
 30
0.0
 40
9.8832766165122887
 50
208.43156092254929
 51
221.50145835151901
  0
ARC
  8
DETAIL
  6
CONTINUOUS
 62
     5
 10
-148.05260211928859
 20
-288.08211038727052
 30
0.0
 40
43.7154299327891
 50
221.33515847413901
 51
250.33705298863319
  0
ARC
  8
DETAIL
  6
CONTINUOUS
 62
     5
 10
-146.75276024511049
 20
-285.68247241343909
 30
0.0
 40
49.417363148978282
 50
226.32825281385371
 51
249.66740785999551
  0
ARC
  8
DETAIL
  6
CONTINUOUS
 62
     5
 10
-166.4591245459246
 20
-329.32899049993119
 30
0.0
 40
3.6977551661651318
 50
313.28656779372761
 51
1.2484980091329281
  0
ARC
  8
DETAIL
  6
CONTINUOUS
 62
     5
 10
-76.936166481576947
 20
-139.32726563607639
 30
0.0
 40
39.740745749126489
 50
92.768582784231143
 51
130.3244468225183
  0
ARC
  8
DETAIL
  6
CONTINUOUS
 62
     5
 10
-75.192711821690864
 20
-152.23919282758411
 30
0.0
 40
40.979774513192027
 50
96.647706789080459
 51
138.49938287651571
  0
ARC
  8
DETAIL
  6
CONTINUOUS
 62
     5
 10
-0.0000000000004547
 20
205.8959537572255
 30
0.0
 40
300.5780346820809
 50
253.79293060261389
 51
255.26659699459569
  0
ARC
  8
DETAIL
  6
CONTINUOUS
 62
     5
 10
-81.657032755299042
 20
-75.040010247078499
 30
0.0
 40
8.0154142581887982
 50
180.0
 51
253.79293060261389
  0
ENDSEC
  0
EOF
