  0
SECTION
  2
HEADER
  9
$ACADVER
  1
AC1009
  9
$DWGCODEPAGE
  3
dos932
  9
$INSBASE
 10
0.0
 20
0.0
 30
0.0
  9
$EXTMIN
 10
-606.36289845728788
 20
-481.61314751675133
 30
-35.214996262470962
  9
$EXTMAX
 10
1127.526867153967
 20
635.1013264328958
 30
0.0022888765696933
  9
$LIMMIN
 10
-2970.0
 20
-2100.0
  9
$LIMMAX
 10
2970.0
 20
2100.0
  9
$ORTHOMODE
 70
     1
  9
$REGENMODE
 70
     1
  9
$FILLMODE
 70
     1
  9
$QTEXTMODE
 70
     0
  9
$MIRRTEXT
 70
     0
  9
$LTSCALE
 40
20.0
  9
$ATTMODE
 70
     1
  9
$TEXTSIZE
 40
64.0
  9
$TRACEWID
 40
0.05
  9
$TEXTSTYLE
  7
STANDARD
  9
$CLAYER
  8
SIZE
  9
$CELTYPE
  6
CONTINUOUS
  9
$CECOLOR
 62
     7
  9
$DIMSCALE
 40
1.0
  9
$DIMASZ
 40
12.0
  9
$DIMEXO
 40
20.0
  9
$DIMDLI
 40
200.0
  9
$DIMRND
 40
0.0
  9
$DIMDLE
 40
0.0
  9
$DIMEXE
 40
20.0
  9
$DIMTP
 40
0.0
  9
$DIMTM
 40
0.0
  9
$DIMTXT
 40
64.0
  9
$DIMCEN
 40
0.09
  9
$DIMTSZ
 40
0.0
  9
$DIMTOL
 70
     0
  9
$DIMLIM
 70
     0
  9
$DIMTIH
 70
     0
  9
$DIMTOH
 70
     0
  9
$DIMSE1
 70
     0
  9
$DIMSE2
 70
     0
  9
$DIMTAD
 70
     1
  9
$DIMZIN
 70
     8
  9
$DIMBLK
  1

  9
$DIMASO
 70
     1
  9
$DIMSHO
 70
     0
  9
$DIMPOST
  1

  9
$DIMAPOST
  1

  9
$DIMALT
 70
     0
  9
$DIMALTD
 70
     2
  9
$DIMALTF
 40
25.399999999999999
  9
$DIMLFAC
 40
1.0
  9
$DIMTOFL
 70
     1
  9
$DIMTVP
 40
0.0
  9
$DIMTIX
 70
     1
  9
$DIMSOXD
 70
     0
  9
$DIMSAH
 70
     0
  9
$DIMBLK1
  1

  9
$DIMBLK2
  1

  9
$DIMSTYLE
  2
STANDARD
  9
$DIMCLRD
 70
     7
  9
$DIMCLRE
 70
     7
  9
$DIMCLRT
 70
     7
  9
$DIMTFAC
 40
1.0
  9
$DIMGAP
 40
25.0
  9
$LUNITS
 70
     2
  9
$LUPREC
 70
     4
  9
$SKETCHINC
 40
0.1
  9
$FILLETRAD
 40
3.0
  9
$AUNITS
 70
     1
  9
$AUPREC
 70
     3
  9
$MENU
  1
ACAD
  9
$ELEVATION
 40
0.0
  9
$PELEVATION
 40
0.0
  9
$THICKNESS
 40
50.0
  9
$LIMCHECK
 70
     0
  9
$CHAMFERA
 40
0.0
  9
$CHAMFERB
 40
0.0
  9
$SKPOLY
 70
     0
  9
$TDCREATE
 40
2453019.62301037
  9
$TDUPDATE
 40
2458949.445693762
  9
$TDINDWG
 40
1.714113206
  9
$TDUSRTIMER
 40
1.714113206
  9
$USRTIMER
 70
     1
  9
$ANGBASE
 50
0.0
  9
$ANGDIR
 70
     0
  9
$PDMODE
 70
     3
  9
$PDSIZE
 40
-2.0
  9
$PLINEWID
 40
0.0
  9
$SPLFRAME
 70
     0
  9
$SPLINETYPE
 70
     6
  9
$SPLINESEGS
 70
     8
  9
$SURFTAB1
 70
     6
  9
$SURFTAB2
 70
     6
  9
$SURFTYPE
 70
     6
  9
$SURFU
 70
     6
  9
$SURFV
 70
     6
  9
$UCSNAME
  2

  9
$UCSORG
 10
0.0
 20
0.0
 30
0.0
  9
$UCSXDIR
 10
1.0
 20
0.0
 30
0.0
  9
$UCSYDIR
 10
0.0
 20
1.0
 30
0.0
  9
$PUCSNAME
  2

  9
$PUCSORG
 10
0.0
 20
0.0
 30
0.0
  9
$PUCSXDIR
 10
1.0
 20
0.0
 30
0.0
  9
$PUCSYDIR
 10
0.0
 20
1.0
 30
0.0
  9
$USERI1
 70
     0
  9
$USERI2
 70
     0
  9
$USERI3
 70
     0
  9
$USERI4
 70
     0
  9
$USERI5
 70
     0
  9
$USERR1
 40
20.0
  9
$USERR2
 40
0.0
  9
$USERR3
 40
0.0
  9
$USERR4
 40
0.0
  9
$USERR5
 40
0.0
  9
$WORLDVIEW
 70
     1
  9
$SHADEDGE
 70
     3
  9
$SHADEDIF
 70
    70
  9
$TILEMODE
 70
     1
  9
$MAXACTVP
 70
    48
  9
$PINSBASE
 10
0.0
 20
0.0
 30
0.0
  9
$PLIMCHECK
 70
     0
  9
$PEXTMIN
 10
-100000000000000000000.0
 20
-100000000000000000000.0
 30
-100000000000000000000.0
  9
$PEXTMAX
 10
100000000000000000000.0
 20
100000000000000000000.0
 30
100000000000000000000.0
  9
$PLIMMIN
 10
0.0
 20
0.0
  9
$PLIMMAX
 10
12.0
 20
9.0
  9
$UNITMODE
 70
     0
  9
$VISRETAIN
 70
     0
  9
$PLINEGEN
 70
     0
  9
$PSLTSCALE
 70
     0
  9
$TREEDEPTH
 70
  3020
  9
$ATTDIA
 70
     0
  9
$ATTREQ
 70
     1
  9
$BLIPMODE
 70
     1
  9
$COORDS
 70
     1
  9
$DRAGMODE
 70
     2
  9
$OSMODE
 70
     0
  9
$HANDLING
 70
     0
  9
$HANDSEED
  5
11A45
  0
ENDSEC
  0
SECTION
  2
TABLES
  0
TABLE
  2
LTYPE
 70
     2
  0
LTYPE
  2
CONTINUOUS
 70
     0
  3
実線
 72
    65
 73
     0
 40
0.0
  0
LTYPE
  2
DASHDOT
 70
     0
  3
____ _ ____ _ ____ _ ____ _ ____ _ ____ _ ____
 72
    65
 73
     4
 40
5.5
 49
4.0
 49
-0.6
 49
0.3
 49
-0.6
  0
ENDTAB
  0
TABLE
  2
LAYER
 70
    12
  0
LAYER
  2
0
 70
     0
 62
     7
  6
CONTINUOUS
  0
LAYER
  2
BASIS
 70
     0
 62
     6
  6
DASHDOT
  0
LAYER
  2
OUTLINE
 70
     0
 62
     3
  6
CONTINUOUS
  0
LAYER
  2
DETAIL
 70
     0
 62
     5
  6
CONTINUOUS
  0
LAYER
  2
SIZE
 70
     0
 62
    30
  6
CONTINUOUS
  0
LAYER
  2
ARRANGE
 70
     0
 62
     1
  6
CONTINUOUS
  0
LAYER
  2
DEFPOINTS
 70
     0
 62
     7
  6
CONTINUOUS
  0
LAYER
  2
ETC
 70
     0
 62
    61
  6
CONTINUOUS
  0
LAYER
  2
FIX
 70
     0
 62
    11
  6
CONTINUOUS
  0
LAYER
  2
NOTE
 70
     0
 62
     4
  6
CONTINUOUS
  0
LAYER
  2
SERVICESPACE
 70
    64
 62
     2
  6
DASHDOT
  0
LAYER
  2
SYMBOLLINE
 70
    64
 62
    15
  6
CONTINUOUS
  0
ENDTAB
  0
TABLE
  2
STYLE
 70
     1
  0
STYLE
  2
STANDARD
 70
     0
 40
64.0
 41
0.9
 50
0.0
 71
     0
 42
64.0
  3
SIMPLEX.shx
  4
BIGFONT.shx
  0
ENDTAB
  0
TABLE
  2
APPID
 70
    19
  0
APPID
  2
ACAD
 70
     0
  0
APPID
  2
AUTOCAD_POSTSCRIPT_FIGURE
 70
     0
  0
APPID
  2
ACAD_EXEMPT_FROM_CAD_STANDARDS
 70
     0
  0
APPID
  2
ACAD_PSEXT
 70
     0
  0
APPID
  2
ACAUTHENVIRON
 70
     0
  0
APPID
  2
GENIUS_GENOENT_13
 70
     0
  0
APPID
  2
GENIUS_GENCFG_13
 70
     0
  0
APPID
  2
GENIUS_GENCFG0_13
 70
     0
  0
APPID
  2
GENIUS_GENCFG1_13
 70
     0
  0
APPID
  2
GENIUS_GENCFG2_13
 70
     0
  0
APPID
  2
GENIUS_GENCFG3_13
 70
     0
  0
APPID
  2
GENIUS_GENCFG4_13
 70
     0
  0
APPID
  2
GENIUS_GEVCFG0_13
 70
     0
  0
APPID
  2
CONTENTBLOCKICON
 70
     0
  0
APPID
  2
CONTENTBLOCKDESCRIPTION
 70
     0
  0
APPID
  2
ACAD_NAV_VCDISPLAY
 70
     0
  0
APPID
  2
ACAD_MLEADERVER
 70
     0
  0
APPID
  2
ACDBDYNAMICBLOCKTRUENAME
 70
     0
  0
APPID
  2
ACDBDYNAMICBLOCKGUID
 70
     0
  0
ENDTAB
  0
TABLE
  2
DIMSTYLE
 70
     1
  0
DIMSTYLE
  2
STANDARD
 70
     0
  3

  4

  5
_ORIGIN
  6

  7

 40
1.0
 41
12.0
 42
20.0
 43
200.0
 44
20.0
 45
0.0
 46
0.0
 47
0.0
 48
0.0
140
64.0
141
0.09
142
0.0
143
25.399999999999999
144
1.0
145
0.0
146
1.0
147
25.0
 71
     0
 72
     0
 73
     0
 74
     0
 75
     0
 76
     0
 77
     1
 78
     8
170
     0
171
     2
172
     1
173
     0
174
     1
175
     0
176
     7
177
     7
178
     7
  0
ENDTAB
  0
TABLE
  2
VIEW
 70
     1
  0
VIEW
  2
ALL
 70
     0
 40
4282.6198079999986
 10
0.0
 20
41.309904000000003
 41
5940.0
 11
0.0
 21
0.0
 31
1.0
 12
0.0
 22
0.0
 32
0.0
 42
50.0
 43
0.0
 44
0.0
 50
0.0
 71
     0
  0
ENDTAB
  0
TABLE
  2
UCS
 70
     0
  0
ENDTAB
  0
TABLE
  2
VPORT
 70
     1
  0
VPORT
  2
*ACTIVE
 70
     0
 10
0.0
 20
0.0
 11
1.0
 21
1.0
 12
260.58198434833957
 22
76.744089458072267
 13
0.0
 23
0.0
 14
1.0
 24
1.0
 15
0.0
 25
0.0
 16
0.0
 26
0.0
 36
1.0
 17
0.0
 27
0.0
 37
0.0
 40
1124.1181058211359
 41
1.747787610619469
 42
50.0
 43
0.0
 44
0.0
 50
0.0
 51
0.0
 71
     0
 72
  1000
 73
     1
 74
     3
 75
     0
 76
     0
 77
     0
 78
     0
  0
ENDTAB
  0
ENDSEC
  0
SECTION
  2
BLOCKS
  0
BLOCK
  8
0
  2
_ORIGIN
 70
     0
 10
0.0
 20
0.0
 30
0.0
  3
_ORIGIN
  1
_ORIGIN
  0
CIRCLE
  8
0
  6
CONTINUOUS
 62
     7
 10
0.0
 20
0.0
 30
0.0
 40
0.5
  0
LINE
  8
0
  6
CONTINUOUS
 62
     7
 10
0.0
 20
0.0
 30
0.0
 11
-1.0
 21
0.0
 31
0.0
  0
ENDBLK
  8
0
  0
ENDSEC
  0
SECTION
  2
ENTITIES
  0
POINT
  8
ARRANGE
  6
CONTINUOUS
 62
     1
 10
0.0
 20
0.0
 30
0.0
  0
CIRCLE
  8
ARRANGE
  6
CONTINUOUS
 62
     1
 10
0.0
 20
0.0
 30
0.0
 40
40.0
  0
TEXT
  8
ETC
  6
CONTINUOUS
 62
    61
 10
323.62403950792208
 20
571.06627462735128
 30
0.0
 40
64.0
  1
EWF-40ETA2-HQ_6
 41
0.9
  0
TEXT
  8
ETC
  6
CONTINUOUS
 62
    61
 10
319.43804550792169
 20
453.11096461252009
 30
0.0
 40
64.0
  1
産業扇
 41
0.9
  0
LINE
  8
BASIS
  6
DASHDOT
 62
     6
 10
0.0
 20
-324.45650924310991
 30
0.0
 11
0.0
 21
97.92573098394746
 31
0.0
  0
LINE
  8
BASIS
  6
DASHDOT
 62
     6
 10
291.54466578190591
 20
0.0
 30
0.0
 11
-291.54466578190602
 21
0.0
 31
0.0
  0
TEXT
  8
ETC
  6
CONTINUOUS
 62
    61
 10
370.1394437564777
 20
344.9621917262948
 30
0.0
 40
40.0
  1
EWF-40ETA2-HQ
 41
0.9
  0
LINE
  8
NOTE
  6
CONTINUOUS
 62
     4
 10
-230.09188964694539
 20
-76.396141953386291
 30
0.0
 11
-230.09188964694539
 21
42.551185475438842
 31
0.0
  0
LINE
  8
NOTE
  6
CONTINUOUS
 62
     4
 10
230.09188964694511
 20
-76.396141953386291
 30
0.0
 11
230.09188964694511
 21
42.551185475438842
 31
0.0
  0
CIRCLE
  8
FIX
  6
CONTINUOUS
 62
    11
 10
-230.09188964694539
 20
0.0
 30
0.0
 40
9.8378378699999995
  0
CIRCLE
  8
FIX
  6
CONTINUOUS
 62
    11
 10
230.09188964694511
 20
0.0
 30
0.0
 40
9.8378378699999995
  0
LINE
  8
SIZE
  6
CONTINUOUS
 62
    30
 10
-230.09188964694539
 20
62.551185475438842
 30
0.0
 11
-230.09188964694539
 21
190.40822704203859
 31
0.0
  0
LINE
  8
SIZE
  6
CONTINUOUS
 62
    30
 10
230.09188964694511
 20
62.551185475438842
 30
0.0
 11
230.09188964694511
 21
190.40822704203859
 31
0.0
  0
LINE
  8
SIZE
  6
CONTINUOUS
 62
    30
 10
-218.09188964694539
 20
170.40822704203859
 30
0.0
 11
218.09188964694511
 21
170.40822704203859
 31
0.0
  0
CIRCLE
  8
SIZE
  6
CONTINUOUS
 62
    30
 10
-230.09188964694539
 20
170.40822704203859
 30
0.0
 40
6.0
  0
LINE
  8
SIZE
  6
CONTINUOUS
 62
    30
 10
-230.09188964694539
 20
170.40822704203859
 30
0.0
 11
-218.09188964694539
 21
170.40822704203859
 31
0.0
  0
CIRCLE
  8
SIZE
  6
CONTINUOUS
 62
    30
 10
230.09188964694511
 20
170.40822704203859
 30
0.0
 40
6.0
  0
LINE
  8
SIZE
  6
CONTINUOUS
 62
    30
 10
230.09188964694511
 20
170.40822704203859
 30
0.0
 11
218.09188964694511
 21
170.40822704203859
 31
0.0
  0
TEXT
  8
SIZE
  6
CONTINUOUS
 62
    30
 10
-74.057142857142964
 20
195.40822704203859
 30
0.0
 40
64.0
  1
460
 41
0.9
 72
     1
 11
-0.0000000000001137
 21
195.40822704203859
 31
0.0
  0
POINT
  8
DEFPOINTS
  6
CONTINUOUS
 62
    30
 10
-230.09188964694539
 20
42.551185475438842
 30
0.0
  0
POINT
  8
DEFPOINTS
  6
CONTINUOUS
 62
    30
 10
230.09188964694511
 20
42.551185475438842
 30
0.0
  0
POINT
  8
DEFPOINTS
  6
CONTINUOUS
 62
    30
 10
230.09188964694511
 20
170.40822704203859
 30
0.0
  0
LINE
  8
SIZE
  6
CONTINUOUS
 62
    30
 10
-259.99999748318612
 20
18.497109826589739
 30
0.0
 11
-259.99999748318612
 21
325.72685441009889
 31
0.0
  0
LINE
  8
SIZE
  6
CONTINUOUS
 62
    30
 10
259.99999748318578
 20
18.512779850279909
 30
0.0
 11
259.99999748318578
 21
325.72685441009889
 31
0.0
  0
LINE
  8
SIZE
  6
CONTINUOUS
 62
    30
 10
-247.99999748318609
 20
305.72685441009889
 30
0.0
 11
247.99999748318581
 21
305.72685441009889
 31
0.0
  0
CIRCLE
  8
SIZE
  6
CONTINUOUS
 62
    30
 10
-259.99999748318612
 20
305.72685441009889
 30
0.0
 40
6.0
  0
LINE
  8
SIZE
  6
CONTINUOUS
 62
    30
 10
-259.99999748318612
 20
305.72685441009889
 30
0.0
 11
-247.99999748318609
 21
305.72685441009889
 31
0.0
  0
CIRCLE
  8
SIZE
  6
CONTINUOUS
 62
    30
 10
259.99999748318578
 20
305.72685441009889
 30
0.0
 40
6.0
  0
LINE
  8
SIZE
  6
CONTINUOUS
 62
    30
 10
259.99999748318578
 20
305.72685441009889
 30
0.0
 11
247.99999748318581
 21
305.72685441009889
 31
0.0
  0
TEXT
  8
SIZE
  6
CONTINUOUS
 62
    30
 10
-73.78608300782426
 20
330.72685441009889
 30
0.0
 40
64.0
  1
520
 41
0.9
 72
     1
 11
0.2710598493185898
 21
330.72685441009889
 31
0.0
  0
POINT
  8
DEFPOINTS
  6
CONTINUOUS
 62
    30
 10
-259.99999748318612
 20
-1.5028901734102651
 30
0.0
  0
POINT
  8
DEFPOINTS
  6
CONTINUOUS
 62
    30
 10
259.99999748318578
 20
-1.4872201497200881
 30
0.0
  0
POINT
  8
DEFPOINTS
  6
CONTINUOUS
 62
    30
 10
259.99999748318578
 20
305.72685441009889
 30
0.0
  0
LINE
  8
SIZE
  6
CONTINUOUS
 62
    30
 10
-20.0
 20
-308.19267822736037
 30
0.0
 11
-423.13208100687098
 21
-308.19267822736032
 31
0.0
  0
LINE
  8
SIZE
  6
CONTINUOUS
 62
    30
 10
-311.54466578190602
 20
0.0
 30
0.0
 11
-423.13208100687098
 21
0.0000000000000568
 31
0.0
  0
LINE
  8
SIZE
  6
CONTINUOUS
 62
    30
 10
-403.13208100687098
 20
-296.19267822736032
 30
0.0
 11
-403.13208100687098
 21
-12.0
 31
0.0
  0
CIRCLE
  8
SIZE
  6
CONTINUOUS
 62
    30
 10
-403.13208100687098
 20
-308.19267822736032
 30
0.0
 40
6.0
  0
LINE
  8
SIZE
  6
CONTINUOUS
 62
    30
 10
-403.13208100687098
 20
-308.19267822736032
 30
0.0
 11
-403.13208100687098
 21
-296.19267822736032
 31
0.0
  0
CIRCLE
  8
SIZE
  6
CONTINUOUS
 62
    30
 10
-403.13208100687098
 20
0.0
 30
0.0
 40
6.0
  0
LINE
  8
SIZE
  6
CONTINUOUS
 62
    30
 10
-403.13208100687098
 20
0.0
 30
0.0
 11
-403.13208100687098
 21
-12.0
 31
0.0
  0
TEXT
  8
SIZE
  6
CONTINUOUS
 62
    30
 10
-428.13208100687098
 20
-228.15348197082301
 30
0.0
 40
64.0
  1
308
 50
90.0
 41
0.9
 72
     1
 11
-428.13208100687098
 21
-154.09633911368019
 31
0.0
  0
POINT
  8
DEFPOINTS
  6
CONTINUOUS
 62
    30
 10
0.0
 20
-308.19267822736037
 30
0.0
  0
POINT
  8
DEFPOINTS
  6
CONTINUOUS
 62
    30
 10
-291.54466578190602
 20
0.0
 30
0.0
  0
POINT
  8
DEFPOINTS
  6
CONTINUOUS
 62
    30
 10
-403.13208100687098
 20
0.0
 30
0.0
  0
LINE
  8
SIZE
  6
CONTINUOUS
 62
    30
 10
311.54466578190591
 20
0.0
 30
0.0
 11
414.88033573669122
 21
0.0
 31
0.0
  0
LINE
  8
SIZE
  6
CONTINUOUS
 62
    30
 10
273.38728323699428
 20
-10.019267822736079
 30
0.0
 11
414.88033573669122
 21
-10.01926782273614
 31
0.0
  0
LINE
  8
SIZE
  6
CONTINUOUS
 62
    30
 10
394.88033573669122
 20
-22.01926782273614
 30
0.0
 11
394.88033573669122
 21
-34.019267822736083
 31
0.0
  0
LINE
  8
SIZE
  6
CONTINUOUS
 62
    30
 10
394.88033573669122
 20
12.0
 30
0.0
 11
394.88033573669128
 21
156.28571428571419
 31
0.0
  0
LINE
  8
SIZE
  6
CONTINUOUS
 62
    30
 10
394.88033573669122
 20
-10.019267822736079
 30
0.0
 11
394.88033573669122
 21
0.0
 31
0.0
  0
CIRCLE
  8
SIZE
  6
CONTINUOUS
 62
    30
 10
394.88033573669122
 20
-10.019267822736079
 30
0.0
 40
6.0
  0
LINE
  8
SIZE
  6
CONTINUOUS
 62
    30
 10
394.88033573669122
 20
-10.019267822736079
 30
0.0
 11
394.88033573669122
 21
-22.01926782273614
 31
0.0
  0
CIRCLE
  8
SIZE
  6
CONTINUOUS
 62
    30
 10
394.88033573669122
 20
0.0
 30
0.0
 40
6.0
  0
LINE
  8
SIZE
  6
CONTINUOUS
 62
    30
 10
394.88033573669122
 20
0.0
 30
0.0
 11
394.88033573669122
 21
12.0
 31
0.0
  0
TEXT
  8
SIZE
  6
CONTINUOUS
 62
    30
 10
369.88033573669122
 20
49.000000000000092
 30
0.0
 40
64.0
  1
10
 50
90.0
 41
0.9
 72
     1
 11
369.88033573669122
 21
90.142857142857224
 31
0.0
  0
POINT
  8
DEFPOINTS
  6
CONTINUOUS
 62
    30
 10
291.54466578190591
 20
0.0
 30
0.0
  0
POINT
  8
DEFPOINTS
  6
CONTINUOUS
 62
    30
 10
253.38728323699431
 20
-10.019267822736079
 30
0.0
  0
POINT
  8
DEFPOINTS
  6
CONTINUOUS
 62
    30
 10
394.88033573669122
 20
-10.019267822736079
 30
0.0
  0
LINE
  8
SIZE
  6
CONTINUOUS
 62
    30
 10
273.38728323699428
 20
-10.01926782273563
 30
0.0
 11
414.88033573669122
 21
-10.01926782273569
 31
0.0
  0
LINE
  8
SIZE
  6
CONTINUOUS
 62
    30
 10
263.36801541425831
 20
-20.038535645471939
 30
0.0
 11
414.88033573669122
 21
-20.038535645471999
 31
0.0
  0
LINE
  8
SIZE
  6
CONTINUOUS
 62
    30
 10
394.88033573669122
 20
1.9807321772643149
 30
0.0
 11
394.88033573669122
 21
13.98073217726431
 31
0.0
  0
LINE
  8
SIZE
  6
CONTINUOUS
 62
    30
 10
394.88033573669122
 20
-32.038535645472002
 30
0.0
 11
394.88033573669122
 21
-261.26419398949741
 31
0.0
  0
LINE
  8
SIZE
  6
CONTINUOUS
 62
    30
 10
394.88033573669122
 20
-10.01926782273569
 30
0.0
 11
394.88033573669122
 21
-20.038535645471999
 31
0.0
  0
CIRCLE
  8
SIZE
  6
CONTINUOUS
 62
    30
 10
394.88033573669122
 20
-10.01926782273569
 30
0.0
 40
6.0
  0
LINE
  8
SIZE
  6
CONTINUOUS
 62
    30
 10
394.88033573669122
 20
-10.01926782273569
 30
0.0
 11
394.88033573669122
 21
1.9807321772643149
 31
0.0
  0
CIRCLE
  8
SIZE
  6
CONTINUOUS
 62
    30
 10
394.88033573669122
 20
-20.038535645471999
 30
0.0
 40
6.0
  0
LINE
  8
SIZE
  6
CONTINUOUS
 62
    30
 10
394.88033573669122
 20
-20.038535645471999
 30
0.0
 11
394.88033573669122
 21
-32.038535645472002
 31
0.0
  0
TEXT
  8
SIZE
  6
CONTINUOUS
 62
    30
 10
369.88033573669122
 20
-236.26419398949719
 30
0.0
 40
64.0
  1
10
 50
90.0
 41
0.9
 72
     1
 11
369.88033573669122
 21
-195.12133684664011
 31
0.0
  0
POINT
  8
DEFPOINTS
  6
CONTINUOUS
 62
    30
 10
253.38728323699431
 20
-10.01926782273563
 30
0.0
  0
POINT
  8
DEFPOINTS
  6
CONTINUOUS
 62
    30
 10
243.36801541425831
 20
-20.038535645471939
 30
0.0
  0
POINT
  8
DEFPOINTS
  6
CONTINUOUS
 62
    30
 10
394.88033573669122
 20
-20.038535645471999
 30
0.0
  0
LINE
  8
SIZE
  6
CONTINUOUS
 62
    30
 10
311.54466578190591
 20
0.0
 30
0.0
 11
581.3356046717372
 21
-0.0000000000001137
 31
0.0
  0
LINE
  8
SIZE
  6
CONTINUOUS
 62
    30
 10
229.80346820809251
 20
-135.26011560693641
 30
0.0
 11
581.3356046717372
 21
-135.26011560693661
 31
0.0
  0
LINE
  8
SIZE
  6
CONTINUOUS
 62
    30
 10
561.3356046717372
 20
-12.00000000000011
 30
0.0
 11
561.3356046717372
 21
-123.26011560693649
 31
0.0
  0
LINE
  8
SIZE
  6
CONTINUOUS
 62
    30
 10
561.3356046717372
 20
-135.26011560693649
 30
0.0
 11
561.33560467173709
 21
-335.77440132122229
 31
0.0
  0
CIRCLE
  8
SIZE
  6
CONTINUOUS
 62
    30
 10
561.3356046717372
 20
-0.0000000000000568
 30
0.0
 40
6.0
  0
LINE
  8
SIZE
  6
CONTINUOUS
 62
    30
 10
561.3356046717372
 20
-0.0000000000000568
 30
0.0
 11
561.3356046717372
 21
-12.00000000000006
 31
0.0
  0
CIRCLE
  8
SIZE
  6
CONTINUOUS
 62
    30
 10
561.3356046717372
 20
-135.26011560693649
 30
0.0
 40
6.0
  0
LINE
  8
SIZE
  6
CONTINUOUS
 62
    30
 10
561.3356046717372
 20
-135.26011560693649
 30
0.0
 11
561.3356046717372
 21
-123.26011560693649
 31
0.0
  0
TEXT
  8
SIZE
  6
CONTINUOUS
 62
    30
 10
536.3356046717372
 20
-310.77440132122217
 30
0.0
 40
64.0
  1
135
 50
90.0
 41
0.9
 72
     1
 11
536.3356046717372
 21
-242.20297274979359
 31
0.0
  0
POINT
  8
DEFPOINTS
  6
CONTINUOUS
 62
    30
 10
291.54466578190591
 20
0.0
 30
0.0
  0
POINT
  8
DEFPOINTS
  6
CONTINUOUS
 62
    30
 10
209.80346820809251
 20
-135.26011560693641
 30
0.0
  0
POINT
  8
DEFPOINTS
  6
CONTINUOUS
 62
    30
 10
561.3356046717372
 20
-135.26011560693649
 30
0.0
  0
TEXT
  8
NOTE
  6
CONTINUOUS
 62
     4
 10
-606.05292975713542
 20
123.31061913890819
 30
0.0
 40
64.0
  1
4-φ14
 41
0.9
  0
LINE
  8
DETAIL
  6
CONTINUOUS
 62
     4
 10
-232.39364927986031
 20
5.7694542100863373
 30
0.0
 11
-230.0918896469453
 21
0.0
 31
0.0
  0
LINE
  8
DETAIL
  6
CONTINUOUS
 62
     4
 10
-230.0918896469453
 20
0.0
 30
0.0
 11
-234.97000486261689
 21
3.8456067444075188
 31
0.0
  0
LINE
  8
DETAIL
  6
CONTINUOUS
 62
     4
 10
-230.0918896469453
 20
0.0
 30
0.0
 11
-237.27176449553201
 21
9.6150609544938561
 31
0.0
  0
LINE
  8
NOTE
  6
CONTINUOUS
 62
     4
 10
-237.27176449553201
 20
9.6150609544938561
 30
0.0
 11
-297.51007261427827
 21
90.284294969254006
 31
0.0
  0
LINE
  8
NOTE
  6
CONTINUOUS
 62
     4
 10
-297.51007261427827
 20
90.284294969254006
 30
0.0
 11
-606.05292975713542
 21
90.284294969254006
 31
0.0
  0
LINE
  8
SIZE
  6
CONTINUOUS
 62
    30
 10
-65.325626204238688
 20
-318.67437379576108
 30
0.0
 11
-65.325626204238688
 21
-481.39911396762818
 31
0.0
  0
LINE
  8
SIZE
  6
CONTINUOUS
 62
    30
 10
65.325626204239143
 20
-318.67437379576108
 30
0.0
 11
65.325626204239143
 21
-481.39911396762818
 31
0.0
  0
LINE
  8
SIZE
  6
CONTINUOUS
 62
    30
 10
53.325626204239143
 20
-461.39911396762818
 30
0.0
 11
-53.325626204238688
 21
-461.39911396762818
 31
0.0
  0
LINE
  8
SIZE
  6
CONTINUOUS
 62
    30
 10
-65.325626204238688
 20
-461.39911396762818
 30
0.0
 11
-359.3683299691487
 21
-461.39911396762818
 31
0.0
  0
CIRCLE
  8
SIZE
  6
CONTINUOUS
 62
    30
 10
65.325626204239143
 20
-461.39911396762818
 30
0.0
 40
6.0
  0
LINE
  8
SIZE
  6
CONTINUOUS
 62
    30
 10
65.325626204239143
 20
-461.39911396762818
 30
0.0
 11
53.325626204239143
 21
-461.39911396762818
 31
0.0
  0
CIRCLE
  8
SIZE
  6
CONTINUOUS
 62
    30
 10
-65.325626204238688
 20
-461.39911396762818
 30
0.0
 40
6.0
  0
LINE
  8
SIZE
  6
CONTINUOUS
 62
    30
 10
-65.325626204238688
 20
-461.39911396762818
 30
0.0
 11
-53.325626204238688
 21
-461.39911396762818
 31
0.0
  0
TEXT
  8
SIZE
  6
CONTINUOUS
 62
    30
 10
-344.51690139772012
 20
-425.73244730096172
 30
0.0
 40
64.0
  1
φ131
 41
0.9
 72
     1
 11
-247.9683299691487
 21
-425.73244730096172
 31
0.0
  0
POINT
  8
DEFPOINTS
  6
CONTINUOUS
 62
    30
 10
-65.325626204238688
 20
-298.67437379576108
 30
0.0
  0
POINT
  8
DEFPOINTS
  6
CONTINUOUS
 62
    30
 10
65.325626204239143
 20
-298.67437379576108
 30
0.0
  0
POINT
  8
DEFPOINTS
  6
CONTINUOUS
 62
    30
 10
65.325626204239143
 20
-461.39911396762818
 30
0.0
  0
ARC
  8
OUTLINE
  6
CONTINUOUS
 62
     3
 10
258.49710982658962
 20
-1.5028901734103779
 30
0.0
 40
1.5028901734103779
 50
270.0
 51
90.0
  0
ARC
  8
OUTLINE
  6
CONTINUOUS
 62
     3
 10
253.38728323699391
 20
-6.4123314065509476
 30
0.0
 40
3.606936416184908
 50
270.0
 51
0.0
  0
ARC
  8
OUTLINE
  6
CONTINUOUS
 62
     3
 10
243.368015414258
 20
-16.431599229287031
 30
0.0
 40
3.606936416184908
 50
270.0
 51
0.0
  0
ARC
  8
OUTLINE
  6
CONTINUOUS
 62
     3
 10
58.312138728323589
 20
-298.6743737957612
 30
0.0
 40
7.0134874759152126
 50
270.0
 51
0.0
  0
ARC
  8
OUTLINE
  6
CONTINUOUS
 62
     3
 10
-258.49710982658962
 20
-1.5028901734103779
 30
0.0
 40
1.5028901734103779
 50
90.0
 51
270.0
  0
ARC
  8
OUTLINE
  6
CONTINUOUS
 62
     3
 10
-253.38728323699459
 20
-6.4123314065509476
 30
0.0
 40
3.606936416184908
 50
180.0
 51
270.0
  0
ARC
  8
OUTLINE
  6
CONTINUOUS
 62
     3
 10
-243.36801541425831
 20
-16.431599229287031
 30
0.0
 40
3.6069364161851341
 50
180.0
 51
270.0
  0
ARC
  8
OUTLINE
  6
CONTINUOUS
 62
     3
 10
-58.312138728324037
 20
-298.6743737957612
 30
0.0
 40
7.0134874759149852
 50
180.0
 51
270.0
  0
LINE
  8
OUTLINE
  6
CONTINUOUS
 62
     3
 10
256.99421965317919
 20
-3.0057803468207571
 30
0.0
 11
256.99421965317919
 21
-6.4123314065509476
 31
0.0
  0
LINE
  8
OUTLINE
  6
CONTINUOUS
 62
     3
 10
246.9749518304429
 20
-13.894357252208239
 30
0.0
 11
246.9749518304429
 21
-16.431599229287031
 31
0.0
  0
LINE
  8
OUTLINE
  6
CONTINUOUS
 62
     3
 10
208.1263794302231
 20
-48.87613986628952
 30
0.0
 11
208.1263794302231
 21
-177.3410404624276
 31
0.0
  0
LINE
  8
OUTLINE
  6
CONTINUOUS
 62
     3
 10
258.49710982658962
 20
0.0
 30
0.0
 11
-258.49710982658962
 21
0.0
 31
0.0
  0
LINE
  8
OUTLINE
  6
CONTINUOUS
 62
     3
 10
258.49710982658962
 20
-3.0057803468207571
 30
0.0
 11
256.99421965317919
 21
-3.0057803468207571
 31
0.0
  0
LINE
  8
OUTLINE
  6
CONTINUOUS
 62
     3
 10
-250.1758680125117
 20
-10.019267822735859
 30
0.0
 11
-253.38728323699459
 21
-10.019267822735859
 31
0.0
  0
LINE
  8
OUTLINE
  6
CONTINUOUS
 62
     3
 10
253.38728323699391
 20
-10.019267822735859
 30
0.0
 11
250.1758680125113
 21
-10.019267822735859
 31
0.0
  0
LINE
  8
OUTLINE
  6
CONTINUOUS
 62
     3
 10
-232.0278508598021
 20
-20.038535645471939
 30
0.0
 11
-243.36801541425831
 21
-20.038535645471939
 31
0.0
  0
LINE
  8
OUTLINE
  6
CONTINUOUS
 62
     3
 10
243.368015414258
 20
-20.038535645471939
 30
0.0
 11
232.64004410279489
 21
-20.055931106723619
 31
0.0
  0
LINE
  8
OUTLINE
  6
CONTINUOUS
 62
     3
 10
89.672447013487272
 20
-283.54527938342972
 30
0.0
 11
89.672447013487272
 21
-279.53757225433537
 31
0.0
  0
LINE
  8
OUTLINE
  6
CONTINUOUS
 62
     3
 10
65.325626204238688
 20
-298.6743737957612
 30
0.0
 11
65.325626204238688
 21
-283.54527938342972
 31
0.0
  0
LINE
  8
OUTLINE
  6
CONTINUOUS
 62
     3
 10
-65.325626204238688
 20
-298.6743737957612
 30
0.0
 11
-65.325626204238688
 21
-283.54527938342972
 31
0.0
  0
LINE
  8
OUTLINE
  6
CONTINUOUS
 62
     3
 10
-89.672447013487698
 20
-283.54527938342972
 30
0.0
 11
-89.672447013487698
 21
-279.53757225433537
 31
0.0
  0
LINE
  8
OUTLINE
  6
CONTINUOUS
 62
     3
 10
89.672447013487272
 20
-279.53757225433537
 30
0.0
 11
135.86251878627721
 21
-279.53757225433537
 31
0.0
  0
LINE
  8
OUTLINE
  6
CONTINUOUS
 62
     3
 10
-135.86251878627721
 20
-279.53757225433537
 30
0.0
 11
-89.672447013487698
 21
-279.53757225433537
 31
0.0
  0
LINE
  8
OUTLINE
  6
CONTINUOUS
 62
     3
 10
89.672447013487272
 20
-283.54527938342972
 30
0.0
 11
65.325626204238688
 21
-283.54527938342972
 31
0.0
  0
LINE
  8
OUTLINE
  6
CONTINUOUS
 62
     3
 10
58.312138728323589
 20
-305.68786127167641
 30
0.0
 11
-58.312138728324037
 21
-305.68786127167641
 31
0.0
  0
LINE
  8
OUTLINE
  6
CONTINUOUS
 62
     3
 10
-208.1263794302231
 20
-177.3410404624276
 30
0.0
 11
-208.1263794302231
 21
-48.876139866290877
 31
0.0
  0
LINE
  8
OUTLINE
  6
CONTINUOUS
 62
     3
 10
-246.97495183044319
 20
-16.431599229287031
 30
0.0
 11
-246.97495183044319
 21
-13.894357252208239
 31
0.0
  0
LINE
  8
OUTLINE
  6
CONTINUOUS
 62
     3
 10
-256.99421965317919
 20
-6.4123314065509476
 30
0.0
 11
-256.99421965317919
 21
-3.0057803468207571
 31
0.0
  0
LINE
  8
OUTLINE
  6
CONTINUOUS
 62
     3
 10
-256.99421965317919
 20
-3.0057803468207571
 30
0.0
 11
-258.49710982658962
 21
-3.0057803468207571
 31
0.0
  0
LINE
  8
OUTLINE
  6
CONTINUOUS
 62
     3
 10
-65.325626204238688
 20
-283.54527938342972
 30
0.0
 11
-89.672447013487698
 21
-283.54527938342972
 31
0.0
  0
LINE
  8
DETAIL
  6
CONTINUOUS
 62
     5
 10
63.477000203588197
 20
-283.54527938342972
 30
0.0
 11
63.427401823114451
 21
-283.54474743701883
 31
0.0
  0
LINE
  8
DETAIL
  6
CONTINUOUS
 62
     5
 10
63.427401823114451
 20
-283.54474743701883
 30
0.0
 11
63.377806506023262
 21
-283.54372251850458
 31
0.0
  0
LINE
  8
DETAIL
  6
CONTINUOUS
 62
     5
 10
63.377806506023262
 20
-283.54372251850458
 30
0.0
 11
63.377806506023262
 21
-283.54372251850458
 31
0.0
  0
LINE
  8
DETAIL
  6
CONTINUOUS
 62
     5
 10
63.377806506023262
 20
-283.54372251850458
 30
0.0
 11
63.328219886664563
 21
-283.54181607756578
 31
0.0
  0
LINE
  8
DETAIL
  6
CONTINUOUS
 62
     5
 10
63.328219886664563
 20
-283.54181607756578
 30
0.0
 11
63.278657883243341
 21
-283.53905725101367
 31
0.0
  0
LINE
  8
DETAIL
  6
CONTINUOUS
 62
     5
 10
63.278657883243341
 20
-283.53905725101367
 30
0.0
 11
63.278657883243341
 21
-283.53905725101367
 31
0.0
  0
LINE
  8
DETAIL
  6
CONTINUOUS
 62
     5
 10
63.278657883243341
 20
-283.53905725101367
 30
0.0
 11
63.229137405305892
 21
-283.5355514594969
 31
0.0
  0
LINE
  8
DETAIL
  6
CONTINUOUS
 62
     5
 10
63.229137405305892
 20
-283.5355514594969
 30
0.0
 11
63.179669043902322
 21
-283.53129157188391
 31
0.0
  0
LINE
  8
DETAIL
  6
CONTINUOUS
 62
     5
 10
63.179669043902322
 20
-283.53129157188391
 30
0.0
 11
63.179669043902322
 21
-283.53129157188391
 31
0.0
  0
LINE
  8
DETAIL
  6
CONTINUOUS
 62
     5
 10
63.179669043902322
 20
-283.53129157188391
 30
0.0
 11
63.130265557990242
 21
-283.52625044909598
 31
0.0
  0
LINE
  8
DETAIL
  6
CONTINUOUS
 62
     5
 10
63.130265557990242
 20
-283.52625044909598
 30
0.0
 11
63.080954696655233
 21
-283.52043347204147
 31
0.0
  0
LINE
  8
DETAIL
  6
CONTINUOUS
 62
     5
 10
63.080954696655233
 20
-283.52043347204147
 30
0.0
 11
63.080954696655233
 21
-283.52043347204147
 31
0.0
  0
LINE
  8
DETAIL
  6
CONTINUOUS
 62
     5
 10
63.080954696655233
 20
-283.52043347204147
 30
0.0
 11
63.031754546010689
 21
-283.51384976958389
 31
0.0
  0
LINE
  8
DETAIL
  6
CONTINUOUS
 62
     5
 10
63.031754546010689
 20
-283.51384976958389
 30
0.0
 11
62.982629550155927
 21
-283.50649094241368
 31
0.0
  0
LINE
  8
DETAIL
  6
CONTINUOUS
 62
     5
 10
62.982629550155927
 20
-283.50649094241368
 30
0.0
 11
62.982629550155927
 21
-283.50649094241368
 31
0.0
  0
LINE
  8
DETAIL
  6
CONTINUOUS
 62
     5
 10
62.982629550155927
 20
-283.50649094241368
 30
0.0
 11
62.933551611872417
 21
-283.49834844277348
 31
0.0
  0
LINE
  8
DETAIL
  6
CONTINUOUS
 62
     5
 10
62.933551611872417
 20
-283.49834844277348
 30
0.0
 11
62.884576110687021
 21
-283.48943065728798
 31
0.0
  0
LINE
  8
DETAIL
  6
CONTINUOUS
 62
     5
 10
62.884576110687021
 20
-283.48943065728798
 30
0.0
 11
62.884576110687021
 21
-283.48943065728798
 31
0.0
  0
LINE
  8
DETAIL
  6
CONTINUOUS
 62
     5
 10
62.884576110687021
 20
-283.48943065728798
 30
0.0
 11
62.835764678035503
 21
-283.47974776813669
 31
0.0
  0
LINE
  8
DETAIL
  6
CONTINUOUS
 62
     5
 10
62.835764678035503
 20
-283.47974776813669
 30
0.0
 11
62.787120476243899
 21
-283.46930020533972
 31
0.0
  0
LINE
  8
DETAIL
  6
CONTINUOUS
 62
     5
 10
62.787120476243899
 20
-283.46930020533972
 30
0.0
 11
62.787120476243899
 21
-283.46930020533972
 31
0.0
  0
LINE
  8
DETAIL
  6
CONTINUOUS
 62
     5
 10
62.787120476243899
 20
-283.46930020533972
 30
0.0
 11
62.738640329876937
 21
-283.45808811656241
 31
0.0
  0
LINE
  8
DETAIL
  6
CONTINUOUS
 62
     5
 10
62.738640329876937
 20
-283.45808811656241
 30
0.0
 11
62.690354181555449
 21
-283.44612027220933
 31
0.0
  0
LINE
  8
DETAIL
  6
CONTINUOUS
 62
     5
 10
62.690354181555449
 20
-283.44612027220933
 30
0.0
 11
62.690354181555449
 21
-283.44612027220933
 31
0.0
  0
LINE
  8
DETAIL
  6
CONTINUOUS
 62
     5
 10
62.690354181555449
 20
-283.44612027220933
 30
0.0
 11
62.642281752635199
 21
-283.43340141367003
 31
0.0
  0
LINE
  8
DETAIL
  6
CONTINUOUS
 62
     5
 10
62.642281752635199
 20
-283.43340141367003
 30
0.0
 11
62.594368761348733
 21
-283.41991154353741
 31
0.0
  0
LINE
  8
DETAIL
  6
CONTINUOUS
 62
     5
 10
62.594368761348733
 20
-283.41991154353741
 30
0.0
 11
62.594368761348733
 21
-283.41991154353741
 31
0.0
  0
LINE
  8
DETAIL
  6
CONTINUOUS
 62
     5
 10
62.594368761348733
 20
-283.41991154353741
 30
0.0
 11
62.546608148755922
 21
-283.40564706281617
 31
0.0
  0
LINE
  8
DETAIL
  6
CONTINUOUS
 62
     5
 10
62.546608148755922
 20
-283.40564706281617
 30
0.0
 11
62.499255750351949
 21
-283.39069470496418
 31
0.0
  0
LINE
  8
DETAIL
  6
CONTINUOUS
 62
     5
 10
62.499255750351949
 20
-283.39069470496418
 30
0.0
 11
62.499255750351949
 21
-283.39069470496418
 31
0.0
  0
LINE
  8
DETAIL
  6
CONTINUOUS
 62
     5
 10
62.499255750351949
 20
-283.39069470496418
 30
0.0
 11
62.452529397992294
 21
-283.37513045034677
 31
0.0
  0
LINE
  8
DETAIL
  6
CONTINUOUS
 62
     5
 10
62.452529397992294
 20
-283.37513045034677
 30
0.0
 11
62.406232014541267
 21
-283.35889693450281
 31
0.0
  0
LINE
  8
DETAIL
  6
CONTINUOUS
 62
     5
 10
62.406232014541267
 20
-283.35889693450281
 30
0.0
 11
62.406232014541267
 21
-283.35889693450281
 31
0.0
  0
LINE
  8
DETAIL
  6
CONTINUOUS
 62
     5
 10
62.406232014541267
 20
-283.35889693450281
 30
0.0
 11
62.360127802062827
 21
-283.34192295161392
 31
0.0
  0
LINE
  8
DETAIL
  6
CONTINUOUS
 62
     5
 10
62.360127802062827
 20
-283.34192295161392
 30
0.0
 11
62.314240988410567
 21
-283.32421527525003
 31
0.0
  0
LINE
  8
DETAIL
  6
CONTINUOUS
 62
     5
 10
62.314240988410567
 20
-283.32421527525003
 30
0.0
 11
62.314240988410567
 21
-283.32421527525003
 31
0.0
  0
LINE
  8
DETAIL
  6
CONTINUOUS
 62
     5
 10
62.314240988410567
 20
-283.32421527525003
 30
0.0
 11
62.268648052854132
 21
-283.30579742556279
 31
0.0
  0
LINE
  8
DETAIL
  6
CONTINUOUS
 62
     5
 10
62.268648052854132
 20
-283.30579742556279
 30
0.0
 11
62.223374454534003
 21
-283.28668192964182
 31
0.0
  0
LINE
  8
DETAIL
  6
CONTINUOUS
 62
     5
 10
62.223374454534003
 20
-283.28668192964182
 30
0.0
 11
62.223374454534003
 21
-283.28668192964182
 31
0.0
  0
LINE
  8
DETAIL
  6
CONTINUOUS
 62
     5
 10
62.223374454534003
 20
-283.28668192964182
 30
0.0
 11
62.17841891123885
 21
-283.26687006452568
 31
0.0
  0
LINE
  8
DETAIL
  6
CONTINUOUS
 62
     5
 10
62.17841891123885
 20
-283.26687006452568
 30
0.0
 11
62.133724195485911
 21
-283.24632910011331
 31
0.0
  0
LINE
  8
DETAIL
  6
CONTINUOUS
 62
     5
 10
62.133724195485911
 20
-283.24632910011331
 30
0.0
 11
62.133724195485911
 21
-283.24632910011331
 31
0.0
  0
LINE
  8
DETAIL
  6
CONTINUOUS
 62
     5
 10
62.133724195485911
 20
-283.24632910011331
 30
0.0
 11
62.089287793779476
 21
-283.22505455992331
 31
0.0
  0
LINE
  8
DETAIL
  6
CONTINUOUS
 62
     5
 10
62.089287793779476
 20
-283.22505455992331
 30
0.0
 11
62.045381993841367
 21
-283.2031889890992
 31
0.0
  0
LINE
  8
DETAIL
  6
CONTINUOUS
 62
     5
 10
62.045381993841367
 20
-283.2031889890992
 30
0.0
 11
62.045381993841367
 21
-283.2031889890992
 31
0.0
  0
LINE
  8
DETAIL
  6
CONTINUOUS
 62
     5
 10
62.045381993841367
 20
-283.2031889890992
 30
0.0
 11
62.002236543513391
 21
-283.18085542775287
 31
0.0
  0
LINE
  8
DETAIL
  6
CONTINUOUS
 62
     5
 10
62.002236543513391
 20
-283.18085542775287
 30
0.0
 11
61.959636229890293
 21
-283.15795187424868
 31
0.0
  0
LINE
  8
DETAIL
  6
CONTINUOUS
 62
     5
 10
61.959636229890293
 20
-283.15795187424868
 30
0.0
 11
61.959636229890293
 21
-283.15795187424868
 31
0.0
  0
LINE
  8
DETAIL
  6
CONTINUOUS
 62
     5
 10
61.959636229890293
 20
-283.15795187424868
 30
0.0
 11
61.917325807422912
 21
-283.13435465983639
 31
0.0
  0
LINE
  8
DETAIL
  6
CONTINUOUS
 62
     5
 10
61.917325807422912
 20
-283.13435465983639
 30
0.0
 11
61.87533486071834
 21
-283.11007848905689
 31
0.0
  0
LINE
  8
DETAIL
  6
CONTINUOUS
 62
     5
 10
61.87533486071834
 20
-283.11007848905689
 30
0.0
 11
61.87533486071834
 21
-283.11007848905689
 31
0.0
  0
LINE
  8
DETAIL
  6
CONTINUOUS
 62
     5
 10
61.87533486071834
 20
-283.11007848905689
 30
0.0
 11
61.833744992967013
 21
-283.08516330749347
 31
0.0
  0
LINE
  8
DETAIL
  6
CONTINUOUS
 62
     5
 10
61.833744992967013
 20
-283.08516330749347
 30
0.0
 11
61.792561051531273
 21
-283.05961165160431
 31
0.0
  0
LINE
  8
DETAIL
  6
CONTINUOUS
 62
     5
 10
61.792561051531273
 20
-283.05961165160431
 30
0.0
 11
61.792561051531273
 21
-283.05961165160431
 31
0.0
  0
LINE
  8
DETAIL
  6
CONTINUOUS
 62
     5
 10
61.792561051531273
 20
-283.05961165160431
 30
0.0
 11
61.751774243105046
 21
-283.03341952136839
 31
0.0
  0
LINE
  8
DETAIL
  6
CONTINUOUS
 62
     5
 10
61.751774243105046
 20
-283.03341952136839
 30
0.0
 11
61.711397967536413
 21
-283.00659417997008
 31
0.0
  0
LINE
  8
DETAIL
  6
CONTINUOUS
 62
     5
 10
61.711397967536413
 20
-283.00659417997008
 30
0.0
 11
61.711397967536413
 21
-283.00659417997008
 31
0.0
  0
LINE
  8
DETAIL
  6
CONTINUOUS
 62
     5
 10
61.711397967536413
 20
-283.00659417997008
 30
0.0
 11
61.671448168764528
 21
-282.97914379547092
 31
0.0
  0
LINE
  8
DETAIL
  6
CONTINUOUS
 62
     5
 10
61.671448168764528
 20
-282.97914379547092
 30
0.0
 11
61.631928773940217
 21
-282.95106889223428
 31
0.0
  0
LINE
  8
DETAIL
  6
CONTINUOUS
 62
     5
 10
61.631928773940217
 20
-282.95106889223428
 30
0.0
 11
61.631928773940217
 21
-282.95106889223428
 31
0.0
  0
LINE
  8
DETAIL
  6
CONTINUOUS
 62
     5
 10
61.631928773940217
 20
-282.95106889223428
 30
0.0
 11
61.592843750891461
 21
-282.9223706081965
 31
0.0
  0
LINE
  8
DETAIL
  6
CONTINUOUS
 62
     5
 10
61.592843750891461
 20
-282.9223706081965
 30
0.0
 11
61.554209246943628
 21
-282.89306017928482
 31
0.0
  0
LINE
  8
DETAIL
  6
CONTINUOUS
 62
     5
 10
61.554209246943628
 20
-282.89306017928482
 30
0.0
 11
61.554209246943628
 21
-282.89306017928482
 31
0.0
  0
LINE
  8
DETAIL
  6
CONTINUOUS
 62
     5
 10
61.554209246943628
 20
-282.89306017928482
 30
0.0
 11
61.516041786527239
 21
-282.86314920847519
 31
0.0
  0
LINE
  8
DETAIL
  6
CONTINUOUS
 62
     5
 10
61.516041786527239
 20
-282.86314920847519
 30
0.0
 11
61.478347222995581
 21
-282.83264066894969
 31
0.0
  0
LINE
  8
DETAIL
  6
CONTINUOUS
 62
     5
 10
61.478347222995581
 20
-282.83264066894969
 30
0.0
 11
61.478347222995581
 21
-282.83264066894969
 31
0.0
  0
LINE
  8
DETAIL
  6
CONTINUOUS
 62
     5
 10
61.478347222995581
 20
-282.83264066894969
 30
0.0
 11
61.441132789893572
 21
-282.80153939281138
 31
0.0
  0
LINE
  8
DETAIL
  6
CONTINUOUS
 62
     5
 10
61.441132789893572
 20
-282.80153939281138
 30
0.0
 11
61.404421912607631
 21
-282.76986627764308
 31
0.0
  0
LINE
  8
DETAIL
  6
CONTINUOUS
 62
     5
 10
61.404421912607631
 20
-282.76986627764308
 30
0.0
 11
61.404421912607631
 21
-282.76986627764308
 31
0.0
  0
LINE
  8
DETAIL
  6
CONTINUOUS
 62
     5
 10
61.404421912607631
 20
-282.76986627764308
 30
0.0
 11
61.36822854041111
 21
-282.73763232936648
 31
0.0
  0
LINE
  8
DETAIL
  6
CONTINUOUS
 62
     5
 10
61.36822854041111
 20
-282.73763232936648
 30
0.0
 11
61.332512526291787
 21
-282.70479292177879
 31
0.0
  0
LINE
  8
DETAIL
  6
CONTINUOUS
 62
     5
 10
61.332512526291787
 20
-282.70479292177879
 30
0.0
 11
61.332512526291787
 21
-282.70479292177879
 31
0.0
  0
LINE
  8
DETAIL
  6
CONTINUOUS
 62
     5
 10
61.332512526291787
 20
-282.70479292177879
 30
0.0
 11
61.297270247492179
 21
-282.67134113640122
 31
0.0
  0
LINE
  8
DETAIL
  6
CONTINUOUS
 62
     5
 10
61.297270247492179
 20
-282.67134113640122
 30
0.0
 11
61.262698274560762
 21
-282.63747651777101
 31
0.0
  0
LINE
  8
DETAIL
  6
CONTINUOUS
 62
     5
 10
61.262698274560762
 20
-282.63747651777101
 30
0.0
 11
61.262698274560762
 21
-282.63747651777101
 31
0.0
  0
LINE
  8
DETAIL
  6
CONTINUOUS
 62
     5
 10
61.262698274560762
 20
-282.63747651777101
 30
0.0
 11
61.228962860310503
 21
-282.60337083773169
 31
0.0
  0
LINE
  8
DETAIL
  6
CONTINUOUS
 62
     5
 10
61.228962860310503
 20
-282.60337083773169
 30
0.0
 11
61.195908793315077
 21
-282.56887831434108
 31
0.0
  0
LINE
  8
DETAIL
  6
CONTINUOUS
 62
     5
 10
61.195908793315077
 20
-282.56887831434108
 30
0.0
 11
61.195908793315077
 21
-282.56887831434108
 31
0.0
  0
LINE
  8
DETAIL
  6
CONTINUOUS
 62
     5
 10
61.195908793315077
 20
-282.56887831434108
 30
0.0
 11
61.163351103180958
 21
-282.53382170880639
 31
0.0
  0
LINE
  8
DETAIL
  6
CONTINUOUS
 62
     5
 10
61.163351103180958
 20
-282.53382170880639
 30
0.0
 11
61.131307247883797
 21
-282.49821550872718
 31
0.0
  0
LINE
  8
DETAIL
  6
CONTINUOUS
 62
     5
 10
61.131307247883797
 20
-282.49821550872718
 30
0.0
 11
61.131307247883797
 21
-282.49821550872718
 31
0.0
  0
LINE
  8
DETAIL
  6
CONTINUOUS
 62
     5
 10
61.131307247883797
 20
-282.49821550872718
 30
0.0
 11
61.099836446109293
 21
-282.46211600849063
 31
0.0
  0
LINE
  8
DETAIL
  6
CONTINUOUS
 62
     5
 10
61.099836446109293
 20
-282.46211600849063
 30
0.0
 11
61.068962531004217
 21
-282.42555500324198
 31
0.0
  0
LINE
  8
DETAIL
  6
CONTINUOUS
 62
     5
 10
61.068962531004217
 20
-282.42555500324198
 30
0.0
 11
61.068962531004217
 21
-282.42555500324198
 31
0.0
  0
LINE
  8
DETAIL
  6
CONTINUOUS
 62
     5
 10
61.068962531004217
 20
-282.42555500324198
 30
0.0
 11
61.0386852677766
 21
-282.38853473096037
 31
0.0
  0
LINE
  8
DETAIL
  6
CONTINUOUS
 62
     5
 10
61.0386852677766
 20
-282.38853473096037
 30
0.0
 11
61.008943535414353
 21
-282.35096370019721
 31
0.0
  0
LINE
  8
DETAIL
  6
CONTINUOUS
 62
     5
 10
61.008943535414353
 20
-282.35096370019721
 30
0.0
 11
61.008943535414353
 21
-282.35096370019721
 31
0.0
  0
LINE
  8
DETAIL
  6
CONTINUOUS
 62
     5
 10
61.008943535414353
 20
-282.35096370019721
 30
0.0
 11
60.979730723953253
 21
-282.31282684138489
 31
0.0
  0
LINE
  8
DETAIL
  6
CONTINUOUS
 62
     5
 10
60.979730723953253
 20
-282.31282684138489
 30
0.0
 11
60.951319153852182
 21
-282.27450850190462
 31
0.0
  0
LINE
  8
DETAIL
  6
CONTINUOUS
 62
     5
 10
60.951319153852182
 20
-282.27450850190462
 30
0.0
 11
60.951319153852182
 21
-282.27450850190462
 31
0.0
  0
LINE
  8
DETAIL
  6
CONTINUOUS
 62
     5
 10
60.951319153852182
 20
-282.27450850190462
 30
0.0
 11
60.923936445897652
 21
-282.23633637403901
 31
0.0
  0
LINE
  8
DETAIL
  6
CONTINUOUS
 62
     5
 10
60.923936445897652
 20
-282.23633637403901
 30
0.0
 11
60.897352491772608
 21
-282.19801211272568
 31
0.0
  0
LINE
  8
DETAIL
  6
CONTINUOUS
 62
     5
 10
60.897352491772608
 20
-282.19801211272568
 30
0.0
 11
60.897352491772608
 21
-282.19801211272568
 31
0.0
  0
LINE
  8
DETAIL
  6
CONTINUOUS
 62
     5
 10
60.897352491772608
 20
-282.19801211272568
 30
0.0
 11
60.871296929266457
 21
-282.15917876399021
 31
0.0
  0
LINE
  8
DETAIL
  6
CONTINUOUS
 62
     5
 10
60.871296929266457
 20
-282.15917876399021
 30
0.0
 11
60.845796109701041
 21
-282.11987097555658
 31
0.0
  0
LINE
  8
DETAIL
  6
CONTINUOUS
 62
     5
 10
60.845796109701041
 20
-282.11987097555658
 30
0.0
 11
60.845796109701041
 21
-282.11987097555658
 31
0.0
  0
LINE
  8
DETAIL
  6
CONTINUOUS
 62
     5
 10
60.845796109701041
 20
-282.11987097555658
 30
0.0
 11
60.820931061778083
 21
-282.08019582828717
 31
0.0
  0
LINE
  8
DETAIL
  6
CONTINUOUS
 62
     5
 10
60.820931061778083
 20
-282.08019582828717
 30
0.0
 11
60.796704810186156
 21
-282.04015853389512
 31
0.0
  0
LINE
  8
DETAIL
  6
CONTINUOUS
 62
     5
 10
60.796704810186156
 20
-282.04015853389512
 30
0.0
 11
60.796704810186156
 21
-282.04015853389512
 31
0.0
  0
LINE
  8
DETAIL
  6
CONTINUOUS
 62
     5
 10
60.796704810186156
 20
-282.04015853389512
 30
0.0
 11
60.773104704241632
 21
-281.9997428055309
 31
0.0
  0
LINE
  8
DETAIL
  6
CONTINUOUS
 62
     5
 10
60.773104704241632
 20
-281.9997428055309
 30
0.0
 11
60.750133395776629
 21
-281.95894823123922
 31
0.0
  0
LINE
  8
DETAIL
  6
CONTINUOUS
 62
     5
 10
60.750133395776629
 20
-281.95894823123922
 30
0.0
 11
60.750133395776629
 21
-281.95894823123922
 31
0.0
  0
LINE
  8
DETAIL
  6
CONTINUOUS
 62
     5
 10
60.750133395776629
 20
-281.95894823123922
 30
0.0
 11
60.727801560739408
 21
-281.91778796018122
 31
0.0
  0
LINE
  8
DETAIL
  6
CONTINUOUS
 62
     5
 10
60.727801560739408
 20
-281.91778796018122
 30
0.0
 11
60.706136669021362
 21
-281.87631351108638
 31
0.0
  0
LINE
  8
DETAIL
  6
CONTINUOUS
 62
     5
 10
60.706136669021362
 20
-281.87631351108638
 30
0.0
 11
60.706136669021362
 21
-281.87631351108638
 31
0.0
  0
LINE
  8
DETAIL
  6
CONTINUOUS
 62
     5
 10
60.706136669021362
 20
-281.87631351108638
 30
0.0
 11
60.685161330126448
 21
-281.83456888653888
 31
0.0
  0
LINE
  8
DETAIL
  6
CONTINUOUS
 62
     5
 10
60.685161330126448
 20
-281.83456888653888
 30
0.0
 11
60.664861918064389
 21
-281.79252965497949
 31
0.0
  0
LINE
  8
DETAIL
  6
CONTINUOUS
 62
     5
 10
60.664861918064389
 20
-281.79252965497949
 30
0.0
 11
60.664861918064389
 21
-281.79252965497949
 31
0.0
  0
LINE
  8
DETAIL
  6
CONTINUOUS
 62
     5
 10
60.664861918064389
 20
-281.79252965497949
 30
0.0
 11
60.645221532858159
 21
-281.75016490076598
 31
0.0
  0
LINE
  8
DETAIL
  6
CONTINUOUS
 62
     5
 10
60.645221532858159
 20
-281.75016490076598
 30
0.0
 11
60.626246414083198
 21
-281.70748620607571
 31
0.0
  0
LINE
  8
DETAIL
  6
CONTINUOUS
 62
     5
 10
60.626246414083198
 20
-281.70748620607571
 30
0.0
 11
60.626246414083198
 21
-281.70748620607571
 31
0.0
  0
LINE
  8
DETAIL
  6
CONTINUOUS
 62
     5
 10
60.626246414083198
 20
-281.70748620607571
 30
0.0
 11
60.607947616450467
 21
-281.6645148215415
 31
0.0
  0
LINE
  8
DETAIL
  6
CONTINUOUS
 62
     5
 10
60.607947616450467
 20
-281.6645148215415
 30
0.0
 11
60.590332315658543
 21
-281.62126817380198
 31
0.0
  0
LINE
  8
DETAIL
  6
CONTINUOUS
 62
     5
 10
60.590332315658543
 20
-281.62126817380198
 30
0.0
 11
60.590332315658543
 21
-281.62126817380198
 31
0.0
  0
LINE
  8
DETAIL
  6
CONTINUOUS
 62
     5
 10
60.590332315658543
 20
-281.62126817380198
 30
0.0
 11
60.573404811778801
 21
-281.57775593303609
 31
0.0
  0
LINE
  8
DETAIL
  6
CONTINUOUS
 62
     5
 10
60.573404811778801
 20
-281.57775593303609
 30
0.0
 11
60.55716178137186
 21
-281.53396056758532
 31
0.0
  0
LINE
  8
DETAIL
  6
CONTINUOUS
 62
     5
 10
60.55716178137186
 20
-281.53396056758532
 30
0.0
 11
60.55716178137186
 21
-281.53396056758532
 31
0.0
  0
LINE
  8
DETAIL
  6
CONTINUOUS
 62
     5
 10
60.55716178137186
 20
-281.53396056758532
 30
0.0
 11
60.541606588384639
 21
-281.48988590316787
 31
0.0
  0
LINE
  8
DETAIL
  6
CONTINUOUS
 62
     5
 10
60.541606588384639
 20
-281.48988590316787
 30
0.0
 11
60.526776969803898
 21
-281.44564839685302
 31
0.0
  0
LINE
  8
DETAIL
  6
CONTINUOUS
 62
     5
 10
60.526776969803898
 20
-281.44564839685302
 30
0.0
 11
60.526776969803898
 21
-281.44564839685302
 31
0.0
  0
LINE
  8
DETAIL
  6
CONTINUOUS
 62
     5
 10
60.526776969803898
 20
-281.44564839685302
 30
0.0
 11
60.512704433690708
 21
-281.40134850677839
 31
0.0
  0
LINE
  8
DETAIL
  6
CONTINUOUS
 62
     5
 10
60.512704433690708
 20
-281.40134850677839
 30
0.0
 11
60.499361199357047
 21
-281.35691006400771
 31
0.0
  0
LINE
  8
DETAIL
  6
CONTINUOUS
 62
     5
 10
60.499361199357047
 20
-281.35691006400771
 30
0.0
 11
60.499361199357047
 21
-281.35691006400771
 31
0.0
  0
LINE
  8
DETAIL
  6
CONTINUOUS
 62
     5
 10
60.499361199357047
 20
-281.35691006400771
 30
0.0
 11
60.48671418578806
 21
-281.31223922646387
 31
0.0
  0
LINE
  8
DETAIL
  6
CONTINUOUS
 62
     5
 10
60.48671418578806
 20
-281.31223922646387
 30
0.0
 11
60.474768399405093
 21
-281.26734808658358
 31
0.0
  0
LINE
  8
DETAIL
  6
CONTINUOUS
 62
     5
 10
60.474768399405093
 20
-281.26734808658358
 30
0.0
 11
60.474768399405093
 21
-281.26734808658358
 31
0.0
  0
LINE
  8
DETAIL
  6
CONTINUOUS
 62
     5
 10
60.474768399405093
 20
-281.26734808658358
 30
0.0
 11
60.463536624997687
 21
-281.2222738561785
 31
0.0
  0
LINE
  8
DETAIL
  6
CONTINUOUS
 62
     5
 10
60.463536624997687
 20
-281.2222738561785
 30
0.0
 11
60.453024673376149
 21
-281.17704829004958
 31
0.0
  0
LINE
  8
DETAIL
  6
CONTINUOUS
 62
     5
 10
60.453024673376149
 20
-281.17704829004958
 30
0.0
 11
60.453024673376149
 21
-281.17704829004958
 31
0.0
  0
LINE
  8
DETAIL
  6
CONTINUOUS
 62
     5
 10
60.453024673376149
 20
-281.17704829004958
 30
0.0
 11
60.44323406397416
 21
-281.13168075212718
 31
0.0
  0
LINE
  8
DETAIL
  6
CONTINUOUS
 62
     5
 10
60.44323406397416
 20
-281.13168075212718
 30
0.0
 11
60.43415612469812
 21
-281.08609649987562
 31
0.0
  0
LINE
  8
DETAIL
  6
CONTINUOUS
 62
     5
 10
60.43415612469812
 20
-281.08609649987562
 30
0.0
 11
60.43415612469812
 21
-281.08609649987562
 31
0.0
  0
LINE
  8
DETAIL
  6
CONTINUOUS
 62
     5
 10
60.43415612469812
 20
-281.08609649987562
 30
0.0
 11
60.425791570593901
 21
-281.04028523486119
 31
0.0
  0
LINE
  8
DETAIL
  6
CONTINUOUS
 62
     5
 10
60.425791570593901
 20
-281.04028523486119
 30
0.0
 11
60.418188856799588
 21
-280.99457854153093
 31
0.0
  0
LINE
  8
DETAIL
  6
CONTINUOUS
 62
     5
 10
60.418188856799588
 20
-280.99457854153093
 30
0.0
 11
60.418188856799588
 21
-280.99457854153093
 31
0.0
  0
LINE
  8
DETAIL
  6
CONTINUOUS
 62
     5
 10
60.418188856799588
 20
-280.99457854153093
 30
0.0
 11
60.411386175696862
 21
-280.94925876464418
 31
0.0
  0
LINE
  8
DETAIL
  6
CONTINUOUS
 62
     5
 10
60.411386175696862
 20
-280.94925876464418
 30
0.0
 11
60.40533292854866
 21
-280.90406940734022
 31
0.0
  0
LINE
  8
DETAIL
  6
CONTINUOUS
 62
     5
 10
60.40533292854866
 20
-280.90406940734022
 30
0.0
 11
60.40533292854866
 21
-280.90406940734022
 31
0.0
  0
LINE
  8
DETAIL
  6
CONTINUOUS
 62
     5
 10
60.40533292854866
 20
-280.90406940734022
 30
0.0
 11
60.399973280763788
 21
-280.85870475762368
 31
0.0
  0
LINE
  8
DETAIL
  6
CONTINUOUS
 62
     5
 10
60.399973280763788
 20
-280.85870475762368
 30
0.0
 11
60.395319245439623
 21
-280.81320108458817
 31
0.0
  0
LINE
  8
DETAIL
  6
CONTINUOUS
 62
     5
 10
60.395319245439623
 20
-280.81320108458817
 30
0.0
 11
60.395319245439623
 21
-280.81320108458817
 31
0.0
  0
LINE
  8
DETAIL
  6
CONTINUOUS
 62
     5
 10
60.395319245439623
 20
-280.81320108458817
 30
0.0
 11
60.391388834900681
 21
-280.76765710915168
 31
0.0
  0
LINE
  8
DETAIL
  6
CONTINUOUS
 62
     5
 10
60.391388834900681
 20
-280.76765710915168
 30
0.0
 11
60.388156210678062
 21
-280.72207937843922
 31
0.0
  0
LINE
  8
DETAIL
  6
CONTINUOUS
 62
     5
 10
60.388156210678062
 20
-280.72207937843922
 30
0.0
 11
60.388156210678062
 21
-280.72207937843922
 31
0.0
  0
LINE
  8
DETAIL
  6
CONTINUOUS
 62
     5
 10
60.388156210678062
 20
-280.72207937843922
 30
0.0
 11
60.385611460474593
 21
-280.67645807464828
 31
0.0
  0
LINE
  8
DETAIL
  6
CONTINUOUS
 62
     5
 10
60.385611460474593
 20
-280.67645807464828
 30
0.0
 11
60.383852227470022
 21
-280.63081009405801
 31
0.0
  0
LINE
  8
DETAIL
  6
CONTINUOUS
 62
     5
 10
60.383852227470022
 20
-280.63081009405801
 30
0.0
 11
60.383852227470022
 21
-280.63081009405801
 31
0.0
  0
LINE
  8
DETAIL
  6
CONTINUOUS
 62
     5
 10
60.383852227470022
 20
-280.63081009405801
 30
0.0
 11
60.382906450934122
 21
-280.58515534083358
 31
0.0
  0
LINE
  8
DETAIL
  6
CONTINUOUS
 62
     5
 10
60.382906450934122
 20
-280.58515534083358
 30
0.0
 11
60.382415699021522
 21
-280.53949903660879
 31
0.0
  0
LINE
  8
DETAIL
  6
CONTINUOUS
 62
     5
 10
59.167521555688843
 20
-280.53949903660879
 30
0.0
 11
59.168012539559193
 21
-280.58513412221208
 31
0.0
  0
LINE
  8
DETAIL
  6
CONTINUOUS
 62
     5
 10
59.168012539559193
 20
-280.58513412221208
 30
0.0
 11
59.168958759878478
 21
-280.63076766752999
 31
0.0
  0
LINE
  8
DETAIL
  6
CONTINUOUS
 62
     5
 10
59.168958759878478
 20
-280.63076766752999
 30
0.0
 11
59.168958759878478
 21
-280.63076766752999
 31
0.0
  0
LINE
  8
DETAIL
  6
CONTINUOUS
 62
     5
 10
59.168958759878478
 20
-280.63076766752999
 30
0.0
 11
59.17071881120637
 21
-280.67639444343638
 31
0.0
  0
LINE
  8
DETAIL
  6
CONTINUOUS
 62
     5
 10
59.17071881120637
 20
-280.67639444343638
 30
0.0
 11
59.173264720545831
 21
-280.72199446544067
 31
0.0
  0
LINE
  8
DETAIL
  6
CONTINUOUS
 62
     5
 10
59.173264720545831
 20
-280.72199446544067
 30
0.0
 11
59.173264720545831
 21
-280.72199446544067
 31
0.0
  0
LINE
  8
DETAIL
  6
CONTINUOUS
 62
     5
 10
59.173264720545831
 20
-280.72199446544067
 30
0.0
 11
59.176498786275722
 21
-280.76755080201178
 31
0.0
  0
LINE
  8
DETAIL
  6
CONTINUOUS
 62
     5
 10
59.176498786275722
 20
-280.76755080201178
 30
0.0
 11
59.180430959838297
 21
-280.81307348882001
 31
0.0
  0
LINE
  8
DETAIL
  6
CONTINUOUS
 62
     5
 10
59.180430959838297
 20
-280.81307348882001
 30
0.0
 11
59.180430959838297
 21
-280.81307348882001
 31
0.0
  0
LINE
  8
DETAIL
  6
CONTINUOUS
 62
     5
 10
59.180430959838297
 20
-280.81307348882001
 30
0.0
 11
59.185087094767141
 21
-280.8585560249752
 31
0.0
  0
LINE
  8
DETAIL
  6
CONTINUOUS
 62
     5
 10
59.185087094767141
 20
-280.8585560249752
 30
0.0
 11
59.190448999902863
 21
-280.90389879614702
 31
0.0
  0
LINE
  8
DETAIL
  6
CONTINUOUS
 62
     5
 10
59.190448999902863
 20
-280.90389879614702
 30
0.0
 11
59.190448999902863
 21
-280.90389879614702
 31
0.0
  0
LINE
  8
DETAIL
  6
CONTINUOUS
 62
     5
 10
59.190448999902863
 20
-280.90389879614702
 30
0.0
 11
59.19650460433968
 21
-280.94906528128502
 31
0.0
  0
LINE
  8
DETAIL
  6
CONTINUOUS
 62
     5
 10
59.19650460433968
 20
-280.94906528128502
 30
0.0
 11
59.20331036288735
 21
-280.99436444590089
 31
0.0
  0
LINE
  8
DETAIL
  6
CONTINUOUS
 62
     5
 10
59.20331036288735
 20
-280.99436444590089
 30
0.0
 11
59.20331036288735
 21
-280.99436444590089
 31
0.0
  0
LINE
  8
DETAIL
  6
CONTINUOUS
 62
     5
 10
59.20331036288735
 20
-280.99436444590089
 30
0.0
 11
59.21091742356225
 21
-281.04005553417352
 31
0.0
  0
LINE
  8
DETAIL
  6
CONTINUOUS
 62
     5
 10
59.21091742356225
 20
-281.04005553417352
 30
0.0
 11
59.219287181498203
 21
-281.08585341838523
 31
0.0
  0
LINE
  8
DETAIL
  6
CONTINUOUS
 62
     5
 10
59.219287181498203
 20
-281.08585341838523
 30
0.0
 11
59.219287181498203
 21
-281.08585341838523
 31
0.0
  0
LINE
  8
DETAIL
  6
CONTINUOUS
 62
     5
 10
59.219287181498203
 20
-281.08585341838523
 30
0.0
 11
59.228370654661383
 21
-281.13142320992768
 31
0.0
  0
LINE
  8
DETAIL
  6
CONTINUOUS
 62
     5
 10
59.228370654661383
 20
-281.13142320992768
 30
0.0
 11
59.238167105235789
 21
-281.17677534852692
 31
0.0
  0
LINE
  8
DETAIL
  6
CONTINUOUS
 62
     5
 10
59.238167105235789
 20
-281.17677534852692
 30
0.0
 11
59.238167105235789
 21
-281.17677534852692
 31
0.0
  0
LINE
  8
DETAIL
  6
CONTINUOUS
 62
     5
 10
59.238167105235789
 20
-281.17677534852692
 30
0.0
 11
59.248685302909962
 21
-281.22198542783087
 31
0.0
  0
LINE
  8
DETAIL
  6
CONTINUOUS
 62
     5
 10
59.248685302909962
 20
-281.22198542783087
 30
0.0
 11
59.259923803168022
 21
-281.26704432884151
 31
0.0
  0
LINE
  8
DETAIL
  6
CONTINUOUS
 62
     5
 10
59.259923803168022
 20
-281.26704432884151
 30
0.0
 11
59.259923803168022
 21
-281.26704432884151
 31
0.0
  0
LINE
  8
DETAIL
  6
CONTINUOUS
 62
     5
 10
59.259923803168022
 20
-281.26704432884151
 30
0.0
 11
59.271876761093843
 21
-281.31192013496161
 31
0.0
  0
LINE
  8
DETAIL
  6
CONTINUOUS
 62
     5
 10
59.271876761093843
 20
-281.31192013496161
 30
0.0
 11
59.284530944362359
 21
-281.35657445184302
 31
0.0
  0
LINE
  8
DETAIL
  6
CONTINUOUS
 62
     5
 10
59.284530944362359
 20
-281.35657445184302
 30
0.0
 11
59.284530944362359
 21
-281.35657445184302
 31
0.0
  0
LINE
  8
DETAIL
  6
CONTINUOUS
 62
     5
 10
59.284530944362359
 20
-281.35657445184302
 30
0.0
 11
59.297881214755762
 21
-281.40099492161232
 31
0.0
  0
LINE
  8
DETAIL
  6
CONTINUOUS
 62
     5
 10
59.297881214755762
 20
-281.40099492161232
 30
0.0
 11
59.311962197887397
 21
-281.44527981004609
 31
0.0
  0
LINE
  8
DETAIL
  6
CONTINUOUS
 62
     5
 10
59.311962197887397
 20
-281.44527981004609
 30
0.0
 11
59.311962197887397
 21
-281.44527981004609
 31
0.0
  0
LINE
  8
DETAIL
  6
CONTINUOUS
 62
     5
 10
59.311962197887397
 20
-281.44527981004609
 30
0.0
 11
59.326803008609659
 21
-281.48950900411887
 31
0.0
  0
LINE
  8
DETAIL
  6
CONTINUOUS
 62
     5
 10
59.326803008609659
 20
-281.48950900411887
 30
0.0
 11
59.342370954895841
 21
-281.53357825194519
 31
0.0
  0
LINE
  8
DETAIL
  6
CONTINUOUS
 62
     5
 10
59.342370954895841
 20
-281.53357825194519
 30
0.0
 11
59.342370954895841
 21
-281.53357825194519
 31
0.0
  0
LINE
  8
DETAIL
  6
CONTINUOUS
 62
     5
 10
59.342370954895841
 20
-281.53357825194519
 30
0.0
 11
59.358626851505512
 21
-281.57736660667717
 31
0.0
  0
LINE
  8
DETAIL
  6
CONTINUOUS
 62
     5
 10
59.358626851505512
 20
-281.57736660667717
 30
0.0
 11
59.375567347220112
 21
-281.62087048047448
 31
0.0
  0
LINE
  8
DETAIL
  6
CONTINUOUS
 62
     5
 10
59.375567347220112
 20
-281.62087048047448
 30
0.0
 11
59.375567347220112
 21
-281.62087048047448
 31
0.0
  0
LINE
  8
DETAIL
  6
CONTINUOUS
 62
     5
 10
59.375567347220112
 20
-281.62087048047448
 30
0.0
 11
59.393196088135937
 21
-281.66410858681519
 31
0.0
  0
LINE
  8
DETAIL
  6
CONTINUOUS
 62
     5
 10
59.393196088135937
 20
-281.66410858681519
 30
0.0
 11
59.411508875588417
 21
-281.70707148544568
 31
0.0
  0
LINE
  8
DETAIL
  6
CONTINUOUS
 62
     5
 10
59.411508875588417
 20
-281.70707148544568
 30
0.0
 11
59.411508875588417
 21
-281.70707148544568
 31
0.0
  0
LINE
  8
DETAIL
  6
CONTINUOUS
 62
     5
 10
59.411508875588417
 20
-281.70707148544568
 30
0.0
 11
59.430498435978727
 21
-281.74974151165998
 31
0.0
  0
LINE
  8
DETAIL
  6
CONTINUOUS
 62
     5
 10
59.430498435978727
 20
-281.74974151165998
 30
0.0
 11
59.450153040731273
 21
-281.7920962566717
 31
0.0
  0
LINE
  8
DETAIL
  6
CONTINUOUS
 62
     5
 10
59.450153040731273
 20
-281.7920962566717
 30
0.0
 11
59.450153040731273
 21
-281.7920962566717
 31
0.0
  0
LINE
  8
DETAIL
  6
CONTINUOUS
 62
     5
 10
59.450153040731273
 20
-281.7920962566717
 30
0.0
 11
59.470466263693652
 21
-281.83412390818819
 31
0.0
  0
LINE
  8
DETAIL
  6
CONTINUOUS
 62
     5
 10
59.470466263693652
 20
-281.83412390818819
 30
0.0
 11
59.49145734337867
 21
-281.87585978396407
 31
0.0
  0
LINE
  8
DETAIL
  6
CONTINUOUS
 62
     5
 10
59.49145734337867
 20
-281.87585978396407
 30
0.0
 11
59.49145734337867
 21
-281.87585978396407
 31
0.0
  0
LINE
  8
DETAIL
  6
CONTINUOUS
 62
     5
 10
59.49145734337867
 20
-281.87585978396407
 30
0.0
 11
59.513141907171303
 21
-281.91733200729323
 31
0.0
  0
LINE
  8
DETAIL
  6
CONTINUOUS
 62
     5
 10
59.513141907171303
 20
-281.91733200729323
 30
0.0
 11
59.535495473272483
 21
-281.9584927935723
 31
0.0
  0
LINE
  8
DETAIL
  6
CONTINUOUS
 62
     5
 10
59.535495473272483
 20
-281.9584927935723
 30
0.0
 11
59.535495473272483
 21
-281.9584927935723
 31
0.0
  0
LINE
  8
DETAIL
  6
CONTINUOUS
 62
     5
 10
59.535495473272483
 20
-281.9584927935723
 30
0.0
 11
59.558488306326581
 21
-281.99928615246893
 31
0.0
  0
LINE
  8
DETAIL
  6
CONTINUOUS
 62
     5
 10
59.558488306326581
 20
-281.99928615246893
 30
0.0
 11
59.582109765939997
 21
-282.0396991786281
 31
0.0
  0
LINE
  8
DETAIL
  6
CONTINUOUS
 62
     5
 10
59.582109765939997
 20
-282.0396991786281
 30
0.0
 11
59.582109765939997
 21
-282.0396991786281
 31
0.0
  0
LINE
  8
DETAIL
  6
CONTINUOUS
 62
     5
 10
59.582109765939997
 20
-282.0396991786281
 30
0.0
 11
59.606357727944442
 21
-282.07973347823372
 31
0.0
  0
LINE
  8
DETAIL
  6
CONTINUOUS
 62
     5
 10
59.606357727944442
 20
-282.07973347823372
 30
0.0
 11
59.631245038110137
 21
-282.11940561864219
 31
0.0
  0
LINE
  8
DETAIL
  6
CONTINUOUS
 62
     5
 10
59.631245038110137
 20
-282.11940561864219
 30
0.0
 11
59.631245038110137
 21
-282.11940561864219
 31
0.0
  0
LINE
  8
DETAIL
  6
CONTINUOUS
 62
     5
 10
59.631245038110137
 20
-282.11940561864219
 30
0.0
 11
59.65676854101298
 21
-282.15871017508601
 31
0.0
  0
LINE
  8
DETAIL
  6
CONTINUOUS
 62
     5
 10
59.65676854101298
 20
-282.15871017508601
 30
0.0
 11
59.682846106510397
 21
-282.19753879312589
 31
0.0
  0
LINE
  8
DETAIL
  6
CONTINUOUS
 62
     5
 10
59.682846106510397
 20
-282.19753879312589
 30
0.0
 11
59.682846106510397
 21
-282.19753879312589
 31
0.0
  0
LINE
  8
DETAIL
  6
CONTINUOUS
 62
     5
 10
59.682846106510397
 20
-282.19753879312589
 30
0.0
 11
59.70945109301374
 21
-282.23585657528281
 31
0.0
  0
LINE
  8
DETAIL
  6
CONTINUOUS
 62
     5
 10
59.70945109301374
 20
-282.23585657528281
 30
0.0
 11
59.736857787869667
 21
-282.27402538158969
 31
0.0
  0
LINE
  8
DETAIL
  6
CONTINUOUS
 62
     5
 10
59.736857787869667
 20
-282.27402538158969
 30
0.0
 11
59.736857787869667
 21
-282.27402538158969
 31
0.0
  0
LINE
  8
DETAIL
  6
CONTINUOUS
 62
     5
 10
59.736857787869667
 20
-282.27402538158969
 30
0.0
 11
59.765299644472627
 21
-282.31234766450137
 31
0.0
  0
LINE
  8
DETAIL
  6
CONTINUOUS
 62
     5
 10
59.765299644472627
 20
-282.31234766450137
 30
0.0
 11
59.794545851480052
 21
-282.35049148864852
 31
0.0
  0
LINE
  8
DETAIL
  6
CONTINUOUS
 62
     5
 10
59.794545851480052
 20
-282.35049148864852
 30
0.0
 11
59.794545851480052
 21
-282.35049148864852
 31
0.0
  0
LINE
  8
DETAIL
  6
CONTINUOUS
 62
     5
 10
59.794545851480052
 20
-282.35049148864852
 30
0.0
 11
59.824320252825153
 21
-282.38806750098257
 31
0.0
  0
LINE
  8
DETAIL
  6
CONTINUOUS
 62
     5
 10
59.824320252825153
 20
-282.38806750098257
 30
0.0
 11
59.854629578287813
 21
-282.42509106556929
 31
0.0
  0
LINE
  8
DETAIL
  6
CONTINUOUS
 62
     5
 10
59.854629578287813
 20
-282.42509106556929
 30
0.0
 11
59.854629578287813
 21
-282.42509106556929
 31
0.0
  0
LINE
  8
DETAIL
  6
CONTINUOUS
 62
     5
 10
59.854629578287813
 20
-282.42509106556929
 30
0.0
 11
59.885535890177827
 21
-282.46165502879552
 31
0.0
  0
LINE
  8
DETAIL
  6
CONTINUOUS
 62
     5
 10
59.885535890177827
 20
-282.46165502879552
 30
0.0
 11
59.917039695079211
 21
-282.49775744922101
 31
0.0
  0
LINE
  8
DETAIL
  6
CONTINUOUS
 62
     5
 10
59.917039695079211
 20
-282.49775744922101
 30
0.0
 11
59.917039695079211
 21
-282.49775744922101
 31
0.0
  0
LINE
  8
DETAIL
  6
CONTINUOUS
 62
     5
 10
59.917039695079211
 20
-282.49775744922101
 30
0.0
 11
59.94911694490861
 21
-282.53336629699783
 31
0.0
  0
LINE
  8
DETAIL
  6
CONTINUOUS
 62
     5
 10
59.94911694490861
 20
-282.53336629699783
 30
0.0
 11
59.981706928639603
 21
-282.56842397647182
 31
0.0
  0
LINE
  8
DETAIL
  6
CONTINUOUS
 62
     5
 10
59.981706928639603
 20
-282.56842397647182
 30
0.0
 11
59.981706928639603
 21
-282.56842397647182
 31
0.0
  0
LINE
  8
DETAIL
  6
CONTINUOUS
 62
     5
 10
59.981706928639603
 20
-282.56842397647182
 30
0.0
 11
60.014791821384513
 21
-282.60291576329962
 31
0.0
  0
LINE
  8
DETAIL
  6
CONTINUOUS
 62
     5
 10
60.014791821384513
 20
-282.60291576329962
 30
0.0
 11
60.04856200575432
 21
-282.63702398418928
 31
0.0
  0
LINE
  8
DETAIL
  6
CONTINUOUS
 62
     5
 10
60.04856200575432
 20
-282.63702398418928
 30
0.0
 11
60.04856200575432
 21
-282.63702398418928
 31
0.0
  0
LINE
  8
DETAIL
  6
CONTINUOUS
 62
     5
 10
60.04856200575432
 20
-282.63702398418928
 30
0.0
 11
60.083177291089669
 21
-282.67089866956422
 31
0.0
  0
LINE
  8
DETAIL
  6
CONTINUOUS
 62
     5
 10
60.083177291089669
 20
-282.67089866956422
 30
0.0
 11
60.118466986152733
 21
-282.7043636136608
 31
0.0
  0
LINE
  8
DETAIL
  6
CONTINUOUS
 62
     5
 10
60.118466986152733
 20
-282.7043636136608
 30
0.0
 11
60.118466986152733
 21
-282.7043636136608
 31
0.0
  0
LINE
  8
DETAIL
  6
CONTINUOUS
 62
     5
 10
60.118466986152733
 20
-282.7043636136608
 30
0.0
 11
60.154229208701743
 21
-282.7372140567204
 31
0.0
  0
LINE
  8
DETAIL
  6
CONTINUOUS
 62
     5
 10
60.154229208701743
 20
-282.7372140567204
 30
0.0
 11
60.19046781305542
 21
-282.76945725919518
 31
0.0
  0
LINE
  8
DETAIL
  6
CONTINUOUS
 62
     5
 10
60.19046781305542
 20
-282.76945725919518
 30
0.0
 11
60.19046781305542
 21
-282.76945725919518
 31
0.0
  0
LINE
  8
DETAIL
  6
CONTINUOUS
 62
     5
 10
60.19046781305542
 20
-282.76945725919518
 30
0.0
 11
60.227224292108083
 21
-282.80113927572211
 31
0.0
  0
LINE
  8
DETAIL
  6
CONTINUOUS
 62
     5
 10
60.227224292108083
 20
-282.80113927572211
 30
0.0
 11
60.26448495648583
 21
-282.83224931746781
 31
0.0
  0
LINE
  8
DETAIL
  6
CONTINUOUS
 62
     5
 10
60.26448495648583
 20
-282.83224931746781
 30
0.0
 11
60.26448495648583
 21
-282.83224931746781
 31
0.0
  0
LINE
  8
DETAIL
  6
CONTINUOUS
 62
     5
 10
60.26448495648583
 20
-282.83224931746781
 30
0.0
 11
60.302226069375592
 21
-282.86276622314938
 31
0.0
  0
LINE
  8
DETAIL
  6
CONTINUOUS
 62
     5
 10
60.302226069375592
 20
-282.86276622314938
 30
0.0
 11
60.340438886466472
 21
-282.89268418515411
 31
0.0
  0
LINE
  8
DETAIL
  6
CONTINUOUS
 62
     5
 10
60.340438886466472
 20
-282.89268418515411
 30
0.0
 11
60.340438886466472
 21
-282.89268418515411
 31
0.0
  0
LINE
  8
DETAIL
  6
CONTINUOUS
 62
     5
 10
60.340438886466472
 20
-282.89268418515411
 30
0.0
 11
60.379117214637972
 21
-282.92200009148382
 31
0.0
  0
LINE
  8
DETAIL
  6
CONTINUOUS
 62
     5
 10
60.379117214637972
 20
-282.92200009148382
 30
0.0
 11
60.418250073021227
 21
-282.95070625892868
 31
0.0
  0
LINE
  8
DETAIL
  6
CONTINUOUS
 62
     5
 10
60.418250073021227
 20
-282.95070625892868
 30
0.0
 11
60.418250073021227
 21
-282.95070625892868
 31
0.0
  0
LINE
  8
DETAIL
  6
CONTINUOUS
 62
     5
 10
60.418250073021227
 20
-282.95070625892868
 30
0.0
 11
60.457826009821019
 21
-282.97879470979319
 31
0.0
  0
LINE
  8
DETAIL
  6
CONTINUOUS
 62
     5
 10
60.457826009821019
 20
-282.97879470979319
 30
0.0
 11
60.497836477280998
 21
-283.00626085965439
 31
0.0
  0
LINE
  8
DETAIL
  6
CONTINUOUS
 62
     5
 10
60.497836477280998
 20
-283.00626085965439
 30
0.0
 11
60.497836477280998
 21
-283.00626085965439
 31
0.0
  0
LINE
  8
DETAIL
  6
CONTINUOUS
 62
     5
 10
60.497836477280998
 20
-283.00626085965439
 30
0.0
 11
60.538272081963669
 21
-283.03310014341002
 31
0.0
  0
LINE
  8
DETAIL
  6
CONTINUOUS
 62
     5
 10
60.538272081963669
 20
-283.03310014341002
 30
0.0
 11
60.579117143674011
 21
-283.05930467997212
 31
0.0
  0
LINE
  8
DETAIL
  6
CONTINUOUS
 62
     5
 10
60.579117143674011
 20
-283.05930467997212
 30
0.0
 11
60.579117143674011
 21
-283.05930467997212
 31
0.0
  0
LINE
  8
DETAIL
  6
CONTINUOUS
 62
     5
 10
60.579117143674011
 20
-283.05930467997212
 30
0.0
 11
60.620359667973162
 21
-283.08486832813458
 31
0.0
  0
LINE
  8
DETAIL
  6
CONTINUOUS
 62
     5
 10
60.620359667973162
 20
-283.08486832813458
 30
0.0
 11
60.662008690200757
 21
-283.10979522220879
 31
0.0
  0
LINE
  8
DETAIL
  6
CONTINUOUS
 62
     5
 10
60.662008690200757
 20
-283.10979522220879
 30
0.0
 11
60.662008690200757
 21
-283.10979522220879
 31
0.0
  0
LINE
  8
DETAIL
  6
CONTINUOUS
 62
     5
 10
60.662008690200757
 20
-283.10979522220879
 30
0.0
 11
60.704059045051743
 21
-283.13408261886491
 31
0.0
  0
LINE
  8
DETAIL
  6
CONTINUOUS
 62
     5
 10
60.704059045051743
 20
-283.13408261886491
 30
0.0
 11
60.746427734859942
 21
-283.15768998869152
 31
0.0
  0
LINE
  8
DETAIL
  6
CONTINUOUS
 62
     5
 10
60.746427734859942
 20
-283.15768998869152
 30
0.0
 11
60.746427734859942
 21
-283.15768998869152
 31
0.0
  0
LINE
  8
DETAIL
  6
CONTINUOUS
 62
     5
 10
60.746427734859942
 20
-283.15768998869152
 30
0.0
 11
60.789084878785623
 21
-283.18060257295889
 31
0.0
  0
LINE
  8
DETAIL
  6
CONTINUOUS
 62
     5
 10
60.789084878785623
 20
-283.18060257295889
 30
0.0
 11
60.83229089565225
 21
-283.20294648174712
 31
0.0
  0
LINE
  8
DETAIL
  6
CONTINUOUS
 62
     5
 10
60.83229089565225
 20
-283.20294648174712
 30
0.0
 11
60.83229089565225
 21
-283.20294648174712
 31
0.0
  0
LINE
  8
DETAIL
  6
CONTINUOUS
 62
     5
 10
60.83229089565225
 20
-283.20294648174712
 30
0.0
 11
60.876265369898192
 21
-283.22482573251989
 31
0.0
  0
LINE
  8
DETAIL
  6
CONTINUOUS
 62
     5
 10
60.876265369898192
 20
-283.22482573251989
 30
0.0
 11
60.920774248751513
 21
-283.24611510347438
 31
0.0
  0
LINE
  8
DETAIL
  6
CONTINUOUS
 62
     5
 10
60.920774248751513
 20
-283.24611510347438
 30
0.0
 11
60.920774248751513
 21
-283.24611510347438
 31
0.0
  0
LINE
  8
DETAIL
  6
CONTINUOUS
 62
     5
 10
60.920774248751513
 20
-283.24611510347438
 30
0.0
 11
60.965540116982993
 21
-283.26666950333578
 31
0.0
  0
LINE
  8
DETAIL
  6
CONTINUOUS
 62
     5
 10
60.965540116982993
 20
-283.26666950333578
 30
0.0
 11
61.010565746743168
 21
-283.28649360221522
 31
0.0
  0
LINE
  8
DETAIL
  6
CONTINUOUS
 62
     5
 10
61.010565746743168
 20
-283.28649360221522
 30
0.0
 11
61.010565746743168
 21
-283.28649360221522
 31
0.0
  0
LINE
  8
DETAIL
  6
CONTINUOUS
 62
     5
 10
61.010565746743168
 20
-283.28649360221522
 30
0.0
 11
61.055909698048708
 21
-283.30562085087257
 31
0.0
  0
LINE
  8
DETAIL
  6
CONTINUOUS
 62
     5
 10
61.055909698048708
 20
-283.30562085087257
 30
0.0
 11
61.101573495011962
 21
-283.32405006128027
 31
0.0
  0
LINE
  8
DETAIL
  6
CONTINUOUS
 62
     5
 10
61.101573495011962
 20
-283.32405006128027
 30
0.0
 11
61.101573495011962
 21
-283.32405006128027
 31
0.0
  0
LINE
  8
DETAIL
  6
CONTINUOUS
 62
     5
 10
61.101573495011962
 20
-283.32405006128027
 30
0.0
 11
61.147531391828117
 21
-283.34176858415492
 31
0.0
  0
LINE
  8
DETAIL
  6
CONTINUOUS
 62
     5
 10
61.147531391828117
 20
-283.34176858415492
 30
0.0
 11
61.193705598941051
 21
-283.35875256398089
 31
0.0
  0
LINE
  8
DETAIL
  6
CONTINUOUS
 62
     5
 10
61.193705598941051
 20
-283.35875256398089
 30
0.0
 11
61.193705598941051
 21
-283.35875256398089
 31
0.0
  0
LINE
  8
DETAIL
  6
CONTINUOUS
 62
     5
 10
61.193705598941051
 20
-283.35875256398089
 30
0.0
 11
61.240071618585489
 21
-283.37499520961438
 31
0.0
  0
LINE
  8
DETAIL
  6
CONTINUOUS
 62
     5
 10
61.240071618585489
 20
-283.37499520961438
 30
0.0
 11
61.2868701639145
 21
-283.39056919362878
 31
0.0
  0
LINE
  8
DETAIL
  6
CONTINUOUS
 62
     5
 10
61.2868701639145
 20
-283.39056919362878
 30
0.0
 11
61.2868701639145
 21
-283.39056919362878
 31
0.0
  0
LINE
  8
DETAIL
  6
CONTINUOUS
 62
     5
 10
61.2868701639145
 20
-283.39056919362878
 30
0.0
 11
61.334302459272983
 21
-283.40553307781892
 31
0.0
  0
LINE
  8
DETAIL
  6
CONTINUOUS
 62
     5
 10
61.334302459272983
 20
-283.40553307781892
 30
0.0
 11
61.382146562852768
 21
-283.41980951714447
 31
0.0
  0
LINE
  8
DETAIL
  6
CONTINUOUS
 62
     5
 10
61.382146562852768
 20
-283.41980951714447
 30
0.0
 11
61.382146562852768
 21
-283.41980951714447
 31
0.0
  0
LINE
  8
DETAIL
  6
CONTINUOUS
 62
     5
 10
61.382146562852768
 20
-283.41980951714447
 30
0.0
 11
61.43014175772214
 21
-283.43331020017462
 31
0.0
  0
LINE
  8
DETAIL
  6
CONTINUOUS
 62
     5
 10
61.43014175772214
 20
-283.43331020017462
 30
0.0
 11
61.478295392603741
 21
-283.44603885674928
 31
0.0
  0
LINE
  8
DETAIL
  6
CONTINUOUS
 62
     5
 10
61.478295392603741
 20
-283.44603885674928
 30
0.0
 11
61.478295392603741
 21
-283.44603885674928
 31
0.0
  0
LINE
  8
DETAIL
  6
CONTINUOUS
 62
     5
 10
61.478295392603741
 20
-283.44603885674928
 30
0.0
 11
61.526663037616572
 21
-283.4580159352181
 31
0.0
  0
LINE
  8
DETAIL
  6
CONTINUOUS
 62
     5
 10
61.526663037616572
 20
-283.4580159352181
 30
0.0
 11
61.575225082794297
 21
-283.46923671669617
 31
0.0
  0
LINE
  8
DETAIL
  6
CONTINUOUS
 62
     5
 10
61.575225082794297
 20
-283.46923671669617
 30
0.0
 11
61.575225082794297
 21
-283.46923671669617
 31
0.0
  0
LINE
  8
DETAIL
  6
CONTINUOUS
 62
     5
 10
61.575225082794297
 20
-283.46923671669617
 30
0.0
 11
61.623951286819867
 21
-283.47969234740589
 31
0.0
  0
LINE
  8
DETAIL
  6
CONTINUOUS
 62
     5
 10
61.623951286819867
 20
-283.47969234740589
 30
0.0
 11
61.672844063050427
 21
-283.48938260123879
 31
0.0
  0
LINE
  8
DETAIL
  6
CONTINUOUS
 62
     5
 10
61.672844063050427
 20
-283.48938260123879
 30
0.0
 11
61.672844063050427
 21
-283.48938260123879
 31
0.0
  0
LINE
  8
DETAIL
  6
CONTINUOUS
 62
     5
 10
61.672844063050427
 20
-283.48938260123879
 30
0.0
 11
61.721900128859033
 21
-283.49830707314322
 31
0.0
  0
LINE
  8
DETAIL
  6
CONTINUOUS
 62
     5
 10
61.721900128859033
 20
-283.49830707314322
 30
0.0
 11
61.771060762999241
 21
-283.50645601463071
 31
0.0
  0
LINE
  8
DETAIL
  6
CONTINUOUS
 62
     5
 10
61.771060762999241
 20
-283.50645601463071
 30
0.0
 11
61.771060762999241
 21
-283.50645601463071
 31
0.0
  0
LINE
  8
DETAIL
  6
CONTINUOUS
 62
     5
 10
61.771060762999241
 20
-283.50645601463071
 30
0.0
 11
61.820273030164572
 21
-283.51382137774061
 31
0.0
  0
LINE
  8
DETAIL
  6
CONTINUOUS
 62
     5
 10
61.820273030164572
 20
-283.51382137774061
 30
0.0
 11
61.869562577417582
 21
-283.52041126006873
 31
0.0
  0
LINE
  8
DETAIL
  6
CONTINUOUS
 62
     5
 10
61.869562577417582
 20
-283.52041126006873
 30
0.0
 11
61.869562577417582
 21
-283.52041126006873
 31
0.0
  0
LINE
  8
DETAIL
  6
CONTINUOUS
 62
     5
 10
61.869562577417582
 20
-283.52041126006873
 30
0.0
 11
61.918962063094114
 21
-283.52623355048638
 31
0.0
  0
LINE
  8
DETAIL
  6
CONTINUOUS
 62
     5
 10
61.918962063094114
 20
-283.52623355048638
 30
0.0
 11
61.968453608245227
 21
-283.53127915741629
 31
0.0
  0
LINE
  8
DETAIL
  6
CONTINUOUS
 62
     5
 10
61.968453608245227
 20
-283.53127915741629
 30
0.0
 11
61.968453608245227
 21
-283.53127915741629
 31
0.0
  0
LINE
  8
DETAIL
  6
CONTINUOUS
 62
     5
 10
61.968453608245227
 20
-283.53127915741629
 30
0.0
 11
62.018010239245093
 21
-283.53554284352799
 31
0.0
  0
LINE
  8
DETAIL
  6
CONTINUOUS
 62
     5
 10
62.018010239245093
 20
-283.53554284352799
 30
0.0
 11
62.067619141037987
 21
-283.53905176892488
 31
0.0
  0
LINE
  8
DETAIL
  6
CONTINUOUS
 62
     5
 10
62.067619141037987
 20
-283.53905176892488
 30
0.0
 11
62.067619141037987
 21
-283.53905176892488
 31
0.0
  0
LINE
  8
DETAIL
  6
CONTINUOUS
 62
     5
 10
62.067619141037987
 20
-283.53905176892488
 30
0.0
 11
62.117269513959847
 21
-283.54181304074552
 31
0.0
  0
LINE
  8
DETAIL
  6
CONTINUOUS
 62
     5
 10
62.117269513959847
 20
-283.54181304074552
 30
0.0
 11
62.166944461350788
 21
-283.54372115684532
 31
0.0
  0
LINE
  8
DETAIL
  6
CONTINUOUS
 62
     5
 10
62.166944461350788
 20
-283.54372115684532
 30
0.0
 11
62.166944461350788
 21
-283.54372115684532
 31
0.0
  0
LINE
  8
DETAIL
  6
CONTINUOUS
 62
     5
 10
62.166944461350788
 20
-283.54372115684532
 30
0.0
 11
62.216628119655979
 21
-283.54474697268438
 31
0.0
  0
LINE
  8
DETAIL
  6
CONTINUOUS
 62
     5
 10
62.216628119655979
 20
-283.54474697268438
 30
0.0
 11
62.266314854740592
 21
-283.54527938342972
 31
0.0
  0
LINE
  8
DETAIL
  6
CONTINUOUS
 62
     5
 10
182.64666216485239
 20
-18.535645475314819
 30
0.0
 11
182.72843062572591
 21
-18.534934555691049
 31
0.0
  0
LINE
  8
DETAIL
  6
CONTINUOUS
 62
     5
 10
182.72843062572591
 20
-18.534934555691049
 30
0.0
 11
182.8101999553916
 21
-18.53357019709949
 31
0.0
  0
LINE
  8
DETAIL
  6
CONTINUOUS
 62
     5
 10
182.8101999553916
 20
-18.53357019709949
 30
0.0
 11
182.8101999553916
 21
-18.53357019709949
 31
0.0
  0
LINE
  8
DETAIL
  6
CONTINUOUS
 62
     5
 10
182.8101999553916
 20
-18.53357019709949
 30
0.0
 11
182.8919640989939
 21
-18.53103939244966
 31
0.0
  0
LINE
  8
DETAIL
  6
CONTINUOUS
 62
     5
 10
182.8919640989939
 20
-18.53103939244966
 30
0.0
 11
182.97368930708669
 21
-18.52739086216604
 31
0.0
  0
LINE
  8
DETAIL
  6
CONTINUOUS
 62
     5
 10
182.97368930708669
 20
-18.52739086216604
 30
0.0
 11
182.97368930708669
 21
-18.52739086216604
 31
0.0
  0
LINE
  8
DETAIL
  6
CONTINUOUS
 62
     5
 10
182.97368930708669
 20
-18.52739086216604
 30
0.0
 11
183.0553541182544
 21
-18.522773755651539
 31
0.0
  0
LINE
  8
DETAIL
  6
CONTINUOUS
 62
     5
 10
183.0553541182544
 20
-18.522773755651539
 30
0.0
 11
183.13701391779301
 21
-18.517177210714411
 31
0.0
  0
LINE
  8
DETAIL
  6
CONTINUOUS
 62
     5
 10
183.13701391779301
 20
-18.517177210714411
 30
0.0
 11
183.13701391779301
 21
-18.517177210714411
 31
0.0
  0
LINE
  8
DETAIL
  6
CONTINUOUS
 62
     5
 10
183.13701391779301
 20
-18.517177210714411
 30
0.0
 11
183.21867337961319
 21
-18.510569941979611
 31
0.0
  0
LINE
  8
DETAIL
  6
CONTINUOUS
 62
     5
 10
183.21867337961319
 20
-18.510569941979611
 30
0.0
 11
183.30005748536499
 21
-18.50299898294486
 31
0.0
  0
LINE
  8
DETAIL
  6
CONTINUOUS
 62
     5
 10
183.30005748536499
 20
-18.50299898294486
 30
0.0
 11
183.30005748536499
 21
-18.50299898294486
 31
0.0
  0
LINE
  8
DETAIL
  6
CONTINUOUS
 62
     5
 10
183.30005748536499
 20
-18.50299898294486
 30
0.0
 11
183.38108177421461
 21
-18.49449263085296
 31
0.0
  0
LINE
  8
DETAIL
  6
CONTINUOUS
 62
     5
 10
183.38108177421461
 20
-18.49449263085296
 30
0.0
 11
183.4627037076566
 21
-18.484925919057559
 31
0.0
  0
LINE
  8
DETAIL
  6
CONTINUOUS
 62
     5
 10
183.4627037076566
 20
-18.484925919057559
 30
0.0
 11
183.4627037076566
 21
-18.484925919057559
 31
0.0
  0
LINE
  8
DETAIL
  6
CONTINUOUS
 62
     5
 10
183.4627037076566
 20
-18.484925919057559
 30
0.0
 11
183.54573301499479
 21
-18.47418841799276
 31
0.0
  0
LINE
  8
DETAIL
  6
CONTINUOUS
 62
     5
 10
183.54573301499479
 20
-18.47418841799276
 30
0.0
 11
183.62934657444609
 21
-18.462381110304701
 31
0.0
  0
LINE
  8
DETAIL
  6
CONTINUOUS
 62
     5
 10
183.62934657444609
 20
-18.462381110304701
 30
0.0
 11
183.62934657444609
 21
-18.462381110304701
 31
0.0
  0
LINE
  8
DETAIL
  6
CONTINUOUS
 62
     5
 10
183.62934657444609
 20
-18.462381110304701
 30
0.0
 11
183.71256315327631
 21
-18.449632042155489
 31
0.0
  0
LINE
  8
DETAIL
  6
CONTINUOUS
 62
     5
 10
183.71256315327631
 20
-18.449632042155489
 30
0.0
 11
183.79540192603599
 21
-18.43596610156419
 31
0.0
  0
LINE
  8
DETAIL
  6
CONTINUOUS
 62
     5
 10
183.79540192603599
 20
-18.43596610156419
 30
0.0
 11
183.79540192603599
 21
-18.43596610156419
 31
0.0
  0
LINE
  8
DETAIL
  6
CONTINUOUS
 62
     5
 10
183.79540192603599
 20
-18.43596610156419
 30
0.0
 11
183.8781073788405
 21
-18.421378802234809
 31
0.0
  0
LINE
  8
DETAIL
  6
CONTINUOUS
 62
     5
 10
183.8781073788405
 20
-18.421378802234809
 30
0.0
 11
183.96082483677989
 21
-18.40585131875218
 31
0.0
  0
LINE
  8
DETAIL
  6
CONTINUOUS
 62
     5
 10
183.96082483677989
 20
-18.40585131875218
 30
0.0
 11
183.96082483677989
 21
-18.40585131875218
 31
0.0
  0
LINE
  8
DETAIL
  6
CONTINUOUS
 62
     5
 10
183.96082483677989
 20
-18.40585131875218
 30
0.0
 11
184.04352389389351
 21
-18.389401369575811
 31
0.0
  0
LINE
  8
DETAIL
  6
CONTINUOUS
 62
     5
 10
184.04352389389351
 20
-18.389401369575811
 30
0.0
 11
184.12557038103429
 21
-18.372207187782919
 31
0.0
  0
LINE
  8
DETAIL
  6
CONTINUOUS
 62
     5
 10
184.12557038103429
 20
-18.372207187782919
 30
0.0
 11
184.12557038103429
 21
-18.372207187782919
 31
0.0
  0
LINE
  8
DETAIL
  6
CONTINUOUS
 62
     5
 10
184.12557038103429
 20
-18.372207187782919
 30
0.0
 11
184.20680774170111
 21
-18.354330205266251
 31
0.0
  0
LINE
  8
DETAIL
  6
CONTINUOUS
 62
     5
 10
184.20680774170111
 20
-18.354330205266251
 30
0.0
 11
184.28959363315289
 21
-18.335204134571772
 31
0.0
  0
LINE
  8
DETAIL
  6
CONTINUOUS
 62
     5
 10
184.28959363315289
 20
-18.335204134571772
 30
0.0
 11
184.28959363315289
 21
-18.335204134571772
 31
0.0
  0
LINE
  8
DETAIL
  6
CONTINUOUS
 62
     5
 10
184.28959363315289
 20
-18.335204134571772
 30
0.0
 11
184.3759142377676
 21
-18.31434349426581
 31
0.0
  0
LINE
  8
DETAIL
  6
CONTINUOUS
 62
     5
 10
184.3759142377676
 20
-18.31434349426581
 30
0.0
 11
184.4637556246316
 21
-18.29221374634756
 31
0.0
  0
LINE
  8
DETAIL
  6
CONTINUOUS
 62
     5
 10
184.4637556246316
 20
-18.29221374634756
 30
0.0
 11
184.4637556246316
 21
-18.29221374634756
 31
0.0
  0
LINE
  8
DETAIL
  6
CONTINUOUS
 62
     5
 10
184.4637556246316
 20
-18.29221374634756
 30
0.0
 11
184.55074005997199
 21
-18.269373886132829
 31
0.0
  0
LINE
  8
DETAIL
  6
CONTINUOUS
 62
     5
 10
184.55074005997199
 20
-18.269373886132829
 30
0.0
 11
184.6370347118625
 21
-18.24580609876682
 31
0.0
  0
LINE
  8
DETAIL
  6
CONTINUOUS
 62
     5
 10
184.6370347118625
 20
-18.24580609876682
 30
0.0
 11
184.6370347118625
 21
-18.24580609876682
 31
0.0
  0
LINE
  8
DETAIL
  6
CONTINUOUS
 62
     5
 10
184.6370347118625
 20
-18.24580609876682
 30
0.0
 11
184.7232746123191
 21
-18.221392724435191
 31
0.0
  0
LINE
  8
DETAIL
  6
CONTINUOUS
 62
     5
 10
184.7232746123191
 20
-18.221392724435191
 30
0.0
 11
184.8094213472782
 21
-18.196193533655109
 31
0.0
  0
LINE
  8
DETAIL
  6
CONTINUOUS
 62
     5
 10
184.8094213472782
 20
-18.196193533655109
 30
0.0
 11
184.8094213472782
 21
-18.196193533655109
 31
0.0
  0
LINE
  8
DETAIL
  6
CONTINUOUS
 62
     5
 10
184.8094213472782
 20
-18.196193533655109
 30
0.0
 11
184.89530536177381
 21
-18.170279426738031
 31
0.0
  0
LINE
  8
DETAIL
  6
CONTINUOUS
 62
     5
 10
184.89530536177381
 20
-18.170279426738031
 30
0.0
 11
184.98090598331041
 21
-18.1435883928383
 31
0.0
  0
LINE
  8
DETAIL
  6
CONTINUOUS
 62
     5
 10
184.98090598331041
 20
-18.1435883928383
 30
0.0
 11
184.98090598331041
 21
-18.1435883928383
 31
0.0
  0
LINE
  8
DETAIL
  6
CONTINUOUS
 62
     5
 10
184.98090598331041
 20
-18.1435883928383
 30
0.0
 11
185.0662592390604
 21
-18.116113746894371
 31
0.0
  0
LINE
  8
DETAIL
  6
CONTINUOUS
 62
     5
 10
185.0662592390604
 20
-18.116113746894371
 30
0.0
 11
185.15147907239211
 21
-18.088203018141829
 31
0.0
  0
LINE
  8
DETAIL
  6
CONTINUOUS
 62
     5
 10
180.14184516102389
 20
-18.088203018141829
 30
0.0
 11
180.22703823891109
 21
-18.116105148904349
 31
0.0
  0
LINE
  8
DETAIL
  6
CONTINUOUS
 62
     5
 10
180.22703823891109
 20
-18.116105148904349
 30
0.0
 11
180.31236477279211
 21
-18.143571503692669
 31
0.0
  0
LINE
  8
DETAIL
  6
CONTINUOUS
 62
     5
 10
180.31236477279211
 20
-18.143571503692669
 30
0.0
 11
180.31236477279211
 21
-18.143571503692669
 31
0.0
  0
LINE
  8
DETAIL
  6
CONTINUOUS
 62
     5
 10
180.31236477279211
 20
-18.143571503692669
 30
0.0
 11
180.3979386305659
 21
-18.17025477785262
 31
0.0
  0
LINE
  8
DETAIL
  6
CONTINUOUS
 62
     5
 10
180.3979386305659
 20
-18.17025477785262
 30
0.0
 11
180.48379532775289
 21
-18.196161552010949
 31
0.0
  0
LINE
  8
DETAIL
  6
CONTINUOUS
 62
     5
 10
180.48379532775289
 20
-18.196161552010949
 30
0.0
 11
180.48379532775289
 21
-18.196161552010949
 31
0.0
  0
LINE
  8
DETAIL
  6
CONTINUOUS
 62
     5
 10
180.48379532775289
 20
-18.196161552010949
 30
0.0
 11
180.5699140882507
 21
-18.221353780041341
 31
0.0
  0
LINE
  8
DETAIL
  6
CONTINUOUS
 62
     5
 10
180.5699140882507
 20
-18.221353780041341
 30
0.0
 11
180.6561273218384
 21
-18.245761023527049
 31
0.0
  0
LINE
  8
DETAIL
  6
CONTINUOUS
 62
     5
 10
180.6561273218384
 20
-18.245761023527049
 30
0.0
 11
180.6561273218384
 21
-18.245761023527049
 31
0.0
  0
LINE
  8
DETAIL
  6
CONTINUOUS
 62
     5
 10
180.6561273218384
 20
-18.245761023527049
 30
0.0
 11
180.74239713697901
 21
-18.26932366694939
 31
0.0
  0
LINE
  8
DETAIL
  6
CONTINUOUS
 62
     5
 10
180.74239713697901
 20
-18.26932366694939
 30
0.0
 11
180.82935125098041
 21
-18.29215777867034
 31
0.0
  0
LINE
  8
DETAIL
  6
CONTINUOUS
 62
     5
 10
180.82935125098041
 20
-18.29215777867034
 30
0.0
 11
180.82935125098041
 21
-18.29215777867034
 31
0.0
  0
LINE
  8
DETAIL
  6
CONTINUOUS
 62
     5
 10
180.82935125098041
 20
-18.29215777867034
 30
0.0
 11
180.91715487804501
 21
-18.314280762214821
 31
0.0
  0
LINE
  8
DETAIL
  6
CONTINUOUS
 62
     5
 10
180.91715487804501
 20
-18.314280762214821
 30
0.0
 11
181.00345761111001
 21
-18.335139677870529
 31
0.0
  0
LINE
  8
DETAIL
  6
CONTINUOUS
 62
     5
 10
181.00345761111001
 20
-18.335139677870529
 30
0.0
 11
181.00345761111001
 21
-18.335139677870529
 31
0.0
  0
LINE
  8
DETAIL
  6
CONTINUOUS
 62
     5
 10
181.00345761111001
 20
-18.335139677870529
 30
0.0
 11
181.086268632605
 21
-18.354274042402949
 31
0.0
  0
LINE
  8
DETAIL
  6
CONTINUOUS
 62
     5
 10
181.086268632605
 20
-18.354274042402949
 30
0.0
 11
181.1675511041976
 21
-18.37216354172244
 31
0.0
  0
LINE
  8
DETAIL
  6
CONTINUOUS
 62
     5
 10
181.1675511041976
 20
-18.37216354172244
 30
0.0
 11
181.1675511041976
 21
-18.37216354172244
 31
0.0
  0
LINE
  8
DETAIL
  6
CONTINUOUS
 62
     5
 10
181.1675511041976
 20
-18.37216354172244
 30
0.0
 11
181.24963550222671
 21
-18.3893677701775
 31
0.0
  0
LINE
  8
DETAIL
  6
CONTINUOUS
 62
     5
 10
181.24963550222671
 20
-18.3893677701775
 30
0.0
 11
181.33236758247949
 21
-18.40582578672479
 31
0.0
  0
LINE
  8
DETAIL
  6
CONTINUOUS
 62
     5
 10
181.33236758247949
 20
-18.40582578672479
 30
0.0
 11
181.33236758247949
 21
-18.40582578672479
 31
0.0
  0
LINE
  8
DETAIL
  6
CONTINUOUS
 62
     5
 10
181.33236758247949
 20
-18.40582578672479
 30
0.0
 11
181.41512053965829
 21
-18.421361126388319
 31
0.0
  0
LINE
  8
DETAIL
  6
CONTINUOUS
 62
     5
 10
181.41512053965829
 20
-18.421361126388319
 30
0.0
 11
181.49786204468589
 21
-18.435955763852689
 31
0.0
  0
LINE
  8
DETAIL
  6
CONTINUOUS
 62
     5
 10
181.49786204468589
 20
-18.435955763852689
 30
0.0
 11
181.49786204468589
 21
-18.435955763852689
 31
0.0
  0
LINE
  8
DETAIL
  6
CONTINUOUS
 62
     5
 10
181.49786204468589
 20
-18.435955763852689
 30
0.0
 11
181.58073509145791
 21
-18.449627977905038
 31
0.0
  0
LINE
  8
DETAIL
  6
CONTINUOUS
 62
     5
 10
181.58073509145791
 20
-18.449627977905038
 30
0.0
 11
181.66398948954591
 21
-18.462382824081711
 31
0.0
  0
LINE
  8
DETAIL
  6
CONTINUOUS
 62
     5
 10
181.66398948954591
 20
-18.462382824081711
 30
0.0
 11
181.66398948954591
 21
-18.462382824081711
 31
0.0
  0
LINE
  8
DETAIL
  6
CONTINUOUS
 62
     5
 10
181.66398948954591
 20
-18.462382824081711
 30
0.0
 11
181.74764631771089
 21
-18.474195665441361
 31
0.0
  0
LINE
  8
DETAIL
  6
CONTINUOUS
 62
     5
 10
181.74764631771089
 20
-18.474195665441361
 30
0.0
 11
181.83070491579039
 21
-18.484936318386989
 31
0.0
  0
LINE
  8
DETAIL
  6
CONTINUOUS
 62
     5
 10
181.83070491579039
 20
-18.484936318386989
 30
0.0
 11
181.83070491579039
 21
-18.484936318386989
 31
0.0
  0
LINE
  8
DETAIL
  6
CONTINUOUS
 62
     5
 10
181.83070491579039
 20
-18.484936318386989
 30
0.0
 11
181.91232561761581
 21
-18.49450208168173
 31
0.0
  0
LINE
  8
DETAIL
  6
CONTINUOUS
 62
     5
 10
181.91232561761581
 20
-18.49450208168173
 30
0.0
 11
181.99333447191071
 21
-18.503005730183649
 31
0.0
  0
LINE
  8
DETAIL
  6
CONTINUOUS
 62
     5
 10
181.99333447191071
 20
-18.503005730183649
 30
0.0
 11
181.99333447191071
 21
-18.503005730183649
 31
0.0
  0
LINE
  8
DETAIL
  6
CONTINUOUS
 62
     5
 10
181.99333447191071
 20
-18.503005730183649
 30
0.0
 11
182.07470829186721
 21
-18.510574882800821
 31
0.0
  0
LINE
  8
DETAIL
  6
CONTINUOUS
 62
     5
 10
182.07470829186721
 20
-18.510574882800821
 30
0.0
 11
182.15636123366451
 21
-18.51718105853627
 31
0.0
  0
LINE
  8
DETAIL
  6
CONTINUOUS
 62
     5
 10
182.15636123366451
 20
-18.51718105853627
 30
0.0
 11
182.15636123366451
 21
-18.51718105853627
 31
0.0
  0
LINE
  8
DETAIL
  6
CONTINUOUS
 62
     5
 10
182.15636123366451
 20
-18.51718105853627
 30
0.0
 11
182.2380131006997
 21
-18.52277651906968
 31
0.0
  0
LINE
  8
DETAIL
  6
CONTINUOUS
 62
     5
 10
182.2380131006997
 20
-18.52277651906968
 30
0.0
 11
182.31966894226429
 21
-18.527392596683061
 31
0.0
  0
LINE
  8
DETAIL
  6
CONTINUOUS
 62
     5
 10
182.31966894226429
 20
-18.527392596683061
 30
0.0
 11
182.31966894226429
 21
-18.527392596683061
 31
0.0
  0
LINE
  8
DETAIL
  6
CONTINUOUS
 62
     5
 10
182.31966894226429
 20
-18.527392596683061
 30
0.0
 11
182.4013855374819
 21
-18.531040345682872
 31
0.0
  0
LINE
  8
DETAIL
  6
CONTINUOUS
 62
     5
 10
182.4013855374819
 20
-18.531040345682872
 30
0.0
 11
182.48314133892271
 21
-18.533570637863249
 31
0.0
  0
LINE
  8
DETAIL
  6
CONTINUOUS
 62
     5
 10
182.48314133892271
 20
-18.533570637863249
 30
0.0
 11
182.48314133892271
 21
-18.533570637863249
 31
0.0
  0
LINE
  8
DETAIL
  6
CONTINUOUS
 62
     5
 10
182.48314133892271
 20
-18.533570637863249
 30
0.0
 11
182.56490223259931
 21
-18.5349347142519
 31
0.0
  0
LINE
  8
DETAIL
  6
CONTINUOUS
 62
     5
 10
182.56490223259931
 20
-18.5349347142519
 30
0.0
 11
182.64666216485239
 21
-18.535645475314819
 31
0.0
  0
LINE
  8
DETAIL
  6
CONTINUOUS
 62
     5
 10
177.6370282053397
 20
-18.53564547206145
 30
0.0
 11
177.71879666698621
 21
-18.534934552959161
 31
0.0
  0
LINE
  8
DETAIL
  6
CONTINUOUS
 62
     5
 10
177.71879666698621
 20
-18.534934552959161
 30
0.0
 11
177.8005659974219
 21
-18.53357019498139
 31
0.0
  0
LINE
  8
DETAIL
  6
CONTINUOUS
 62
     5
 10
177.8005659974219
 20
-18.53357019498139
 30
0.0
 11
177.8005659974219
 21
-18.53357019498139
 31
0.0
  0
LINE
  8
DETAIL
  6
CONTINUOUS
 62
     5
 10
177.8005659974219
 20
-18.53357019498139
 30
0.0
 11
177.88233014178789
 21
-18.531039391104741
 31
0.0
  0
LINE
  8
DETAIL
  6
CONTINUOUS
 62
     5
 10
177.88233014178789
 20
-18.531039391104741
 30
0.0
 11
177.9640553506288
 21
-18.52739086171437
 31
0.0
  0
LINE
  8
DETAIL
  6
CONTINUOUS
 62
     5
 10
177.9640553506288
 20
-18.52739086171437
 30
0.0
 11
177.9640553506288
 21
-18.52739086171437
 31
0.0
  0
LINE
  8
DETAIL
  6
CONTINUOUS
 62
     5
 10
177.9640553506288
 20
-18.52739086171437
 30
0.0
 11
178.0457201625288
 21
-18.522773756154042
 31
0.0
  0
LINE
  8
DETAIL
  6
CONTINUOUS
 62
     5
 10
178.0457201625288
 20
-18.522773756154042
 30
0.0
 11
178.12737996282451
 21
-18.517177212195069
 31
0.0
  0
LINE
  8
DETAIL
  6
CONTINUOUS
 62
     5
 10
178.12737996282451
 20
-18.517177212195069
 30
0.0
 11
178.12737996282451
 21
-18.517177212195069
 31
0.0
  0
LINE
  8
DETAIL
  6
CONTINUOUS
 62
     5
 10
178.12737996282451
 20
-18.517177212195069
 30
0.0
 11
178.2090394254374
 21
-18.510569944435929
 31
0.0
  0
LINE
  8
DETAIL
  6
CONTINUOUS
 62
     5
 10
178.2090394254374
 20
-18.510569944435929
 30
0.0
 11
178.29042353187199
 21
-18.502998986357738
 31
0.0
  0
LINE
  8
DETAIL
  6
CONTINUOUS
 62
     5
 10
178.29042353187199
 20
-18.502998986357738
 30
0.0
 11
178.29042353187199
 21
-18.502998986357738
 31
0.0
  0
LINE
  8
DETAIL
  6
CONTINUOUS
 62
     5
 10
178.29042353187199
 20
-18.502998986357738
 30
0.0
 11
178.37144782125779
 21
-18.49449263517295
 31
0.0
  0
LINE
  8
DETAIL
  6
CONTINUOUS
 62
     5
 10
178.37144782125779
 20
-18.49449263517295
 30
0.0
 11
178.45306975563469
 21
-18.484925924136292
 31
0.0
  0
LINE
  8
DETAIL
  6
CONTINUOUS
 62
     5
 10
178.45306975563469
 20
-18.484925924136292
 30
0.0
 11
178.45306975563469
 21
-18.484925924136292
 31
0.0
  0
LINE
  8
DETAIL
  6
CONTINUOUS
 62
     5
 10
178.45306975563469
 20
-18.484925924136292
 30
0.0
 11
178.53609906476859
 21
-18.474188423596392
 31
0.0
  0
LINE
  8
DETAIL
  6
CONTINUOUS
 62
     5
 10
178.53609906476859
 20
-18.474188423596392
 30
0.0
 11
178.6197126264133
 21
-18.46238111624314
 31
0.0
  0
LINE
  8
DETAIL
  6
CONTINUOUS
 62
     5
 10
178.6197126264133
 20
-18.46238111624314
 30
0.0
 11
178.6197126264133
 21
-18.46238111624314
 31
0.0
  0
LINE
  8
DETAIL
  6
CONTINUOUS
 62
     5
 10
178.6197126264133
 20
-18.46238111624314
 30
0.0
 11
178.70292920728789
 21
-18.44963204830356
 31
0.0
  0
LINE
  8
DETAIL
  6
CONTINUOUS
 62
     5
 10
178.70292920728789
 20
-18.44963204830356
 30
0.0
 11
178.7857679819808
 21
-18.435966107809239
 31
0.0
  0
LINE
  8
DETAIL
  6
CONTINUOUS
 62
     5
 10
178.7857679819808
 20
-18.435966107809239
 30
0.0
 11
178.7857679819808
 21
-18.435966107809239
 31
0.0
  0
LINE
  8
DETAIL
  6
CONTINUOUS
 62
     5
 10
178.7857679819808
 20
-18.435966107809239
 30
0.0
 11
178.8684734367537
 21
-18.42137880846678
 31
0.0
  0
LINE
  8
DETAIL
  6
CONTINUOUS
 62
     5
 10
178.8684734367537
 20
-18.42137880846678
 30
0.0
 11
178.9511908966924
 21
-18.405851324877631
 31
0.0
  0
LINE
  8
DETAIL
  6
CONTINUOUS
 62
     5
 10
178.9511908966924
 20
-18.405851324877631
 30
0.0
 11
178.9511908966924
 21
-18.405851324877631
 31
0.0
  0
LINE
  8
DETAIL
  6
CONTINUOUS
 62
     5
 10
178.9511908966924
 20
-18.405851324877631
 30
0.0
 11
179.03388995579689
 21
-18.38940137552072
 31
0.0
  0
LINE
  8
DETAIL
  6
CONTINUOUS
 62
     5
 10
179.03388995579689
 20
-18.38940137552072
 30
0.0
 11
179.11593644490361
 21
-18.372207193491821
 31
0.0
  0
LINE
  8
DETAIL
  6
CONTINUOUS
 62
     5
 10
179.11593644490361
 20
-18.372207193491821
 30
0.0
 11
179.11593644490361
 21
-18.372207193491821
 31
0.0
  0
LINE
  8
DETAIL
  6
CONTINUOUS
 62
     5
 10
179.11593644490361
 20
-18.372207193491821
 30
0.0
 11
179.19717380751541
 21
-18.354330210701281
 31
0.0
  0
LINE
  8
DETAIL
  6
CONTINUOUS
 62
     5
 10
179.19717380751541
 20
-18.354330210701281
 30
0.0
 11
179.27995970096981
 21
-18.335204139695179
 31
0.0
  0
LINE
  8
DETAIL
  6
CONTINUOUS
 62
     5
 10
179.27995970096981
 20
-18.335204139695179
 30
0.0
 11
179.27995970096981
 21
-18.335204139695179
 31
0.0
  0
LINE
  8
DETAIL
  6
CONTINUOUS
 62
     5
 10
179.27995970096981
 20
-18.335204139695179
 30
0.0
 11
179.366280307707
 21
-18.314343499040429
 31
0.0
  0
LINE
  8
DETAIL
  6
CONTINUOUS
 62
     5
 10
179.366280307707
 20
-18.314343499040429
 30
0.0
 11
179.45412169674461
 21
-18.29221375074485
 31
0.0
  0
LINE
  8
DETAIL
  6
CONTINUOUS
 62
     5
 10
179.45412169674461
 20
-18.29221375074485
 30
0.0
 11
179.45412169674461
 21
-18.29221375074485
 31
0.0
  0
LINE
  8
DETAIL
  6
CONTINUOUS
 62
     5
 10
179.45412169674461
 20
-18.29221375074485
 30
0.0
 11
179.5411061342279
 21
-18.269373890131529
 31
0.0
  0
LINE
  8
DETAIL
  6
CONTINUOUS
 62
     5
 10
179.5411061342279
 20
-18.269373890131529
 30
0.0
 11
179.62740078823299
 21
-18.2458061023375
 31
0.0
  0
LINE
  8
DETAIL
  6
CONTINUOUS
 62
     5
 10
179.62740078823299
 20
-18.2458061023375
 30
0.0
 11
179.62740078823299
 21
-18.2458061023375
 31
0.0
  0
LINE
  8
DETAIL
  6
CONTINUOUS
 62
     5
 10
179.62740078823299
 20
-18.2458061023375
 30
0.0
 11
179.7136406907924
 21
-18.2213927275393
 31
0.0
  0
LINE
  8
DETAIL
  6
CONTINUOUS
 62
     5
 10
179.7136406907924
 20
-18.2213927275393
 30
0.0
 11
179.79978742783939
 21
-18.196193536250352
 31
0.0
  0
LINE
  8
DETAIL
  6
CONTINUOUS
 62
     5
 10
179.79978742783939
 20
-18.196193536250352
 30
0.0
 11
179.79978742783939
 21
-18.196193536250352
 31
0.0
  0
LINE
  8
DETAIL
  6
CONTINUOUS
 62
     5
 10
179.79978742783939
 20
-18.196193536250352
 30
0.0
 11
179.88567144439929
 21
-18.1702794287778
 31
0.0
  0
LINE
  8
DETAIL
  6
CONTINUOUS
 62
     5
 10
179.88567144439929
 20
-18.1702794287778
 30
0.0
 11
179.97127206796841
 21
-18.143588394259719
 31
0.0
  0
LINE
  8
DETAIL
  6
CONTINUOUS
 62
     5
 10
179.97127206796841
 20
-18.143588394259719
 30
0.0
 11
179.97127206796841
 21
-18.143588394259719
 31
0.0
  0
LINE
  8
DETAIL
  6
CONTINUOUS
 62
     5
 10
179.97127206796841
 20
-18.143588394259719
 30
0.0
 11
180.0566253257152
 21
-18.116113747625722
 31
0.0
  0
LINE
  8
DETAIL
  6
CONTINUOUS
 62
     5
 10
180.0566253257152
 20
-18.116113747625722
 30
0.0
 11
180.14184516102389
 21
-18.088203018141829
 31
0.0
  0
LINE
  8
DETAIL
  6
CONTINUOUS
 62
     5
 10
175.13221124965591
 20
-18.088203018141829
 30
0.0
 11
175.21740432738531
 21
-18.116105148903561
 31
0.0
  0
LINE
  8
DETAIL
  6
CONTINUOUS
 62
     5
 10
175.21740432738531
 20
-18.116105148903561
 30
0.0
 11
175.30273086113721
 21
-18.143571503691419
 31
0.0
  0
LINE
  8
DETAIL
  6
CONTINUOUS
 62
     5
 10
175.30273086113721
 20
-18.143571503691419
 30
0.0
 11
175.30273086113721
 21
-18.143571503691419
 31
0.0
  0
LINE
  8
DETAIL
  6
CONTINUOUS
 62
     5
 10
175.30273086113721
 20
-18.143571503691419
 30
0.0
 11
175.38830471883139
 21
-18.170254777851259
 31
0.0
  0
LINE
  8
DETAIL
  6
CONTINUOUS
 62
     5
 10
175.38830471883139
 20
-18.170254777851259
 30
0.0
 11
175.47416141597839
 21
-18.196161552009809
 31
0.0
  0
LINE
  8
DETAIL
  6
CONTINUOUS
 62
     5
 10
175.47416141597839
 20
-18.196161552009809
 30
0.0
 11
175.47416141597839
 21
-18.196161552009809
 31
0.0
  0
LINE
  8
DETAIL
  6
CONTINUOUS
 62
     5
 10
175.47416141597839
 20
-18.196161552009809
 30
0.0
 11
175.56028017646119
 21
-18.221353780040889
 31
0.0
  0
LINE
  8
DETAIL
  6
CONTINUOUS
 62
     5
 10
175.56028017646119
 20
-18.221353780040889
 30
0.0
 11
175.6464934100527
 21
-18.245761023528981
 31
0.0
  0
LINE
  8
DETAIL
  6
CONTINUOUS
 62
     5
 10
175.6464934100527
 20
-18.245761023528981
 30
0.0
 11
175.6464934100527
 21
-18.245761023528981
 31
0.0
  0
LINE
  8
DETAIL
  6
CONTINUOUS
 62
     5
 10
175.6464934100527
 20
-18.245761023528981
 30
0.0
 11
175.7327632252113
 21
-18.269323666955419
 31
0.0
  0
LINE
  8
DETAIL
  6
CONTINUOUS
 62
     5
 10
175.7327632252113
 20
-18.269323666955419
 30
0.0
 11
175.81971733923339
 21
-18.292157778682391
 31
0.0
  0
LINE
  8
DETAIL
  6
CONTINUOUS
 62
     5
 10
175.81971733923339
 20
-18.292157778682391
 30
0.0
 11
175.81971733923339
 21
-18.292157778682391
 31
0.0
  0
LINE
  8
DETAIL
  6
CONTINUOUS
 62
     5
 10
175.81971733923339
 20
-18.292157778682391
 30
0.0
 11
175.9075209663126
 21
-18.31428076223494
 31
0.0
  0
LINE
  8
DETAIL
  6
CONTINUOUS
 62
     5
 10
175.9075209663126
 20
-18.31428076223494
 30
0.0
 11
175.99382369939281
 21
-18.33513967790384
 31
0.0
  0
LINE
  8
DETAIL
  6
CONTINUOUS
 62
     5
 10
175.99382369939281
 20
-18.33513967790384
 30
0.0
 11
175.99382369939281
 21
-18.33513967790384
 31
0.0
  0
LINE
  8
DETAIL
  6
CONTINUOUS
 62
     5
 10
175.99382369939281
 20
-18.33513967790384
 30
0.0
 11
176.0766347209096
 21
-18.354274042455131
 31
0.0
  0
LINE
  8
DETAIL
  6
CONTINUOUS
 62
     5
 10
176.0766347209096
 20
-18.354274042455131
 30
0.0
 11
176.1579171925116
 21
-18.372163541794979
 31
0.0
  0
LINE
  8
DETAIL
  6
CONTINUOUS
 62
     5
 10
176.1579171925116
 20
-18.372163541794979
 30
0.0
 11
176.1579171925116
 21
-18.372163541794979
 31
0.0
  0
LINE
  8
DETAIL
  6
CONTINUOUS
 62
     5
 10
176.1579171925116
 20
-18.372163541794979
 30
0.0
 11
176.24000159052781
 21
-18.389367770264808
 31
0.0
  0
LINE
  8
DETAIL
  6
CONTINUOUS
 62
     5
 10
176.24000159052781
 20
-18.389367770264808
 30
0.0
 11
176.32273367078821
 21
-18.405825786823129
 31
0.0
  0
LINE
  8
DETAIL
  6
CONTINUOUS
 62
     5
 10
176.32273367078821
 20
-18.405825786823129
 30
0.0
 11
176.32273367078821
 21
-18.405825786823129
 31
0.0
  0
LINE
  8
DETAIL
  6
CONTINUOUS
 62
     5
 10
176.32273367078821
 20
-18.405825786823129
 30
0.0
 11
176.40548662801211
 21
-18.42136112649337
 31
0.0
  0
LINE
  8
DETAIL
  6
CONTINUOUS
 62
     5
 10
176.40548662801211
 20
-18.42136112649337
 30
0.0
 11
176.48822813297599
 21
-18.43595576394091
 31
0.0
  0
LINE
  8
DETAIL
  6
CONTINUOUS
 62
     5
 10
176.48822813297599
 20
-18.43595576394091
 30
0.0
 11
176.48822813297599
 21
-18.43595576394091
 31
0.0
  0
LINE
  8
DETAIL
  6
CONTINUOUS
 62
     5
 10
176.48822813297599
 20
-18.43595576394091
 30
0.0
 11
176.5711011795388
 21
-18.449627977944939
 31
0.0
  0
LINE
  8
DETAIL
  6
CONTINUOUS
 62
     5
 10
176.5711011795388
 20
-18.449627977944939
 30
0.0
 11
176.6543555778276
 21
-18.46238282409945
 31
0.0
  0
LINE
  8
DETAIL
  6
CONTINUOUS
 62
     5
 10
176.6543555778276
 20
-18.46238282409945
 30
0.0
 11
176.6543555778276
 21
-18.46238282409945
 31
0.0
  0
LINE
  8
DETAIL
  6
CONTINUOUS
 62
     5
 10
176.6543555778276
 20
-18.46238282409945
 30
0.0
 11
176.7380124067536
 21
-18.474195665475801
 31
0.0
  0
LINE
  8
DETAIL
  6
CONTINUOUS
 62
     5
 10
176.7380124067536
 20
-18.474195665475801
 30
0.0
 11
176.82107100409621
 21
-18.484936318250899
 31
0.0
  0
LINE
  8
DETAIL
  6
CONTINUOUS
 62
     5
 10
176.82107100409621
 20
-18.484936318250899
 30
0.0
 11
176.82107100409621
 21
-18.484936318250899
 31
0.0
  0
LINE
  8
DETAIL
  6
CONTINUOUS
 62
     5
 10
176.82107100409621
 20
-18.484936318250899
 30
0.0
 11
176.9026917019437
 21
-18.494502081006662
 31
0.0
  0
LINE
  8
DETAIL
  6
CONTINUOUS
 62
     5
 10
176.9026917019437
 20
-18.494502081006662
 30
0.0
 11
176.98370055075219
 21
-18.503005728847711
 31
0.0
  0
LINE
  8
DETAIL
  6
CONTINUOUS
 62
     5
 10
176.98370055075219
 20
-18.503005728847711
 30
0.0
 11
176.98370055075219
 21
-18.503005728847711
 31
0.0
  0
LINE
  8
DETAIL
  6
CONTINUOUS
 62
     5
 10
176.98370055075219
 20
-18.503005728847711
 30
0.0
 11
177.06507436576629
 21
-18.510574880957961
 31
0.0
  0
LINE
  8
DETAIL
  6
CONTINUOUS
 62
     5
 10
177.06507436576629
 20
-18.510574880957961
 30
0.0
 11
177.14672730301339
 21
-18.517181056317899
 31
0.0
  0
LINE
  8
DETAIL
  6
CONTINUOUS
 62
     5
 10
177.14672730301339
 20
-18.517181056317899
 30
0.0
 11
177.14672730301339
 21
-18.517181056317899
 31
0.0
  0
LINE
  8
DETAIL
  6
CONTINUOUS
 62
     5
 10
177.14672730301339
 20
-18.517181056317899
 30
0.0
 11
177.22837916533899
 21
-18.522776516528101
 31
0.0
  0
LINE
  8
DETAIL
  6
CONTINUOUS
 62
     5
 10
177.22837916533899
 20
-18.522776516528101
 30
0.0
 11
177.31003500207089
 21
-18.527392593870559
 31
0.0
  0
LINE
  8
DETAIL
  6
CONTINUOUS
 62
     5
 10
177.31003500207089
 20
-18.527392593870559
 30
0.0
 11
177.31003500207089
 21
-18.527392593870559
 31
0.0
  0
LINE
  8
DETAIL
  6
CONTINUOUS
 62
     5
 10
177.31003500207089
 20
-18.527392593870559
 30
0.0
 11
177.3917515924791
 21
-18.531040342667438
 31
0.0
  0
LINE
  8
DETAIL
  6
CONTINUOUS
 62
     5
 10
177.3917515924791
 20
-18.531040342667438
 30
0.0
 11
177.47350738911609
 21
-18.533570634715598
 31
0.0
  0
LINE
  8
DETAIL
  6
CONTINUOUS
 62
     5
 10
177.47350738911609
 20
-18.533570634715598
 30
0.0
 11
177.47350738911609
 21
-18.533570634715598
 31
0.0
  0
LINE
  8
DETAIL
  6
CONTINUOUS
 62
     5
 10
177.47350738911609
 20
-18.533570634715598
 30
0.0
 11
177.55526827795211
 21
-18.534934711034449
 31
0.0
  0
LINE
  8
DETAIL
  6
CONTINUOUS
 62
     5
 10
177.55526827795211
 20
-18.534934711034449
 30
0.0
 11
177.6370282053397
 21
-18.53564547206145
 31
0.0
  0
LINE
  8
DETAIL
  6
CONTINUOUS
 62
     5
 10
-211.31449092880939
 20
-18.088203018141829
 30
0.0
 11
-211.22929785107809
 21
-18.116105148904349
 31
0.0
  0
LINE
  8
DETAIL
  6
CONTINUOUS
 62
     5
 10
-211.22929785107809
 20
-18.116105148904349
 30
0.0
 11
-211.14397131732349
 21
-18.143571503692669
 31
0.0
  0
LINE
  8
DETAIL
  6
CONTINUOUS
 62
     5
 10
-211.14397131732349
 20
-18.143571503692669
 30
0.0
 11
-211.14397131732349
 21
-18.143571503692669
 31
0.0
  0
LINE
  8
DETAIL
  6
CONTINUOUS
 62
     5
 10
-211.14397131732349
 20
-18.143571503692669
 30
0.0
 11
-211.05839745962399
 21
-18.17025477785262
 31
0.0
  0
LINE
  8
DETAIL
  6
CONTINUOUS
 62
     5
 10
-211.05839745962399
 20
-18.17025477785262
 30
0.0
 11
-210.97254076246901
 21
-18.196161552010949
 31
0.0
  0
LINE
  8
DETAIL
  6
CONTINUOUS
 62
     5
 10
-210.97254076246901
 20
-18.196161552010949
 30
0.0
 11
-210.97254076246901
 21
-18.196161552010949
 31
0.0
  0
LINE
  8
DETAIL
  6
CONTINUOUS
 62
     5
 10
-210.97254076246901
 20
-18.196161552010949
 30
0.0
 11
-210.88642200197739
 21
-18.221353780041341
 31
0.0
  0
LINE
  8
DETAIL
  6
CONTINUOUS
 62
     5
 10
-210.88642200197739
 20
-18.221353780041341
 30
0.0
 11
-210.80020876837631
 21
-18.245761023527049
 31
0.0
  0
LINE
  8
DETAIL
  6
CONTINUOUS
 62
     5
 10
-210.80020876837631
 20
-18.245761023527049
 30
0.0
 11
-210.80020876837631
 21
-18.245761023527049
 31
0.0
  0
LINE
  8
DETAIL
  6
CONTINUOUS
 62
     5
 10
-210.80020876837631
 20
-18.245761023527049
 30
0.0
 11
-210.71393895320881
 21
-18.26932366694939
 31
0.0
  0
LINE
  8
DETAIL
  6
CONTINUOUS
 62
     5
 10
-210.71393895320881
 20
-18.26932366694939
 30
0.0
 11
-210.62698483917441
 21
-18.29215777867034
 31
0.0
  0
LINE
  8
DETAIL
  6
CONTINUOUS
 62
     5
 10
-210.62698483917441
 20
-18.29215777867034
 30
0.0
 11
-210.62698483917441
 21
-18.29215777867034
 31
0.0
  0
LINE
  8
DETAIL
  6
CONTINUOUS
 62
     5
 10
-210.62698483917441
 20
-18.29215777867034
 30
0.0
 11
-210.53918121207931
 21
-18.314280762214821
 31
0.0
  0
LINE
  8
DETAIL
  6
CONTINUOUS
 62
     5
 10
-210.53918121207931
 20
-18.314280762214821
 30
0.0
 11
-210.45287847899331
 21
-18.335139677870529
 31
0.0
  0
LINE
  8
DETAIL
  6
CONTINUOUS
 62
     5
 10
-210.45287847899331
 20
-18.335139677870529
 30
0.0
 11
-210.45287847899331
 21
-18.335139677870529
 31
0.0
  0
LINE
  8
DETAIL
  6
CONTINUOUS
 62
     5
 10
-210.45287847899331
 20
-18.335139677870529
 30
0.0
 11
-210.37006745749281
 21
-18.354274042402949
 31
0.0
  0
LINE
  8
DETAIL
  6
CONTINUOUS
 62
     5
 10
-210.37006745749281
 20
-18.354274042402949
 30
0.0
 11
-210.288784985907
 21
-18.37216354172244
 31
0.0
  0
LINE
  8
DETAIL
  6
CONTINUOUS
 62
     5
 10
-210.288784985907
 20
-18.37216354172244
 30
0.0
 11
-210.288784985907
 21
-18.37216354172244
 31
0.0
  0
LINE
  8
DETAIL
  6
CONTINUOUS
 62
     5
 10
-210.288784985907
 20
-18.37216354172244
 30
0.0
 11
-210.20670058789349
 21
-18.3893677701775
 31
0.0
  0
LINE
  8
DETAIL
  6
CONTINUOUS
 62
     5
 10
-210.20670058789349
 20
-18.3893677701775
 30
0.0
 11
-210.1239685076624
 21
-18.40582578672479
 31
0.0
  0
LINE
  8
DETAIL
  6
CONTINUOUS
 62
     5
 10
-210.1239685076624
 20
-18.40582578672479
 30
0.0
 11
-210.1239685076624
 21
-18.40582578672479
 31
0.0
  0
LINE
  8
DETAIL
  6
CONTINUOUS
 62
     5
 10
-210.1239685076624
 20
-18.40582578672479
 30
0.0
 11
-210.04121555050759
 21
-18.421361126388319
 31
0.0
  0
LINE
  8
DETAIL
  6
CONTINUOUS
 62
     5
 10
-210.04121555050759
 20
-18.421361126388319
 30
0.0
 11
-209.95847404550389
 21
-18.435955763852689
 31
0.0
  0
LINE
  8
DETAIL
  6
CONTINUOUS
 62
     5
 10
-209.95847404550389
 20
-18.435955763852689
 30
0.0
 11
-209.95847404550389
 21
-18.435955763852689
 31
0.0
  0
LINE
  8
DETAIL
  6
CONTINUOUS
 62
     5
 10
-209.95847404550389
 20
-18.435955763852689
 30
0.0
 11
-209.87560099875151
 21
-18.449627977905038
 31
0.0
  0
LINE
  8
DETAIL
  6
CONTINUOUS
 62
     5
 10
-209.87560099875151
 20
-18.449627977905038
 30
0.0
 11
-209.7923466006757
 21
-18.462382824081711
 31
0.0
  0
LINE
  8
DETAIL
  6
CONTINUOUS
 62
     5
 10
-209.7923466006757
 20
-18.462382824081711
 30
0.0
 11
-209.7923466006757
 21
-18.462382824081711
 31
0.0
  0
LINE
  8
DETAIL
  6
CONTINUOUS
 62
     5
 10
-209.7923466006757
 20
-18.462382824081711
 30
0.0
 11
-209.70868977251351
 21
-18.474195665441361
 31
0.0
  0
LINE
  8
DETAIL
  6
CONTINUOUS
 62
     5
 10
-209.70868977251351
 20
-18.474195665441361
 30
0.0
 11
-209.62563117442321
 21
-18.484936318386989
 31
0.0
  0
LINE
  8
DETAIL
  6
CONTINUOUS
 62
     5
 10
-209.62563117442321
 20
-18.484936318386989
 30
0.0
 11
-209.62563117442321
 21
-18.484936318386989
 31
0.0
  0
LINE
  8
DETAIL
  6
CONTINUOUS
 62
     5
 10
-209.62563117442321
 20
-18.484936318386989
 30
0.0
 11
-209.54401047257321
 21
-18.49450208168173
 31
0.0
  0
LINE
  8
DETAIL
  6
CONTINUOUS
 62
     5
 10
-209.54401047257321
 20
-18.49450208168173
 30
0.0
 11
-209.4630016182457
 21
-18.503005730183649
 31
0.0
  0
LINE
  8
DETAIL
  6
CONTINUOUS
 62
     5
 10
-209.4630016182457
 20
-18.503005730183649
 30
0.0
 11
-209.4630016182457
 21
-18.503005730183649
 31
0.0
  0
LINE
  8
DETAIL
  6
CONTINUOUS
 62
     5
 10
-209.4630016182457
 20
-18.503005730183649
 30
0.0
 11
-209.38162779825521
 21
-18.510574882800821
 31
0.0
  0
LINE
  8
DETAIL
  6
CONTINUOUS
 62
     5
 10
-209.38162779825521
 20
-18.510574882800821
 30
0.0
 11
-209.29997485643119
 21
-18.51718105853627
 31
0.0
  0
LINE
  8
DETAIL
  6
CONTINUOUS
 62
     5
 10
-209.29997485643119
 20
-18.51718105853627
 30
0.0
 11
-209.29997485643119
 21
-18.51718105853627
 31
0.0
  0
LINE
  8
DETAIL
  6
CONTINUOUS
 62
     5
 10
-209.29997485643119
 20
-18.51718105853627
 30
0.0
 11
-209.21832298938321
 21
-18.52277651906968
 31
0.0
  0
LINE
  8
DETAIL
  6
CONTINUOUS
 62
     5
 10
-209.21832298938321
 20
-18.52277651906968
 30
0.0
 11
-209.13666714782599
 21
-18.527392596683061
 31
0.0
  0
LINE
  8
DETAIL
  6
CONTINUOUS
 62
     5
 10
-209.13666714782599
 20
-18.527392596683061
 30
0.0
 11
-209.13666714782599
 21
-18.527392596683061
 31
0.0
  0
LINE
  8
DETAIL
  6
CONTINUOUS
 62
     5
 10
-209.13666714782599
 20
-18.527392596683061
 30
0.0
 11
-209.0549505526424
 21
-18.531040345682872
 31
0.0
  0
LINE
  8
DETAIL
  6
CONTINUOUS
 62
     5
 10
-209.0549505526424
 20
-18.531040345682872
 30
0.0
 11
-208.9731947512773
 21
-18.533570637863249
 31
0.0
  0
LINE
  8
DETAIL
  6
CONTINUOUS
 62
     5
 10
-208.9731947512773
 20
-18.533570637863249
 30
0.0
 11
-208.9731947512773
 21
-18.533570637863249
 31
0.0
  0
LINE
  8
DETAIL
  6
CONTINUOUS
 62
     5
 10
-208.9731947512773
 20
-18.533570637863249
 30
0.0
 11
-208.891433857728
 21
-18.5349347142519
 31
0.0
  0
LINE
  8
DETAIL
  6
CONTINUOUS
 62
     5
 10
-208.891433857728
 20
-18.5349347142519
 30
0.0
 11
-208.80967392563119
 21
-18.535645475314819
 31
0.0
  0
LINE
  8
DETAIL
  6
CONTINUOUS
 62
     5
 10
-213.8193078851441
 20
-18.53564547206145
 30
0.0
 11
-213.73753942349771
 21
-18.534934552959161
 31
0.0
  0
LINE
  8
DETAIL
  6
CONTINUOUS
 62
     5
 10
-213.73753942349771
 20
-18.534934552959161
 30
0.0
 11
-213.65577009306091
 21
-18.53357019498139
 31
0.0
  0
LINE
  8
DETAIL
  6
CONTINUOUS
 62
     5
 10
-213.65577009306091
 20
-18.53357019498139
 30
0.0
 11
-213.65577009306091
 21
-18.53357019498139
 31
0.0
  0
LINE
  8
DETAIL
  6
CONTINUOUS
 62
     5
 10
-213.65577009306091
 20
-18.53357019498139
 30
0.0
 11
-213.57400594869279
 21
-18.531039391104741
 31
0.0
  0
LINE
  8
DETAIL
  6
CONTINUOUS
 62
     5
 10
-213.57400594869279
 20
-18.531039391104741
 30
0.0
 11
-213.4922807398481
 21
-18.52739086171437
 31
0.0
  0
LINE
  8
DETAIL
  6
CONTINUOUS
 62
     5
 10
-213.4922807398481
 20
-18.52739086171437
 30
0.0
 11
-213.4922807398481
 21
-18.52739086171437
 31
0.0
  0
LINE
  8
DETAIL
  6
CONTINUOUS
 62
     5
 10
-213.4922807398481
 20
-18.52739086171437
 30
0.0
 11
-213.4106159279421
 21
-18.522773756154042
 31
0.0
  0
LINE
  8
DETAIL
  6
CONTINUOUS
 62
     5
 10
-213.4106159279421
 20
-18.522773756154042
 30
0.0
 11
-213.3289561276367
 21
-18.517177212195069
 31
0.0
  0
LINE
  8
DETAIL
  6
CONTINUOUS
 62
     5
 10
-213.3289561276367
 20
-18.517177212195069
 30
0.0
 11
-213.3289561276367
 21
-18.517177212195069
 31
0.0
  0
LINE
  8
DETAIL
  6
CONTINUOUS
 62
     5
 10
-213.3289561276367
 20
-18.517177212195069
 30
0.0
 11
-213.24729666501119
 21
-18.510569944435929
 31
0.0
  0
LINE
  8
DETAIL
  6
CONTINUOUS
 62
     5
 10
-213.24729666501119
 20
-18.510569944435929
 30
0.0
 11
-213.1659125585592
 21
-18.502998986357738
 31
0.0
  0
LINE
  8
DETAIL
  6
CONTINUOUS
 62
     5
 10
-213.1659125585592
 20
-18.502998986357738
 30
0.0
 11
-213.1659125585592
 21
-18.502998986357738
 31
0.0
  0
LINE
  8
DETAIL
  6
CONTINUOUS
 62
     5
 10
-213.1659125585592
 20
-18.502998986357738
 30
0.0
 11
-213.08488826915121
 21
-18.49449263517295
 31
0.0
  0
LINE
  8
DETAIL
  6
CONTINUOUS
 62
     5
 10
-213.08488826915121
 20
-18.49449263517295
 30
0.0
 11
-213.00326633474629
 21
-18.484925924136292
 31
0.0
  0
LINE
  8
DETAIL
  6
CONTINUOUS
 62
     5
 10
-213.00326633474629
 20
-18.484925924136292
 30
0.0
 11
-213.00326633474629
 21
-18.484925924136292
 31
0.0
  0
LINE
  8
DETAIL
  6
CONTINUOUS
 62
     5
 10
-213.00326633474629
 20
-18.484925924136292
 30
0.0
 11
-212.9202370255779
 21
-18.474188423596392
 31
0.0
  0
LINE
  8
DETAIL
  6
CONTINUOUS
 62
     5
 10
-212.9202370255779
 20
-18.474188423596392
 30
0.0
 11
-212.83662346389309
 21
-18.46238111624314
 31
0.0
  0
LINE
  8
DETAIL
  6
CONTINUOUS
 62
     5
 10
-212.83662346389309
 20
-18.46238111624314
 30
0.0
 11
-212.83662346389309
 21
-18.46238111624314
 31
0.0
  0
LINE
  8
DETAIL
  6
CONTINUOUS
 62
     5
 10
-212.83662346389309
 20
-18.46238111624314
 30
0.0
 11
-212.7534068829749
 21
-18.44963204830356
 31
0.0
  0
LINE
  8
DETAIL
  6
CONTINUOUS
 62
     5
 10
-212.7534068829749
 20
-18.44963204830356
 30
0.0
 11
-212.67056810823519
 21
-18.435966107809239
 31
0.0
  0
LINE
  8
DETAIL
  6
CONTINUOUS
 62
     5
 10
-212.67056810823519
 20
-18.435966107809239
 30
0.0
 11
-212.67056810823519
 21
-18.435966107809239
 31
0.0
  0
LINE
  8
DETAIL
  6
CONTINUOUS
 62
     5
 10
-212.67056810823519
 20
-18.435966107809239
 30
0.0
 11
-212.58786265341439
 21
-18.42137880846678
 31
0.0
  0
LINE
  8
DETAIL
  6
CONTINUOUS
 62
     5
 10
-212.58786265341439
 20
-18.42137880846678
 30
0.0
 11
-212.50514519342741
 21
-18.405851324877631
 31
0.0
  0
LINE
  8
DETAIL
  6
CONTINUOUS
 62
     5
 10
-212.50514519342741
 20
-18.405851324877631
 30
0.0
 11
-212.50514519342741
 21
-18.405851324877631
 31
0.0
  0
LINE
  8
DETAIL
  6
CONTINUOUS
 62
     5
 10
-212.50514519342741
 20
-18.405851324877631
 30
0.0
 11
-212.42244613427559
 21
-18.38940137552072
 31
0.0
  0
LINE
  8
DETAIL
  6
CONTINUOUS
 62
     5
 10
-212.42244613427559
 20
-18.38940137552072
 30
0.0
 11
-212.34039964512451
 21
-18.372207193491821
 31
0.0
  0
LINE
  8
DETAIL
  6
CONTINUOUS
 62
     5
 10
-212.34039964512451
 20
-18.372207193491821
 30
0.0
 11
-212.34039964512451
 21
-18.372207193491821
 31
0.0
  0
LINE
  8
DETAIL
  6
CONTINUOUS
 62
     5
 10
-212.34039964512451
 20
-18.372207193491821
 30
0.0
 11
-212.25916228247189
 21
-18.354330210701281
 31
0.0
  0
LINE
  8
DETAIL
  6
CONTINUOUS
 62
     5
 10
-212.25916228247189
 20
-18.354330210701281
 30
0.0
 11
-212.1763763889808
 21
-18.335204139695179
 31
0.0
  0
LINE
  8
DETAIL
  6
CONTINUOUS
 62
     5
 10
-212.1763763889808
 20
-18.335204139695179
 30
0.0
 11
-212.1763763889808
 21
-18.335204139695179
 31
0.0
  0
LINE
  8
DETAIL
  6
CONTINUOUS
 62
     5
 10
-212.1763763889808
 20
-18.335204139695179
 30
0.0
 11
-212.09005578221249
 21
-18.314343499040429
 31
0.0
  0
LINE
  8
DETAIL
  6
CONTINUOUS
 62
     5
 10
-212.09005578221249
 20
-18.314343499040429
 30
0.0
 11
-212.00221439314879
 21
-18.29221375074485
 31
0.0
  0
LINE
  8
DETAIL
  6
CONTINUOUS
 62
     5
 10
-212.00221439314879
 20
-18.29221375074485
 30
0.0
 11
-212.00221439314879
 21
-18.29221375074485
 31
0.0
  0
LINE
  8
DETAIL
  6
CONTINUOUS
 62
     5
 10
-212.00221439314879
 20
-18.29221375074485
 30
0.0
 11
-211.91522995564509
 21
-18.269373890131529
 31
0.0
  0
LINE
  8
DETAIL
  6
CONTINUOUS
 62
     5
 10
-211.91522995564509
 20
-18.269373890131529
 30
0.0
 11
-211.82893530162531
 21
-18.2458061023375
 31
0.0
  0
LINE
  8
DETAIL
  6
CONTINUOUS
 62
     5
 10
-211.82893530162531
 20
-18.2458061023375
 30
0.0
 11
-211.82893530162531
 21
-18.2458061023375
 31
0.0
  0
LINE
  8
DETAIL
  6
CONTINUOUS
 62
     5
 10
-211.82893530162531
 20
-18.2458061023375
 30
0.0
 11
-211.74269539905529
 21
-18.2213927275393
 31
0.0
  0
LINE
  8
DETAIL
  6
CONTINUOUS
 62
     5
 10
-211.74269539905529
 20
-18.2213927275393
 30
0.0
 11
-211.6565486620008
 21
-18.196193536250352
 31
0.0
  0
LINE
  8
DETAIL
  6
CONTINUOUS
 62
     5
 10
-211.6565486620008
 20
-18.196193536250352
 30
0.0
 11
-211.6565486620008
 21
-18.196193536250352
 31
0.0
  0
LINE
  8
DETAIL
  6
CONTINUOUS
 62
     5
 10
-211.6565486620008
 20
-18.196193536250352
 30
0.0
 11
-211.57066464543689
 21
-18.1702794287778
 31
0.0
  0
LINE
  8
DETAIL
  6
CONTINUOUS
 62
     5
 10
-211.57066464543689
 20
-18.1702794287778
 30
0.0
 11
-211.4850640218657
 21
-18.143588394259719
 31
0.0
  0
LINE
  8
DETAIL
  6
CONTINUOUS
 62
     5
 10
-211.4850640218657
 20
-18.143588394259719
 30
0.0
 11
-211.4850640218657
 21
-18.143588394259719
 31
0.0
  0
LINE
  8
DETAIL
  6
CONTINUOUS
 62
     5
 10
-211.4850640218657
 20
-18.143588394259719
 30
0.0
 11
-211.399710764118
 21
-18.116113747625722
 31
0.0
  0
LINE
  8
DETAIL
  6
CONTINUOUS
 62
     5
 10
-211.399710764118
 20
-18.116113747625722
 30
0.0
 11
-211.31449092880939
 21
-18.088203018141829
 31
0.0
  0
LINE
  8
DETAIL
  6
CONTINUOUS
 62
     5
 10
-216.32412484017729
 20
-18.088203018141829
 30
0.0
 11
-216.23893176246091
 21
-18.116105148903561
 31
0.0
  0
LINE
  8
DETAIL
  6
CONTINUOUS
 62
     5
 10
-216.23893176246091
 20
-18.116105148903561
 30
0.0
 11
-216.15360522873129
 21
-18.143571503691419
 31
0.0
  0
LINE
  8
DETAIL
  6
CONTINUOUS
 62
     5
 10
-216.15360522873129
 20
-18.143571503691419
 30
0.0
 11
-216.15360522873129
 21
-18.143571503691419
 31
0.0
  0
LINE
  8
DETAIL
  6
CONTINUOUS
 62
     5
 10
-216.15360522873129
 20
-18.143571503691419
 30
0.0
 11
-216.06803137107499
 21
-18.170254777851259
 31
0.0
  0
LINE
  8
DETAIL
  6
CONTINUOUS
 62
     5
 10
-216.06803137107499
 20
-18.170254777851259
 30
0.0
 11
-215.98217467397569
 21
-18.196161552009809
 31
0.0
  0
LINE
  8
DETAIL
  6
CONTINUOUS
 62
     5
 10
-215.98217467397569
 20
-18.196161552009809
 30
0.0
 11
-215.98217467397569
 21
-18.196161552009809
 31
0.0
  0
LINE
  8
DETAIL
  6
CONTINUOUS
 62
     5
 10
-215.98217467397569
 20
-18.196161552009809
 30
0.0
 11
-215.89605591354589
 21
-18.221353780040889
 31
0.0
  0
LINE
  8
DETAIL
  6
CONTINUOUS
 62
     5
 10
-215.89605591354589
 20
-18.221353780040889
 30
0.0
 11
-215.80984268000751
 21
-18.245761023528981
 31
0.0
  0
LINE
  8
DETAIL
  6
CONTINUOUS
 62
     5
 10
-215.80984268000751
 20
-18.245761023528981
 30
0.0
 11
-215.80984268000751
 21
-18.245761023528981
 31
0.0
  0
LINE
  8
DETAIL
  6
CONTINUOUS
 62
     5
 10
-215.80984268000751
 20
-18.245761023528981
 30
0.0
 11
-215.72357286490009
 21
-18.269323666955419
 31
0.0
  0
LINE
  8
DETAIL
  6
CONTINUOUS
 62
     5
 10
-215.72357286490009
 20
-18.269323666955419
 30
0.0
 11
-215.63661875092319
 21
-18.292157778682391
 31
0.0
  0
LINE
  8
DETAIL
  6
CONTINUOUS
 62
     5
 10
-215.63661875092319
 20
-18.292157778682391
 30
0.0
 11
-215.63661875092319
 21
-18.292157778682391
 31
0.0
  0
LINE
  8
DETAIL
  6
CONTINUOUS
 62
     5
 10
-215.63661875092319
 20
-18.292157778682391
 30
0.0
 11
-215.54881512387911
 21
-18.31428076223494
 31
0.0
  0
LINE
  8
DETAIL
  6
CONTINUOUS
 62
     5
 10
-215.54881512387911
 20
-18.31428076223494
 30
0.0
 11
-215.46251239082051
 21
-18.33513967790384
 31
0.0
  0
LINE
  8
DETAIL
  6
CONTINUOUS
 62
     5
 10
-215.46251239082051
 20
-18.33513967790384
 30
0.0
 11
-215.46251239082051
 21
-18.33513967790384
 31
0.0
  0
LINE
  8
DETAIL
  6
CONTINUOUS
 62
     5
 10
-215.46251239082051
 20
-18.33513967790384
 30
0.0
 11
-215.3797013693098
 21
-18.354274042455131
 31
0.0
  0
LINE
  8
DETAIL
  6
CONTINUOUS
 62
     5
 10
-215.3797013693098
 20
-18.354274042455131
 30
0.0
 11
-215.2984188977006
 21
-18.372163541794979
 31
0.0
  0
LINE
  8
DETAIL
  6
CONTINUOUS
 62
     5
 10
-215.2984188977006
 20
-18.372163541794979
 30
0.0
 11
-215.2984188977006
 21
-18.372163541794979
 31
0.0
  0
LINE
  8
DETAIL
  6
CONTINUOUS
 62
     5
 10
-215.2984188977006
 20
-18.372163541794979
 30
0.0
 11
-215.21633449966859
 21
-18.389367770264808
 31
0.0
  0
LINE
  8
DETAIL
  6
CONTINUOUS
 62
     5
 10
-215.21633449966859
 20
-18.389367770264808
 30
0.0
 11
-215.13360241938659
 21
-18.405825786823129
 31
0.0
  0
LINE
  8
DETAIL
  6
CONTINUOUS
 62
     5
 10
-215.13360241938659
 20
-18.405825786823129
 30
0.0
 11
-215.13360241938659
 21
-18.405825786823129
 31
0.0
  0
LINE
  8
DETAIL
  6
CONTINUOUS
 62
     5
 10
-215.13360241938659
 20
-18.405825786823129
 30
0.0
 11
-215.05084946213901
 21
-18.42136112649337
 31
0.0
  0
LINE
  8
DETAIL
  6
CONTINUOUS
 62
     5
 10
-215.05084946213901
 20
-18.42136112649337
 30
0.0
 11
-214.9681079571512
 21
-18.43595576394091
 31
0.0
  0
LINE
  8
DETAIL
  6
CONTINUOUS
 62
     5
 10
-214.9681079571512
 20
-18.43595576394091
 30
0.0
 11
-214.9681079571512
 21
-18.43595576394091
 31
0.0
  0
LINE
  8
DETAIL
  6
CONTINUOUS
 62
     5
 10
-214.9681079571512
 20
-18.43595576394091
 30
0.0
 11
-214.88523491056881
 21
-18.449627977944939
 31
0.0
  0
LINE
  8
DETAIL
  6
CONTINUOUS
 62
     5
 10
-214.88523491056881
 20
-18.449627977944939
 30
0.0
 11
-214.80198051226711
 21
-18.46238282409945
 31
0.0
  0
LINE
  8
DETAIL
  6
CONTINUOUS
 62
     5
 10
-214.80198051226711
 20
-18.46238282409945
 30
0.0
 11
-214.80198051226711
 21
-18.46238282409945
 31
0.0
  0
LINE
  8
DETAIL
  6
CONTINUOUS
 62
     5
 10
-214.80198051226711
 20
-18.46238282409945
 30
0.0
 11
-214.71832368333861
 21
-18.474195665475801
 31
0.0
  0
LINE
  8
DETAIL
  6
CONTINUOUS
 62
     5
 10
-214.71832368333861
 20
-18.474195665475801
 30
0.0
 11
-214.63526508600651
 21
-18.484936318250899
 31
0.0
  0
LINE
  8
DETAIL
  6
CONTINUOUS
 62
     5
 10
-214.63526508600651
 20
-18.484936318250899
 30
0.0
 11
-214.63526508600651
 21
-18.484936318250899
 31
0.0
  0
LINE
  8
DETAIL
  6
CONTINUOUS
 62
     5
 10
-214.63526508600651
 20
-18.484936318250899
 30
0.0
 11
-214.55364438818441
 21
-18.494502081006662
 31
0.0
  0
LINE
  8
DETAIL
  6
CONTINUOUS
 62
     5
 10
-214.55364438818441
 20
-18.494502081006662
 30
0.0
 11
-214.4726355394132
 21
-18.503005728847711
 31
0.0
  0
LINE
  8
DETAIL
  6
CONTINUOUS
 62
     5
 10
-214.4726355394132
 20
-18.503005728847711
 30
0.0
 11
-214.4726355394132
 21
-18.503005728847711
 31
0.0
  0
LINE
  8
DETAIL
  6
CONTINUOUS
 62
     5
 10
-214.4726355394132
 20
-18.503005728847711
 30
0.0
 11
-214.3912617244454
 21
-18.510574880957961
 31
0.0
  0
LINE
  8
DETAIL
  6
CONTINUOUS
 62
     5
 10
-214.3912617244454
 20
-18.510574880957961
 30
0.0
 11
-214.30960878724929
 21
-18.517181056317899
 31
0.0
  0
LINE
  8
DETAIL
  6
CONTINUOUS
 62
     5
 10
-214.30960878724929
 20
-18.517181056317899
 30
0.0
 11
-214.30960878724929
 21
-18.517181056317899
 31
0.0
  0
LINE
  8
DETAIL
  6
CONTINUOUS
 62
     5
 10
-214.30960878724929
 20
-18.517181056317899
 30
0.0
 11
-214.22795692497641
 21
-18.522776516528101
 31
0.0
  0
LINE
  8
DETAIL
  6
CONTINUOUS
 62
     5
 10
-214.22795692497641
 20
-18.522776516528101
 30
0.0
 11
-214.1463010882961
 21
-18.527392593870559
 31
0.0
  0
LINE
  8
DETAIL
  6
CONTINUOUS
 62
     5
 10
-214.1463010882961
 20
-18.527392593870559
 30
0.0
 11
-214.1463010882961
 21
-18.527392593870559
 31
0.0
  0
LINE
  8
DETAIL
  6
CONTINUOUS
 62
     5
 10
-214.1463010882961
 20
-18.527392593870559
 30
0.0
 11
-214.06458449793479
 21
-18.531040342667438
 31
0.0
  0
LINE
  8
DETAIL
  6
CONTINUOUS
 62
     5
 10
-214.06458449793479
 20
-18.531040342667438
 30
0.0
 11
-213.98282870133369
 21
-18.533570634715598
 31
0.0
  0
LINE
  8
DETAIL
  6
CONTINUOUS
 62
     5
 10
-213.98282870133369
 20
-18.533570634715598
 30
0.0
 11
-213.98282870133369
 21
-18.533570634715598
 31
0.0
  0
LINE
  8
DETAIL
  6
CONTINUOUS
 62
     5
 10
-213.98282870133369
 20
-18.533570634715598
 30
0.0
 11
-213.9010678125193
 21
-18.534934711034449
 31
0.0
  0
LINE
  8
DETAIL
  6
CONTINUOUS
 62
     5
 10
-213.9010678125193
 20
-18.534934711034449
 30
0.0
 11
-213.8193078851441
 21
-18.53564547206145
 31
0.0
  0
LINE
  8
DETAIL
  6
CONTINUOUS
 62
     5
 10
54.552130093786673
 20
-232.5277252862397
 30
0.0
 11
54.441214147329447
 21
-232.49139950835789
 31
0.0
  0
LINE
  8
DETAIL
  6
CONTINUOUS
 62
     5
 10
54.441214147329447
 20
-232.49139950835789
 30
0.0
 11
54.330124888157123
 21
-232.45564212563281
 31
0.0
  0
LINE
  8
DETAIL
  6
CONTINUOUS
 62
     5
 10
54.330124888157123
 20
-232.45564212563281
 30
0.0
 11
54.330124888157123
 21
-232.45564212563281
 31
0.0
  0
LINE
  8
DETAIL
  6
CONTINUOUS
 62
     5
 10
54.330124888157123
 20
-232.45564212563281
 30
0.0
 11
54.218713823053122
 21
-232.4209060195636
 31
0.0
  0
LINE
  8
DETAIL
  6
CONTINUOUS
 62
     5
 10
54.218713823053122
 20
-232.4209060195636
 30
0.0
 11
54.106931736796007
 21
-232.38718201701519
 31
0.0
  0
LINE
  8
DETAIL
  6
CONTINUOUS
 62
     5
 10
54.106931736796007
 20
-232.38718201701519
 30
0.0
 11
54.106931736796007
 21
-232.38718201701519
 31
0.0
  0
LINE
  8
DETAIL
  6
CONTINUOUS
 62
     5
 10
54.106931736796007
 20
-232.38718201701519
 30
0.0
 11
53.994805025839469
 21
-232.3543892333123
 31
0.0
  0
LINE
  8
DETAIL
  6
CONTINUOUS
 62
     5
 10
53.994805025839469
 20
-232.3543892333123
 30
0.0
 11
53.882563255341438
 21
-232.32262199224931
 31
0.0
  0
LINE
  8
DETAIL
  6
CONTINUOUS
 62
     5
 10
53.882563255341438
 20
-232.32262199224931
 30
0.0
 11
53.882563255341438
 21
-232.32262199224931
 31
0.0
  0
LINE
  8
DETAIL
  6
CONTINUOUS
 62
     5
 10
53.882563255341438
 20
-232.32262199224931
 30
0.0
 11
53.770258794433403
 21
-232.2919587249261
 31
0.0
  0
LINE
  8
DETAIL
  6
CONTINUOUS
 62
     5
 10
53.770258794433403
 20
-232.2919587249261
 30
0.0
 11
53.657032059433277
 21
-232.2622390831981
 31
0.0
  0
LINE
  8
DETAIL
  6
CONTINUOUS
 62
     5
 10
53.657032059433277
 20
-232.2622390831981
 30
0.0
 11
53.657032059433277
 21
-232.2622390831981
 31
0.0
  0
LINE
  8
DETAIL
  6
CONTINUOUS
 62
     5
 10
53.657032059433277
 20
-232.2622390831981
 30
0.0
 11
53.542656639093138
 21
-232.23343800123669
 31
0.0
  0
LINE
  8
DETAIL
  6
CONTINUOUS
 62
     5
 10
53.542656639093138
 20
-232.23343800123669
 30
0.0
 11
53.430350764710511
 21
-232.20631032172511
 31
0.0
  0
LINE
  8
DETAIL
  6
CONTINUOUS
 62
     5
 10
53.430350764710511
 20
-232.20631032172511
 30
0.0
 11
53.430350764710511
 21
-232.20631032172511
 31
0.0
  0
LINE
  8
DETAIL
  6
CONTINUOUS
 62
     5
 10
53.430350764710511
 20
-232.20631032172511
 30
0.0
 11
53.322840121627912
 21
-232.18148428786409
 31
0.0
  0
LINE
  8
DETAIL
  6
CONTINUOUS
 62
     5
 10
53.322840121627912
 20
-232.18148428786409
 30
0.0
 11
53.21743556882825
 21
-232.1583018364025
 31
0.0
  0
LINE
  8
DETAIL
  6
CONTINUOUS
 62
     5
 10
53.21743556882825
 20
-232.1583018364025
 30
0.0
 11
53.21743556882825
 21
-232.1583018364025
 31
0.0
  0
LINE
  8
DETAIL
  6
CONTINUOUS
 62
     5
 10
53.21743556882825
 20
-232.1583018364025
 30
0.0
 11
53.110945656524791
 21
-232.13599568179691
 31
0.0
  0
LINE
  8
DETAIL
  6
CONTINUOUS
 62
     5
 10
53.110945656524791
 20
-232.13599568179691
 30
0.0
 11
53.003584526212762
 21
-232.11464795577891
 31
0.0
  0
LINE
  8
DETAIL
  6
CONTINUOUS
 62
     5
 10
53.003584526212762
 20
-232.11464795577891
 30
0.0
 11
53.003584526212762
 21
-232.11464795577891
 31
0.0
  0
LINE
  8
DETAIL
  6
CONTINUOUS
 62
     5
 10
53.003584526212762
 20
-232.11464795577891
 30
0.0
 11
52.896210835090187
 21
-232.09449858092731
 31
0.0
  0
LINE
  8
DETAIL
  6
CONTINUOUS
 62
     5
 10
52.896210835090187
 20
-232.09449858092731
 30
0.0
 11
52.788855711876522
 21
-232.0755692259321
 31
0.0
  0
LINE
  8
DETAIL
  6
CONTINUOUS
 62
     5
 10
52.788855711876522
 20
-232.0755692259321
 30
0.0
 11
52.788855711876522
 21
-232.0755692259321
 31
0.0
  0
LINE
  8
DETAIL
  6
CONTINUOUS
 62
     5
 10
52.788855711876522
 20
-232.0755692259321
 30
0.0
 11
52.681319533829537
 21
-232.0578328955809
 31
0.0
  0
LINE
  8
DETAIL
  6
CONTINUOUS
 62
     5
 10
52.681319533829537
 20
-232.0578328955809
 30
0.0
 11
52.573307200831103
 21
-232.0412861929415
 31
0.0
  0
LINE
  8
DETAIL
  6
CONTINUOUS
 62
     5
 10
52.573307200831103
 20
-232.0412861929415
 30
0.0
 11
52.573307200831103
 21
-232.0412861929415
 31
0.0
  0
LINE
  8
DETAIL
  6
CONTINUOUS
 62
     5
 10
52.573307200831103
 20
-232.0412861929415
 30
0.0
 11
52.464802102914518
 21
-232.02596258584319
 31
0.0
  0
LINE
  8
DETAIL
  6
CONTINUOUS
 62
     5
 10
52.464802102914518
 20
-232.02596258584319
 30
0.0
 11
52.356997068089413
 21
-232.01201940288539
 31
0.0
  0
LINE
  8
DETAIL
  6
CONTINUOUS
 62
     5
 10
52.356997068089413
 20
-232.01201940288539
 30
0.0
 11
52.356997068089413
 21
-232.01201940288539
 31
0.0
  0
LINE
  8
DETAIL
  6
CONTINUOUS
 62
     5
 10
52.356997068089413
 20
-232.01201940288539
 30
0.0
 11
52.250891620504717
 21
-231.99958056770291
 31
0.0
  0
LINE
  8
DETAIL
  6
CONTINUOUS
 62
     5
 10
52.250891620504717
 20
-231.99958056770291
 30
0.0
 11
52.145502630887449
 21
-231.98851252330209
 31
0.0
  0
LINE
  8
DETAIL
  6
CONTINUOUS
 62
     5
 10
52.145502630887449
 20
-231.98851252330209
 30
0.0
 11
52.145502630887449
 21
-231.98851252330209
 31
0.0
  0
LINE
  8
DETAIL
  6
CONTINUOUS
 62
     5
 10
52.145502630887449
 20
-231.98851252330209
 30
0.0
 11
52.039667845614083
 21
-231.97866412729181
 31
0.0
  0
LINE
  8
DETAIL
  6
CONTINUOUS
 62
     5
 10
52.039667845614083
 20
-231.97866412729181
 30
0.0
 11
51.933491167072823
 21
-231.9700713763157
 31
0.0
  0
LINE
  8
DETAIL
  6
CONTINUOUS
 62
     5
 10
51.933491167072823
 20
-231.9700713763157
 30
0.0
 11
51.933491167072823
 21
-231.9700713763157
 31
0.0
  0
LINE
  8
DETAIL
  6
CONTINUOUS
 62
     5
 10
51.933491167072823
 20
-231.9700713763157
 30
0.0
 11
51.827308052218768
 21
-231.9627924021992
 31
0.0
  0
LINE
  8
DETAIL
  6
CONTINUOUS
 62
     5
 10
51.827308052218768
 20
-231.9627924021992
 30
0.0
 11
51.721114020254618
 21
-231.9567867384666
 31
0.0
  0
LINE
  8
DETAIL
  6
CONTINUOUS
 62
     5
 10
51.721114020254618
 20
-231.9567867384666
 30
0.0
 11
51.721114020254618
 21
-231.9567867384666
 31
0.0
  0
LINE
  8
DETAIL
  6
CONTINUOUS
 62
     5
 10
51.721114020254618
 20
-231.9567867384666
 30
0.0
 11
51.614843004693512
 21
-231.95204108261009
 31
0.0
  0
LINE
  8
DETAIL
  6
CONTINUOUS
 62
     5
 10
51.614843004693512
 20
-231.95204108261009
 30
0.0
 11
51.508522534043102
 21
-231.94874938629439
 31
0.0
  0
LINE
  8
DETAIL
  6
CONTINUOUS
 62
     5
 10
51.508522534043102
 20
-231.94874938629439
 30
0.0
 11
51.508522534043102
 21
-231.94874938629439
 31
0.0
  0
LINE
  8
DETAIL
  6
CONTINUOUS
 62
     5
 10
51.508522534043102
 20
-231.94874938629439
 30
0.0
 11
51.402194925003641
 21
-231.94697481012969
 31
0.0
  0
LINE
  8
DETAIL
  6
CONTINUOUS
 62
     5
 10
51.402194925003641
 20
-231.94697481012969
 30
0.0
 11
51.295868052048043
 21
-231.94605009633901
 31
0.0
  0
LINE
  8
DETAIL
  6
CONTINUOUS
 62
     5
 10
61.064654178564979
 20
-232.5277252862397
 30
0.0
 11
60.953738232110247
 21
-232.4913995083584
 31
0.0
  0
LINE
  8
DETAIL
  6
CONTINUOUS
 62
     5
 10
60.953738232110247
 20
-232.4913995083584
 30
0.0
 11
60.842648972941561
 21
-232.4556421256344
 31
0.0
  0
LINE
  8
DETAIL
  6
CONTINUOUS
 62
     5
 10
60.842648972941561
 20
-232.4556421256344
 30
0.0
 11
60.842648972941561
 21
-232.4556421256344
 31
0.0
  0
LINE
  8
DETAIL
  6
CONTINUOUS
 62
     5
 10
60.842648972941561
 20
-232.4556421256344
 30
0.0
 11
60.731237907844388
 21
-232.42090601956701
 31
0.0
  0
LINE
  8
DETAIL
  6
CONTINUOUS
 62
     5
 10
60.731237907844388
 20
-232.42090601956701
 30
0.0
 11
60.619455821597739
 21
-232.3871820170215
 31
0.0
  0
LINE
  8
DETAIL
  6
CONTINUOUS
 62
     5
 10
60.619455821597739
 20
-232.3871820170215
 30
0.0
 11
60.619455821597739
 21
-232.3871820170215
 31
0.0
  0
LINE
  8
DETAIL
  6
CONTINUOUS
 62
     5
 10
60.619455821597739
 20
-232.3871820170215
 30
0.0
 11
60.507329110654148
 21
-232.35438923332171
 31
0.0
  0
LINE
  8
DETAIL
  6
CONTINUOUS
 62
     5
 10
60.507329110654148
 20
-232.35438923332171
 30
0.0
 11
60.395087340170903
 21
-232.32262199226199
 31
0.0
  0
LINE
  8
DETAIL
  6
CONTINUOUS
 62
     5
 10
60.395087340170903
 20
-232.32262199226199
 30
0.0
 11
60.395087340170903
 21
-232.32262199226199
 31
0.0
  0
LINE
  8
DETAIL
  6
CONTINUOUS
 62
     5
 10
60.395087340170903
 20
-232.32262199226199
 30
0.0
 11
60.282782879278777
 21
-232.2919587249429
 31
0.0
  0
LINE
  8
DETAIL
  6
CONTINUOUS
 62
     5
 10
60.282782879278777
 20
-232.2919587249429
 30
0.0
 11
60.169556144299797
 21
-232.26223908321921
 31
0.0
  0
LINE
  8
DETAIL
  6
CONTINUOUS
 62
     5
 10
60.169556144299797
 20
-232.26223908321921
 30
0.0
 11
60.169556144299797
 21
-232.26223908321921
 31
0.0
  0
LINE
  8
DETAIL
  6
CONTINUOUS
 62
     5
 10
60.169556144299797
 20
-232.26223908321921
 30
0.0
 11
60.055180723986268
 21
-232.23343800126301
 31
0.0
  0
LINE
  8
DETAIL
  6
CONTINUOUS
 62
     5
 10
60.055180723986268
 20
-232.23343800126301
 30
0.0
 11
59.942874849622058
 21
-232.2063103217549
 31
0.0
  0
LINE
  8
DETAIL
  6
CONTINUOUS
 62
     5
 10
59.942874849622058
 20
-232.2063103217549
 30
0.0
 11
59.942874849622058
 21
-232.2063103217549
 31
0.0
  0
LINE
  8
DETAIL
  6
CONTINUOUS
 62
     5
 10
59.942874849622058
 20
-232.2063103217549
 30
0.0
 11
59.835364206537633
 21
-232.1814842878924
 31
0.0
  0
LINE
  8
DETAIL
  6
CONTINUOUS
 62
     5
 10
59.835364206537633
 20
-232.1814842878924
 30
0.0
 11
59.729959653728201
 21
-232.1583018364278
 31
0.0
  0
LINE
  8
DETAIL
  6
CONTINUOUS
 62
     5
 10
59.729959653728201
 20
-232.1583018364278
 30
0.0
 11
59.729959653728201
 21
-232.1583018364278
 31
0.0
  0
LINE
  8
DETAIL
  6
CONTINUOUS
 62
     5
 10
59.729959653728201
 20
-232.1583018364278
 30
0.0
 11
59.623469741419967
 21
-232.13599568181999
 31
0.0
  0
LINE
  8
DETAIL
  6
CONTINUOUS
 62
     5
 10
59.623469741419967
 20
-232.13599568181999
 30
0.0
 11
59.516108611107477
 21
-232.1146479558009
 31
0.0
  0
LINE
  8
DETAIL
  6
CONTINUOUS
 62
     5
 10
59.516108611107477
 20
-232.1146479558009
 30
0.0
 11
59.516108611107477
 21
-232.1146479558009
 31
0.0
  0
LINE
  8
DETAIL
  6
CONTINUOUS
 62
     5
 10
59.516108611107477
 20
-232.1146479558009
 30
0.0
 11
59.408734919984909
 21
-232.09449858094871
 31
0.0
  0
LINE
  8
DETAIL
  6
CONTINUOUS
 62
     5
 10
59.408734919984909
 20
-232.09449858094871
 30
0.0
 11
59.301379796771698
 21
-232.07556922595259
 31
0.0
  0
LINE
  8
DETAIL
  6
CONTINUOUS
 62
     5
 10
59.301379796771698
 20
-232.07556922595259
 30
0.0
 11
59.301379796771698
 21
-232.07556922595259
 31
0.0
  0
LINE
  8
DETAIL
  6
CONTINUOUS
 62
     5
 10
59.301379796771698
 20
-232.07556922595259
 30
0.0
 11
59.193843618726078
 21
-232.05783289560091
 31
0.0
  0
LINE
  8
DETAIL
  6
CONTINUOUS
 62
     5
 10
59.193843618726078
 20
-232.05783289560091
 30
0.0
 11
59.085831285733548
 21
-232.0412861929608
 31
0.0
  0
LINE
  8
DETAIL
  6
CONTINUOUS
 62
     5
 10
59.085831285733548
 20
-232.0412861929608
 30
0.0
 11
59.085831285733548
 21
-232.0412861929608
 31
0.0
  0
LINE
  8
DETAIL
  6
CONTINUOUS
 62
     5
 10
59.085831285733548
 20
-232.0412861929608
 30
0.0
 11
58.977326187828339
 21
-232.02596258586291
 31
0.0
  0
LINE
  8
DETAIL
  6
CONTINUOUS
 62
     5
 10
58.977326187828339
 20
-232.02596258586291
 30
0.0
 11
58.869521153005728
 21
-232.01201940290409
 31
0.0
  0
LINE
  8
DETAIL
  6
CONTINUOUS
 62
     5
 10
58.869521153005728
 20
-232.01201940290409
 30
0.0
 11
58.869521153005728
 21
-232.01201940290409
 31
0.0
  0
LINE
  8
DETAIL
  6
CONTINUOUS
 62
     5
 10
58.869521153005728
 20
-232.01201940290409
 30
0.0
 11
58.763415705402167
 21
-231.99958056771769
 31
0.0
  0
LINE
  8
DETAIL
  6
CONTINUOUS
 62
     5
 10
58.763415705402167
 20
-231.99958056771769
 30
0.0
 11
58.658026715757842
 21
-231.98851252331289
 31
0.0
  0
LINE
  8
DETAIL
  6
CONTINUOUS
 62
     5
 10
58.658026715757842
 20
-231.98851252331289
 30
0.0
 11
58.658026715757842
 21
-231.98851252331289
 31
0.0
  0
LINE
  8
DETAIL
  6
CONTINUOUS
 62
     5
 10
58.658026715757842
 20
-231.98851252331289
 30
0.0
 11
58.552191930462868
 21
-231.97866412729999
 31
0.0
  0
LINE
  8
DETAIL
  6
CONTINUOUS
 62
     5
 10
58.552191930462868
 20
-231.97866412729999
 30
0.0
 11
58.44601525190501
 21
-231.97007137632141
 31
0.0
  0
LINE
  8
DETAIL
  6
CONTINUOUS
 62
     5
 10
58.44601525190501
 20
-231.97007137632141
 30
0.0
 11
58.44601525190501
 21
-231.97007137632141
 31
0.0
  0
LINE
  8
DETAIL
  6
CONTINUOUS
 62
     5
 10
58.44601525190501
 20
-231.97007137632141
 30
0.0
 11
58.339832137035962
 21
-231.96279240220269
 31
0.0
  0
LINE
  8
DETAIL
  6
CONTINUOUS
 62
     5
 10
58.339832137035962
 20
-231.96279240220269
 30
0.0
 11
58.233638105058162
 21
-231.95678673846879
 31
0.0
  0
LINE
  8
DETAIL
  6
CONTINUOUS
 62
     5
 10
58.233638105058162
 20
-231.95678673846879
 30
0.0
 11
58.233638105058162
 21
-231.95678673846879
 31
0.0
  0
LINE
  8
DETAIL
  6
CONTINUOUS
 62
     5
 10
58.233638105058162
 20
-231.95678673846879
 30
0.0
 11
58.127367089485922
 21
-231.9520410826112
 31
0.0
  0
LINE
  8
DETAIL
  6
CONTINUOUS
 62
     5
 10
58.127367089485922
 20
-231.9520410826112
 30
0.0
 11
58.021046618827768
 21
-231.94874938629479
 31
0.0
  0
LINE
  8
DETAIL
  6
CONTINUOUS
 62
     5
 10
58.021046618827768
 20
-231.94874938629479
 30
0.0
 11
58.021046618827768
 21
-231.94874938629479
 31
0.0
  0
LINE
  8
DETAIL
  6
CONTINUOUS
 62
     5
 10
58.021046618827768
 20
-231.94874938629479
 30
0.0
 11
57.914719009784221
 21
-231.94697481012969
 31
0.0
  0
LINE
  8
DETAIL
  6
CONTINUOUS
 62
     5
 10
57.914719009784221
 20
-231.94697481012969
 30
0.0
 11
57.808392136826569
 21
-231.94605009633901
 31
0.0
  0
LINE
  8
DETAIL
  6
CONTINUOUS
 62
     5
 10
57.808392136826569
 20
-231.94605009633901
 30
0.0
 11
57.702036913294251
 21
-231.94697532019899
 31
0.0
  0
LINE
  8
DETAIL
  6
CONTINUOUS
 62
     5
 10
57.702036913294251
 20
-231.94697532019899
 30
0.0
 11
57.595681094590418
 21
-231.94875084141299
 31
0.0
  0
LINE
  8
DETAIL
  6
CONTINUOUS
 62
     5
 10
57.595681094590418
 20
-231.94875084141299
 30
0.0
 11
57.595681094590418
 21
-231.94875084141299
 31
0.0
  0
LINE
  8
DETAIL
  6
CONTINUOUS
 62
     5
 10
57.595681094590418
 20
-231.94875084141299
 30
0.0
 11
57.489332560693128
 21
-231.95204427291421
 31
0.0
  0
LINE
  8
DETAIL
  6
CONTINUOUS
 62
     5
 10
57.489332560693128
 20
-231.95204427291421
 30
0.0
 11
57.383033092182131
 21
-231.95679248995401
 31
0.0
  0
LINE
  8
DETAIL
  6
CONTINUOUS
 62
     5
 10
57.383033092182131
 20
-231.95679248995401
 30
0.0
 11
57.383033092182131
 21
-231.95679248995401
 31
0.0
  0
LINE
  8
DETAIL
  6
CONTINUOUS
 62
     5
 10
57.383033092182131
 20
-231.95679248995401
 30
0.0
 11
57.276810098044052
 21
-231.96280144810879
 31
0.0
  0
LINE
  8
DETAIL
  6
CONTINUOUS
 62
     5
 10
57.276810098044052
 20
-231.96280144810879
 30
0.0
 11
57.170599600301557
 21
-231.97008416194021
 31
0.0
  0
LINE
  8
DETAIL
  6
CONTINUOUS
 62
     5
 10
57.170599600301557
 20
-231.97008416194021
 30
0.0
 11
57.170599600301557
 21
-231.97008416194021
 31
0.0
  0
LINE
  8
DETAIL
  6
CONTINUOUS
 62
     5
 10
57.170599600301557
 20
-231.97008416194021
 30
0.0
 11
57.064397686049233
 21
-231.9786810361916
 31
0.0
  0
LINE
  8
DETAIL
  6
CONTINUOUS
 62
     5
 10
57.064397686049233
 20
-231.9786810361916
 30
0.0
 11
56.958532089648543
 21
-231.9885349773499
 31
0.0
  0
LINE
  8
DETAIL
  6
CONTINUOUS
 62
     5
 10
56.958532089648543
 20
-231.9885349773499
 30
0.0
 11
56.958532089648543
 21
-231.9885349773499
 31
0.0
  0
LINE
  8
DETAIL
  6
CONTINUOUS
 62
     5
 10
56.958532089648543
 20
-231.9885349773499
 30
0.0
 11
56.853104656754113
 21
-231.9996102508486
 31
0.0
  0
LINE
  8
DETAIL
  6
CONTINUOUS
 62
     5
 10
56.853104656754113
 20
-231.9996102508486
 30
0.0
 11
56.746982030923853
 21
-232.01205405616139
 31
0.0
  0
LINE
  8
DETAIL
  6
CONTINUOUS
 62
     5
 10
56.746982030923853
 20
-232.01205405616139
 30
0.0
 11
56.746982030923853
 21
-232.01205405616139
 31
0.0
  0
LINE
  8
DETAIL
  6
CONTINUOUS
 62
     5
 10
56.746982030923853
 20
-232.01205405616139
 30
0.0
 11
56.639205468172797
 21
-232.02599645881639
 31
0.0
  0
LINE
  8
DETAIL
  6
CONTINUOUS
 62
     5
 10
56.639205468172797
 20
-232.02599645881639
 30
0.0
 11
56.530749876424352
 21
-232.04131605451531
 31
0.0
  0
LINE
  8
DETAIL
  6
CONTINUOUS
 62
     5
 10
56.530749876424352
 20
-232.04131605451531
 30
0.0
 11
56.530749876424352
 21
-232.04131605451531
 31
0.0
  0
LINE
  8
DETAIL
  6
CONTINUOUS
 62
     5
 10
56.530749876424352
 20
-232.04131605451531
 30
0.0
 11
56.422779083998194
 21
-232.0578586732465
 31
0.0
  0
LINE
  8
DETAIL
  6
CONTINUOUS
 62
     5
 10
56.422779083998194
 20
-232.0578586732465
 30
0.0
 11
56.315278948883133
 21
-232.07559055196489
 31
0.0
  0
LINE
  8
DETAIL
  6
CONTINUOUS
 62
     5
 10
56.315278948883133
 20
-232.07559055196489
 30
0.0
 11
56.315278948883133
 21
-232.07559055196489
 31
0.0
  0
LINE
  8
DETAIL
  6
CONTINUOUS
 62
     5
 10
56.315278948883133
 20
-232.07559055196489
 30
0.0
 11
56.207962225418207
 21
-232.09451425211051
 31
0.0
  0
LINE
  8
DETAIL
  6
CONTINUOUS
 62
     5
 10
56.207962225418207
 20
-232.09451425211051
 30
0.0
 11
56.100627223680249
 21
-232.11465722610299
 31
0.0
  0
LINE
  8
DETAIL
  6
CONTINUOUS
 62
     5
 10
56.100627223680249
 20
-232.11465722610299
 30
0.0
 11
56.100627223680249
 21
-232.11465722610299
 31
0.0
  0
LINE
  8
DETAIL
  6
CONTINUOUS
 62
     5
 10
56.100627223680249
 20
-232.11465722610299
 30
0.0
 11
55.993302579525562
 21
-232.13599815638631
 31
0.0
  0
LINE
  8
DETAIL
  6
CONTINUOUS
 62
     5
 10
55.993302579525562
 20
-232.13599815638631
 30
0.0
 11
55.886852676197577
 21
-232.15829575452389
 31
0.0
  0
LINE
  8
DETAIL
  6
CONTINUOUS
 62
     5
 10
55.886852676197577
 20
-232.15829575452389
 30
0.0
 11
55.886852676197577
 21
-232.15829575452389
 31
0.0
  0
LINE
  8
DETAIL
  6
CONTINUOUS
 62
     5
 10
55.886852676197577
 20
-232.15829575452389
 30
0.0
 11
55.781493697465521
 21
-232.18146748749581
 31
0.0
  0
LINE
  8
DETAIL
  6
CONTINUOUS
 62
     5
 10
55.781493697465521
 20
-232.18146748749581
 30
0.0
 11
55.674013281815412
 21
-232.2062858148212
 31
0.0
  0
LINE
  8
DETAIL
  6
CONTINUOUS
 62
     5
 10
55.674013281815412
 20
-232.2062858148212
 30
0.0
 11
55.674013281815412
 21
-232.2062858148212
 31
0.0
  0
LINE
  8
DETAIL
  6
CONTINUOUS
 62
     5
 10
55.674013281815412
 20
-232.2062858148212
 30
0.0
 11
55.561704520768899
 21
-232.23341328500979
 31
0.0
  0
LINE
  8
DETAIL
  6
CONTINUOUS
 62
     5
 10
55.561704520768899
 20
-232.23341328500979
 30
0.0
 11
55.447310863271703
 21
-232.2622178099825
 31
0.0
  0
LINE
  8
DETAIL
  6
CONTINUOUS
 62
     5
 10
55.447310863271703
 20
-232.2622178099825
 30
0.0
 11
55.447310863271703
 21
-232.2622178099825
 31
0.0
  0
LINE
  8
DETAIL
  6
CONTINUOUS
 62
     5
 10
55.447310863271703
 20
-232.2622178099825
 30
0.0
 11
55.334071557035493
 21
-232.29193987058011
 31
0.0
  0
LINE
  8
DETAIL
  6
CONTINUOUS
 62
     5
 10
55.334071557035493
 20
-232.29193987058011
 30
0.0
 11
55.221758687414422
 21
-232.32260485990639
 31
0.0
  0
LINE
  8
DETAIL
  6
CONTINUOUS
 62
     5
 10
55.221758687414422
 20
-232.32260485990639
 30
0.0
 11
55.221758687414422
 21
-232.32260485990639
 31
0.0
  0
LINE
  8
DETAIL
  6
CONTINUOUS
 62
     5
 10
55.221758687414422
 20
-232.32260485990639
 30
0.0
 11
55.109507044792743
 21
-232.35437436787689
 31
0.0
  0
LINE
  8
DETAIL
  6
CONTINUOUS
 62
     5
 10
55.109507044792743
 20
-232.35437436787689
 30
0.0
 11
54.997369402026152
 21
-232.38716985939121
 31
0.0
  0
LINE
  8
DETAIL
  6
CONTINUOUS
 62
     5
 10
54.997369402026152
 20
-232.38716985939121
 30
0.0
 11
54.997369402026152
 21
-232.38716985939121
 31
0.0
  0
LINE
  8
DETAIL
  6
CONTINUOUS
 62
     5
 10
54.997369402026152
 20
-232.38716985939121
 30
0.0
 11
54.885576835705479
 21
-232.42089666504461
 31
0.0
  0
LINE
  8
DETAIL
  6
CONTINUOUS
 62
     5
 10
54.885576835705479
 20
-232.42089666504461
 30
0.0
 11
54.774155654889462
 21
-232.45563570323591
 31
0.0
  0
LINE
  8
DETAIL
  6
CONTINUOUS
 62
     5
 10
54.774155654889462
 20
-232.45563570323591
 30
0.0
 11
54.774155654889462
 21
-232.45563570323591
 31
0.0
  0
LINE
  8
DETAIL
  6
CONTINUOUS
 62
     5
 10
54.774155654889462
 20
-232.45563570323591
 30
0.0
 11
54.663056248667999
 21
-232.49139623276611
 31
0.0
  0
LINE
  8
DETAIL
  6
CONTINUOUS
 62
     5
 10
54.663056248667999
 20
-232.49139623276611
 30
0.0
 11
54.552130093786673
 21
-232.5277252862397
 31
0.0
  0
LINE
  8
DETAIL
  6
CONTINUOUS
 62
     5
 10
51.295868052048043
 20
-231.94605009633901
 30
0.0
 11
51.189512828511397
 21
-231.9469753201995
 31
0.0
  0
LINE
  8
DETAIL
  6
CONTINUOUS
 62
     5
 10
51.189512828511397
 20
-231.9469753201995
 30
0.0
 11
51.083157009799613
 21
-231.94875084141401
 31
0.0
  0
LINE
  8
DETAIL
  6
CONTINUOUS
 62
     5
 10
51.083157009799613
 20
-231.94875084141401
 30
0.0
 11
51.083157009799613
 21
-231.94875084141401
 31
0.0
  0
LINE
  8
DETAIL
  6
CONTINUOUS
 62
     5
 10
51.083157009799613
 20
-231.94875084141401
 30
0.0
 11
50.976808475888447
 21
-231.9520442729164
 31
0.0
  0
LINE
  8
DETAIL
  6
CONTINUOUS
 62
     5
 10
50.976808475888447
 20
-231.9520442729164
 30
0.0
 11
50.870509007357668
 21
-231.95679248995771
 31
0.0
  0
LINE
  8
DETAIL
  6
CONTINUOUS
 62
     5
 10
50.870509007357668
 20
-231.95679248995771
 30
0.0
 11
50.870509007357668
 21
-231.95679248995771
 31
0.0
  0
LINE
  8
DETAIL
  6
CONTINUOUS
 62
     5
 10
50.870509007357668
 20
-231.95679248995771
 30
0.0
 11
50.764286013195942
 21
-231.96280144811499
 31
0.0
  0
LINE
  8
DETAIL
  6
CONTINUOUS
 62
     5
 10
50.764286013195942
 20
-231.96280144811499
 30
0.0
 11
50.658075515427747
 21
-231.97008416194919
 31
0.0
  0
LINE
  8
DETAIL
  6
CONTINUOUS
 62
     5
 10
50.658075515427747
 20
-231.97008416194919
 30
0.0
 11
50.658075515427747
 21
-231.97008416194919
 31
0.0
  0
LINE
  8
DETAIL
  6
CONTINUOUS
 62
     5
 10
50.658075515427747
 20
-231.97008416194919
 30
0.0
 11
50.551873601149047
 21
-231.97868103620351
 31
0.0
  0
LINE
  8
DETAIL
  6
CONTINUOUS
 62
     5
 10
50.551873601149047
 20
-231.97868103620351
 30
0.0
 11
50.446008004715168
 21
-231.9885349773665
 31
0.0
  0
LINE
  8
DETAIL
  6
CONTINUOUS
 62
     5
 10
50.446008004715168
 20
-231.9885349773665
 30
0.0
 11
50.446008004715168
 21
-231.9885349773665
 31
0.0
  0
LINE
  8
DETAIL
  6
CONTINUOUS
 62
     5
 10
50.446008004715168
 20
-231.9885349773665
 30
0.0
 11
50.340580571777537
 21
-231.99961025087171
 31
0.0
  0
LINE
  8
DETAIL
  6
CONTINUOUS
 62
     5
 10
50.340580571777537
 20
-231.99961025087171
 30
0.0
 11
50.234457945925669
 21
-232.0120540561885
 31
0.0
  0
LINE
  8
DETAIL
  6
CONTINUOUS
 62
     5
 10
50.234457945925669
 20
-232.0120540561885
 30
0.0
 11
50.234457945925669
 21
-232.0120540561885
 31
0.0
  0
LINE
  8
DETAIL
  6
CONTINUOUS
 62
     5
 10
50.234457945925669
 20
-232.0120540561885
 30
0.0
 11
50.126681383197138
 21
-232.02599645884209
 31
0.0
  0
LINE
  8
DETAIL
  6
CONTINUOUS
 62
     5
 10
50.126681383197138
 20
-232.02599645884209
 30
0.0
 11
50.018225791492107
 21
-232.04131605453679
 31
0.0
  0
LINE
  8
DETAIL
  6
CONTINUOUS
 62
     5
 10
50.018225791492107
 20
-232.04131605453679
 30
0.0
 11
50.018225791492107
 21
-232.04131605453679
 31
0.0
  0
LINE
  8
DETAIL
  6
CONTINUOUS
 62
     5
 10
50.018225791492107
 20
-232.04131605453679
 30
0.0
 11
49.910254999101198
 21
-232.05785867326389
 31
0.0
  0
LINE
  8
DETAIL
  6
CONTINUOUS
 62
     5
 10
49.910254999101198
 20
-232.05785867326389
 30
0.0
 11
49.802754864015242
 21
-232.07559055197791
 31
0.0
  0
LINE
  8
DETAIL
  6
CONTINUOUS
 62
     5
 10
49.802754864015242
 20
-232.07559055197791
 30
0.0
 11
49.802754864015242
 21
-232.07559055197791
 31
0.0
  0
LINE
  8
DETAIL
  6
CONTINUOUS
 62
     5
 10
49.802754864015242
 20
-232.07559055197791
 30
0.0
 11
49.695438140581473
 21
-232.0945142521189
 31
0.0
  0
LINE
  8
DETAIL
  6
CONTINUOUS
 62
     5
 10
49.695438140581473
 20
-232.0945142521189
 30
0.0
 11
49.588103138874203
 21
-232.11465722610629
 31
0.0
  0
LINE
  8
DETAIL
  6
CONTINUOUS
 62
     5
 10
49.588103138874203
 20
-232.11465722610629
 30
0.0
 11
49.588103138874203
 21
-232.11465722610629
 31
0.0
  0
LINE
  8
DETAIL
  6
CONTINUOUS
 62
     5
 10
49.588103138874203
 20
-232.11465722610629
 30
0.0
 11
49.48077849474771
 21
-232.13599815638409
 31
0.0
  0
LINE
  8
DETAIL
  6
CONTINUOUS
 62
     5
 10
49.48077849474771
 20
-232.13599815638409
 30
0.0
 11
49.37432859144883
 21
-232.15829575451559
 31
0.0
  0
LINE
  8
DETAIL
  6
CONTINUOUS
 62
     5
 10
49.37432859144883
 20
-232.15829575451559
 30
0.0
 11
49.37432859144883
 21
-232.15829575451559
 31
0.0
  0
LINE
  8
DETAIL
  6
CONTINUOUS
 62
     5
 10
49.37432859144883
 20
-232.15829575451559
 30
0.0
 11
49.268969612749061
 21
-232.18146748747969
 31
0.0
  0
LINE
  8
DETAIL
  6
CONTINUOUS
 62
     5
 10
49.268969612749061
 20
-232.18146748747969
 30
0.0
 11
49.161489197119408
 21
-232.2062858148004
 31
0.0
  0
LINE
  8
DETAIL
  6
CONTINUOUS
 62
     5
 10
49.161489197119408
 20
-232.2062858148004
 30
0.0
 11
49.161489197119408
 21
-232.2062858148004
 31
0.0
  0
LINE
  8
DETAIL
  6
CONTINUOUS
 62
     5
 10
49.161489197119408
 20
-232.2062858148004
 30
0.0
 11
49.049180436069037
 21
-232.2334132849895
 31
0.0
  0
LINE
  8
DETAIL
  6
CONTINUOUS
 62
     5
 10
49.049180436069037
 20
-232.2334132849895
 30
0.0
 11
48.934786778556372
 21
-232.2622178099657
 31
0.0
  0
LINE
  8
DETAIL
  6
CONTINUOUS
 62
     5
 10
48.934786778556372
 20
-232.2622178099657
 30
0.0
 11
48.934786778556372
 21
-232.2622178099657
 31
0.0
  0
LINE
  8
DETAIL
  6
CONTINUOUS
 62
     5
 10
48.934786778556372
 20
-232.2622178099657
 30
0.0
 11
48.821547472307877
 21
-232.2919398705661
 31
0.0
  0
LINE
  8
DETAIL
  6
CONTINUOUS
 62
     5
 10
48.821547472307877
 20
-232.2919398705661
 30
0.0
 11
48.709234602677718
 21
-232.3226048598948
 31
0.0
  0
LINE
  8
DETAIL
  6
CONTINUOUS
 62
     5
 10
48.709234602677718
 20
-232.3226048598948
 30
0.0
 11
48.709234602677718
 21
-232.3226048598948
 31
0.0
  0
LINE
  8
DETAIL
  6
CONTINUOUS
 62
     5
 10
48.709234602677718
 20
-232.3226048598948
 30
0.0
 11
48.596982960045807
 21
-232.35437436786819
 31
0.0
  0
LINE
  8
DETAIL
  6
CONTINUOUS
 62
     5
 10
48.596982960045807
 20
-232.35437436786819
 30
0.0
 11
48.484845317268991
 21
-232.3871698593853
 31
0.0
  0
LINE
  8
DETAIL
  6
CONTINUOUS
 62
     5
 10
48.484845317268991
 20
-232.3871698593853
 30
0.0
 11
48.484845317268991
 21
-232.3871698593853
 31
0.0
  0
LINE
  8
DETAIL
  6
CONTINUOUS
 62
     5
 10
48.484845317268991
 20
-232.3871698593853
 30
0.0
 11
48.373052750939223
 21
-232.420896665041
 31
0.0
  0
LINE
  8
DETAIL
  6
CONTINUOUS
 62
     5
 10
48.373052750939223
 20
-232.420896665041
 30
0.0
 11
48.261631570117061
 21
-232.45563570323421
 31
0.0
  0
LINE
  8
DETAIL
  6
CONTINUOUS
 62
     5
 10
48.261631570117061
 20
-232.45563570323421
 30
0.0
 11
48.261631570117061
 21
-232.45563570323421
 31
0.0
  0
LINE
  8
DETAIL
  6
CONTINUOUS
 62
     5
 10
48.261631570117061
 20
-232.45563570323421
 30
0.0
 11
48.150532163891967
 21
-232.49139623276531
 31
0.0
  0
LINE
  8
DETAIL
  6
CONTINUOUS
 62
     5
 10
48.150532163891967
 20
-232.49139623276531
 30
0.0
 11
48.039606009008367
 21
-232.5277252862397
 31
0.0
  0
LINE
  8
DETAIL
  6
CONTINUOUS
 62
     5
 10
-54.552130093787127
 20
-232.5277252862397
 30
0.0
 11
-54.663046040399877
 21
-232.49139950835789
 31
0.0
  0
LINE
  8
DETAIL
  6
CONTINUOUS
 62
     5
 10
-54.663046040399877
 20
-232.49139950835789
 30
0.0
 11
-54.774135299697491
 21
-232.45564212563281
 31
0.0
  0
LINE
  8
DETAIL
  6
CONTINUOUS
 62
     5
 10
-54.774135299697491
 20
-232.45564212563281
 30
0.0
 11
-54.774135299697491
 21
-232.45564212563281
 31
0.0
  0
LINE
  8
DETAIL
  6
CONTINUOUS
 62
     5
 10
-54.774135299697491
 20
-232.45564212563281
 30
0.0
 11
-54.88554636487379
 21
-232.4209060195636
 31
0.0
  0
LINE
  8
DETAIL
  6
CONTINUOUS
 62
     5
 10
-54.88554636487379
 20
-232.4209060195636
 30
0.0
 11
-54.997328451158857
 21
-232.38718201701519
 31
0.0
  0
LINE
  8
DETAIL
  6
CONTINUOUS
 62
     5
 10
-54.997328451158857
 20
-232.38718201701519
 30
0.0
 11
-54.997328451158857
 21
-232.38718201701519
 31
0.0
  0
LINE
  8
DETAIL
  6
CONTINUOUS
 62
     5
 10
-54.997328451158857
 20
-232.38718201701519
 30
0.0
 11
-55.109455162114273
 21
-232.3543892333123
 31
0.0
  0
LINE
  8
DETAIL
  6
CONTINUOUS
 62
     5
 10
-55.109455162114273
 20
-232.3543892333123
 30
0.0
 11
-55.221696932587967
 21
-232.32262199224931
 31
0.0
  0
LINE
  8
DETAIL
  6
CONTINUOUS
 62
     5
 10
-55.221696932587967
 20
-232.32262199224931
 30
0.0
 11
-55.221696932587967
 21
-232.32262199224931
 31
0.0
  0
LINE
  8
DETAIL
  6
CONTINUOUS
 62
     5
 10
-55.221696932587967
 20
-232.32262199224931
 30
0.0
 11
-55.334001393453953
 21
-232.2919587249261
 31
0.0
  0
LINE
  8
DETAIL
  6
CONTINUOUS
 62
     5
 10
-55.334001393453953
 20
-232.2919587249261
 30
0.0
 11
-55.447228128400873
 21
-232.2622390831981
 31
0.0
  0
LINE
  8
DETAIL
  6
CONTINUOUS
 62
     5
 10
-55.447228128400873
 20
-232.2622390831981
 30
0.0
 11
-55.447228128400873
 21
-232.2622390831981
 31
0.0
  0
LINE
  8
DETAIL
  6
CONTINUOUS
 62
     5
 10
-55.447228128400873
 20
-232.2622390831981
 30
0.0
 11
-55.561603548684623
 21
-232.23343800123669
 31
0.0
  0
LINE
  8
DETAIL
  6
CONTINUOUS
 62
     5
 10
-55.561603548684623
 20
-232.23343800123669
 30
0.0
 11
-55.673909423015168
 21
-232.20631032172511
 31
0.0
  0
LINE
  8
DETAIL
  6
CONTINUOUS
 62
     5
 10
-55.673909423015168
 20
-232.20631032172511
 30
0.0
 11
-55.673909423015168
 21
-232.20631032172511
 31
0.0
  0
LINE
  8
DETAIL
  6
CONTINUOUS
 62
     5
 10
-55.673909423015168
 20
-232.20631032172511
 30
0.0
 11
-55.781420066055489
 21
-232.18148428786409
 31
0.0
  0
LINE
  8
DETAIL
  6
CONTINUOUS
 62
     5
 10
-55.781420066055489
 20
-232.18148428786409
 30
0.0
 11
-55.886824618823077
 21
-232.1583018364025
 31
0.0
  0
LINE
  8
DETAIL
  6
CONTINUOUS
 62
     5
 10
-55.886824618823077
 20
-232.1583018364025
 30
0.0
 11
-55.886824618823077
 21
-232.1583018364025
 31
0.0
  0
LINE
  8
DETAIL
  6
CONTINUOUS
 62
     5
 10
-55.886824618823077
 20
-232.1583018364025
 30
0.0
 11
-55.993314531101078
 21
-232.13599568179691
 31
0.0
  0
LINE
  8
DETAIL
  6
CONTINUOUS
 62
     5
 10
-55.993314531101078
 20
-232.13599568179691
 30
0.0
 11
-56.100675661393318
 21
-232.11464795577891
 31
0.0
  0
LINE
  8
DETAIL
  6
CONTINUOUS
 62
     5
 10
-56.100675661393318
 20
-232.11464795577891
 30
0.0
 11
-56.100675661393318
 21
-232.11464795577891
 31
0.0
  0
LINE
  8
DETAIL
  6
CONTINUOUS
 62
     5
 10
-56.100675661393318
 20
-232.11464795577891
 30
0.0
 11
-56.208049352502258
 21
-232.09449858092731
 31
0.0
  0
LINE
  8
DETAIL
  6
CONTINUOUS
 62
     5
 10
-56.208049352502258
 20
-232.09449858092731
 30
0.0
 11
-56.3154044757066
 21
-232.0755692259321
 31
0.0
  0
LINE
  8
DETAIL
  6
CONTINUOUS
 62
     5
 10
-56.3154044757066
 20
-232.0755692259321
 30
0.0
 11
-56.3154044757066
 21
-232.0755692259321
 31
0.0
  0
LINE
  8
DETAIL
  6
CONTINUOUS
 62
     5
 10
-56.3154044757066
 20
-232.0755692259321
 30
0.0
 11
-56.422940653747901
 21
-232.0578328955809
 31
0.0
  0
LINE
  8
DETAIL
  6
CONTINUOUS
 62
     5
 10
-56.422940653747901
 20
-232.0578328955809
 30
0.0
 11
-56.530952986743607
 21
-232.0412861929415
 31
0.0
  0
LINE
  8
DETAIL
  6
CONTINUOUS
 62
     5
 10
-56.530952986743607
 20
-232.0412861929415
 30
0.0
 11
-56.530952986743607
 21
-232.0412861929415
 31
0.0
  0
LINE
  8
DETAIL
  6
CONTINUOUS
 62
     5
 10
-56.530952986743607
 20
-232.0412861929415
 30
0.0
 11
-56.639458084659047
 21
-232.02596258584319
 31
0.0
  0
LINE
  8
DETAIL
  6
CONTINUOUS
 62
     5
 10
-56.639458084659047
 20
-232.02596258584319
 30
0.0
 11
-56.74726311948416
 21
-232.01201940288539
 31
0.0
  0
LINE
  8
DETAIL
  6
CONTINUOUS
 62
     5
 10
-56.74726311948416
 20
-232.01201940288539
 30
0.0
 11
-56.74726311948416
 21
-232.01201940288539
 31
0.0
  0
LINE
  8
DETAIL
  6
CONTINUOUS
 62
     5
 10
-56.74726311948416
 20
-232.01201940288539
 30
0.0
 11
-56.853368567069772
 21
-231.99958056770291
 31
0.0
  0
LINE
  8
DETAIL
  6
CONTINUOUS
 62
     5
 10
-56.853368567069772
 20
-231.99958056770291
 30
0.0
 11
-56.958757556691133
 21
-231.98851252330209
 31
0.0
  0
LINE
  8
DETAIL
  6
CONTINUOUS
 62
     5
 10
-56.958757556691133
 20
-231.98851252330209
 30
0.0
 11
-56.958757556691133
 21
-231.98851252330209
 31
0.0
  0
LINE
  8
DETAIL
  6
CONTINUOUS
 62
     5
 10
-56.958757556691133
 20
-231.98851252330209
 30
0.0
 11
-57.064592341976997
 21
-231.97866412729181
 31
0.0
  0
LINE
  8
DETAIL
  6
CONTINUOUS
 62
     5
 10
-57.064592341976997
 20
-231.97866412729181
 30
0.0
 11
-57.170769020542593
 21
-231.9700713763157
 31
0.0
  0
LINE
  8
DETAIL
  6
CONTINUOUS
 62
     5
 10
-57.170769020542593
 20
-231.9700713763157
 30
0.0
 11
-57.170769020542593
 21
-231.9700713763157
 31
0.0
  0
LINE
  8
DETAIL
  6
CONTINUOUS
 62
     5
 10
-57.170769020542593
 20
-231.9700713763157
 30
0.0
 11
-57.276952135436659
 21
-231.9627924021992
 31
0.0
  0
LINE
  8
DETAIL
  6
CONTINUOUS
 62
     5
 10
-57.276952135436659
 20
-231.9627924021992
 30
0.0
 11
-57.383146167459017
 21
-231.9567867384666
 31
0.0
  0
LINE
  8
DETAIL
  6
CONTINUOUS
 62
     5
 10
-57.383146167459017
 20
-231.9567867384666
 30
0.0
 11
-57.383146167459017
 21
-231.9567867384666
 31
0.0
  0
LINE
  8
DETAIL
  6
CONTINUOUS
 62
     5
 10
-57.383146167459017
 20
-231.9567867384666
 30
0.0
 11
-57.489417183101068
 21
-231.95204108261009
 31
0.0
  0
LINE
  8
DETAIL
  6
CONTINUOUS
 62
     5
 10
-57.489417183101068
 20
-231.95204108261009
 30
0.0
 11
-57.59573765386358
 21
-231.94874938629439
 31
0.0
  0
LINE
  8
DETAIL
  6
CONTINUOUS
 62
     5
 10
-57.59573765386358
 20
-231.94874938629439
 30
0.0
 11
-57.59573765386358
 21
-231.94874938629439
 31
0.0
  0
LINE
  8
DETAIL
  6
CONTINUOUS
 62
     5
 10
-57.59573765386358
 20
-231.94874938629439
 30
0.0
 11
-57.702065263051047
 21
-231.94697481012969
 31
0.0
  0
LINE
  8
DETAIL
  6
CONTINUOUS
 62
     5
 10
-57.702065263051047
 20
-231.94697481012969
 30
0.0
 11
-57.808392136176053
 21
-231.94605009633901
 31
0.0
  0
LINE
  8
DETAIL
  6
CONTINUOUS
 62
     5
 10
-48.039606009008367
 20
-232.5277252862397
 30
0.0
 11
-48.150521955619297
 21
-232.4913995083584
 31
0.0
  0
LINE
  8
DETAIL
  6
CONTINUOUS
 62
     5
 10
-48.150521955619297
 20
-232.4913995083584
 30
0.0
 11
-48.261611214913053
 21
-232.4556421256344
 31
0.0
  0
LINE
  8
DETAIL
  6
CONTINUOUS
 62
     5
 10
-48.261611214913053
 20
-232.4556421256344
 30
0.0
 11
-48.261611214913053
 21
-232.4556421256344
 31
0.0
  0
LINE
  8
DETAIL
  6
CONTINUOUS
 62
     5
 10
-48.261611214913053
 20
-232.4556421256344
 30
0.0
 11
-48.373022280082303
 21
-232.42090601956701
 31
0.0
  0
LINE
  8
DETAIL
  6
CONTINUOUS
 62
     5
 10
-48.373022280082303
 20
-232.42090601956701
 30
0.0
 11
-48.484804366357139
 21
-232.3871820170215
 31
0.0
  0
LINE
  8
DETAIL
  6
CONTINUOUS
 62
     5
 10
-48.484804366357139
 20
-232.3871820170215
 30
0.0
 11
-48.484804366357139
 21
-232.3871820170215
 31
0.0
  0
LINE
  8
DETAIL
  6
CONTINUOUS
 62
     5
 10
-48.484804366357139
 20
-232.3871820170215
 30
0.0
 11
-48.596931077299587
 21
-232.35438923332171
 31
0.0
  0
LINE
  8
DETAIL
  6
CONTINUOUS
 62
     5
 10
-48.596931077299587
 20
-232.35438923332171
 30
0.0
 11
-48.709172847758957
 21
-232.32262199226199
 31
0.0
  0
LINE
  8
DETAIL
  6
CONTINUOUS
 62
     5
 10
-48.709172847758957
 20
-232.32262199226199
 30
0.0
 11
-48.709172847758957
 21
-232.32262199226199
 31
0.0
  0
LINE
  8
DETAIL
  6
CONTINUOUS
 62
     5
 10
-48.709172847758957
 20
-232.32262199226199
 30
0.0
 11
-48.821477308608792
 21
-232.2919587249429
 31
0.0
  0
LINE
  8
DETAIL
  6
CONTINUOUS
 62
     5
 10
-48.821477308608792
 20
-232.2919587249429
 30
0.0
 11
-48.934704043535021
 21
-232.26223908321921
 31
0.0
  0
LINE
  8
DETAIL
  6
CONTINUOUS
 62
     5
 10
-48.934704043535021
 20
-232.26223908321921
 30
0.0
 11
-48.934704043535021
 21
-232.26223908321921
 31
0.0
  0
LINE
  8
DETAIL
  6
CONTINUOUS
 62
     5
 10
-48.934704043535021
 20
-232.26223908321921
 30
0.0
 11
-49.049079463791259
 21
-232.23343800126301
 31
0.0
  0
LINE
  8
DETAIL
  6
CONTINUOUS
 62
     5
 10
-49.049079463791259
 20
-232.23343800126301
 30
0.0
 11
-49.161385338103628
 21
-232.2063103217549
 31
0.0
  0
LINE
  8
DETAIL
  6
CONTINUOUS
 62
     5
 10
-49.161385338103628
 20
-232.2063103217549
 30
0.0
 11
-49.161385338103628
 21
-232.2063103217549
 31
0.0
  0
LINE
  8
DETAIL
  6
CONTINUOUS
 62
     5
 10
-49.161385338103628
 20
-232.2063103217549
 30
0.0
 11
-49.268895981145761
 21
-232.1814842878924
 31
0.0
  0
LINE
  8
DETAIL
  6
CONTINUOUS
 62
     5
 10
-49.268895981145761
 20
-232.1814842878924
 30
0.0
 11
-49.374300533922913
 21
-232.1583018364278
 31
0.0
  0
LINE
  8
DETAIL
  6
CONTINUOUS
 62
     5
 10
-49.374300533922913
 20
-232.1583018364278
 30
0.0
 11
-49.374300533922913
 21
-232.1583018364278
 31
0.0
  0
LINE
  8
DETAIL
  6
CONTINUOUS
 62
     5
 10
-49.374300533922913
 20
-232.1583018364278
 30
0.0
 11
-49.480790446205901
 21
-232.13599568181999
 31
0.0
  0
LINE
  8
DETAIL
  6
CONTINUOUS
 62
     5
 10
-49.480790446205901
 20
-232.13599568181999
 30
0.0
 11
-49.588151576499058
 21
-232.1146479558009
 31
0.0
  0
LINE
  8
DETAIL
  6
CONTINUOUS
 62
     5
 10
-49.588151576499058
 20
-232.1146479558009
 30
0.0
 11
-49.588151576499058
 21
-232.1146479558009
 31
0.0
  0
LINE
  8
DETAIL
  6
CONTINUOUS
 62
     5
 10
-49.588151576499058
 20
-232.1146479558009
 30
0.0
 11
-49.695525267607543
 21
-232.09449858094871
 31
0.0
  0
LINE
  8
DETAIL
  6
CONTINUOUS
 62
     5
 10
-49.695525267607543
 20
-232.09449858094871
 30
0.0
 11
-49.802880390811417
 21
-232.07556922595259
 31
0.0
  0
LINE
  8
DETAIL
  6
CONTINUOUS
 62
     5
 10
-49.802880390811417
 20
-232.07556922595259
 30
0.0
 11
-49.802880390811417
 21
-232.07556922595259
 31
0.0
  0
LINE
  8
DETAIL
  6
CONTINUOUS
 62
     5
 10
-49.802880390811417
 20
-232.07556922595259
 30
0.0
 11
-49.91041656885136
 21
-232.05783289560091
 31
0.0
  0
LINE
  8
DETAIL
  6
CONTINUOUS
 62
     5
 10
-49.91041656885136
 20
-232.05783289560091
 30
0.0
 11
-50.018428901841162
 21
-232.0412861929608
 31
0.0
  0
LINE
  8
DETAIL
  6
CONTINUOUS
 62
     5
 10
-50.018428901841162
 20
-232.0412861929608
 30
0.0
 11
-50.018428901841162
 21
-232.0412861929608
 31
0.0
  0
LINE
  8
DETAIL
  6
CONTINUOUS
 62
     5
 10
-50.018428901841162
 20
-232.0412861929608
 30
0.0
 11
-50.126933999745233
 21
-232.02596258586291
 31
0.0
  0
LINE
  8
DETAIL
  6
CONTINUOUS
 62
     5
 10
-50.126933999745233
 20
-232.02596258586291
 30
0.0
 11
-50.234739034568072
 21
-232.01201940290409
 31
0.0
  0
LINE
  8
DETAIL
  6
CONTINUOUS
 62
     5
 10
-50.234739034568072
 20
-232.01201940290409
 30
0.0
 11
-50.234739034568072
 21
-232.01201940290409
 31
0.0
  0
LINE
  8
DETAIL
  6
CONTINUOUS
 62
     5
 10
-50.234739034568072
 20
-232.01201940290409
 30
0.0
 11
-50.340844482172088
 21
-231.99958056771769
 31
0.0
  0
LINE
  8
DETAIL
  6
CONTINUOUS
 62
     5
 10
-50.340844482172088
 20
-231.99958056771769
 30
0.0
 11
-50.446233471820513
 21
-231.98851252331289
 31
0.0
  0
LINE
  8
DETAIL
  6
CONTINUOUS
 62
     5
 10
-50.446233471820513
 20
-231.98851252331289
 30
0.0
 11
-50.446233471820513
 21
-231.98851252331289
 31
0.0
  0
LINE
  8
DETAIL
  6
CONTINUOUS
 62
     5
 10
-50.446233471820513
 20
-231.98851252331289
 30
0.0
 11
-50.552068257127758
 21
-231.97866412729999
 31
0.0
  0
LINE
  8
DETAIL
  6
CONTINUOUS
 62
     5
 10
-50.552068257127758
 20
-231.97866412729999
 30
0.0
 11
-50.658244935709718
 21
-231.97007137632141
 31
0.0
  0
LINE
  8
DETAIL
  6
CONTINUOUS
 62
     5
 10
-50.658244935709718
 20
-231.97007137632141
 30
0.0
 11
-50.658244935709718
 21
-231.97007137632141
 31
0.0
  0
LINE
  8
DETAIL
  6
CONTINUOUS
 62
     5
 10
-50.658244935709718
 20
-231.97007137632141
 30
0.0
 11
-50.764428050619237
 21
-231.96279240220269
 31
0.0
  0
LINE
  8
DETAIL
  6
CONTINUOUS
 62
     5
 10
-50.764428050619237
 20
-231.96279240220269
 30
0.0
 11
-50.8706220826557
 21
-231.95678673846879
 31
0.0
  0
LINE
  8
DETAIL
  6
CONTINUOUS
 62
     5
 10
-50.8706220826557
 20
-231.95678673846879
 30
0.0
 11
-50.8706220826557
 21
-231.95678673846879
 31
0.0
  0
LINE
  8
DETAIL
  6
CONTINUOUS
 62
     5
 10
-50.8706220826557
 20
-231.95678673846879
 30
0.0
 11
-50.976893098308658
 21
-231.9520410826112
 31
0.0
  0
LINE
  8
DETAIL
  6
CONTINUOUS
 62
     5
 10
-50.976893098308658
 20
-231.9520410826112
 30
0.0
 11
-51.083213569078453
 21
-231.94874938629479
 31
0.0
  0
LINE
  8
DETAIL
  6
CONTINUOUS
 62
     5
 10
-51.083213569078453
 20
-231.94874938629479
 30
0.0
 11
-51.083213569078453
 21
-231.94874938629479
 31
0.0
  0
LINE
  8
DETAIL
  6
CONTINUOUS
 62
     5
 10
-51.083213569078453
 20
-231.94874938629479
 30
0.0
 11
-51.189541178270467
 21
-231.94697481012969
 31
0.0
  0
LINE
  8
DETAIL
  6
CONTINUOUS
 62
     5
 10
-51.189541178270467
 20
-231.94697481012969
 30
0.0
 11
-51.295868051397747
 21
-231.94605009633901
 31
0.0
  0
LINE
  8
DETAIL
  6
CONTINUOUS
 62
     5
 10
-51.295868051397747
 20
-231.94605009633901
 30
0.0
 11
-51.402223274773178
 21
-231.94697532019899
 31
0.0
  0
LINE
  8
DETAIL
  6
CONTINUOUS
 62
     5
 10
-51.402223274773178
 20
-231.94697532019899
 30
0.0
 11
-51.508579093350363
 21
-231.94875084141299
 31
0.0
  0
LINE
  8
DETAIL
  6
CONTINUOUS
 62
     5
 10
-51.508579093350363
 20
-231.94875084141299
 30
0.0
 11
-51.508579093350363
 21
-231.94875084141299
 31
0.0
  0
LINE
  8
DETAIL
  6
CONTINUOUS
 62
     5
 10
-51.508579093350363
 20
-231.94875084141299
 30
0.0
 11
-51.614927627171483
 21
-231.95204427291421
 31
0.0
  0
LINE
  8
DETAIL
  6
CONTINUOUS
 62
     5
 10
-51.614927627171483
 20
-231.95204427291421
 30
0.0
 11
-51.721227095648828
 21
-231.95679248995401
 31
0.0
  0
LINE
  8
DETAIL
  6
CONTINUOUS
 62
     5
 10
-51.721227095648828
 20
-231.95679248995401
 30
0.0
 11
-51.721227095648828
 21
-231.95679248995401
 31
0.0
  0
LINE
  8
DETAIL
  6
CONTINUOUS
 62
     5
 10
-51.721227095648828
 20
-231.95679248995401
 30
0.0
 11
-51.827450089779397
 21
-231.96280144810879
 31
0.0
  0
LINE
  8
DETAIL
  6
CONTINUOUS
 62
     5
 10
-51.827450089779397
 20
-231.96280144810879
 30
0.0
 11
-51.93366058753486
 21
-231.97008416194021
 31
0.0
  0
LINE
  8
DETAIL
  6
CONTINUOUS
 62
     5
 10
-51.93366058753486
 20
-231.97008416194021
 30
0.0
 11
-51.93366058753486
 21
-231.97008416194021
 31
0.0
  0
LINE
  8
DETAIL
  6
CONTINUOUS
 62
     5
 10
-51.93366058753486
 20
-231.97008416194021
 30
0.0
 11
-52.039862501814007
 21
-231.9786810361916
 31
0.0
  0
LINE
  8
DETAIL
  6
CONTINUOUS
 62
     5
 10
-52.039862501814007
 20
-231.9786810361916
 30
0.0
 11
-52.145728098248362
 21
-231.9885349773499
 31
0.0
  0
LINE
  8
DETAIL
  6
CONTINUOUS
 62
     5
 10
-52.145728098248362
 20
-231.9885349773499
 30
0.0
 11
-52.145728098248362
 21
-231.9885349773499
 31
0.0
  0
LINE
  8
DETAIL
  6
CONTINUOUS
 62
     5
 10
-52.145728098248362
 20
-231.9885349773499
 30
0.0
 11
-52.251155531176209
 21
-231.9996102508486
 31
0.0
  0
LINE
  8
DETAIL
  6
CONTINUOUS
 62
     5
 10
-52.251155531176209
 20
-231.9996102508486
 30
0.0
 11
-52.357278157030578
 21
-232.01205405616139
 31
0.0
  0
LINE
  8
DETAIL
  6
CONTINUOUS
 62
     5
 10
-52.357278157030578
 20
-232.01205405616139
 30
0.0
 11
-52.357278157030578
 21
-232.01205405616139
 31
0.0
  0
LINE
  8
DETAIL
  6
CONTINUOUS
 62
     5
 10
-52.357278157030578
 20
-232.01205405616139
 30
0.0
 11
-52.465054719792079
 21
-232.02599645881639
 31
0.0
  0
LINE
  8
DETAIL
  6
CONTINUOUS
 62
     5
 10
-52.465054719792079
 20
-232.02599645881639
 30
0.0
 11
-52.573510311536673
 21
-232.04131605451531
 31
0.0
  0
LINE
  8
DETAIL
  6
CONTINUOUS
 62
     5
 10
-52.573510311536673
 20
-232.04131605451531
 30
0.0
 11
-52.573510311536673
 21
-232.04131605451531
 31
0.0
  0
LINE
  8
DETAIL
  6
CONTINUOUS
 62
     5
 10
-52.573510311536673
 20
-232.04131605451531
 30
0.0
 11
-52.68148110394759
 21
-232.0578586732465
 31
0.0
  0
LINE
  8
DETAIL
  6
CONTINUOUS
 62
     5
 10
-52.68148110394759
 20
-232.0578586732465
 30
0.0
 11
-52.788981239037177
 21
-232.07559055196489
 31
0.0
  0
LINE
  8
DETAIL
  6
CONTINUOUS
 62
     5
 10
-52.788981239037177
 20
-232.07559055196489
 30
0.0
 11
-52.788981239037177
 21
-232.07559055196489
 31
0.0
  0
LINE
  8
DETAIL
  6
CONTINUOUS
 62
     5
 10
-52.788981239037177
 20
-232.07559055196489
 30
0.0
 11
-52.896297962469362
 21
-232.09451425211051
 31
0.0
  0
LINE
  8
DETAIL
  6
CONTINUOUS
 62
     5
 10
-52.896297962469362
 20
-232.09451425211051
 30
0.0
 11
-53.003632964169363
 21
-232.11465722610299
 31
0.0
  0
LINE
  8
DETAIL
  6
CONTINUOUS
 62
     5
 10
-53.003632964169363
 20
-232.11465722610299
 30
0.0
 11
-53.003632964169363
 21
-232.11465722610299
 31
0.0
  0
LINE
  8
DETAIL
  6
CONTINUOUS
 62
     5
 10
-53.003632964169363
 20
-232.11465722610299
 30
0.0
 11
-53.110957608283123
 21
-232.13599815638631
 31
0.0
  0
LINE
  8
DETAIL
  6
CONTINUOUS
 62
     5
 10
-53.110957608283123
 20
-232.13599815638631
 30
0.0
 11
-53.217407511569952
 21
-232.15829575452389
 31
0.0
  0
LINE
  8
DETAIL
  6
CONTINUOUS
 62
     5
 10
-53.217407511569952
 20
-232.15829575452389
 30
0.0
 11
-53.217407511569952
 21
-232.15829575452389
 31
0.0
  0
LINE
  8
DETAIL
  6
CONTINUOUS
 62
     5
 10
-53.217407511569952
 20
-232.15829575452389
 30
0.0
 11
-53.322766490262673
 21
-232.18146748749581
 31
0.0
  0
LINE
  8
DETAIL
  6
CONTINUOUS
 62
     5
 10
-53.322766490262673
 20
-232.18146748749581
 30
0.0
 11
-53.430246905876402
 21
-232.2062858148212
 31
0.0
  0
LINE
  8
DETAIL
  6
CONTINUOUS
 62
     5
 10
-53.430246905876402
 20
-232.2062858148212
 30
0.0
 11
-53.430246905876402
 21
-232.2062858148212
 31
0.0
  0
LINE
  8
DETAIL
  6
CONTINUOUS
 62
     5
 10
-53.430246905876402
 20
-232.2062858148212
 30
0.0
 11
-53.542555666891083
 21
-232.23341328500979
 31
0.0
  0
LINE
  8
DETAIL
  6
CONTINUOUS
 62
     5
 10
-53.542555666891083
 20
-232.23341328500979
 30
0.0
 11
-53.656949324362358
 21
-232.2622178099825
 31
0.0
  0
LINE
  8
DETAIL
  6
CONTINUOUS
 62
     5
 10
-53.656949324362358
 20
-232.2622178099825
 30
0.0
 11
-53.656949324362358
 21
-232.2622178099825
 31
0.0
  0
LINE
  8
DETAIL
  6
CONTINUOUS
 62
     5
 10
-53.656949324362358
 20
-232.2622178099825
 30
0.0
 11
-53.770188630578559
 21
-232.29193987058011
 31
0.0
  0
LINE
  8
DETAIL
  6
CONTINUOUS
 62
     5
 10
-53.770188630578559
 20
-232.29193987058011
 30
0.0
 11
-53.882501500184389
 21
-232.32260485990639
 31
0.0
  0
LINE
  8
DETAIL
  6
CONTINUOUS
 62
     5
 10
-53.882501500184389
 20
-232.32260485990639
 30
0.0
 11
-53.882501500184389
 21
-232.32260485990639
 31
0.0
  0
LINE
  8
DETAIL
  6
CONTINUOUS
 62
     5
 10
-53.882501500184389
 20
-232.32260485990639
 30
0.0
 11
-53.994753142795624
 21
-232.35437436787689
 31
0.0
  0
LINE
  8
DETAIL
  6
CONTINUOUS
 62
     5
 10
-53.994753142795624
 20
-232.35437436787689
 30
0.0
 11
-54.106890785554697
 21
-232.38716985939121
 31
0.0
  0
LINE
  8
DETAIL
  6
CONTINUOUS
 62
     5
 10
-54.106890785554697
 20
-232.38716985939121
 30
0.0
 11
-54.106890785554697
 21
-232.38716985939121
 31
0.0
  0
LINE
  8
DETAIL
  6
CONTINUOUS
 62
     5
 10
-54.106890785554697
 20
-232.38716985939121
 30
0.0
 11
-54.21868335187105
 21
-232.42089666504461
 31
0.0
  0
LINE
  8
DETAIL
  6
CONTINUOUS
 62
     5
 10
-54.21868335187105
 20
-232.42089666504461
 30
0.0
 11
-54.330104532685247
 21
-232.45563570323591
 31
0.0
  0
LINE
  8
DETAIL
  6
CONTINUOUS
 62
     5
 10
-54.330104532685247
 20
-232.45563570323591
 30
0.0
 11
-54.330104532685247
 21
-232.45563570323591
 31
0.0
  0
LINE
  8
DETAIL
  6
CONTINUOUS
 62
     5
 10
-54.330104532685247
 20
-232.45563570323591
 30
0.0
 11
-54.441203938905353
 21
-232.49139623276611
 31
0.0
  0
LINE
  8
DETAIL
  6
CONTINUOUS
 62
     5
 10
-54.441203938905353
 20
-232.49139623276611
 30
0.0
 11
-54.552130093787127
 21
-232.5277252862397
 31
0.0
  0
LINE
  8
DETAIL
  6
CONTINUOUS
 62
     5
 10
-57.808392136176053
 20
-231.94605009633901
 30
0.0
 11
-57.914747359556259
 21
-231.9469753201995
 31
0.0
  0
LINE
  8
DETAIL
  6
CONTINUOUS
 62
     5
 10
-57.914747359556259
 20
-231.9469753201995
 30
0.0
 11
-58.021103178140947
 21
-231.94875084141401
 31
0.0
  0
LINE
  8
DETAIL
  6
CONTINUOUS
 62
     5
 10
-58.021103178140947
 20
-231.94875084141401
 30
0.0
 11
-58.021103178140947
 21
-231.94875084141401
 31
0.0
  0
LINE
  8
DETAIL
  6
CONTINUOUS
 62
     5
 10
-58.021103178140947
 20
-231.94875084141401
 30
0.0
 11
-58.127451711976157
 21
-231.9520442729164
 31
0.0
  0
LINE
  8
DETAIL
  6
CONTINUOUS
 62
     5
 10
-58.127451711976157
 20
-231.9520442729164
 30
0.0
 11
-58.233751180473519
 21
-231.95679248995771
 31
0.0
  0
LINE
  8
DETAIL
  6
CONTINUOUS
 62
     5
 10
-58.233751180473519
 20
-231.95679248995771
 30
0.0
 11
-58.233751180473519
 21
-231.95679248995771
 31
0.0
  0
LINE
  8
DETAIL
  6
CONTINUOUS
 62
     5
 10
-58.233751180473519
 20
-231.95679248995771
 30
0.0
 11
-58.339974174627969
 21
-231.96280144811499
 31
0.0
  0
LINE
  8
DETAIL
  6
CONTINUOUS
 62
     5
 10
-58.339974174627969
 20
-231.96280144811499
 30
0.0
 11
-58.446184672408663
 21
-231.97008416194919
 31
0.0
  0
LINE
  8
DETAIL
  6
CONTINUOUS
 62
     5
 10
-58.446184672408663
 20
-231.97008416194919
 30
0.0
 11
-58.446184672408663
 21
-231.97008416194919
 31
0.0
  0
LINE
  8
DETAIL
  6
CONTINUOUS
 62
     5
 10
-58.446184672408663
 20
-231.97008416194919
 30
0.0
 11
-58.552386586713958
 21
-231.97868103620351
 31
0.0
  0
LINE
  8
DETAIL
  6
CONTINUOUS
 62
     5
 10
-58.552386586713958
 20
-231.97868103620351
 30
0.0
 11
-58.658252183181958
 21
-231.9885349773665
 31
0.0
  0
LINE
  8
DETAIL
  6
CONTINUOUS
 62
     5
 10
-58.658252183181958
 20
-231.9885349773665
 30
0.0
 11
-58.658252183181958
 21
-231.9885349773665
 31
0.0
  0
LINE
  8
DETAIL
  6
CONTINUOUS
 62
     5
 10
-58.658252183181958
 20
-231.9885349773665
 30
0.0
 11
-58.763679616152331
 21
-231.99961025087171
 31
0.0
  0
LINE
  8
DETAIL
  6
CONTINUOUS
 62
     5
 10
-58.763679616152331
 20
-231.99961025087171
 30
0.0
 11
-58.869802242028982
 21
-232.0120540561885
 31
0.0
  0
LINE
  8
DETAIL
  6
CONTINUOUS
 62
     5
 10
-58.869802242028982
 20
-232.0120540561885
 30
0.0
 11
-58.869802242028982
 21
-232.0120540561885
 31
0.0
  0
LINE
  8
DETAIL
  6
CONTINUOUS
 62
     5
 10
-58.869802242028982
 20
-232.0120540561885
 30
0.0
 11
-58.977578804767752
 21
-232.02599645884209
 31
0.0
  0
LINE
  8
DETAIL
  6
CONTINUOUS
 62
     5
 10
-58.977578804767752
 20
-232.02599645884209
 30
0.0
 11
-59.086034396469131
 21
-232.04131605453679
 31
0.0
  0
LINE
  8
DETAIL
  6
CONTINUOUS
 62
     5
 10
-59.086034396469131
 20
-232.04131605453679
 30
0.0
 11
-59.086034396469131
 21
-232.04131605453679
 31
0.0
  0
LINE
  8
DETAIL
  6
CONTINUOUS
 62
     5
 10
-59.086034396469131
 20
-232.04131605453679
 30
0.0
 11
-59.194005188844358
 21
-232.05785867326389
 31
0.0
  0
LINE
  8
DETAIL
  6
CONTINUOUS
 62
     5
 10
-59.194005188844358
 20
-232.05785867326389
 30
0.0
 11
-59.301505323905083
 21
-232.07559055197791
 31
0.0
  0
LINE
  8
DETAIL
  6
CONTINUOUS
 62
     5
 10
-59.301505323905083
 20
-232.07559055197791
 30
0.0
 11
-59.301505323905083
 21
-232.07559055197791
 31
0.0
  0
LINE
  8
DETAIL
  6
CONTINUOUS
 62
     5
 10
-59.301505323905083
 20
-232.07559055197791
 30
0.0
 11
-59.408822047305883
 21
-232.0945142521189
 31
0.0
  0
LINE
  8
DETAIL
  6
CONTINUOUS
 62
     5
 10
-59.408822047305883
 20
-232.0945142521189
 30
0.0
 11
-59.516157048975401
 21
-232.11465722610629
 31
0.0
  0
LINE
  8
DETAIL
  6
CONTINUOUS
 62
     5
 10
-59.516157048975401
 20
-232.11465722610629
 30
0.0
 11
-59.516157048975401
 21
-232.11465722610629
 31
0.0
  0
LINE
  8
DETAIL
  6
CONTINUOUS
 62
     5
 10
-59.516157048975401
 20
-232.11465722610629
 30
0.0
 11
-59.623481693060967
 21
-232.13599815638409
 31
0.0
  0
LINE
  8
DETAIL
  6
CONTINUOUS
 62
     5
 10
-59.623481693060967
 20
-232.13599815638409
 30
0.0
 11
-59.729931596318238
 21
-232.15829575451559
 31
0.0
  0
LINE
  8
DETAIL
  6
CONTINUOUS
 62
     5
 10
-59.729931596318238
 20
-232.15829575451559
 30
0.0
 11
-59.729931596318238
 21
-232.15829575451559
 31
0.0
  0
LINE
  8
DETAIL
  6
CONTINUOUS
 62
     5
 10
-59.729931596318238
 20
-232.15829575451559
 30
0.0
 11
-59.835290574978899
 21
-232.18146748747969
 31
0.0
  0
LINE
  8
DETAIL
  6
CONTINUOUS
 62
     5
 10
-59.835290574978899
 20
-232.18146748747969
 30
0.0
 11
-59.942770990572633
 21
-232.2062858148004
 31
0.0
  0
LINE
  8
DETAIL
  6
CONTINUOUS
 62
     5
 10
-59.942770990572633
 20
-232.2062858148004
 30
0.0
 11
-59.942770990572633
 21
-232.2062858148004
 31
0.0
  0
LINE
  8
DETAIL
  6
CONTINUOUS
 62
     5
 10
-59.942770990572633
 20
-232.2062858148004
 30
0.0
 11
-60.055079751590938
 21
-232.2334132849895
 31
0.0
  0
LINE
  8
DETAIL
  6
CONTINUOUS
 62
     5
 10
-60.055079751590938
 20
-232.2334132849895
 30
0.0
 11
-60.169473409077447
 21
-232.2622178099657
 31
0.0
  0
LINE
  8
DETAIL
  6
CONTINUOUS
 62
     5
 10
-60.169473409077447
 20
-232.2622178099657
 30
0.0
 11
-60.169473409077447
 21
-232.2622178099657
 31
0.0
  0
LINE
  8
DETAIL
  6
CONTINUOUS
 62
     5
 10
-60.169473409077447
 20
-232.2622178099657
 30
0.0
 11
-60.282712715305927
 21
-232.2919398705661
 31
0.0
  0
LINE
  8
DETAIL
  6
CONTINUOUS
 62
     5
 10
-60.282712715305927
 20
-232.2919398705661
 30
0.0
 11
-60.395025584921292
 21
-232.3226048598948
 31
0.0
  0
LINE
  8
DETAIL
  6
CONTINUOUS
 62
     5
 10
-60.395025584921292
 20
-232.3226048598948
 30
0.0
 11
-60.395025584921292
 21
-232.3226048598948
 31
0.0
  0
LINE
  8
DETAIL
  6
CONTINUOUS
 62
     5
 10
-60.395025584921292
 20
-232.3226048598948
 30
0.0
 11
-60.507277227542552
 21
-232.35437436786819
 31
0.0
  0
LINE
  8
DETAIL
  6
CONTINUOUS
 62
     5
 10
-60.507277227542552
 20
-232.35437436786819
 30
0.0
 11
-60.619414870312077
 21
-232.3871698593853
 31
0.0
  0
LINE
  8
DETAIL
  6
CONTINUOUS
 62
     5
 10
-60.619414870312077
 20
-232.3871698593853
 30
0.0
 11
-60.619414870312077
 21
-232.3871698593853
 31
0.0
  0
LINE
  8
DETAIL
  6
CONTINUOUS
 62
     5
 10
-60.619414870312077
 20
-232.3871698593853
 30
0.0
 11
-60.731207436637312
 21
-232.420896665041
 31
0.0
  0
LINE
  8
DETAIL
  6
CONTINUOUS
 62
     5
 10
-60.731207436637312
 20
-232.420896665041
 30
0.0
 11
-60.842628617457187
 21
-232.45563570323421
 31
0.0
  0
LINE
  8
DETAIL
  6
CONTINUOUS
 62
     5
 10
-60.842628617457187
 20
-232.45563570323421
 30
0.0
 11
-60.842628617457187
 21
-232.45563570323421
 31
0.0
  0
LINE
  8
DETAIL
  6
CONTINUOUS
 62
     5
 10
-60.842628617457187
 20
-232.45563570323421
 30
0.0
 11
-60.953728023681833
 21
-232.49139623276531
 31
0.0
  0
LINE
  8
DETAIL
  6
CONTINUOUS
 62
     5
 10
-60.953728023681833
 20
-232.49139623276531
 30
0.0
 11
-61.064654178565213
 21
-232.5277252862397
 31
0.0
  0
ARC
  8
DETAIL
  6
CONTINUOUS
 62
     5
 10
715.36648958571641
 20
-624.71007075639966
 30
0.0
 40
842.81356211240382
 50
145.04814653950879
 51
145.3466922296949
  0
ARC
  8
DETAIL
  6
CONTINUOUS
 62
     5
 10
750.66713096504293
 20
-646.72798430042781
 30
0.0
 40
883.47575312058655
 50
145.14905143189699
 51
145.4335815844079
  0
ARC
  8
DETAIL
  6
CONTINUOUS
 62
     5
 10
258.49710982658962
 20
-1.502890173410492
 30
0.0
 40
1.5028901734103779
 50
270.0
 51
90.0
  0
ARC
  8
DETAIL
  6
CONTINUOUS
 62
     5
 10
253.38728323699391
 20
-6.4123314065509476
 30
0.0
 40
3.606936416185023
 50
270.0
 51
0.0
  0
ARC
  8
DETAIL
  6
CONTINUOUS
 62
     5
 10
0.0
 20
-443.85356454720602
 30
0.0
 40
195.37572254335251
 50
79.38489214930263
 51
100.6151078506974
  0
ARC
  8
DETAIL
  6
CONTINUOUS
 62
     5
 10
83.660886319845986
 20
-248.47784200385379
 30
0.0
 40
6.0115606936417416
 50
0.0
 51
90.0
  0
ARC
  8
DETAIL
  6
CONTINUOUS
 62
     5
 10
35.067437379575949
 20
-277.53371868978797
 30
0.0
 40
5.0096339113680406
 50
270.0
 51
0.0
  0
ARC
  8
DETAIL
  6
CONTINUOUS
 62
     5
 10
35.067437379575949
 20
-256.74524688927238
 30
0.0
 40
5.0096339113678976
 50
0.0
 51
79.38489214930263
  0
ARC
  8
DETAIL
  6
CONTINUOUS
 62
     5
 10
0.0
 20
-301.65761078998088
 30
0.0
 40
6.5350674373795083
 50
223.89739816710619
 51
316.10260183289381
  0
ARC
  8
DETAIL
  6
CONTINUOUS
 62
     5
 10
58.312138728323589
 20
-298.67437379576108
 30
0.0
 40
7.0134874759153263
 50
270.0
 51
0.0
  0
ARC
  8
DETAIL
  6
CONTINUOUS
 62
     5
 10
68.131021194604955
 20
-236.45472061657031
 30
0.0
 40
2.0038535645472848
 50
180.0
 51
270.0
  0
ARC
  8
DETAIL
  6
CONTINUOUS
 62
     5
 10
209.80346820809251
 20
-133.2562620423893
 30
0.0
 40
2.003853564547057
 50
270.0
 51
90.0
  0
ARC
  8
DETAIL
  6
CONTINUOUS
 62
     5
 10
154.10038740600041
 20
-13.02504816955695
 30
0.0
 40
3.0057803468207571
 50
93.749995377699591
 51
180.0
  0
ARC
  8
DETAIL
  6
CONTINUOUS
 62
     5
 10
243.368015414258
 20
-16.431599229287141
 30
0.0
 40
3.606936416185023
 50
270.0
 51
0.0
  0
ARC
  8
DETAIL
  6
CONTINUOUS
 62
     5
 10
147.4876706429944
 20
-16.431599229287141
 30
0.0
 40
3.606936416185023
 50
270.0
 51
0.0
  0
ARC
  8
DETAIL
  6
CONTINUOUS
 62
     5
 10
189.28735474048469
 20
-6.4123314065509476
 30
0.0
 40
3.606936416184908
 50
270.0
 51
0.0
  0
ARC
  8
DETAIL
  6
CONTINUOUS
 62
     5
 10
-68.131021194605182
 20
-236.45472061657031
 30
0.0
 40
2.0038535645473989
 50
270.0
 51
0.0
  0
ARC
  8
DETAIL
  6
CONTINUOUS
 62
     5
 10
-35.067437379576177
 20
-256.74524688927238
 30
0.0
 40
5.0096339113680406
 50
100.6151078506974
 51
180.0
  0
ARC
  8
DETAIL
  6
CONTINUOUS
 62
     5
 10
-35.067437379576177
 20
-277.53371868978797
 30
0.0
 40
5.0096339113679278
 50
180.0
 51
270.0
  0
ARC
  8
DETAIL
  6
CONTINUOUS
 62
     5
 10
-83.660886319845758
 20
-248.47784200385379
 30
0.0
 40
6.0115606936417416
 50
90.0
 51
180.0
  0
ARC
  8
DETAIL
  6
CONTINUOUS
 62
     5
 10
-58.312138728324037
 20
-298.67437379576108
 30
0.0
 40
7.0134874759152126
 50
180.0
 51
270.0
  0
ARC
  8
DETAIL
  6
CONTINUOUS
 62
     5
 10
-258.49710982658962
 20
-1.502890173410492
 30
0.0
 40
1.5028901734103779
 50
90.0
 51
270.0
  0
ARC
  8
DETAIL
  6
CONTINUOUS
 62
     5
 10
-209.8034682080926
 20
-133.2562620423893
 30
0.0
 40
2.0038535645471711
 50
90.0
 51
270.0
  0
ARC
  8
DETAIL
  6
CONTINUOUS
 62
     5
 10
-154.10038740600069
 20
-13.02504816955695
 30
0.0
 40
3.0057803468209841
 50
0.0
 51
90.0
  0
ARC
  8
DETAIL
  6
CONTINUOUS
 62
     5
 10
-253.38728323699459
 20
-6.4123314065509476
 30
0.0
 40
3.606936416184908
 50
180.0
 51
270.0
  0
ARC
  8
DETAIL
  6
CONTINUOUS
 62
     5
 10
-243.36801541425831
 20
-16.431599229287141
 30
0.0
 40
3.6069364161851341
 50
180.0
 51
270.0
  0
ARC
  8
DETAIL
  6
CONTINUOUS
 62
     5
 10
-147.48767064299491
 20
-16.431599229287141
 30
0.0
 40
3.6069364161851341
 50
180.0
 51
270.0
  0
ARC
  8
DETAIL
  6
CONTINUOUS
 62
     5
 10
-189.2873547411358
 20
-6.4123314065509476
 30
0.0
 40
3.606936416184908
 50
180.0
 51
270.0
  0
ARC
  8
DETAIL
  6
CONTINUOUS
 62
     5
 10
-32.863198458574288
 20
-136.06165703275539
 30
0.0
 40
5.0096339113680406
 50
270.0
 51
0.0
  0
ARC
  8
DETAIL
  6
CONTINUOUS
 62
     5
 10
-208.81372797838
 20
-11.896506051447661
 30
0.0
 40
6.6391406613117576
 50
270.03498647710512
 51
275.94496195289861
  0
ARC
  8
DETAIL
  6
CONTINUOUS
 62
     5
 10
-58.312138728324037
 20
-152.49325626204259
 30
0.0
 40
7.0134874759149852
 50
90.0
 51
180.0
  0
LINE
  8
DETAIL
  6
CONTINUOUS
 62
     5
 10
256.99421965317902
 20
-6.4123314065509476
 30
0.0
 11
256.99421965317902
 21
-3.0057803468207571
 31
0.0
  0
LINE
  8
DETAIL
  6
CONTINUOUS
 62
     5
 10
253.82264424893009
 20
-3.0057803468207571
 30
0.0
 11
253.82264424893009
 21
-5.1098265895955137
 31
0.0
  0
LINE
  8
DETAIL
  6
CONTINUOUS
 62
     5
 10
246.9749518304429
 20
-16.431599229287141
 30
0.0
 11
246.9749518304429
 21
-13.894357252208239
 31
0.0
  0
LINE
  8
DETAIL
  6
CONTINUOUS
 62
     5
 10
210.4331061750116
 20
-58.011560693641513
 30
0.0
 11
210.4331061750116
 21
-61.518304431599176
 31
0.0
  0
LINE
  8
DETAIL
  6
CONTINUOUS
 62
     5
 10
208.1263794302229
 20
-58.011560693641513
 30
0.0
 11
208.1263794302229
 21
-14.52793834296722
 31
0.0
  0
LINE
  8
DETAIL
  6
CONTINUOUS
 62
     5
 10
208.1263794302229
 20
-177.3410404624278
 30
0.0
 11
208.1263794302229
 21
-61.518304431599176
 31
0.0
  0
LINE
  8
DETAIL
  6
CONTINUOUS
 62
     5
 10
204.22979870900551
 20
-5.1098265895955137
 30
0.0
 11
204.22979870900551
 21
-3.0057803468207571
 31
0.0
  0
LINE
  8
DETAIL
  6
CONTINUOUS
 62
     5
 10
201.75015643174899
 20
-61.518304431599176
 30
0.0
 11
201.75015643174899
 21
-177.3410404624278
 31
0.0
  0
LINE
  8
DETAIL
  6
CONTINUOUS
 62
     5
 10
201.75015643174899
 20
-14.52793834296722
 30
0.0
 11
201.75015643174899
 21
-58.011560693641513
 31
0.0
  0
LINE
  8
DETAIL
  6
CONTINUOUS
 62
     5
 10
192.89429115666991
 20
-3.0057803468207571
 30
0.0
 11
192.89429115666991
 21
-6.4123314065509476
 31
0.0
  0
LINE
  8
DETAIL
  6
CONTINUOUS
 62
     5
 10
185.15147907239211
 20
-14.52793834296722
 30
0.0
 11
185.15147907239211
 21
-18.53564547206145
 31
0.0
  0
LINE
  8
DETAIL
  6
CONTINUOUS
 62
     5
 10
184.13328719485531
 20
-58.011560693641513
 30
0.0
 11
184.13328719485531
 21
-61.518304431599176
 31
0.0
  0
LINE
  8
DETAIL
  6
CONTINUOUS
 62
     5
 10
180.14184516102389
 20
-14.52793834296722
 30
0.0
 11
180.14184516102389
 21
-18.088203018141829
 31
0.0
  0
LINE
  8
DETAIL
  6
CONTINUOUS
 62
     5
 10
179.07914132772791
 20
-31.56069364161851
 30
0.0
 11
179.07914132772791
 21
-177.3410404624278
 31
0.0
  0
LINE
  8
DETAIL
  6
CONTINUOUS
 62
     5
 10
179.07914132772791
 20
-18.53564547206145
 30
0.0
 11
179.07914132772791
 21
-28.55491329479776
 31
0.0
  0
LINE
  8
DETAIL
  6
CONTINUOUS
 62
     5
 10
-4.7090558766860804
 20
-306.18882466281309
 30
0.0
 11
4.7090558766858521
 21
-306.18882466281309
 31
0.0
  0
LINE
  8
DETAIL
  6
CONTINUOUS
 62
     5
 10
-58.312138728324037
 20
-305.68786127167641
 30
0.0
 11
58.312138728323589
 21
-305.68786127167641
 31
0.0
  0
LINE
  8
DETAIL
  6
CONTINUOUS
 62
     5
 10
175.13221124965591
 20
-18.53564547206145
 30
0.0
 11
175.13221124965591
 21
-14.52793834296722
 31
0.0
  0
LINE
  8
DETAIL
  6
CONTINUOUS
 62
     5
 10
163.13858383284509
 20
-14.52793834296722
 30
0.0
 11
163.13858383284509
 21
-10.01926782273574
 31
0.0
  0
LINE
  8
DETAIL
  6
CONTINUOUS
 62
     5
 10
62.266314854740592
 20
-283.54527938342972
 30
0.0
 11
89.672447013487272
 21
-283.54527938342972
 31
0.0
  0
LINE
  8
DETAIL
  6
CONTINUOUS
 62
     5
 10
-89.672447013487698
 20
-283.54527938342972
 30
0.0
 11
41.594449568165537
 21
-283.54527938342972
 31
0.0
  0
LINE
  8
DETAIL
  6
CONTINUOUS
 62
     5
 10
35.067437379575949
 20
-282.54335260115602
 30
0.0
 11
-35.067437379576177
 21
-282.54335260115602
 31
0.0
  0
LINE
  8
DETAIL
  6
CONTINUOUS
 62
     5
 10
89.672447013487272
 20
-279.53757225433537
 30
0.0
 11
135.86251878627721
 21
-279.53757225433537
 31
0.0
  0
LINE
  8
DETAIL
  6
CONTINUOUS
 62
     5
 10
-135.86251878627721
 20
-279.53757225433537
 30
0.0
 11
-89.672447013487698
 21
-279.53757225433537
 31
0.0
  0
LINE
  8
DETAIL
  6
CONTINUOUS
 62
     5
 10
151.09460705917971
 20
-13.02504816955695
 30
0.0
 11
151.09460705917971
 21
-16.431599229287141
 31
0.0
  0
LINE
  8
DETAIL
  6
CONTINUOUS
 62
     5
 10
89.672447013487272
 20
-247.4759152215801
 30
0.0
 11
129.4862957884543
 21
-247.4759152215801
 31
0.0
  0
LINE
  8
DETAIL
  6
CONTINUOUS
 62
     5
 10
-129.4862957884545
 20
-247.4759152215801
 30
0.0
 11
-89.672447013487698
 21
-247.4759152215801
 31
0.0
  0
LINE
  8
DETAIL
  6
CONTINUOUS
 62
     5
 10
-83.660886319845758
 20
-242.4662813102118
 30
0.0
 11
83.660886319845986
 21
-242.4662813102118
 31
0.0
  0
LINE
  8
DETAIL
  6
CONTINUOUS
 62
     5
 10
-83.86994736616407
 20
-242.4662813102118
 30
0.0
 11
-86.16570327552995
 21
-242.4662813102118
 31
0.0
  0
LINE
  8
DETAIL
  6
CONTINUOUS
 62
     5
 10
86.165703275529722
 20
-242.4662813102118
 30
0.0
 11
83.869947366163615
 21
-242.4662813102118
 31
0.0
  0
LINE
  8
DETAIL
  6
CONTINUOUS
 62
     5
 10
86.165703275529722
 20
-238.4585741811176
 30
0.0
 11
-86.16570327552995
 21
-238.4585741811176
 31
0.0
  0
LINE
  8
DETAIL
  6
CONTINUOUS
 62
     5
 10
61.064654178564979
 20
-235.45279383429681
 30
0.0
 11
80.111624044040582
 21
-235.45279383429681
 31
0.0
  0
LINE
  8
DETAIL
  6
CONTINUOUS
 62
     5
 10
2.5048169556839639
 20
-235.45279383429681
 30
0.0
 11
48.039606009008367
 21
-235.45279383429681
 31
0.0
  0
LINE
  8
DETAIL
  6
CONTINUOUS
 62
     5
 10
-48.039606009008367
 20
-235.45279383429681
 30
0.0
 11
-2.5048169556841908
 21
-235.45279383429681
 31
0.0
  0
LINE
  8
DETAIL
  6
CONTINUOUS
 62
     5
 10
-80.111624044691553
 20
-235.45279383429681
 30
0.0
 11
-61.064654178565213
 21
-235.45279383429681
 31
0.0
  0
LINE
  8
DETAIL
  6
CONTINUOUS
 62
     5
 10
-48.039606009008367
 20
-231.94605009633901
 30
0.0
 11
-61.064654178565213
 21
-231.94605009633901
 31
0.0
  0
LINE
  8
DETAIL
  6
CONTINUOUS
 62
     5
 10
61.064654178564979
 20
-231.94605009633901
 30
0.0
 11
48.039606009008367
 21
-231.94605009633901
 31
0.0
  0
LINE
  8
DETAIL
  6
CONTINUOUS
 62
     5
 10
51.29586805139752
 20
-224.73217726396911
 30
0.0
 11
57.808392136175833
 21
-224.73217726396911
 31
0.0
  0
LINE
  8
DETAIL
  6
CONTINUOUS
 62
     5
 10
-57.808392136176053
 20
-224.73217726396911
 30
0.0
 11
-51.295868051397747
 21
-224.73217726396911
 31
0.0
  0
LINE
  8
DETAIL
  6
CONTINUOUS
 62
     5
 10
89.672447013487272
 20
-283.54527938342972
 30
0.0
 11
89.672447013487272
 21
-271.07350781187591
 31
0.0
  0
LINE
  8
DETAIL
  6
CONTINUOUS
 62
     5
 10
89.672447013487272
 20
-247.4759152215801
 30
0.0
 11
89.672447013487272
 21
-261.85122961799658
 31
0.0
  0
LINE
  8
DETAIL
  6
CONTINUOUS
 62
     5
 10
86.165703275529722
 20
-242.4662813102118
 30
0.0
 11
86.165703275529722
 21
-238.4585741811176
 31
0.0
  0
LINE
  8
DETAIL
  6
CONTINUOUS
 62
     5
 10
80.111795044966129
 20
-195.37572254335251
 30
0.0
 11
80.111795044966129
 21
-235.45279383429681
 31
0.0
  0
LINE
  8
DETAIL
  6
CONTINUOUS
 62
     5
 10
79.977892953281753
 20
-195.37572254335251
 30
0.0
 11
79.977892953281753
 21
-235.45279383429681
 31
0.0
  0
LINE
  8
DETAIL
  6
CONTINUOUS
 62
     5
 10
68.110431043615336
 20
-195.37572254335251
 30
0.0
 11
68.110431043615336
 21
-235.45279383429681
 31
0.0
  0
LINE
  8
DETAIL
  6
CONTINUOUS
 62
     5
 10
66.127167630057556
 20
-195.37572254335251
 30
0.0
 11
66.127167630057556
 21
-181.813743429222
 31
0.0
  0
LINE
  8
DETAIL
  6
CONTINUOUS
 62
     5
 10
66.127167630057556
 20
-236.45472061657031
 30
0.0
 11
66.127167630057556
 21
-235.45279383429681
 31
0.0
  0
LINE
  8
DETAIL
  6
CONTINUOUS
 62
     5
 10
65.325626204238688
 20
-180.4254329552837
 30
0.0
 11
65.325626204238688
 21
-165.34597061717091
 31
0.0
  0
LINE
  8
DETAIL
  6
CONTINUOUS
 62
     5
 10
65.325626204238688
 20
-298.67437379576108
 30
0.0
 11
65.325626204238688
 21
-283.54527938342972
 31
0.0
  0
LINE
  8
DETAIL
  6
CONTINUOUS
 62
     5
 10
61.064654178564979
 20
-238.4585741811176
 30
0.0
 11
61.064654178564979
 21
-231.94605009633901
 31
0.0
  0
LINE
  8
DETAIL
  6
CONTINUOUS
 62
     5
 10
60.382415699021522
 20
-274.19882379254813
 30
0.0
 11
60.382415699021522
 21
-280.53949903660879
 31
0.0
  0
LINE
  8
DETAIL
  6
CONTINUOUS
 62
     5
 10
59.167521555688843
 20
-274.37387882473041
 30
0.0
 11
59.167521555688843
 21
-280.53949903660879
 31
0.0
  0
LINE
  8
DETAIL
  6
CONTINUOUS
 62
     5
 10
57.808392136175833
 20
-224.73217726396911
 30
0.0
 11
57.808392136175833
 21
-231.94605009633901
 31
0.0
  0
LINE
  8
DETAIL
  6
CONTINUOUS
 62
     5
 10
54.552130093786673
 20
-238.4585741811176
 30
0.0
 11
54.552130093786673
 21
-232.5277252862397
 31
0.0
  0
LINE
  8
DETAIL
  6
CONTINUOUS
 62
     5
 10
53.39360573830777
 20
-195.37572254335251
 30
0.0
 11
53.39360573830777
 21
-224.73217726396911
 31
0.0
  0
LINE
  8
DETAIL
  6
CONTINUOUS
 62
     5
 10
-80.11179428376272
 20
-195.37572254335251
 30
0.0
 11
80.111794283762265
 21
-195.37572254335251
 31
0.0
  0
LINE
  8
DETAIL
  6
CONTINUOUS
 62
     5
 10
66.127167630057556
 20
-181.813743429222
 30
0.0
 11
-66.127167630058011
 21
-181.813743429222
 31
0.0
  0
LINE
  8
DETAIL
  6
CONTINUOUS
 62
     5
 10
65.325626204238688
 20
-180.4254329552837
 30
0.0
 11
-65.325626204238688
 21
-180.4254329552837
 31
0.0
  0
LINE
  8
DETAIL
  6
CONTINUOUS
 62
     5
 10
65.325626204238688
 20
-180.4254329552837
 30
0.0
 11
66.127167630057556
 21
-181.813743429222
 31
0.0
  0
LINE
  8
DETAIL
  6
CONTINUOUS
 62
     5
 10
51.29586805139752
 20
-224.73217726396911
 30
0.0
 11
51.29586805139752
 21
-231.94605009633901
 31
0.0
  0
LINE
  8
DETAIL
  6
CONTINUOUS
 62
     5
 10
48.039606009008367
 20
-238.4585741811176
 30
0.0
 11
48.039606009008367
 21
-231.94605009633901
 31
0.0
  0
LINE
  8
DETAIL
  6
CONTINUOUS
 62
     5
 10
46.316122813702798
 20
-195.37572254335251
 30
0.0
 11
46.316122813702798
 21
-235.45279383429681
 31
0.0
  0
LINE
  8
DETAIL
  6
CONTINUOUS
 62
     5
 10
44.832482439900161
 20
-273.42441370360137
 30
0.0
 11
44.831524993871028
 21
-280.53949903660879
 31
0.0
  0
LINE
  8
DETAIL
  6
CONTINUOUS
 62
     5
 10
40.077071290943877
 20
-256.74524688927238
 30
0.0
 11
40.077071290943877
 21
-277.53371868978797
 31
0.0
  0
LINE
  8
DETAIL
  6
CONTINUOUS
 62
     5
 10
34.205911122338193
 20
-195.37572254335251
 30
0.0
 11
34.205911122338193
 21
-235.45279383429681
 31
0.0
  0
LINE
  8
DETAIL
  6
CONTINUOUS
 62
     5
 10
17.912954125716169
 20
-195.37572254335251
 30
0.0
 11
17.912954125716169
 21
-235.45279383429681
 31
0.0
  0
LINE
  8
DETAIL
  6
CONTINUOUS
 62
     5
 10
44.784505765132508
 20
-145.47976878612701
 30
0.0
 11
-58.312138728324037
 21
-145.47976878612701
 31
0.0
  0
LINE
  8
DETAIL
  6
CONTINUOUS
 62
     5
 10
-35.067437379576177
 20
-141.8728323699421
 30
0.0
 11
35.067437379575949
 21
-141.8728323699421
 31
0.0
  0
LINE
  8
DETAIL
  6
CONTINUOUS
 62
     5
 10
-35.067437379576177
 20
-141.07129094412349
 30
0.0
 11
35.067437379575949
 21
-141.07129094412349
 31
0.0
  0
LINE
  8
DETAIL
  6
CONTINUOUS
 62
     5
 10
-208.1263794302231
 20
-135.2601156069363
 30
0.0
 11
-209.8034682080926
 21
-135.2601156069363
 31
0.0
  0
LINE
  8
DETAIL
  6
CONTINUOUS
 62
     5
 10
179.07914132772791
 20
-135.2601156069363
 30
0.0
 11
-179.07914132837891
 21
-135.2601156069363
 31
0.0
  0
LINE
  8
DETAIL
  6
CONTINUOUS
 62
     5
 10
209.80346820809251
 20
-135.2601156069363
 30
0.0
 11
208.1263794302229
 21
-135.2601156069363
 31
0.0
  0
LINE
  8
DETAIL
  6
CONTINUOUS
 62
     5
 10
9.8106766156693084
 20
-195.37572254335251
 30
0.0
 11
9.8106766156693084
 21
-235.45279383429681
 31
0.0
  0
LINE
  8
DETAIL
  6
CONTINUOUS
 62
     5
 10
8.5163776493254773
 20
-145.47976878612701
 30
0.0
 11
8.5163776493254773
 21
-141.8728323699421
 31
0.0
  0
LINE
  8
DETAIL
  6
CONTINUOUS
 62
     5
 10
4.7090558766858521
 20
-306.18882466281309
 30
0.0
 11
4.7090558766858521
 21
-305.68786127167641
 31
0.0
  0
LINE
  8
DETAIL
  6
CONTINUOUS
 62
     5
 10
-4.7090558766860804
 20
-306.18882466281309
 30
0.0
 11
-4.7090558766860804
 21
-305.68786127167641
 31
0.0
  0
LINE
  8
DETAIL
  6
CONTINUOUS
 62
     5
 10
-8.5163776493257046
 20
-145.47976878612701
 30
0.0
 11
-8.5163776493257046
 21
-141.8728323699421
 31
0.0
  0
LINE
  8
DETAIL
  6
CONTINUOUS
 62
     5
 10
-208.1263794302231
 20
-131.2524084778421
 30
0.0
 11
-209.8034682080926
 21
-131.2524084778421
 31
0.0
  0
LINE
  8
DETAIL
  6
CONTINUOUS
 62
     5
 10
179.07914132772791
 20
-131.2524084778421
 30
0.0
 11
-179.07914132837891
 21
-131.2524084778421
 31
0.0
  0
LINE
  8
DETAIL
  6
CONTINUOUS
 62
     5
 10
209.80346820809251
 20
-131.2524084778421
 30
0.0
 11
208.1263794302229
 21
-131.2524084778421
 31
0.0
  0
LINE
  8
DETAIL
  6
CONTINUOUS
 62
     5
 10
-10.383630196231479
 20
-195.37572254335251
 30
0.0
 11
-10.383630196231479
 21
-235.45279383429681
 31
0.0
  0
LINE
  8
DETAIL
  6
CONTINUOUS
 62
     5
 10
-18.58612540079594
 20
-195.37572254335251
 30
0.0
 11
-18.58612540079594
 21
-235.45279383429681
 31
0.0
  0
LINE
  8
DETAIL
  6
CONTINUOUS
 62
     5
 10
-26.551059730250469
 20
-20.038535645472169
 30
0.0
 11
-26.551059730250469
 21
-20.539499036608959
 31
0.0
  0
LINE
  8
DETAIL
  6
CONTINUOUS
 62
     5
 10
-27.853564547206361
 20
-135.2601156069363
 30
0.0
 11
-27.853564547206361
 21
-136.06165703275539
 31
0.0
  0
LINE
  8
DETAIL
  6
CONTINUOUS
 62
     5
 10
-65.325626204238688
 20
-180.4254329552837
 30
0.0
 11
-66.127167630058011
 21
-181.813743429222
 31
0.0
  0
LINE
  8
DETAIL
  6
CONTINUOUS
 62
     5
 10
-34.701531116933211
 20
-195.37572254335251
 30
0.0
 11
-34.701531116933211
 21
-235.45279383429681
 31
0.0
  0
LINE
  8
DETAIL
  6
CONTINUOUS
 62
     5
 10
-35.067437379576177
 20
-141.07129094412349
 30
0.0
 11
-35.067437379576177
 21
-141.8728323699421
 31
0.0
  0
LINE
  8
DETAIL
  6
CONTINUOUS
 62
     5
 10
-40.077071290944332
 20
-277.53371868978797
 30
0.0
 11
-40.077071290944332
 21
-256.74524688927238
 31
0.0
  0
LINE
  8
DETAIL
  6
CONTINUOUS
 62
     5
 10
-46.886809864775159
 20
-195.37572254335251
 30
0.0
 11
-46.886809864775159
 21
-235.45279383429681
 31
0.0
  0
LINE
  8
DETAIL
  6
CONTINUOUS
 62
     5
 10
-48.039606009008367
 20
-238.4585741811176
 30
0.0
 11
-48.039606009008367
 21
-231.94605009633901
 31
0.0
  0
LINE
  8
DETAIL
  6
CONTINUOUS
 62
     5
 10
-51.295868051397747
 20
-224.73217726396911
 30
0.0
 11
-51.295868051397747
 21
-231.94605009633901
 31
0.0
  0
LINE
  8
DETAIL
  6
CONTINUOUS
 62
     5
 10
-53.736438495708633
 20
-195.37572254335251
 30
0.0
 11
-53.736438495708633
 21
-224.73217726396911
 31
0.0
  0
LINE
  8
DETAIL
  6
CONTINUOUS
 62
     5
 10
-54.552130093787127
 20
-238.4585741811176
 30
0.0
 11
-54.552130093787127
 21
-232.5277252862397
 31
0.0
  0
LINE
  8
DETAIL
  6
CONTINUOUS
 62
     5
 10
-57.808392136176053
 20
-224.73217726396911
 30
0.0
 11
-57.808392136176053
 21
-231.94605009633901
 31
0.0
  0
LINE
  8
DETAIL
  6
CONTINUOUS
 62
     5
 10
-61.064654178565213
 20
-238.4585741811176
 30
0.0
 11
-61.064654178565213
 21
-231.94605009633901
 31
0.0
  0
LINE
  8
DETAIL
  6
CONTINUOUS
 62
     5
 10
-65.325626204238688
 20
-180.4254329552837
 30
0.0
 11
-65.325626204238688
 21
-152.49325626204259
 31
0.0
  0
LINE
  8
DETAIL
  6
CONTINUOUS
 62
     5
 10
-65.325626204238688
 20
-298.67437379576108
 30
0.0
 11
-65.325626204238688
 21
-283.54527938342972
 31
0.0
  0
LINE
  8
DETAIL
  6
CONTINUOUS
 62
     5
 10
-66.127167630058011
 20
-195.37572254335251
 30
0.0
 11
-66.127167630058011
 21
-181.813743429222
 31
0.0
  0
LINE
  8
DETAIL
  6
CONTINUOUS
 62
     5
 10
-66.127167630058011
 20
-236.45472061657031
 30
0.0
 11
-66.127167630058011
 21
-235.45279383429681
 31
0.0
  0
LINE
  8
DETAIL
  6
CONTINUOUS
 62
     5
 10
-68.491751940044651
 20
-195.37572254335251
 30
0.0
 11
-68.491751940044651
 21
-235.45279383429681
 31
0.0
  0
LINE
  8
DETAIL
  6
CONTINUOUS
 62
     5
 10
184.1337235105469
 20
-61.518304431599176
 30
0.0
 11
210.4331061750116
 21
-61.518304431599176
 31
0.0
  0
LINE
  8
DETAIL
  6
CONTINUOUS
 62
     5
 10
184.1337235105469
 20
-58.011560693641513
 30
0.0
 11
210.4331061750116
 21
-58.011560693641513
 31
0.0
  0
LINE
  8
DETAIL
  6
CONTINUOUS
 62
     5
 10
-80.111795044966811
 20
-195.37572254335251
 30
0.0
 11
-80.111795044966811
 21
-235.45279383429681
 31
0.0
  0
LINE
  8
DETAIL
  6
CONTINUOUS
 62
     5
 10
-89.672447013487698
 20
-283.54527938342972
 30
0.0
 11
-89.672447013487698
 21
-247.4759152215801
 31
0.0
  0
LINE
  8
DETAIL
  6
CONTINUOUS
 62
     5
 10
-134.75898016805581
 20
-20.539499036608959
 30
0.0
 11
-26.551059730250469
 21
-20.539499036608959
 31
0.0
  0
LINE
  8
DETAIL
  6
CONTINUOUS
 62
     5
 10
208.1263794302229
 20
-20.038535645472169
 30
0.0
 11
243.368015414258
 21
-20.038535645472169
 31
0.0
  0
LINE
  8
DETAIL
  6
CONTINUOUS
 62
     5
 10
-179.07914132837891
 20
-20.038535645472169
 30
0.0
 11
179.07914132772791
 21
-20.038535645472169
 31
0.0
  0
LINE
  8
DETAIL
  6
CONTINUOUS
 62
     5
 10
-243.36801541425831
 20
-20.038535645472169
 30
0.0
 11
-208.1263794302231
 21
-20.038535645472169
 31
0.0
  0
LINE
  8
DETAIL
  6
CONTINUOUS
 62
     5
 10
175.13221124965591
 20
-18.53564547206145
 30
0.0
 11
185.15147907239211
 21
-18.53564547206145
 31
0.0
  0
LINE
  8
DETAIL
  6
CONTINUOUS
 62
     5
 10
-216.32412484017729
 20
-18.53564547206145
 30
0.0
 11
-208.1263794302231
 21
-18.53564547206145
 31
0.0
  0
LINE
  8
DETAIL
  6
CONTINUOUS
 62
     5
 10
163.13858383284509
 20
-14.52793834296722
 30
0.0
 11
244.5005606345367
 21
-14.52793834296722
 31
0.0
  0
LINE
  8
DETAIL
  6
CONTINUOUS
 62
     5
 10
-244.50056063453741
 20
-14.52793834296722
 30
0.0
 11
-163.13858383284551
 21
-14.52793834296722
 31
0.0
  0
LINE
  8
DETAIL
  6
CONTINUOUS
 62
     5
 10
250.1758680125113
 20
-10.01926782273574
 30
0.0
 11
253.38728323699391
 21
-10.01926782273574
 31
0.0
  0
LINE
  8
DETAIL
  6
CONTINUOUS
 62
     5
 10
189.28735474048469
 20
-10.01926782273574
 30
0.0
 11
194.90771509461231
 21
-10.01926782273574
 31
0.0
  0
LINE
  8
DETAIL
  6
CONTINUOUS
 62
     5
 10
-189.2873547411358
 20
-10.01926782273574
 30
0.0
 11
189.28735474048469
 21
-10.01926782273574
 31
0.0
  0
LINE
  8
DETAIL
  6
CONTINUOUS
 62
     5
 10
-253.38728323699459
 20
-10.01926782273574
 30
0.0
 11
-250.1758680125117
 21
-10.01926782273574
 31
0.0
  0
LINE
  8
DETAIL
  6
CONTINUOUS
 62
     5
 10
-189.2873547411358
 20
-10.01926782273574
 30
0.0
 11
-194.90771509461271
 21
-10.01926782273574
 31
0.0
  0
LINE
  8
DETAIL
  6
CONTINUOUS
 62
     5
 10
203.82636743547761
 20
-5.1098265895955137
 30
0.0
 11
253.82264424893009
 21
-5.1098265895955137
 31
0.0
  0
LINE
  8
DETAIL
  6
CONTINUOUS
 62
     5
 10
-253.8226442489304
 20
-5.1098265895955137
 30
0.0
 11
-203.82636743547809
 21
-5.1098265895955137
 31
0.0
  0
LINE
  8
DETAIL
  6
CONTINUOUS
 62
     5
 10
-258.49710982658962
 20
-3.0057803468207571
 30
0.0
 11
258.49710982658962
 21
-3.0057803468207571
 31
0.0
  0
LINE
  8
DETAIL
  6
CONTINUOUS
 62
     5
 10
-258.49710982658962
 20
0.0
 30
0.0
 11
258.49710982658962
 21
0.0
 31
0.0
  0
LINE
  8
DETAIL
  6
CONTINUOUS
 62
     5
 10
-134.75915221579979
 20
-20.038535645472169
 30
0.0
 11
-134.75915221579979
 21
-20.539499036608959
 31
0.0
  0
LINE
  8
DETAIL
  6
CONTINUOUS
 62
     5
 10
-151.09460705917991
 20
-16.431599229287141
 30
0.0
 11
-151.09460705917991
 21
-13.02504816955695
 31
0.0
  0
LINE
  8
DETAIL
  6
CONTINUOUS
 62
     5
 10
-163.13858383284551
 20
-14.52793834296722
 30
0.0
 11
-163.13858383284551
 21
-10.01926782273574
 31
0.0
  0
LINE
  8
DETAIL
  6
CONTINUOUS
 62
     5
 10
-179.07914132837891
 20
-177.3410404624278
 30
0.0
 11
-179.07914132837891
 21
-14.52793834296722
 31
0.0
  0
LINE
  8
DETAIL
  6
CONTINUOUS
 62
     5
 10
-192.89429115732031
 20
-6.4123314065509476
 30
0.0
 11
-192.89429115732031
 21
-3.0057803468207571
 31
0.0
  0
LINE
  8
DETAIL
  6
CONTINUOUS
 62
     5
 10
-201.7501564317491
 20
-177.3410404624278
 30
0.0
 11
-201.7501564317491
 21
-14.52793834296722
 31
0.0
  0
LINE
  8
DETAIL
  6
CONTINUOUS
 62
     5
 10
-204.2297987090061
 20
-5.1098265895955137
 30
0.0
 11
-204.2297987090061
 21
-3.0057803468207571
 31
0.0
  0
LINE
  8
DETAIL
  6
CONTINUOUS
 62
     5
 10
-208.1263794302231
 20
-14.52793834296722
 30
0.0
 11
-208.1263794302231
 21
-177.3410404624278
 31
0.0
  0
LINE
  8
DETAIL
  6
CONTINUOUS
 62
     5
 10
-211.31449092880939
 20
-14.52793834296722
 30
0.0
 11
-211.31449092880939
 21
-18.088203018141829
 31
0.0
  0
LINE
  8
DETAIL
  6
CONTINUOUS
 62
     5
 10
-216.32412484017729
 20
-18.53564547206145
 30
0.0
 11
-216.32412484017729
 21
-14.52793834296722
 31
0.0
  0
LINE
  8
DETAIL
  6
CONTINUOUS
 62
     5
 10
-246.97495183044319
 20
-13.894357252208239
 30
0.0
 11
-246.97495183044319
 21
-16.431599229287141
 31
0.0
  0
LINE
  8
DETAIL
  6
CONTINUOUS
 62
     5
 10
-253.8226442489304
 20
-5.1098265895955137
 30
0.0
 11
-253.8226442489304
 21
-3.0057803468207571
 31
0.0
  0
LINE
  8
DETAIL
  6
CONTINUOUS
 62
     5
 10
-256.99421965317919
 20
-3.0057803468207571
 30
0.0
 11
-256.99421965317919
 21
-6.4123314065509476
 31
0.0
  0
LINE
  8
DETAIL
  6
CONTINUOUS
 62
     5
 10
-2.5048169556841908
 20
-230.4431599229288
 30
0.0
 11
2.5048169556839639
 21
-230.4431599229288
 31
0.0
  0
LINE
  8
DETAIL
  6
CONTINUOUS
 62
     5
 10
63.569471134248943
 20
-242.4662813102118
 30
0.0
 11
63.569471134248943
 21
-238.4585741811176
 31
0.0
  0
LINE
  8
DETAIL
  6
CONTINUOUS
 62
     5
 10
2.5048169556839639
 20
-230.4431599229288
 30
0.0
 11
2.5048169556839639
 21
-238.4585741811176
 31
0.0
  0
LINE
  8
DETAIL
  6
CONTINUOUS
 62
     5
 10
-2.5048169556841908
 20
-230.4431599229288
 30
0.0
 11
-2.5048169556841908
 21
-238.4585741811176
 31
0.0
  0
LINE
  8
DETAIL
  6
CONTINUOUS
 62
     5
 10
-63.569471134249397
 20
-242.4662813102118
 30
0.0
 11
-63.569471134249397
 21
-238.4585741811176
 31
0.0
  0
LINE
  8
DETAIL
  6
CONTINUOUS
 62
     5
 10
-86.16570327552995
 20
-242.4662813102118
 30
0.0
 11
-86.16570327552995
 21
-238.4585741811176
 31
0.0
  0
TEXT
  8
NOTE
  6
CONTINUOUS
 62
     4
 10
349.14671575607099
 20
-389.89324111227188
 30
0.0
 40
64.0
  1
EL
 41
0.9
  0
LINE
  8
DETAIL
  6
CONTINUOUS
 62
     4
 10
191.48605423983071
 20
-64.254036862450903
 30
0.0
 11
190.8409406877818
 21
-58.075968572527017
 31
0.0
  0
LINE
  8
DETAIL
  6
CONTINUOUS
 62
     4
 10
190.8409406877818
 20
-58.075968572527017
 30
0.0
 11
194.48866713376219
 21
-63.10377038497893
 31
0.0
  0
LINE
  8
DETAIL
  6
CONTINUOUS
 62
     4
 10
190.8409406877818
 20
-58.075968572527017
 30
0.0
 11
195.1337806858111
 21
-69.281838674902815
 31
0.0
  0
LINE
  8
NOTE
  6
CONTINUOUS
 62
     4
 10
195.1337806858111
 20
-69.281838674902815
 30
0.0
 11
328.09672894885171
 21
-416.36338081216758
 31
0.0
  0
LINE
  8
NOTE
  6
CONTINUOUS
 62
     4
 10
328.09672894885171
 20
-416.36338081216758
 30
0.0
 11
450.12530037742317
 21
-416.36338081216758
 31
0.0
  0
ARC
  8
DETAIL
  6
CONTINUOUS
 62
     5
 10
-95.566557911004082
 20
-174.39662622091541
 30
0.0
 40
112.5983259008057
 50
181.4984391679294
 51
249.03034019768319
  0
ARC
  8
DETAIL
  6
CONTINUOUS
 62
     5
 10
-92.119781929079636
 20
-178.99833312451219
 30
0.0
 40
109.6429005114483
 50
179.13392029293249
 51
246.4870458093377
  0
ARC
  8
DETAIL
  6
CONTINUOUS
 62
     5
 10
-106.2749487912882
 20
-178.46185828998469
 30
0.0
 40
72.812819500279943
 50
179.11800328704999
 51
251.41077607852131
  0
ARC
  8
DETAIL
  6
CONTINUOUS
 62
     5
 10
-194.71600823209431
 20
-7.4346750959505243
 30
0.0
 40
2.5916927064155608
 50
194.01490649251309
 51
265.75797108467412
  0
ARC
  8
DETAIL
  6
CONTINUOUS
 62
     5
 10
-210.59185320260991
 20
-10.541280470920359
 30
0.0
 40
13.58931915512612
 50
10.510751252529291
 51
33.688618550853711
  0
ARC
  8
DETAIL
  6
CONTINUOUS
 62
     5
 10
-194.43226356615111
 20
-8.0794983657351622
 30
0.0
 40
6.4659440374839088
 50
194.93914122923579
 51
265.7831409797684
  0
ARC
  8
DETAIL
  6
CONTINUOUS
 62
     5
 10
-205.85084148326769
 20
-9.8698550613510179
 30
0.0
 40
5.1726556254472236
 50
1.367900929068173
 51
66.959604617236977
  0
ARC
  8
DETAIL
  6
CONTINUOUS
 62
     5
 10
-244.127670549231
 20
-8.2323180326802685
 30
0.0
 40
6.3066537963497042
 50
196.45986110104849
 51
266.61032666560908
  0
ARC
  8
DETAIL
  6
CONTINUOUS
 62
     5
 10
-255.4101913246441
 20
-9.9511880313150414
 30
0.0
 40
5.2347660304861217
 50
359.25482921999787
 51
67.645404057338681
  0
ARC
  8
DETAIL
  6
CONTINUOUS
 62
     5
 10
194.71600823209431
 20
-7.4346750959505243
 30
0.0
 40
2.5916927064155608
 50
274.24202891532588
 51
345.98509350748691
  0
ARC
  8
DETAIL
  6
CONTINUOUS
 62
     5
 10
210.59185320260991
 20
-10.541280470920359
 30
0.0
 40
13.58931915512612
 50
146.3113814491463
 51
169.4892487474707
  0
ARC
  8
DETAIL
  6
CONTINUOUS
 62
     5
 10
194.43226356615119
 20
-8.0794983657351622
 30
0.0
 40
6.4659440374839088
 50
274.2168590202316
 51
345.06085877076418
  0
ARC
  8
DETAIL
  6
CONTINUOUS
 62
     5
 10
205.85084148326769
 20
-9.8698550613510179
 30
0.0
 40
5.1726556254472236
 50
113.04039538276309
 51
178.63209907093179
  0
ARC
  8
DETAIL
  6
CONTINUOUS
 62
     5
 10
244.127670549231
 20
-8.2323180326802685
 30
0.0
 40
6.3066537963497042
 50
273.38967333439092
 51
343.54013889895162
  0
ARC
  8
DETAIL
  6
CONTINUOUS
 62
     5
 10
255.4101913246441
 20
-9.9511880313150414
 30
0.0
 40
5.2347660304861217
 50
112.35459594266131
 51
180.7451707800021
  0
ARC
  8
DETAIL
  6
CONTINUOUS
 62
     5
 10
-236.4080059753214
 20
-43.346435130450352
 30
0.0
 40
23.50781232399369
 50
33.522035604960791
 51
82.52243630880433
  0
ARC
  8
DETAIL
  6
CONTINUOUS
 62
     5
 10
-283.49631019246488
 20
-72.657950497839749
 30
0.0
 40
78.967173520912482
 50
17.360482547983018
 51
32.3838090038074
  0
ARC
  8
DETAIL
  6
CONTINUOUS
 62
     5
 10
236.4080059753214
 20
-43.346435130450352
 30
0.0
 40
23.50781232399369
 50
97.477563691195684
 51
146.47796439503921
  0
ARC
  8
DETAIL
  6
CONTINUOUS
 62
     5
 10
283.49631019246328
 20
-72.657950497838669
 30
0.0
 40
78.967173520909768
 50
147.61619099619261
 51
162.63951745202041
  0
ARC
  8
DETAIL
  6
CONTINUOUS
 62
     5
 10
-140.66454898683739
 20
-80.531208603780442
 30
0.0
 40
80.902751208347482
 50
241.65208905804801
 51
267.18419027836842
  0
ARC
  8
DETAIL
  6
CONTINUOUS
 62
     5
 10
-60.603691346394953
 20
688.33050811558678
 30
0.0
 40
853.81237439382232
 50
264.35160195360851
 51
269.35627069029351
  0
ARC
  8
DETAIL
  6
CONTINUOUS
 62
     5
 10
-70.623253576101888
 20
-160.2436543528402
 30
0.0
 40
5.200511301536956
 50
274.54514994710252
 51
16.200432961224319
  0
ARC
  8
DETAIL
  6
CONTINUOUS
 62
     5
 10
95.958734741979242
 20
-125.22379016142369
 30
0.0
 40
165.03802200216481
 50
185.5008256251798
 51
191.73592221483401
  0
ARC
  8
DETAIL
  6
CONTINUOUS
 62
     5
 10
93.167982869591469
 20
6961.4738670126244
 30
0.0
 40
7104.3538174155619
 50
268.69751218909732
 51
268.72534178536591
  0
ARC
  8
DETAIL
  6
CONTINUOUS
 62
     5
 10
-107.8160512200981
 20
-108.54769933649131
 30
0.0
 40
53.902646071699607
 50
322.82033624694361
 51
330.29278015952679
  0
ARC
  8
DETAIL
  6
CONTINUOUS
 62
     5
 10
-39.243009389921099
 20
788.07277759979752
 30
0.0
 40
955.05645096017588
 50
277.1102536412414
 51
277.69358695116341
  0
ARC
  8
DETAIL
  6
CONTINUOUS
 62
     5
 10
60.204251602327588
 20
-15.315910667763999
 30
0.0
 40
145.86421889905989
 50
281.23176873861399
 51
304.68426037183252
  0
ARC
  8
DETAIL
  6
CONTINUOUS
 62
     5
 10
62.099342215872639
 20
-155.56174029012391
 30
0.0
 40
10.783489787396499
 50
203.43028178196201
 51
242.08670164365751
  0
ARC
  8
DETAIL
  6
CONTINUOUS
 62
     5
 10
59.803913169579573
 20
-157.2856189292215
 30
0.0
 40
8.2762194382463736
 50
250.5731294083086
 51
274.87532883750413
  0
ARC
  8
DETAIL
  6
CONTINUOUS
 62
     5
 10
61.581228990474301
 20
-90.171506073947967
 30
0.0
 40
75.368040581377016
 50
269.18355102126748
 51
281.49336114378468
  0
ARC
  8
DETAIL
  6
CONTINUOUS
 62
     5
 10
73.00502335040801
 20
-154.4049541507413
 30
0.0
 40
10.272387592664501
 50
290.47709128858651
 51
313.85833066451579
  0
ARC
  8
DETAIL
  6
CONTINUOUS
 62
     5
 10
79.650318097684249
 20
-161.3315483663919
 30
0.0
 40
0.6735983242449565
 50
314.50969986081827
 51
44.838076448708627
  0
ARC
  8
DETAIL
  6
CONTINUOUS
 62
     5
 10
53.464097654629768
 20
-184.96374139041001
 30
0.0
 40
35.945201262874782
 50
42.096425826675571
 51
44.792046311687713
  0
ARC
  8
DETAIL
  6
CONTINUOUS
 62
     5
 10
33.355411911376791
 20
-135.66088631984661
 30
0.0
 40
5.5164247101685584
 50
175.83376563777571
 51
253.61991812499761
  0
ARC
  8
DETAIL
  6
CONTINUOUS
 62
     5
 10
-195.8106487472345
 20
-423.736165944775
 30
0.0
 40
381.12135188713842
 50
43.863887263163107
 51
49.192884651621867
  0
ARC
  8
DETAIL
  6
CONTINUOUS
 62
     5
 10
-120.1856477983974
 20
-239.32380500214501
 30
0.0
 40
189.82804401844791
 50
24.750277681085649
 51
31.231948172535891
  0
ARC
  8
DETAIL
  6
CONTINUOUS
 62
     5
 10
36.491908727985113
 20
-53.801010204239113
 30
0.0
 40
87.278619407981054
 50
266.91824470478548
 51
273.70488095030203
  0
ARC
  8
DETAIL
  6
CONTINUOUS
 62
     5
 10
90.988870448107264
 20
81.806861495189878
 30
0.0
 40
343.81274907130933
 50
269.98985677392989
 51
275.41374831859912
  0
ARC
  8
DETAIL
  6
CONTINUOUS
 62
     5
 10
85.79002916283298
 20
227.11281305874351
 30
0.0
 40
498.37707227025231
 50
270.59699799979609
 51
274.23283348454902
  0
ARC
  8
DETAIL
  6
CONTINUOUS
 62
     5
 10
116.40458175808909
 20
-196.41571769035679
 30
0.0
 40
64.440282528790163
 50
276.25594488994528
 51
356.43683451116789
  0
ARC
  8
DETAIL
  6
CONTINUOUS
 62
     5
 10
116.2573106313048
 20
-196.4494801909957
 30
0.0
 40
73.726568372140505
 50
274.91582100195279
 51
355.48863227947197
  0
ARC
  8
DETAIL
  6
CONTINUOUS
 62
     5
 10
92.313478291011279
 20
-54.500539257385299
 30
0.0
 40
93.899601666675068
 50
357.85778060059067
 51
13.55570957429417
  0
ARC
  8
DETAIL
  6
CONTINUOUS
 62
     5
 10
131.83846598990721
 20
-53.351502735615952
 30
0.0
 40
63.699841436685972
 50
355.80505786619551
 51
19.032726152760649
  0
ARC
  8
DETAIL
  6
CONTINUOUS
 62
     5
 10
187.8422568671414
 20
-30.875606253903982
 30
0.0
 40
4.5352295518292438
 50
132.1113600934539
 51
161.27863315274001
  0
ARC
  8
DETAIL
  6
CONTINUOUS
 62
     5
 10
105.7374402472806
 20
-597.16835795594636
 30
0.0
 40
335.48949991633822
 50
92.530016540189422
 51
98.772887847086182
  0
ARC
  8
DETAIL
  6
CONTINUOUS
 62
     5
 10
108.68972390007271
 20
-613.75816747160718
 30
0.0
 40
342.97834320170222
 50
92.959319059925534
 51
99.247559473595743
  0
ARC
  8
DETAIL
  6
CONTINUOUS
 62
     5
 10
-882.12382624396116
 20
-88.999493613156631
 30
0.0
 40
1068.668465542017
 50
354.01537241267039
 51
1.4736035963483229
  0
ARC
  8
DETAIL
  6
CONTINUOUS
 62
     5
 10
-738.02503383130238
 20
-97.406969922367807
 30
-35.211267973180412
 40
933.68538602579849
 50
353.55277759619742
 51
2.1968612120636508
  0
CIRCLE
  8
DETAIL
  6
CONTINUOUS
 62
     5
 10
178.96359177459181
 20
-30.964909532733149
 30
0.0
 40
1.5019551727974541
  0
CIRCLE
  8
DETAIL
  6
CONTINUOUS
 62
     5
 10
186.82027792955711
 20
-25.93484199463774
 30
0.0
 40
1.5019551727974541
  0
ARC
  8
DETAIL
  6
CONTINUOUS
 62
     5
 10
32.220983809614317
 20
-289.0826915924784
 30
0.0
 40
6.9218086156379064
 50
126.8301001748662
 51
141.42959575781089
  0
ARC
  8
DETAIL
  6
CONTINUOUS
 62
     5
 10
32.309407694952313
 20
-289.13190894381228
 30
0.0
 40
7.0216477477344093
 50
141.56545727187989
 51
170.47378250623731
  0
ARC
  8
DETAIL
  6
CONTINUOUS
 62
     5
 10
32.934695253174603
 20
-289.24303798481691
 30
0.0
 40
7.6567067482899516
 50
170.4280446270995
 51
189.35028174771921
  0
ARC
  8
DETAIL
  6
CONTINUOUS
 62
     5
 10
33.651220024962193
 20
-289.12660897118519
 30
0.0
 40
8.3826277641440576
 50
189.33981344699939
 51
207.14863262933889
  0
ARC
  8
DETAIL
  6
CONTINUOUS
 62
     5
 10
34.2484156981875
 20
-288.81716797272531
 30
0.0
 40
9.0552263777751616
 50
207.16665293023581
 51
231.52875199520699
  0
ARC
  8
DETAIL
  6
CONTINUOUS
 62
     5
 10
34.269073729863457
 20
-288.83363240990951
 30
0.0
 40
9.0552263777759556
 50
231.36160487299259
 51
255.72370393796299
  0
ARC
  8
DETAIL
  6
CONTINUOUS
 62
     5
 10
34.100657057566309
 20
-289.48480998026878
 30
0.0
 40
8.3826277641450311
 50
255.74172423886299
 51
273.55054342119962
  0
ARC
  8
DETAIL
  6
CONTINUOUS
 62
     5
 10
34.147008885650848
 20
-290.20925112476061
 30
0.0
 40
7.6567067482916604
 50
273.54007512048292
 51
292.46231224109658
  0
ARC
  8
DETAIL
  6
CONTINUOUS
 62
     5
 10
34.39483027178386
 20
-290.79398931814382
 30
0.0
 40
7.0216477477332591
 50
292.4165743619605
 51
321.324899596325
  0
ARC
  8
DETAIL
  6
CONTINUOUS
 62
     5
 10
34.376456142574632
 20
-290.81704345227052
 30
0.0
 40
7.0216477477344537
 50
321.56545727187989
 51
350.47378250623728
  0
ARC
  8
DETAIL
  6
CONTINUOUS
 62
     5
 10
33.751168584352293
 20
-290.70591441126578
 30
0.0
 40
7.6567067482900812
 50
350.42804462709961
 51
9.3502817477191549
  0
ARC
  8
DETAIL
  6
CONTINUOUS
 62
     5
 10
38.298690323074538
 20
-289.65123599350738
 30
0.0
 40
3.013406347992432
 50
3.601750603543413
 51
21.410569785875211
  0
ARC
  8
DETAIL
  6
CONTINUOUS
 62
     5
 10
72.227730982435787
 20
-314.29544871286453
 30
0.0
 40
51.794736130591012
 50
109.9337374278694
 51
120.60749288581999
  0
ARC
  8
DETAIL
  6
CONTINUOUS
 62
     5
 10
74.925141179804086
 20
-306.94203420035001
 30
0.0
 40
38.22431684529743
 50
123.95923855316531
 51
149.50652721805841
  0
ARC
  8
DETAIL
  6
CONTINUOUS
 62
     5
 10
29.16757344405687
 20
-277.17288709840108
 30
0.0
 40
16.49082990898032
 50
280.48893760405701
 51
321.02424267609081
  0
ARC
  8
DETAIL
  6
CONTINUOUS
 62
     5
 10
32.696704024154307
 20
-288.48200951083891
 30
0.0
 40
4.9343749033627322
 50
90.289940924329343
 51
263.86847553127501
  0
CIRCLE
  8
DETAIL
  6
CONTINUOUS
 62
     5
 10
194.88570750715371
 20
-30.966352375891351
 30
0.0
 40
1.5019551727974541
  0
ARC
  8
DETAIL
  6
CONTINUOUS
 62
     5
 10
52.863124895059627
 20
-273.68285901447138
 30
0.0
 40
8.0348000735127414
 50
81.567933005201084
 51
178.15672075833049
  0
ARC
  8
DETAIL
  6
CONTINUOUS
 62
     5
 10
41.717594965631179
 20
-280.43189145680532
 30
0.0
 40
3.1158223907289142
 50
268.24286975937008
 51
358.00301210898169
  0
ARC
  8
DETAIL
  6
CONTINUOUS
 62
     5
 10
195.83049102532371
 20
-29.577884105097951
 30
0.0
 40
8.2012489720430857
 50
157.26448292384859
 51
178.54097212052969
  0
ARC
  8
DETAIL
  6
CONTINUOUS
 62
     5
 10
193.99340618511539
 20
-29.238264792231799
 30
0.0
 40
9.3374269743101479
 50
155.35890082400579
 51
180.44036431925761
  0
LINE
  8
DETAIL
  6
CONTINUOUS
 62
     5
 10
195.1628543056768
 20
-29.446479019208251
 30
0.0
 11
189.66273811599109
 21
-29.433414811135261
 31
0.0
  0
LINE
  8
DETAIL
  6
CONTINUOUS
 62
     5
 10
194.9840939118169
 20
-32.417631366062551
 30
0.0
 11
189.57781452593369
 21
-32.425447227835491
 31
0.0
  0
LINE
  8
DETAIL
  6
CONTINUOUS
 62
     5
 10
185.2853776000596
 20
-32.431652806808977
 30
0.0
 11
179.2067525843286
 21
-32.440440679114772
 31
0.0
  0
LINE
  8
DETAIL
  6
CONTINUOUS
 62
     5
 10
184.65599017371269
 20
-29.421522481113239
 30
0.0
 11
178.99680045486099
 21
-29.408080431988878
 31
0.0
  0
ARC
  8
DETAIL
  6
CONTINUOUS
 62
     5
 10
187.8422568671414
 20
-30.875606253903982
 30
0.0
 40
4.5352295518292438
 50
18.319313000004009
 51
84.703798226443453
  0
ARC
  8
DETAIL
  6
CONTINUOUS
 62
     5
 10
187.8348038749169
 20
-30.86885467219037
 30
0.0
 40
4.5426522480460712
 50
200.0472994583711
 51
339.58754845925648
  0
ARC
  8
DETAIL
  6
CONTINUOUS
 62
     5
 10
95.566557911004111
 20
-174.39662622091541
 30
0.0
 40
112.5983259008057
 50
290.96965980231681
 51
358.50156083207048
  0
ARC
  8
DETAIL
  6
CONTINUOUS
 62
     5
 10
92.119781929079636
 20
-178.99833312451219
 30
0.0
 40
109.6429005114483
 50
293.5129541906623
 51
0.8660797070675196
  0
ARC
  8
DETAIL
  6
CONTINUOUS
 62
     5
 10
106.2749487912882
 20
-178.46185828998469
 30
0.0
 40
72.812819500279943
 50
288.58922392147872
 51
0.8819967129499519
  0
ARC
  8
OUTLINE
  6
CONTINUOUS
 62
     3
 10
-95.566557911003997
 20
-174.3966262209176
 30
0.0
 40
112.5983259008057
 50
181.4984391679294
 51
249.03034019768319
  0
ARC
  8
OUTLINE
  6
CONTINUOUS
 62
     3
 10
-244.12767054923091
 20
-8.2323180326823149
 30
0.0
 40
6.3066537963497042
 50
196.45986110104181
 51
266.61032666560908
  0
ARC
  8
OUTLINE
  6
CONTINUOUS
 62
     3
 10
244.12767054923111
 20
-8.2323180326823149
 30
0.0
 40
6.3066537963497042
 50
273.38967333439092
 51
343.54013889895828
  0
ARC
  8
OUTLINE
  6
CONTINUOUS
 62
     3
 10
-236.40800597532129
 20
-43.346435130452392
 30
0.0
 40
23.50781232399369
 50
33.522035604964401
 51
82.52243630880433
  0
ARC
  8
OUTLINE
  6
CONTINUOUS
 62
     3
 10
-283.49631019246482
 20
-72.657950497841739
 30
0.0
 40
78.967173520912482
 50
17.36048254798661
 51
32.3838090038074
  0
ARC
  8
OUTLINE
  6
CONTINUOUS
 62
     3
 10
236.4080059753214
 20
-43.346435130452392
 30
0.0
 40
23.50781232399369
 50
97.477563691195684
 51
146.4779643950356
  0
ARC
  8
OUTLINE
  6
CONTINUOUS
 62
     3
 10
283.49631019246351
 20
-72.657950497840716
 30
0.0
 40
78.967173520909768
 50
147.61619099619261
 51
162.63951745201339
  0
ARC
  8
OUTLINE
  6
CONTINUOUS
 62
     3
 10
95.566557911004224
 20
-174.3966262209176
 30
0.0
 40
112.5983259008057
 50
290.96965980231681
 51
358.50156083207048
  0
ENDSEC
  0
EOF
