  0
SECTION
  2
HEADER
  9
$ACADVER
  1
AC1009
  9
$DWGCODEPAGE
  3
dos932
  9
$INSBASE
 10
0.0
 20
0.0
 30
0.0
  9
$EXTMIN
 10
-584.60996874446391
 20
-463.02794241698939
 30
-0.0015257624927045
  9
$EXTMAX
 10
934.92280198834123
 20
558.83789860973775
 30
0.0022888765696933
  9
$LIMMIN
 10
-2970.0
 20
-2100.0
  9
$LIMMAX
 10
2970.0
 20
2100.0
  9
$ORTHOMODE
 70
     1
  9
$REGENMODE
 70
     1
  9
$FILLMODE
 70
     1
  9
$QTEXTMODE
 70
     0
  9
$MIRRTEXT
 70
     0
  9
$LTSCALE
 40
20.0
  9
$ATTMODE
 70
     1
  9
$TEXTSIZE
 40
64.0
  9
$TRACEWID
 40
0.05
  9
$TEXTSTYLE
  7
STANDARD
  9
$CLAYER
  8
SIZE
  9
$CELTYPE
  6
CONTINUOUS
  9
$CECOLOR
 62
     7
  9
$DIMSCALE
 40
1.0
  9
$DIMASZ
 40
12.0
  9
$DIMEXO
 40
20.0
  9
$DIMDLI
 40
200.0
  9
$DIMRND
 40
0.0
  9
$DIMDLE
 40
0.0
  9
$DIMEXE
 40
20.0
  9
$DIMTP
 40
0.0
  9
$DIMTM
 40
0.0
  9
$DIMTXT
 40
64.0
  9
$DIMCEN
 40
0.09
  9
$DIMTSZ
 40
0.0
  9
$DIMTOL
 70
     0
  9
$DIMLIM
 70
     0
  9
$DIMTIH
 70
     0
  9
$DIMTOH
 70
     0
  9
$DIMSE1
 70
     0
  9
$DIMSE2
 70
     0
  9
$DIMTAD
 70
     1
  9
$DIMZIN
 70
     8
  9
$DIMBLK
  1

  9
$DIMASO
 70
     1
  9
$DIMSHO
 70
     0
  9
$DIMPOST
  1

  9
$DIMAPOST
  1

  9
$DIMALT
 70
     0
  9
$DIMALTD
 70
     2
  9
$DIMALTF
 40
25.399999999999999
  9
$DIMLFAC
 40
1.0
  9
$DIMTOFL
 70
     1
  9
$DIMTVP
 40
0.0
  9
$DIMTIX
 70
     1
  9
$DIMSOXD
 70
     0
  9
$DIMSAH
 70
     0
  9
$DIMBLK1
  1

  9
$DIMBLK2
  1

  9
$DIMSTYLE
  2
STANDARD
  9
$DIMCLRD
 70
     7
  9
$DIMCLRE
 70
     7
  9
$DIMCLRT
 70
     7
  9
$DIMTFAC
 40
1.0
  9
$DIMGAP
 40
25.0
  9
$LUNITS
 70
     2
  9
$LUPREC
 70
     4
  9
$SKETCHINC
 40
0.1
  9
$FILLETRAD
 40
3.0
  9
$AUNITS
 70
     1
  9
$AUPREC
 70
     3
  9
$MENU
  1
ACAD
  9
$ELEVATION
 40
0.0
  9
$PELEVATION
 40
0.0
  9
$THICKNESS
 40
50.0
  9
$LIMCHECK
 70
     0
  9
$CHAMFERA
 40
0.0
  9
$CHAMFERB
 40
0.0
  9
$SKPOLY
 70
     0
  9
$TDCREATE
 40
2453019.62301037
  9
$TDUPDATE
 40
2458949.443800972
  9
$TDINDWG
 40
1.7197497801
  9
$TDUSRTIMER
 40
1.7197497801
  9
$USRTIMER
 70
     1
  9
$ANGBASE
 50
0.0
  9
$ANGDIR
 70
     0
  9
$PDMODE
 70
     3
  9
$PDSIZE
 40
-2.0
  9
$PLINEWID
 40
0.0
  9
$SPLFRAME
 70
     0
  9
$SPLINETYPE
 70
     6
  9
$SPLINESEGS
 70
     8
  9
$SURFTAB1
 70
     6
  9
$SURFTAB2
 70
     6
  9
$SURFTYPE
 70
     6
  9
$SURFU
 70
     6
  9
$SURFV
 70
     6
  9
$UCSNAME
  2

  9
$UCSORG
 10
0.0
 20
0.0
 30
0.0
  9
$UCSXDIR
 10
1.0
 20
0.0
 30
0.0
  9
$UCSYDIR
 10
0.0
 20
1.0
 30
0.0
  9
$PUCSNAME
  2

  9
$PUCSORG
 10
0.0
 20
0.0
 30
0.0
  9
$PUCSXDIR
 10
1.0
 20
0.0
 30
0.0
  9
$PUCSYDIR
 10
0.0
 20
1.0
 30
0.0
  9
$USERI1
 70
     0
  9
$USERI2
 70
     0
  9
$USERI3
 70
     0
  9
$USERI4
 70
     0
  9
$USERI5
 70
     0
  9
$USERR1
 40
20.0
  9
$USERR2
 40
0.0
  9
$USERR3
 40
0.0
  9
$USERR4
 40
0.0
  9
$USERR5
 40
0.0
  9
$WORLDVIEW
 70
     1
  9
$SHADEDGE
 70
     3
  9
$SHADEDIF
 70
    70
  9
$TILEMODE
 70
     1
  9
$MAXACTVP
 70
    48
  9
$PINSBASE
 10
0.0
 20
0.0
 30
0.0
  9
$PLIMCHECK
 70
     0
  9
$PEXTMIN
 10
-100000000000000000000.0
 20
-100000000000000000000.0
 30
-100000000000000000000.0
  9
$PEXTMAX
 10
100000000000000000000.0
 20
100000000000000000000.0
 30
100000000000000000000.0
  9
$PLIMMIN
 10
0.0
 20
0.0
  9
$PLIMMAX
 10
12.0
 20
9.0
  9
$UNITMODE
 70
     0
  9
$VISRETAIN
 70
     0
  9
$PLINEGEN
 70
     0
  9
$PSLTSCALE
 70
     0
  9
$TREEDEPTH
 70
  3020
  9
$ATTDIA
 70
     0
  9
$ATTREQ
 70
     1
  9
$BLIPMODE
 70
     1
  9
$COORDS
 70
     1
  9
$DRAGMODE
 70
     2
  9
$OSMODE
 70
     0
  9
$HANDLING
 70
     0
  9
$HANDSEED
  5
F651
  0
ENDSEC
  0
SECTION
  2
TABLES
  0
TABLE
  2
LTYPE
 70
     2
  0
LTYPE
  2
CONTINUOUS
 70
     0
  3
実線
 72
    65
 73
     0
 40
0.0
  0
LTYPE
  2
DASHDOT
 70
     0
  3
____ _ ____ _ ____ _ ____ _ ____ _ ____ _ ____
 72
    65
 73
     4
 40
5.5
 49
4.0
 49
-0.6
 49
0.3
 49
-0.6
  0
ENDTAB
  0
TABLE
  2
LAYER
 70
    12
  0
LAYER
  2
0
 70
     0
 62
     7
  6
CONTINUOUS
  0
LAYER
  2
BASIS
 70
     0
 62
     6
  6
DASHDOT
  0
LAYER
  2
OUTLINE
 70
     0
 62
     3
  6
CONTINUOUS
  0
LAYER
  2
DETAIL
 70
     0
 62
     5
  6
CONTINUOUS
  0
LAYER
  2
SIZE
 70
     0
 62
    30
  6
CONTINUOUS
  0
LAYER
  2
ARRANGE
 70
     0
 62
     1
  6
CONTINUOUS
  0
LAYER
  2
DEFPOINTS
 70
     0
 62
     7
  6
CONTINUOUS
  0
LAYER
  2
ETC
 70
     0
 62
    61
  6
CONTINUOUS
  0
LAYER
  2
FIX
 70
     0
 62
    11
  6
CONTINUOUS
  0
LAYER
  2
NOTE
 70
     0
 62
     4
  6
CONTINUOUS
  0
LAYER
  2
SERVICESPACE
 70
    64
 62
     2
  6
DASHDOT
  0
LAYER
  2
SYMBOLLINE
 70
    64
 62
    15
  6
CONTINUOUS
  0
ENDTAB
  0
TABLE
  2
STYLE
 70
     1
  0
STYLE
  2
STANDARD
 70
     0
 40
64.0
 41
0.9
 50
0.0
 71
     0
 42
64.0
  3
SIMPLEX.shx
  4
BIGFONT.shx
  0
ENDTAB
  0
TABLE
  2
APPID
 70
    19
  0
APPID
  2
ACAD
 70
     0
  0
APPID
  2
AUTOCAD_POSTSCRIPT_FIGURE
 70
     0
  0
APPID
  2
ACAD_EXEMPT_FROM_CAD_STANDARDS
 70
     0
  0
APPID
  2
ACAD_PSEXT
 70
     0
  0
APPID
  2
ACAUTHENVIRON
 70
     0
  0
APPID
  2
GENIUS_GENOENT_13
 70
     0
  0
APPID
  2
GENIUS_GENCFG_13
 70
     0
  0
APPID
  2
GENIUS_GENCFG0_13
 70
     0
  0
APPID
  2
GENIUS_GENCFG1_13
 70
     0
  0
APPID
  2
GENIUS_GENCFG2_13
 70
     0
  0
APPID
  2
GENIUS_GENCFG3_13
 70
     0
  0
APPID
  2
GENIUS_GENCFG4_13
 70
     0
  0
APPID
  2
GENIUS_GEVCFG0_13
 70
     0
  0
APPID
  2
CONTENTBLOCKICON
 70
     0
  0
APPID
  2
CONTENTBLOCKDESCRIPTION
 70
     0
  0
APPID
  2
ACAD_NAV_VCDISPLAY
 70
     0
  0
APPID
  2
ACAD_MLEADERVER
 70
     0
  0
APPID
  2
ACDBDYNAMICBLOCKTRUENAME
 70
     0
  0
APPID
  2
ACDBDYNAMICBLOCKGUID
 70
     0
  0
ENDTAB
  0
TABLE
  2
DIMSTYLE
 70
     1
  0
DIMSTYLE
  2
STANDARD
 70
     0
  3

  4

  5
_ORIGIN
  6

  7

 40
1.0
 41
12.0
 42
20.0
 43
200.0
 44
20.0
 45
0.0
 46
0.0
 47
0.0
 48
0.0
140
64.0
141
0.09
142
0.0
143
25.399999999999999
144
1.0
145
0.0
146
1.0
147
25.0
 71
     0
 72
     0
 73
     0
 74
     0
 75
     0
 76
     0
 77
     1
 78
     8
170
     0
171
     2
172
     1
173
     0
174
     1
175
     0
176
     7
177
     7
178
     7
  0
ENDTAB
  0
TABLE
  2
VIEW
 70
     1
  0
VIEW
  2
ALL
 70
     0
 40
4282.6198079999986
 10
0.0
 20
41.309904000000003
 41
5940.0
 11
0.0
 21
0.0
 31
1.0
 12
0.0
 22
0.0
 32
0.0
 42
50.0
 43
0.0
 44
0.0
 50
0.0
 71
     0
  0
ENDTAB
  0
TABLE
  2
UCS
 70
     0
  0
ENDTAB
  0
TABLE
  2
VPORT
 70
     1
  0
VPORT
  2
*ACTIVE
 70
     0
 10
0.0
 20
0.0
 11
1.0
 21
1.0
 12
175.1564166219386
 22
47.904978096374244
 13
0.0
 23
0.0
 14
1.0
 24
1.0
 15
0.0
 25
0.0
 16
0.0
 26
0.0
 36
1.0
 17
0.0
 27
0.0
 37
0.0
 40
1028.640642182706
 41
1.747787610619469
 42
50.0
 43
0.0
 44
0.0
 50
0.0
 51
0.0
 71
     0
 72
  1000
 73
     1
 74
     3
 75
     0
 76
     0
 77
     0
 78
     0
  0
ENDTAB
  0
ENDSEC
  0
SECTION
  2
BLOCKS
  0
BLOCK
  8
0
  2
_ORIGIN
 70
     0
 10
0.0
 20
0.0
 30
0.0
  3
_ORIGIN
  1
_ORIGIN
  0
CIRCLE
  8
0
  6
CONTINUOUS
 62
     7
 10
0.0
 20
0.0
 30
0.0
 40
0.5
  0
LINE
  8
0
  6
CONTINUOUS
 62
     7
 10
0.0
 20
0.0
 30
0.0
 11
-1.0
 21
0.0
 31
0.0
  0
ENDBLK
  8
0
  0
ENDSEC
  0
SECTION
  2
ENTITIES
  0
CIRCLE
  8
ARRANGE
  6
CONTINUOUS
 62
     1
 10
0.0
 20
0.0
 30
0.0
 40
40.0
  0
POINT
  8
ARRANGE
  6
CONTINUOUS
 62
     1
 10
0.0
 20
0.0
 30
0.0
 50
359.99829045418988
  0
TEXT
  8
ETC
  6
CONTINUOUS
 62
    61
 10
344.87539504366401
 20
494.56101113953292
 30
0.0
 40
64.0
  1
EWF-40ETA2_1
 41
0.9
  0
TEXT
  8
ETC
  6
CONTINUOUS
 62
    61
 10
340.68940104366362
 20
376.60570112470168
 30
0.0
 40
64.0
  1
産業扇
 41
0.9
  0
LINE
  8
SIZE
  6
CONTINUOUS
 62
    30
 10
-259.99999722098443
 20
18.5
 30
0.0
 11
-259.99999722098443
 21
264.96668498765212
 31
0.0
  0
LINE
  8
SIZE
  6
CONTINUOUS
 62
    30
 10
259.9912425583293
 20
18.65911678100133
 30
0.0
 11
259.9912425583293
 21
264.96668498765212
 31
0.0
  0
LINE
  8
SIZE
  6
CONTINUOUS
 62
    30
 10
-247.9999972209844
 20
244.96668498765209
 30
0.0
 11
247.9912425583293
 21
244.96668498765209
 31
0.0
  0
CIRCLE
  8
SIZE
  6
CONTINUOUS
 62
    30
 10
-259.99999722098443
 20
244.96668498765209
 30
0.0
 40
6.0
  0
LINE
  8
SIZE
  6
CONTINUOUS
 62
    30
 10
-259.99999722098443
 20
244.96668498765209
 30
0.0
 11
-247.9999972209844
 21
244.96668498765209
 31
0.0
  0
CIRCLE
  8
SIZE
  6
CONTINUOUS
 62
    30
 10
259.9912425583293
 20
244.96668498765209
 30
0.0
 40
6.0
  0
LINE
  8
SIZE
  6
CONTINUOUS
 62
    30
 10
259.9912425583293
 20
244.96668498765209
 30
0.0
 11
247.9912425583293
 21
244.96668498765209
 31
0.0
  0
TEXT
  8
SIZE
  6
CONTINUOUS
 62
    30
 10
-74.057142857371133
 20
269.96668498765212
 30
0.0
 40
64.0
  1
520
 41
0.9
 72
     1
 11
-0.0000000002282832
 21
269.96668498765212
 31
0.0
  0
POINT
  8
DEFPOINTS
  6
CONTINUOUS
 62
    30
 10
-259.99999722098443
 20
-1.5
 30
0.0
  0
POINT
  8
DEFPOINTS
  6
CONTINUOUS
 62
    30
 10
259.9912425583293
 20
-1.3408832189986699
 30
0.0
  0
POINT
  8
DEFPOINTS
  6
CONTINUOUS
 62
    30
 10
259.9912425583293
 20
244.96668498765209
 30
0.0
  0
LINE
  8
SIZE
  6
CONTINUOUS
 62
    30
 10
-230.4431599229288
 20
34.486821293642379
 30
0.0
 11
-230.4431599229288
 21
151.39419561661629
 31
0.0
  0
LINE
  8
SIZE
  6
CONTINUOUS
 62
    30
 10
230.4431599229288
 20
34.486821293642379
 30
0.0
 11
230.4431599229288
 21
151.39419561661629
 31
0.0
  0
LINE
  8
SIZE
  6
CONTINUOUS
 62
    30
 10
-218.4431599229288
 20
131.39419561661629
 30
0.0
 11
218.4431599229288
 21
131.39419561661629
 31
0.0
  0
CIRCLE
  8
SIZE
  6
CONTINUOUS
 62
    30
 10
-230.4431599229288
 20
131.39419561661629
 30
0.0
 40
6.0
  0
LINE
  8
SIZE
  6
CONTINUOUS
 62
    30
 10
-230.4431599229288
 20
131.39419561661629
 30
0.0
 11
-218.4431599229288
 21
131.39419561661629
 31
0.0
  0
CIRCLE
  8
SIZE
  6
CONTINUOUS
 62
    30
 10
230.4431599229288
 20
131.39419561661629
 30
0.0
 40
6.0
  0
LINE
  8
SIZE
  6
CONTINUOUS
 62
    30
 10
230.4431599229288
 20
131.39419561661629
 30
0.0
 11
218.4431599229288
 21
131.39419561661629
 31
0.0
  0
TEXT
  8
SIZE
  6
CONTINUOUS
 62
    30
 10
-74.05714285714285
 20
156.39419561661629
 30
0.0
 40
64.0
  1
460
 41
0.9
 72
     1
 11
0.0
 21
156.39419561661629
 31
0.0
  0
POINT
  8
DEFPOINTS
  6
CONTINUOUS
 62
    30
 10
-230.4431599229288
 20
14.48682129364261
 30
0.0
  0
POINT
  8
DEFPOINTS
  6
CONTINUOUS
 62
    30
 10
230.4431599229288
 20
14.48682129364261
 30
0.0
  0
POINT
  8
DEFPOINTS
  6
CONTINUOUS
 62
    30
 10
230.4431599229288
 20
131.39419561661629
 30
0.0
  0
CIRCLE
  8
FIX
  6
CONTINUOUS
 62
    11
 10
-230.4431599229288
 20
0.2472000034001667
 30
0.0
 40
7.0
  0
CIRCLE
  8
FIX
  6
CONTINUOUS
 62
    11
 10
230.4431599229288
 20
0.0
 30
0.0
 40
7.0
  0
LINE
  8
SIZE
  6
CONTINUOUS
 62
    30
 10
278.49710982658962
 20
0.0
 30
0.0
 11
404.81452190754771
 21
0.0
 31
0.0
  0
LINE
  8
SIZE
  6
CONTINUOUS
 62
    30
 10
273.38728323699428
 20
-10.019267822735969
 30
0.0
 11
404.81452190754771
 21
-10.019267822736079
 31
0.0
  0
LINE
  8
SIZE
  6
CONTINUOUS
 62
    30
 10
384.81452190754771
 20
-22.019267822736079
 30
0.0
 11
384.81452190754771
 21
-34.019267822735969
 31
0.0
  0
LINE
  8
SIZE
  6
CONTINUOUS
 62
    30
 10
384.81452190754771
 20
12.0
 30
0.0
 11
384.81452190754771
 21
156.28571428571419
 31
0.0
  0
LINE
  8
SIZE
  6
CONTINUOUS
 62
    30
 10
384.81452190754771
 20
-10.019267822736079
 30
0.0
 11
384.81452190754771
 21
0.0
 31
0.0
  0
CIRCLE
  8
SIZE
  6
CONTINUOUS
 62
    30
 10
384.81452190754771
 20
-10.019267822736079
 30
0.0
 40
6.0
  0
LINE
  8
SIZE
  6
CONTINUOUS
 62
    30
 10
384.81452190754771
 20
-10.019267822736079
 30
0.0
 11
384.81452190754771
 21
-22.019267822736079
 31
0.0
  0
CIRCLE
  8
SIZE
  6
CONTINUOUS
 62
    30
 10
384.81452190754771
 20
0.0
 30
0.0
 40
6.0
  0
LINE
  8
SIZE
  6
CONTINUOUS
 62
    30
 10
384.81452190754771
 20
0.0
 30
0.0
 11
384.81452190754771
 21
12.0
 31
0.0
  0
TEXT
  8
SIZE
  6
CONTINUOUS
 62
    30
 10
359.81452190754771
 20
49.000000000000199
 30
0.0
 40
64.0
  1
10
 50
90.0
 41
0.9
 72
     1
 11
359.81452190754771
 21
90.142857142857338
 31
0.0
  0
POINT
  8
DEFPOINTS
  6
CONTINUOUS
 62
    30
 10
258.49710982658962
 20
0.0
 30
0.0
  0
POINT
  8
DEFPOINTS
  6
CONTINUOUS
 62
    30
 10
253.38728323699431
 20
-10.019267822735969
 30
0.0
  0
POINT
  8
DEFPOINTS
  6
CONTINUOUS
 62
    30
 10
384.81452190754771
 20
-10.019267822736079
 30
0.0
  0
LINE
  8
SIZE
  6
CONTINUOUS
 62
    30
 10
273.38728323699428
 20
-10.019267822735969
 30
0.0
 11
404.81452190754771
 21
-10.019267822736079
 31
0.0
  0
LINE
  8
SIZE
  6
CONTINUOUS
 62
    30
 10
263.36801541425802
 20
-20.038535645471939
 30
0.0
 11
404.81452190754771
 21
-20.038535645472049
 31
0.0
  0
LINE
  8
SIZE
  6
CONTINUOUS
 62
    30
 10
384.81452190754771
 20
1.980732177263917
 30
0.0
 11
384.81452190754771
 21
13.980732177263921
 31
0.0
  0
LINE
  8
SIZE
  6
CONTINUOUS
 62
    30
 10
384.81452190754771
 20
-32.038535645472052
 30
0.0
 11
384.81452190754771
 21
-257.26694449511137
 31
0.0
  0
LINE
  8
SIZE
  6
CONTINUOUS
 62
    30
 10
384.81452190754771
 20
-10.019267822736079
 30
0.0
 11
384.81452190754771
 21
-20.038535645472049
 31
0.0
  0
CIRCLE
  8
SIZE
  6
CONTINUOUS
 62
    30
 10
384.81452190754771
 20
-10.019267822736079
 30
0.0
 40
6.0
  0
LINE
  8
SIZE
  6
CONTINUOUS
 62
    30
 10
384.81452190754771
 20
-10.019267822736079
 30
0.0
 11
384.81452190754771
 21
1.980732177263917
 31
0.0
  0
CIRCLE
  8
SIZE
  6
CONTINUOUS
 62
    30
 10
384.81452190754771
 20
-20.038535645472049
 30
0.0
 40
6.0
  0
LINE
  8
SIZE
  6
CONTINUOUS
 62
    30
 10
384.81452190754771
 20
-20.038535645472049
 30
0.0
 11
384.81452190754771
 21
-32.038535645472052
 31
0.0
  0
TEXT
  8
SIZE
  6
CONTINUOUS
 62
    30
 10
359.81452190754771
 20
-232.2669444951112
 30
0.0
 40
64.0
  1
10
 50
90.0
 41
0.9
 72
     1
 11
359.81452190754771
 21
-191.12408735225401
 31
0.0
  0
POINT
  8
DEFPOINTS
  6
CONTINUOUS
 62
    30
 10
253.38728323699431
 20
-10.019267822735969
 30
0.0
  0
POINT
  8
DEFPOINTS
  6
CONTINUOUS
 62
    30
 10
243.368015414258
 20
-20.038535645471939
 30
0.0
  0
POINT
  8
DEFPOINTS
  6
CONTINUOUS
 62
    30
 10
384.81452190754771
 20
-20.038535645472049
 30
0.0
  0
LINE
  8
SIZE
  6
CONTINUOUS
 62
    30
 10
278.49710982658962
 20
0.0
 30
0.0
 11
531.55286783170322
 21
0.0
 31
0.0
  0
LINE
  8
SIZE
  6
CONTINUOUS
 62
    30
 10
258.33333333333297
 20
-99.591522157995996
 30
0.0
 11
531.55286783170322
 21
-99.591522157995996
 31
0.0
  0
LINE
  8
SIZE
  6
CONTINUOUS
 62
    30
 10
511.55286783170322
 20
-12.00000000000011
 30
0.0
 11
511.55286783170322
 21
-87.591522157995996
 31
0.0
  0
LINE
  8
SIZE
  6
CONTINUOUS
 62
    30
 10
511.55286783170322
 20
-99.591522157995996
 30
0.0
 11
511.55286783170322
 21
-275.42009358656742
 31
0.0
  0
CIRCLE
  8
SIZE
  6
CONTINUOUS
 62
    30
 10
511.55286783170322
 20
0.0
 30
0.0
 40
6.0
  0
LINE
  8
SIZE
  6
CONTINUOUS
 62
    30
 10
511.55286783170322
 20
0.0
 30
0.0
 11
511.55286783170322
 21
-12.00000000000011
 31
0.0
  0
CIRCLE
  8
SIZE
  6
CONTINUOUS
 62
    30
 10
511.55286783170322
 20
-99.591522157995996
 30
0.0
 40
6.0
  0
LINE
  8
SIZE
  6
CONTINUOUS
 62
    30
 10
511.55286783170322
 20
-99.591522157995996
 30
0.0
 11
511.55286783170322
 21
-87.591522157995996
 31
0.0
  0
TEXT
  8
SIZE
  6
CONTINUOUS
 62
    30
 10
486.55286783170322
 20
-250.42009358656739
 30
0.0
 40
64.0
  1
99
 50
90.0
 41
0.9
 72
     1
 11
486.55286783170322
 21
-205.16295072942461
 31
0.0
  0
POINT
  8
DEFPOINTS
  6
CONTINUOUS
 62
    30
 10
258.49710982658962
 20
0.0
 30
0.0
  0
POINT
  8
DEFPOINTS
  6
CONTINUOUS
 62
    30
 10
238.333333333333
 20
-99.591522157995996
 30
0.0
  0
POINT
  8
DEFPOINTS
  6
CONTINUOUS
 62
    30
 10
511.55286783170322
 20
-99.591522157995996
 30
0.0
  0
TEXT
  8
NOTE
  6
CONTINUOUS
 62
     4
 10
-577.23322031510793
 20
89.813382410917939
 30
0.0
 40
64.0
  1
4-φ14
 41
0.9
  0
LINE
  8
SIZE
  6
CONTINUOUS
 62
    30
 10
-278.49710982658962
 20
0.0
 30
0.0
 11
-383.81931770129682
 21
0.0
 31
0.0
  0
LINE
  8
SIZE
  6
CONTINUOUS
 62
    30
 10
-19.917622206577111
 20
-291.22396399236982
 30
0.0
 11
-383.81931770129682
 21
-291.22396399236982
 31
0.0
  0
LINE
  8
SIZE
  6
CONTINUOUS
 62
    30
 10
-363.81931770129682
 20
-12.0
 30
0.0
 11
-363.81931770129682
 21
-279.22396399236982
 31
0.0
  0
CIRCLE
  8
SIZE
  6
CONTINUOUS
 62
    30
 10
-363.81931770129682
 20
0.0
 30
0.0
 40
6.0
  0
LINE
  8
SIZE
  6
CONTINUOUS
 62
    30
 10
-363.81931770129682
 20
0.0
 30
0.0
 11
-363.81931770129682
 21
-12.0
 31
0.0
  0
CIRCLE
  8
SIZE
  6
CONTINUOUS
 62
    30
 10
-363.81931770129682
 20
-291.22396399236982
 30
0.0
 40
6.0
  0
LINE
  8
SIZE
  6
CONTINUOUS
 62
    30
 10
-363.81931770129682
 20
-291.22396399236982
 30
0.0
 11
-363.81931770129682
 21
-279.22396399236982
 31
0.0
  0
TEXT
  8
SIZE
  6
CONTINUOUS
 62
    30
 10
-388.81931770129682
 20
-207.32626771047069
 30
0.0
 40
64.0
  1
291
 50
90.0
 41
0.9
 72
     1
 11
-388.81931770129682
 21
-145.61198199618499
 31
0.0
  0
POINT
  8
DEFPOINTS
  6
CONTINUOUS
 62
    30
 10
-258.49710982658962
 20
0.0
 30
0.0
  0
POINT
  8
DEFPOINTS
  6
CONTINUOUS
 62
    30
 10
0.0823777934228929
 20
-291.22396399236982
 30
0.0
  0
POINT
  8
DEFPOINTS
  6
CONTINUOUS
 62
    30
 10
-363.81931770129682
 20
-291.22396399236982
 30
0.0
  0
LINE
  8
DETAIL
  6
CONTINUOUS
 62
     4
 10
-233.1479144340901
 20
5.7438390598276783
 30
0.0
 11
-230.38451579445791
 21
0.1807169823896402
 31
0.0
  0
LINE
  8
DETAIL
  6
CONTINUOUS
 62
     4
 10
-230.38451579445791
 20
0.1807169823896402
 30
0.0
 11
-235.55925543389409
 21
3.6168149079512659
 31
0.0
  0
LINE
  8
DETAIL
  6
CONTINUOUS
 62
     4
 10
-230.38451579445791
 20
0.1807169823896402
 30
0.0
 11
-238.32265407352631
 21
9.179936985389304
 31
0.0
  0
LINE
  8
NOTE
  6
CONTINUOUS
 62
     4
 10
-238.32265407352611
 20
9.179936985389304
 30
0.0
 11
-286.48810867395952
 21
63.783611960005153
 31
0.0
  0
LINE
  8
NOTE
  6
CONTINUOUS
 62
     4
 10
-286.48810867395952
 20
63.783611960005153
 30
0.0
 11
-584.35667091899359
 21
63.945066809185391
 31
0.0
  0
LINE
  8
OUTLINE
  6
CONTINUOUS
 62
     3
 10
-256.99421965317919
 20
-6.4123314065507202
 30
0.0
 11
-256.99421965317919
 21
-3.0057803468209841
 31
0.0
  0
LINE
  8
OUTLINE
  6
CONTINUOUS
 62
     3
 10
-246.9749518304429
 20
-16.4315992292868
 30
0.0
 11
-246.9749518304429
 21
-13.89435725155761
 31
0.0
  0
LINE
  8
OUTLINE
  6
CONTINUOUS
 62
     3
 10
-206.53232368060461
 20
-160.30828516377619
 30
0.0
 11
-206.53232368060461
 21
-20.038535645472049
 31
0.0
  0
LINE
  8
OUTLINE
  6
CONTINUOUS
 62
     3
 10
-4.7090558766858521
 20
-289.15606936416168
 30
0.0
 11
4.7090558766858521
 21
-289.15606936416168
 31
0.0
  0
LINE
  8
OUTLINE
  6
CONTINUOUS
 62
     3
 10
57.911368015414148
 20
-288.65510597302489
 30
0.0
 11
-57.911368015414148
 21
-288.65510597302489
 31
0.0
  0
LINE
  8
OUTLINE
  6
CONTINUOUS
 62
     3
 10
89.672447013487727
 20
-266.51252408477842
 30
0.0
 11
65.325626204238688
 21
-266.51252408477842
 31
0.0
  0
LINE
  8
OUTLINE
  6
CONTINUOUS
 62
     3
 10
89.672447013487727
 20
-262.50481695568402
 30
0.0
 11
131.0803515379412
 21
-262.50481695550047
 31
0.0
  0
LINE
  8
OUTLINE
  6
CONTINUOUS
 62
     3
 10
-89.672447013487727
 20
-266.51252408477842
 30
0.0
 11
-89.672447013487727
 21
-262.50481695568402
 31
0.0
  0
LINE
  8
OUTLINE
  6
CONTINUOUS
 62
     3
 10
-65.325626204239143
 20
-281.24084778420018
 30
0.0
 11
-65.325626204239143
 21
-266.51252408477842
 31
0.0
  0
LINE
  8
OUTLINE
  6
CONTINUOUS
 62
     3
 10
-4.7090558766858521
 20
-289.15606936416168
 30
0.0
 11
-4.7090558766858521
 21
-288.65510597302489
 31
0.0
  0
LINE
  8
OUTLINE
  6
CONTINUOUS
 62
     3
 10
4.7090558766858521
 20
-289.15606936416168
 30
0.0
 11
4.7090558766858521
 21
-288.65510597302489
 31
0.0
  0
LINE
  8
OUTLINE
  6
CONTINUOUS
 62
     3
 10
-238.33333333333351
 20
-99.591522157995882
 30
0.0
 11
-206.53232368060461
 21
-99.591522157995882
 31
0.0
  0
LINE
  8
OUTLINE
  6
CONTINUOUS
 62
     3
 10
206.53232368060429
 20
-99.591522157995882
 30
0.0
 11
238.333333333333
 21
-99.591522157995882
 31
0.0
  0
LINE
  8
OUTLINE
  6
CONTINUOUS
 62
     3
 10
-238.33333333333351
 20
-95.58381502890154
 30
0.0
 11
-206.53232368060461
 21
-95.58381502890154
 31
0.0
  0
LINE
  8
OUTLINE
  6
CONTINUOUS
 62
     3
 10
206.53232368060429
 20
-95.58381502890154
 30
0.0
 11
238.333333333333
 21
-95.58381502890154
 31
0.0
  0
LINE
  8
OUTLINE
  6
CONTINUOUS
 62
     3
 10
209.43116466766739
 20
-78.901734104046
 30
0.0
 11
207.01572659314891
 21
-78.901734104046
 31
0.0
  0
LINE
  8
OUTLINE
  6
CONTINUOUS
 62
     3
 10
209.43116466766739
 20
-75.394990366088564
 30
0.0
 11
206.53232368060429
 21
-75.394990366088564
 31
0.0
  0
LINE
  8
OUTLINE
  6
CONTINUOUS
 62
     3
 10
65.325626204238688
 20
-281.24084778420018
 30
0.0
 11
65.325626204238688
 21
-266.51252408477842
 31
0.0
  0
LINE
  8
OUTLINE
  6
CONTINUOUS
 62
     3
 10
89.672447013487727
 20
-266.51252408477842
 30
0.0
 11
89.672447013487727
 21
-262.50481695568402
 31
0.0
  0
LINE
  8
OUTLINE
  6
CONTINUOUS
 62
     3
 10
243.368015414258
 20
-20.038535645472049
 30
0.0
 11
206.53232368060429
 21
-20.038535645472049
 31
0.0
  0
LINE
  8
OUTLINE
  6
CONTINUOUS
 62
     3
 10
-206.53232368060461
 20
-20.038535645472049
 30
0.0
 11
-243.36801541425831
 21
-20.038535645472049
 31
0.0
  0
LINE
  8
OUTLINE
  6
CONTINUOUS
 62
     3
 10
253.38728323699431
 20
-10.019267822736079
 30
0.0
 11
250.1758680125113
 21
-10.019267822736079
 31
0.0
  0
LINE
  8
OUTLINE
  6
CONTINUOUS
 62
     3
 10
-250.1758680125115
 20
-10.019267822736079
 30
0.0
 11
-253.38728323699431
 21
-10.019267822736079
 31
0.0
  0
LINE
  8
OUTLINE
  6
CONTINUOUS
 62
     3
 10
258.49710982658962
 20
-3.0057803468209841
 30
0.0
 11
256.99421965317919
 21
-3.0057803468209841
 31
0.0
  0
LINE
  8
OUTLINE
  6
CONTINUOUS
 62
     3
 10
258.49710982658962
 20
0.0
 30
0.0
 11
-258.49710982658962
 21
0.0
 31
0.0
  0
LINE
  8
OUTLINE
  6
CONTINUOUS
 62
     3
 10
207.19673085749309
 20
-78.901734104046
 30
0.0
 11
207.90520007947359
 21
-77.899807321772641
 31
0.0
  0
LINE
  8
OUTLINE
  6
CONTINUOUS
 62
     3
 10
206.53232368060429
 20
-20.038535645472049
 30
0.0
 11
206.53232368060429
 21
-160.30828516377619
 31
0.0
  0
LINE
  8
OUTLINE
  6
CONTINUOUS
 62
     3
 10
207.90520007947359
 20
-76.396917148362263
 30
0.0
 11
207.90520007947359
 21
-77.899807321772641
 31
0.0
  0
LINE
  8
OUTLINE
  6
CONTINUOUS
 62
     3
 10
209.43117939273819
 20
-75.394990366088564
 30
0.0
 11
209.43117939273819
 21
-78.901734104046
 31
0.0
  0
LINE
  8
OUTLINE
  6
CONTINUOUS
 62
     3
 10
207.90520007947359
 20
-76.396917148362263
 30
0.0
 11
207.19673085749309
 21
-75.394990366088564
 31
0.0
  0
LINE
  8
OUTLINE
  6
CONTINUOUS
 62
     3
 10
246.97495183044339
 20
-13.89435725155761
 30
0.0
 11
246.97495183044339
 21
-16.4315992292868
 31
0.0
  0
LINE
  8
OUTLINE
  6
CONTINUOUS
 62
     3
 10
256.99421965317919
 20
-3.0057803468209841
 30
0.0
 11
256.99421965317919
 21
-6.4123314065507202
 31
0.0
  0
ARC
  8
OUTLINE
  6
CONTINUOUS
 62
     3
 10
-57.911368015414148
 20
-281.24084778420018
 30
0.0
 40
7.4142581888247037
 50
180.0
 51
270.0
  0
ARC
  8
OUTLINE
  6
CONTINUOUS
 62
     3
 10
-253.38728323699431
 20
-6.4123314065507202
 30
0.0
 40
3.606936416184908
 50
180.0
 51
270.0
  0
ARC
  8
OUTLINE
  6
CONTINUOUS
 62
     3
 10
-243.36801541425831
 20
-16.4315992292868
 30
0.0
 40
3.606936416184908
 50
180.0
 51
270.0
  0
ARC
  8
OUTLINE
  6
CONTINUOUS
 62
     3
 10
-238.33333333333351
 20
-97.587668593448825
 30
0.0
 40
2.0038535645472848
 50
90.0
 51
270.0
  0
ARC
  8
OUTLINE
  6
CONTINUOUS
 62
     3
 10
-258.49710982658962
 20
-1.5028901734103779
 30
0.0
 40
1.5028901734103779
 50
90.0
 51
270.0
  0
ARC
  8
OUTLINE
  6
CONTINUOUS
 62
     3
 10
57.911368015414148
 20
-281.24084778420018
 30
0.0
 40
7.4142581888247614
 50
270.0
 51
0.0
  0
ARC
  8
OUTLINE
  6
CONTINUOUS
 62
     3
 10
0.0
 20
-284.6248554913293
 30
0.0
 40
6.5350674373797446
 50
223.89739816710511
 51
316.10260183289489
  0
ARC
  8
OUTLINE
  6
CONTINUOUS
 62
     3
 10
243.368015414258
 20
-16.4315992292868
 30
0.0
 40
3.606936416185023
 50
270.0
 51
0.0
  0
ARC
  8
OUTLINE
  6
CONTINUOUS
 62
     3
 10
253.38728323699431
 20
-6.4123314065507202
 30
0.0
 40
3.606936416184793
 50
270.0
 51
0.0
  0
ARC
  8
OUTLINE
  6
CONTINUOUS
 62
     3
 10
238.333333333333
 20
-97.587668593448825
 30
0.0
 40
2.003853564547057
 50
270.0
 51
90.0
  0
ARC
  8
OUTLINE
  6
CONTINUOUS
 62
     3
 10
258.49710982658962
 20
-1.5028901734103779
 30
0.0
 40
1.5028901734103779
 50
270.0
 51
90.0
  0
LINE
  8
OUTLINE
  6
CONTINUOUS
 62
     3
 10
1.5232088276152349
 20
-290.79468337742401
 30
0.0
 11
1.5047595783680661
 21
-290.80300158206842
 31
0.0
  0
LINE
  8
OUTLINE
  6
CONTINUOUS
 62
     3
 10
1.5047595783680661
 20
-290.80300158206842
 30
0.0
 11
1.486331320117642
 21
-290.81132032424989
 31
0.0
  0
LINE
  8
OUTLINE
  6
CONTINUOUS
 62
     3
 10
1.486331320117642
 20
-290.81132032424989
 30
0.0
 11
1.486331320117642
 21
-290.81132032424989
 31
0.0
  0
LINE
  8
OUTLINE
  6
CONTINUOUS
 62
     3
 10
1.486331320117642
 20
-290.81132032424989
 30
0.0
 11
1.4679251588713671
 21
-290.81964496111777
 31
0.0
  0
LINE
  8
OUTLINE
  6
CONTINUOUS
 62
     3
 10
1.4679251588713671
 20
-290.81964496111777
 30
0.0
 11
1.44946266068564
 21
-290.82800012827431
 31
0.0
  0
LINE
  8
OUTLINE
  6
CONTINUOUS
 62
     3
 10
1.44946266068564
 20
-290.82800012827431
 30
0.0
 11
1.44946266068564
 21
-290.82800012827431
 31
0.0
  0
LINE
  8
OUTLINE
  6
CONTINUOUS
 62
     3
 10
1.44946266068564
 20
-290.82800012827431
 30
0.0
 11
1.4309222815618341
 21
-290.83638260960993
 31
0.0
  0
LINE
  8
OUTLINE
  6
CONTINUOUS
 62
     3
 10
1.4309222815618341
 20
-290.83638260960993
 30
0.0
 11
1.412589577238577
 21
-290.84465850371657
 31
0.0
  0
LINE
  8
OUTLINE
  6
CONTINUOUS
 62
     3
 10
1.412589577238577
 20
-290.84465850371657
 30
0.0
 11
1.412589577238577
 21
-290.84465850371657
 31
0.0
  0
LINE
  8
OUTLINE
  6
CONTINUOUS
 62
     3
 10
1.412589577238577
 20
-290.84465850371657
 30
0.0
 11
1.394539663639534
 21
-290.85278710354692
 31
0.0
  0
LINE
  8
OUTLINE
  6
CONTINUOUS
 62
     3
 10
1.394539663639534
 20
-290.85278710354692
 30
0.0
 11
1.375698797692166
 21
-290.86123116479638
 31
0.0
  0
LINE
  8
OUTLINE
  6
CONTINUOUS
 62
     3
 10
1.375698797692166
 20
-290.86123116479638
 30
0.0
 11
1.375698797692166
 21
-290.86123116479638
 31
0.0
  0
LINE
  8
OUTLINE
  6
CONTINUOUS
 62
     3
 10
1.375698797692166
 20
-290.86123116479638
 30
0.0
 11
1.3557781056379099
 21
-290.87010851742679
 31
0.0
  0
LINE
  8
OUTLINE
  6
CONTINUOUS
 62
     3
 10
1.3557781056379099
 20
-290.87010851742679
 30
0.0
 11
1.3387770499657561
 21
-290.8776538257332
 31
0.0
  0
LINE
  8
OUTLINE
  6
CONTINUOUS
 62
     3
 10
1.3387770499657561
 20
-290.8776538257332
 30
0.0
 11
1.3387770499657561
 21
-290.8776538257332
 31
0.0
  0
LINE
  8
OUTLINE
  6
CONTINUOUS
 62
     3
 10
1.3387770499657561
 20
-290.8776538257332
 30
0.0
 11
1.3280770380815741
 21
-290.88237814810708
 31
0.0
  0
LINE
  8
OUTLINE
  6
CONTINUOUS
 62
     3
 10
1.3280770380815741
 20
-290.88237814810708
 30
0.0
 11
1.3202989207998139
 21
-290.88578128500279
 31
0.0
  0
LINE
  8
OUTLINE
  6
CONTINUOUS
 62
     3
 10
1.3202989207998139
 20
-290.88578128500279
 30
0.0
 11
1.3202989207998139
 21
-290.88578128500279
 31
0.0
  0
LINE
  8
OUTLINE
  6
CONTINUOUS
 62
     3
 10
1.3202989207998139
 20
-290.88578128500279
 30
0.0
 11
1.3114443957374531
 21
-290.88963397236438
 31
0.0
  0
LINE
  8
OUTLINE
  6
CONTINUOUS
 62
     3
 10
1.3114443957374531
 20
-290.88963397236438
 30
0.0
 11
1.3017991043061561
 21
-290.89380194603859
 31
0.0
  0
LINE
  8
OUTLINE
  6
CONTINUOUS
 62
     3
 10
1.3017991043061561
 20
-290.89380194603859
 30
0.0
 11
1.3017991043061561
 21
-290.89380194603859
 31
0.0
  0
LINE
  8
OUTLINE
  6
CONTINUOUS
 62
     3
 10
1.3017991043061561
 20
-290.89380194603859
 30
0.0
 11
1.292432704047314
 21
-290.89780230265637
 31
0.0
  0
LINE
  8
OUTLINE
  6
CONTINUOUS
 62
     3
 10
1.292432704047314
 20
-290.89780230265637
 30
0.0
 11
1.2832669732219979
 21
-290.90166258208728
 31
0.0
  0
LINE
  8
OUTLINE
  6
CONTINUOUS
 62
     3
 10
1.2832669732219979
 20
-290.90166258208728
 30
0.0
 11
1.2832669732219979
 21
-290.90166258208728
 31
0.0
  0
LINE
  8
OUTLINE
  6
CONTINUOUS
 62
     3
 10
1.2832669732219979
 20
-290.90166258208728
 30
0.0
 11
1.2740136136017099
 21
-290.90550374179628
 31
0.0
  0
LINE
  8
OUTLINE
  6
CONTINUOUS
 62
     3
 10
1.2740136136017099
 20
-290.90550374179628
 30
0.0
 11
1.26469190028547
 21
-290.90930996639548
 31
0.0
  0
LINE
  8
OUTLINE
  6
CONTINUOUS
 62
     3
 10
1.26469190028547
 20
-290.90930996639548
 30
0.0
 11
1.26469190028547
 21
-290.90930996639548
 31
0.0
  0
LINE
  8
OUTLINE
  6
CONTINUOUS
 62
     3
 10
1.26469190028547
 20
-290.90930996639548
 30
0.0
 11
1.255377398196742
 21
-290.91304040932778
 31
0.0
  0
LINE
  8
OUTLINE
  6
CONTINUOUS
 62
     3
 10
1.255377398196742
 20
-290.91304040932778
 30
0.0
 11
1.2460632582346991
 21
-290.91669087221089
 31
0.0
  0
LINE
  8
OUTLINE
  6
CONTINUOUS
 62
     3
 10
1.2460632582346991
 20
-290.91669087221089
 30
0.0
 11
1.2460632582346991
 21
-290.91669087221089
 31
0.0
  0
LINE
  8
OUTLINE
  6
CONTINUOUS
 62
     3
 10
1.2460632582346991
 20
-290.91669087221089
 30
0.0
 11
1.236728157589823
 21
-290.92026696002063
 31
0.0
  0
LINE
  8
OUTLINE
  6
CONTINUOUS
 62
     3
 10
1.236728157589823
 20
-290.92026696002063
 30
0.0
 11
1.227375292638953
 21
-290.92377684298708
 31
0.0
  0
LINE
  8
OUTLINE
  6
CONTINUOUS
 62
     3
 10
1.227375292638953
 20
-290.92377684298708
 30
0.0
 11
1.227375292638953
 21
-290.92377684298708
 31
0.0
  0
LINE
  8
OUTLINE
  6
CONTINUOUS
 62
     3
 10
1.227375292638953
 20
-290.92377684298708
 30
0.0
 11
1.218012510291373
 21
-290.92722999046032
 31
0.0
  0
LINE
  8
OUTLINE
  6
CONTINUOUS
 62
     3
 10
1.218012510291373
 20
-290.92722999046032
 30
0.0
 11
1.208641740394341
 21
-290.9306385030095
 31
0.0
  0
LINE
  8
OUTLINE
  6
CONTINUOUS
 62
     3
 10
1.208641740394341
 20
-290.9306385030095
 30
0.0
 11
1.208641740394341
 21
-290.9306385030095
 31
0.0
  0
LINE
  8
OUTLINE
  6
CONTINUOUS
 62
     3
 10
1.208641740394341
 20
-290.9306385030095
 30
0.0
 11
1.199263829900246
 21
-290.93401496275249
 31
0.0
  0
LINE
  8
OUTLINE
  6
CONTINUOUS
 62
     3
 10
1.199263829900246
 20
-290.93401496275249
 30
0.0
 11
1.189881211230386
 21
-290.93737124677102
 31
0.0
  0
LINE
  8
OUTLINE
  6
CONTINUOUS
 62
     3
 10
1.189881211230386
 20
-290.93737124677102
 30
0.0
 11
1.189881211230386
 21
-290.93737124677102
 31
0.0
  0
LINE
  8
OUTLINE
  6
CONTINUOUS
 62
     3
 10
1.189881211230386
 20
-290.93737124677102
 30
0.0
 11
1.1804966069685181
 21
-290.94071910311959
 31
0.0
  0
LINE
  8
OUTLINE
  6
CONTINUOUS
 62
     3
 10
1.1804966069685181
 20
-290.94071910311959
 30
0.0
 11
1.1711123148734259
 21
-290.94407046876358
 31
0.0
  0
LINE
  8
OUTLINE
  6
CONTINUOUS
 62
     3
 10
1.1711123148734259
 20
-290.94407046876358
 30
0.0
 11
1.1711123148734259
 21
-290.94407046876358
 31
0.0
  0
LINE
  8
OUTLINE
  6
CONTINUOUS
 62
     3
 10
1.1711123148734259
 20
-290.94407046876358
 30
0.0
 11
1.1617305549548289
 21
-290.94743731524272
 31
0.0
  0
LINE
  8
OUTLINE
  6
CONTINUOUS
 62
     3
 10
1.1617305549548289
 20
-290.94743731524272
 30
0.0
 11
1.152353661052985
 21
-290.95083156347908
 31
0.0
  0
LINE
  8
OUTLINE
  6
CONTINUOUS
 62
     3
 10
1.152353661052985
 20
-290.95083156347908
 30
0.0
 11
1.152353661052985
 21
-290.95083156347908
 31
0.0
  0
LINE
  8
OUTLINE
  6
CONTINUOUS
 62
     3
 10
1.152353661052985
 20
-290.95083156347908
 30
0.0
 11
1.142983266536248
 21
-290.95426119344802
 31
0.0
  0
LINE
  8
OUTLINE
  6
CONTINUOUS
 62
     3
 10
1.142983266536248
 20
-290.95426119344802
 30
0.0
 11
1.133618089043011
 21
-290.95771847196642
 31
0.0
  0
LINE
  8
OUTLINE
  6
CONTINUOUS
 62
     3
 10
1.133618089043011
 20
-290.95771847196642
 30
0.0
 11
1.133618089043011
 21
-290.95771847196642
 31
0.0
  0
LINE
  8
OUTLINE
  6
CONTINUOUS
 62
     3
 10
1.133618089043011
 20
-290.95771847196642
 30
0.0
 11
1.124256119323036
 21
-290.96119173665193
 31
0.0
  0
LINE
  8
OUTLINE
  6
CONTINUOUS
 62
     3
 10
1.124256119323036
 20
-290.96119173665193
 30
0.0
 11
1.1148953563001669
 21
-290.96466932148928
 31
0.0
  0
LINE
  8
OUTLINE
  6
CONTINUOUS
 62
     3
 10
1.1148953563001669
 20
-290.96466932148928
 30
0.0
 11
1.1148953563001669
 21
-290.96466932148928
 31
0.0
  0
LINE
  8
OUTLINE
  6
CONTINUOUS
 62
     3
 10
1.1148953563001669
 20
-290.96466932148928
 30
0.0
 11
1.1055338003925499
 21
-290.96813955979712
 31
0.0
  0
LINE
  8
OUTLINE
  6
CONTINUOUS
 62
     3
 10
1.1055338003925499
 20
-290.96813955979712
 30
0.0
 11
1.096169449828267
 21
-290.9715907858689
 31
0.0
  0
LINE
  8
OUTLINE
  6
CONTINUOUS
 62
     3
 10
1.096169449828267
 20
-290.9715907858689
 30
0.0
 11
1.096169449828267
 21
-290.9715907858689
 31
0.0
  0
LINE
  8
OUTLINE
  6
CONTINUOUS
 62
     3
 10
1.096169449828267
 20
-290.9715907858689
 30
0.0
 11
1.0868003024356769
 21
-290.97501133417461
 31
0.0
  0
LINE
  8
OUTLINE
  6
CONTINUOUS
 62
     3
 10
1.0868003024356769
 20
-290.97501133417461
 30
0.0
 11
1.077424356630218
 21
-290.97838953892449
 31
0.0
  0
LINE
  8
OUTLINE
  6
CONTINUOUS
 62
     3
 10
1.077424356630218
 20
-290.97838953892449
 30
0.0
 11
1.077424356630218
 21
-290.97838953892449
 31
0.0
  0
LINE
  8
OUTLINE
  6
CONTINUOUS
 62
     3
 10
1.077424356630218
 20
-290.97838953892449
 30
0.0
 11
1.068039610932829
 21
-290.98171373428102
 31
0.0
  0
LINE
  8
OUTLINE
  6
CONTINUOUS
 62
     3
 10
1.068039610932829
 20
-290.98171373428102
 30
0.0
 11
1.0586440637089249
 21
-290.9849722544767
 31
0.0
  0
LINE
  8
OUTLINE
  6
CONTINUOUS
 62
     3
 10
1.0586440637089249
 20
-290.9849722544767
 30
0.0
 11
1.0586440637089249
 21
-290.9849722544767
 31
0.0
  0
LINE
  8
OUTLINE
  6
CONTINUOUS
 62
     3
 10
1.0586440637089249
 20
-290.9849722544767
 30
0.0
 11
1.0492361926271769
 21
-290.98815620051482
 31
0.0
  0
LINE
  8
OUTLINE
  6
CONTINUOUS
 62
     3
 10
1.0492361926271769
 20
-290.98815620051482
 30
0.0
 11
1.039816392728881
 21
-290.99126774041679
 31
0.0
  0
LINE
  8
OUTLINE
  6
CONTINUOUS
 62
     3
 10
1.039816392728881
 20
-290.99126774041679
 30
0.0
 11
1.039816392728881
 21
-290.99126774041679
 31
0.0
  0
LINE
  8
OUTLINE
  6
CONTINUOUS
 62
     3
 10
1.039816392728881
 20
-290.99126774041679
 30
0.0
 11
1.030385538395876
 21
-290.99431180895863
 31
0.0
  0
LINE
  8
OUTLINE
  6
CONTINUOUS
 62
     3
 10
1.030385538395876
 20
-290.99431180895863
 30
0.0
 11
1.0209445039981799
 21
-290.99729334092081
 31
0.0
  0
LINE
  8
OUTLINE
  6
CONTINUOUS
 62
     3
 10
1.0209445039981799
 20
-290.99729334092081
 30
0.0
 11
1.0209445039981799
 21
-290.99729334092081
 31
0.0
  0
LINE
  8
OUTLINE
  6
CONTINUOUS
 62
     3
 10
1.0209445039981799
 20
-290.99729334092081
 30
0.0
 11
1.0114941639039901
 21
-291.00021727108572
 31
0.0
  0
LINE
  8
OUTLINE
  6
CONTINUOUS
 62
     3
 10
1.0114941639039901
 20
-291.00021727108572
 30
0.0
 11
1.0020353924846861
 21
-291.00308853423508
 31
0.0
  0
LINE
  8
OUTLINE
  6
CONTINUOUS
 62
     3
 10
1.0020353924846861
 20
-291.00308853423508
 30
0.0
 11
1.0020353924846861
 21
-291.00308853423508
 31
0.0
  0
LINE
  8
OUTLINE
  6
CONTINUOUS
 62
     3
 10
1.0020353924846861
 20
-291.00308853423508
 30
0.0
 11
0.9925690641125584
 21
-291.00591206514832
 31
0.0
  0
LINE
  8
OUTLINE
  6
CONTINUOUS
 62
     3
 10
0.9925690641125584
 20
-291.00591206514832
 30
0.0
 11
0.9830960531580786
 21
-291.00869279860672
 31
0.0
  0
LINE
  8
OUTLINE
  6
CONTINUOUS
 62
     3
 10
0.9830960531580786
 20
-291.00869279860672
 30
0.0
 11
0.9830960531580786
 21
-291.00869279860672
 31
0.0
  0
LINE
  8
OUTLINE
  6
CONTINUOUS
 62
     3
 10
0.9830960531580786
 20
-291.00869279860672
 30
0.0
 11
0.973617233992627
 21
-291.01143566939118
 31
0.0
  0
LINE
  8
OUTLINE
  6
CONTINUOUS
 62
     3
 10
0.973617233992627
 20
-291.01143566939118
 30
0.0
 11
0.9641334809866748
 21
-291.01414561228262
 31
0.0
  0
LINE
  8
OUTLINE
  6
CONTINUOUS
 62
     3
 10
0.9641334809866748
 20
-291.01414561228262
 30
0.0
 11
0.9641334809866748
 21
-291.01414561228262
 31
0.0
  0
LINE
  8
OUTLINE
  6
CONTINUOUS
 62
     3
 10
0.9641334809866748
 20
-291.01414561228262
 30
0.0
 11
0.9546456739662972
 21
-291.01682787770733
 31
0.0
  0
LINE
  8
OUTLINE
  6
CONTINUOUS
 62
     3
 10
0.9546456739662972
 20
-291.01682787770733
 30
0.0
 11
0.9451547145754375
 21
-291.01948897867169
 31
0.0
  0
LINE
  8
OUTLINE
  6
CONTINUOUS
 62
     3
 10
0.9451547145754375
 20
-291.01948897867169
 30
0.0
 11
0.9451547145754375
 21
-291.01948897867169
 31
0.0
  0
LINE
  8
OUTLINE
  6
CONTINUOUS
 62
     3
 10
0.9451547145754375
 20
-291.01948897867169
 30
0.0
 11
0.9356615099118244
 21
-291.02213574382631
 31
0.0
  0
LINE
  8
OUTLINE
  6
CONTINUOUS
 62
     3
 10
0.9356615099118244
 20
-291.02213574382631
 30
0.0
 11
0.9261669670745505
 21
-291.02477500182351
 31
0.0
  0
LINE
  8
OUTLINE
  6
CONTINUOUS
 62
     3
 10
0.9261669670745505
 20
-291.02477500182351
 30
0.0
 11
0.9261669670745505
 21
-291.02477500182351
 31
0.0
  0
LINE
  8
OUTLINE
  6
CONTINUOUS
 62
     3
 10
0.9261669670745505
 20
-291.02477500182351
 30
0.0
 11
0.9166719931613443
 21
-291.0274135813147
 31
0.0
  0
LINE
  8
OUTLINE
  6
CONTINUOUS
 62
     3
 10
0.9166719931613443
 20
-291.0274135813147
 30
0.0
 11
0.9071774952708438
 21
-291.0300583109514
 31
0.0
  0
LINE
  8
OUTLINE
  6
CONTINUOUS
 62
     3
 10
0.9071774952708438
 20
-291.0300583109514
 30
0.0
 11
0.9071774952708438
 21
-291.0300583109514
 31
0.0
  0
LINE
  8
OUTLINE
  6
CONTINUOUS
 62
     3
 10
0.9071774952708438
 20
-291.0300583109514
 30
0.0
 11
0.8976843805012322
 21
-291.03271601938479
 31
0.0
  0
LINE
  8
OUTLINE
  6
CONTINUOUS
 62
     3
 10
0.8976843805012322
 20
-291.03271601938479
 30
0.0
 11
0.8881935559502381
 21
-291.03539353526651
 31
0.0
  0
LINE
  8
OUTLINE
  6
CONTINUOUS
 62
     3
 10
0.8881935559502381
 20
-291.03539353526651
 30
0.0
 11
0.8881935559502381
 21
-291.03539353526651
 31
0.0
  0
LINE
  8
OUTLINE
  6
CONTINUOUS
 62
     3
 10
0.8881935559502381
 20
-291.03539353526651
 30
0.0
 11
0.8787059287178636
 21
-291.03809768724801
 31
0.0
  0
LINE
  8
OUTLINE
  6
CONTINUOUS
 62
     3
 10
0.8787059287178636
 20
-291.03809768724801
 30
0.0
 11
0.869222405900473
 21
-291.04083530398088
 31
0.0
  0
LINE
  8
OUTLINE
  6
CONTINUOUS
 62
     3
 10
0.869222405900473
 20
-291.04083530398088
 30
0.0
 11
0.869222405900473
 21
-291.04083530398088
 31
0.0
  0
LINE
  8
OUTLINE
  6
CONTINUOUS
 62
     3
 10
0.869222405900473
 20
-291.04083530398088
 30
0.0
 11
0.8597433934455694
 21
-291.0436091847763
 31
0.0
  0
LINE
  8
OUTLINE
  6
CONTINUOUS
 62
     3
 10
0.8597433934455694
 20
-291.0436091847763
 30
0.0
 11
0.8502672926929336
 21
-291.04640601158258
 31
0.0
  0
LINE
  8
OUTLINE
  6
CONTINUOUS
 62
     3
 10
0.8502672926929336
 20
-291.04640601158258
 30
0.0
 11
0.8502672926929336
 21
-291.04640601158258
 31
0.0
  0
LINE
  8
OUTLINE
  6
CONTINUOUS
 62
     3
 10
0.8502672926929336
 20
-291.04640601158258
 30
0.0
 11
0.8407920038303018
 21
-291.04920843700688
 31
0.0
  0
LINE
  8
OUTLINE
  6
CONTINUOUS
 62
     3
 10
0.8407920038303018
 20
-291.04920843700688
 30
0.0
 11
0.8313154270454106
 21
-291.05199911365781
 31
0.0
  0
LINE
  8
OUTLINE
  6
CONTINUOUS
 62
     3
 10
0.8313154270454106
 20
-291.05199911365781
 30
0.0
 11
0.8313154270454106
 21
-291.05199911365781
 31
0.0
  0
LINE
  8
OUTLINE
  6
CONTINUOUS
 62
     3
 10
0.8313154270454106
 20
-291.05199911365781
 30
0.0
 11
0.8218354625259963
 21
-291.05476069414289
 31
0.0
  0
LINE
  8
OUTLINE
  6
CONTINUOUS
 62
     3
 10
0.8218354625259963
 20
-291.05476069414289
 30
0.0
 11
0.8123500104597952
 21
-291.05747583107001
 31
0.0
  0
LINE
  8
OUTLINE
  6
CONTINUOUS
 62
     3
 10
0.8123500104597952
 20
-291.05747583107001
 30
0.0
 11
0.8123500104597952
 21
-291.05747583107001
 31
0.0
  0
LINE
  8
OUTLINE
  6
CONTINUOUS
 62
     3
 10
0.8123500104597952
 20
-291.05747583107001
 30
0.0
 11
0.8028569710349984
 21
-291.06012717704652
 31
0.0
  0
LINE
  8
OUTLINE
  6
CONTINUOUS
 62
     3
 10
0.8028569710349984
 20
-291.06012717704652
 30
0.0
 11
0.7933542444402519
 21
-291.0626973846812
 31
0.0
  0
LINE
  8
OUTLINE
  6
CONTINUOUS
 62
     3
 10
0.7933542444402519
 20
-291.0626973846812
 30
0.0
 11
0.7933542444402519
 21
-291.0626973846812
 31
0.0
  0
LINE
  8
OUTLINE
  6
CONTINUOUS
 62
     3
 10
0.7933542444402519
 20
-291.0626973846812
 30
0.0
 11
0.7838397308619278
 21
-291.06516910658081
 31
0.0
  0
LINE
  8
OUTLINE
  6
CONTINUOUS
 62
     3
 10
0.7838397308619278
 20
-291.06516910658081
 30
0.0
 11
0.774311330488672
 21
-291.06752499535389
 31
0.0
  0
LINE
  8
OUTLINE
  6
CONTINUOUS
 62
     3
 10
0.774311330488672
 20
-291.06752499535389
 30
0.0
 11
0.774311330488672
 21
-291.06752499535389
 31
0.0
  0
LINE
  8
OUTLINE
  6
CONTINUOUS
 62
     3
 10
0.774311330488672
 20
-291.06752499535389
 30
0.0
 11
0.7647676366686937
 21
-291.0697534874289
 31
0.0
  0
LINE
  8
OUTLINE
  6
CONTINUOUS
 62
     3
 10
0.7647676366686937
 20
-291.0697534874289
 30
0.0
 11
0.7552100153898209
 21
-291.07186615451798
 31
0.0
  0
LINE
  8
OUTLINE
  6
CONTINUOUS
 62
     3
 10
0.7552100153898209
 20
-291.07186615451798
 30
0.0
 11
0.7552100153898209
 21
-291.07186615451798
 31
0.0
  0
LINE
  8
OUTLINE
  6
CONTINUOUS
 62
     3
 10
0.7552100153898209
 20
-291.07186615451798
 30
0.0
 11
0.7456405257998995
 21
-291.07388035215422
 31
0.0
  0
LINE
  8
OUTLINE
  6
CONTINUOUS
 62
     3
 10
0.7456405257998995
 20
-291.07388035215422
 30
0.0
 11
0.7360612270481397
 21
-291.0758134358714
 31
0.0
  0
LINE
  8
OUTLINE
  6
CONTINUOUS
 62
     3
 10
0.7360612270481397
 20
-291.0758134358714
 30
0.0
 11
0.7360612270481397
 21
-291.0758134358714
 31
0.0
  0
LINE
  8
OUTLINE
  6
CONTINUOUS
 62
     3
 10
0.7360612270481397
 20
-291.0758134358714
 30
0.0
 11
0.7264741782819328
 21
-291.07768276120203
 31
0.0
  0
LINE
  8
OUTLINE
  6
CONTINUOUS
 62
     3
 10
0.7264741782819328
 20
-291.07768276120203
 30
0.0
 11
0.7168814386491249
 21
-291.0795056836796
 31
0.0
  0
LINE
  8
OUTLINE
  6
CONTINUOUS
 62
     3
 10
0.7168814386491249
 20
-291.0795056836796
 30
0.0
 11
0.7168814386491249
 21
-291.0795056836796
 31
0.0
  0
LINE
  8
OUTLINE
  6
CONTINUOUS
 62
     3
 10
0.7168814386491249
 20
-291.0795056836796
 30
0.0
 11
0.7072850672984714
 21
-291.08129955883692
 31
0.0
  0
LINE
  8
OUTLINE
  6
CONTINUOUS
 62
     3
 10
0.7072850672984714
 20
-291.08129955883692
 30
0.0
 11
0.6976871233787279
 21
-291.08308174220781
 31
0.0
  0
LINE
  8
OUTLINE
  6
CONTINUOUS
 62
     3
 10
0.6976871233787279
 20
-291.08308174220781
 30
0.0
 11
0.6976871233787279
 21
-291.08308174220781
 31
0.0
  0
LINE
  8
OUTLINE
  6
CONTINUOUS
 62
     3
 10
0.6976871233787279
 20
-291.08308174220781
 30
0.0
 11
0.6880896660372855
 21
-291.08486958932463
 31
0.0
  0
LINE
  8
OUTLINE
  6
CONTINUOUS
 62
     3
 10
0.6880896660372855
 20
-291.08486958932463
 30
0.0
 11
0.6784947544228999
 21
-291.08668045572119
 31
0.0
  0
LINE
  8
OUTLINE
  6
CONTINUOUS
 62
     3
 10
0.6784947544228999
 20
-291.08668045572119
 30
0.0
 11
0.6784947544228999
 21
-291.08668045572119
 31
0.0
  0
LINE
  8
OUTLINE
  6
CONTINUOUS
 62
     3
 10
0.6784947544228999
 20
-291.08668045572119
 30
0.0
 11
0.6689039871957903
 21
-291.08852765944971
 31
0.0
  0
LINE
  8
OUTLINE
  6
CONTINUOUS
 62
     3
 10
0.6689039871957903
 20
-291.08852765944971
 30
0.0
 11
0.6593171210683977
 21
-291.0904083686371
 31
0.0
  0
LINE
  8
OUTLINE
  6
CONTINUOUS
 62
     3
 10
0.6593171210683977
 20
-291.0904083686371
 30
0.0
 11
0.6593171210683977
 21
-291.0904083686371
 31
0.0
  0
LINE
  8
OUTLINE
  6
CONTINUOUS
 62
     3
 10
0.6593171210683977
 20
-291.0904083686371
 30
0.0
 11
0.6497334522655365
 21
-291.09231571392888
 31
0.0
  0
LINE
  8
OUTLINE
  6
CONTINUOUS
 62
     3
 10
0.6497334522655365
 20
-291.09231571392888
 30
0.0
 11
0.6401522770106567
 21
-291.09424282597229
 31
0.0
  0
LINE
  8
OUTLINE
  6
CONTINUOUS
 62
     3
 10
0.6401522770106567
 20
-291.09424282597229
 30
0.0
 11
0.6401522770106567
 21
-291.09424282597229
 31
0.0
  0
LINE
  8
OUTLINE
  6
CONTINUOUS
 62
     3
 10
0.6401522770106567
 20
-291.09424282597229
 30
0.0
 11
0.6305728915285727
 21
-291.09618283541317
 31
0.0
  0
LINE
  8
OUTLINE
  6
CONTINUOUS
 62
     3
 10
0.6305728915285727
 20
-291.09618283541317
 30
0.0
 11
0.6209945920445534
 21
-291.0981288728982
 31
0.0
  0
LINE
  8
OUTLINE
  6
CONTINUOUS
 62
     3
 10
0.6209945920445534
 20
-291.0981288728982
 30
0.0
 11
0.6209945920445534
 21
-291.0981288728982
 31
0.0
  0
LINE
  8
OUTLINE
  6
CONTINUOUS
 62
     3
 10
0.6209945920445534
 20
-291.0981288728982
 30
0.0
 11
0.6114166747825038
 21
-291.10007406907238
 31
0.0
  0
LINE
  8
OUTLINE
  6
CONTINUOUS
 62
     3
 10
0.6114166747825038
 20
-291.10007406907238
 30
0.0
 11
0.6018384359667834
 21
-291.10201155458287
 31
0.0
  0
LINE
  8
OUTLINE
  6
CONTINUOUS
 62
     3
 10
0.6018384359667834
 20
-291.10201155458287
 30
0.0
 11
0.6018384359667834
 21
-291.10201155458287
 31
0.0
  0
LINE
  8
OUTLINE
  6
CONTINUOUS
 62
     3
 10
0.6018384359667834
 20
-291.10201155458287
 30
0.0
 11
0.5922591718226613
 21
-291.10393446007561
 31
0.0
  0
LINE
  8
OUTLINE
  6
CONTINUOUS
 62
     3
 10
0.5922591718226613
 20
-291.10393446007561
 30
0.0
 11
0.5826781785735875
 21
-291.10583591619729
 31
0.0
  0
LINE
  8
OUTLINE
  6
CONTINUOUS
 62
     3
 10
0.5826781785735875
 20
-291.10583591619729
 30
0.0
 11
0.5826781785735875
 21
-291.10583591619729
 31
0.0
  0
LINE
  8
OUTLINE
  6
CONTINUOUS
 62
     3
 10
0.5826781785735875
 20
-291.10583591619729
 30
0.0
 11
0.5730947934998767
 21
-291.10770935414388
 31
0.0
  0
LINE
  8
OUTLINE
  6
CONTINUOUS
 62
     3
 10
0.5730947934998767
 20
-291.10770935414388
 30
0.0
 11
0.5635085181006616
 21
-291.10954940731523
 31
0.0
  0
LINE
  8
OUTLINE
  6
CONTINUOUS
 62
     3
 10
0.5635085181006616
 20
-291.10954940731523
 30
0.0
 11
0.5635085181006616
 21
-291.10954940731523
 31
0.0
  0
LINE
  8
OUTLINE
  6
CONTINUOUS
 62
     3
 10
0.5635085181006616
 20
-291.10954940731523
 30
0.0
 11
0.5539188949314848
 21
-291.11135100966038
 31
0.0
  0
LINE
  8
OUTLINE
  6
CONTINUOUS
 62
     3
 10
0.5539188949314848
 20
-291.11135100966038
 30
0.0
 11
0.54432546654607
 21
-291.11310909513008
 31
0.0
  0
LINE
  8
OUTLINE
  6
CONTINUOUS
 62
     3
 10
0.54432546654607
 20
-291.11310909513008
 30
0.0
 11
0.54432546654607
 21
-291.11310909513008
 31
0.0
  0
LINE
  8
OUTLINE
  6
CONTINUOUS
 62
     3
 10
0.54432546654607
 20
-291.11310909513008
 30
0.0
 11
0.53472777549905
 21
-291.11481859767349
 31
0.0
  0
LINE
  8
OUTLINE
  6
CONTINUOUS
 62
     3
 10
0.53472777549905
 20
-291.11481859767349
 30
0.0
 11
0.5251253643468772
 21
-291.11647445124089
 31
0.0
  0
LINE
  8
OUTLINE
  6
CONTINUOUS
 62
     3
 10
0.5251253643468772
 20
-291.11647445124089
 30
0.0
 11
0.5251253643468772
 21
-291.11647445124089
 31
0.0
  0
LINE
  8
OUTLINE
  6
CONTINUOUS
 62
     3
 10
0.5251253643468772
 20
-291.11647445124089
 30
0.0
 11
0.5155177756437297
 21
-291.11807158978138
 31
0.0
  0
LINE
  8
OUTLINE
  6
CONTINUOUS
 62
     3
 10
0.5155177756437297
 20
-291.11807158978138
 30
0.0
 11
0.5059045519410574
 21
-291.11960494724542
 31
0.0
  0
LINE
  8
OUTLINE
  6
CONTINUOUS
 62
     3
 10
0.5059045519410574
 20
-291.11960494724542
 30
0.0
 11
0.5059045519410574
 21
-291.11960494724542
 31
0.0
  0
LINE
  8
OUTLINE
  6
CONTINUOUS
 62
     3
 10
0.5059045519410574
 20
-291.11960494724542
 30
0.0
 11
0.4962852357939482
 21
-291.12106945758228
 31
0.0
  0
LINE
  8
OUTLINE
  6
CONTINUOUS
 62
     3
 10
0.4962852357939482
 20
-291.12106945758228
 30
0.0
 11
0.4866593697670396
 21
-291.12246005474208
 31
0.0
  0
LINE
  8
OUTLINE
  6
CONTINUOUS
 62
     3
 10
0.4866593697670396
 20
-291.12246005474208
 30
0.0
 11
0.4866593697670396
 21
-291.12246005474208
 31
0.0
  0
LINE
  8
OUTLINE
  6
CONTINUOUS
 62
     3
 10
0.4866593697670396
 20
-291.12246005474208
 30
0.0
 11
0.477026792686047
 21
-291.12377450795219
 31
0.0
  0
LINE
  8
OUTLINE
  6
CONTINUOUS
 62
     3
 10
0.477026792686047
 20
-291.12377450795219
 30
0.0
 11
0.4673885284009884
 21
-291.12502192755733
 31
0.0
  0
LINE
  8
OUTLINE
  6
CONTINUOUS
 62
     3
 10
0.4673885284009884
 20
-291.12502192755733
 30
0.0
 11
0.4673885284009884
 21
-291.12502192755733
 31
0.0
  0
LINE
  8
OUTLINE
  6
CONTINUOUS
 62
     3
 10
0.4673885284009884
 20
-291.12502192755733
 30
0.0
 11
0.457745897060704
 21
-291.12621425917769
 31
0.0
  0
LINE
  8
OUTLINE
  6
CONTINUOUS
 62
     3
 10
0.457745897060704
 20
-291.12621425917769
 30
0.0
 11
0.4481002189804713
 21
-291.12736344842688
 31
0.0
  0
LINE
  8
OUTLINE
  6
CONTINUOUS
 62
     3
 10
0.4481002189804713
 20
-291.12736344842688
 30
0.0
 11
0.4481002189804713
 21
-291.12736344842688
 31
0.0
  0
LINE
  8
OUTLINE
  6
CONTINUOUS
 62
     3
 10
0.4481002189804713
 20
-291.12736344842688
 30
0.0
 11
0.4384528143618809
 21
-291.12848144092311
 31
0.0
  0
LINE
  8
OUTLINE
  6
CONTINUOUS
 62
     3
 10
0.4384528143618809
 20
-291.12848144092311
 30
0.0
 11
0.4288050027817008
 21
-291.1295801823137
 31
0.0
  0
LINE
  8
OUTLINE
  6
CONTINUOUS
 62
     3
 10
0.4288050027817008
 20
-291.1295801823137
 30
0.0
 11
0.4288050027817008
 21
-291.1295801823137
 31
0.0
  0
LINE
  8
OUTLINE
  6
CONTINUOUS
 62
     3
 10
0.4288050027817008
 20
-291.1295801823137
 30
0.0
 11
0.4191581042450707
 21
-291.13067161822482
 31
0.0
  0
LINE
  8
OUTLINE
  6
CONTINUOUS
 62
     3
 10
0.4191581042450707
 20
-291.13067161822482
 30
0.0
 11
0.4095134410808896
 21
-291.13176769418033
 31
0.0
  0
LINE
  8
OUTLINE
  6
CONTINUOUS
 62
     3
 10
0.4095134410808896
 20
-291.13176769418033
 30
0.0
 11
0.4095134410808896
 21
-291.13176769418033
 31
0.0
  0
LINE
  8
OUTLINE
  6
CONTINUOUS
 62
     3
 10
0.4095134410808896
 20
-291.13176769418033
 30
0.0
 11
0.3998723340300785
 21
-291.13288035577489
 31
0.0
  0
LINE
  8
OUTLINE
  6
CONTINUOUS
 62
     3
 10
0.3998723340300785
 20
-291.13288035577489
 30
0.0
 11
0.3902360951547053
 21
-291.13402154899092
 31
0.0
  0
LINE
  8
OUTLINE
  6
CONTINUOUS
 62
     3
 10
0.3902360951547053
 20
-291.13402154899092
 30
0.0
 11
0.3902360951547053
 21
-291.13402154899092
 31
0.0
  0
LINE
  8
OUTLINE
  6
CONTINUOUS
 62
     3
 10
0.3902360951547053
 20
-291.13402154899092
 30
0.0
 11
0.3806054230180962
 21
-291.13519917184829
 31
0.0
  0
LINE
  8
OUTLINE
  6
CONTINUOUS
 62
     3
 10
0.3806054230180962
 20
-291.13519917184829
 30
0.0
 11
0.3709785708661002
 21
-291.13640493012542
 31
0.0
  0
LINE
  8
OUTLINE
  6
CONTINUOUS
 62
     3
 10
0.3709785708661002
 20
-291.13640493012542
 30
0.0
 11
0.3709785708661002
 21
-291.13640493012542
 31
0.0
  0
LINE
  8
OUTLINE
  6
CONTINUOUS
 62
     3
 10
0.3709785708661002
 20
-291.13640493012542
 30
0.0
 11
0.3613531503960985
 21
-291.1376264828923
 31
0.0
  0
LINE
  8
OUTLINE
  6
CONTINUOUS
 62
     3
 10
0.3613531503960985
 20
-291.1376264828923
 30
0.0
 11
0.3517266524268052
 21
-291.13885149463101
 31
0.0
  0
LINE
  8
OUTLINE
  6
CONTINUOUS
 62
     3
 10
0.3517266524268052
 20
-291.13885149463101
 30
0.0
 11
0.3517266524268052
 21
-291.13885149463101
 31
0.0
  0
LINE
  8
OUTLINE
  6
CONTINUOUS
 62
     3
 10
0.3517266524268052
 20
-291.13885149463101
 30
0.0
 11
0.3420966503385898
 21
-291.14006762612769
 31
0.0
  0
LINE
  8
OUTLINE
  6
CONTINUOUS
 62
     3
 10
0.3420966503385898
 20
-291.14006762612769
 30
0.0
 11
0.332461168635291
 21
-291.14126251797302
 31
0.0
  0
LINE
  8
OUTLINE
  6
CONTINUOUS
 62
     3
 10
0.332461168635291
 20
-291.14126251797302
 30
0.0
 11
0.332461168635291
 21
-291.14126251797302
 31
0.0
  0
LINE
  8
OUTLINE
  6
CONTINUOUS
 62
     3
 10
0.332461168635291
 20
-291.14126251797302
 30
0.0
 11
0.32281792369713
 21
-291.14242382455092
 31
0.0
  0
LINE
  8
OUTLINE
  6
CONTINUOUS
 62
     3
 10
0.32281792369713
 20
-291.14242382455092
 30
0.0
 11
0.313162948290028
 21
-291.14353927561518
 31
0.0
  0
LINE
  8
OUTLINE
  6
CONTINUOUS
 62
     3
 10
0.313162948290028
 20
-291.14353927561518
 30
0.0
 11
0.313162948290028
 21
-291.14353927561518
 31
0.0
  0
LINE
  8
OUTLINE
  6
CONTINUOUS
 62
     3
 10
0.313162948290028
 20
-291.14353927561518
 30
0.0
 11
0.3034934251099912
 21
-291.14459654944062
 31
0.0
  0
LINE
  8
OUTLINE
  6
CONTINUOUS
 62
     3
 10
0.3034934251099912
 20
-291.14459654944062
 30
0.0
 11
0.2938128201899417
 21
-291.14558304302273
 31
0.0
  0
LINE
  8
OUTLINE
  6
CONTINUOUS
 62
     3
 10
0.2938128201899417
 20
-291.14558304302273
 30
0.0
 11
0.2938128201899417
 21
-291.14558304302273
 31
0.0
  0
LINE
  8
OUTLINE
  6
CONTINUOUS
 62
     3
 10
0.2938128201899417
 20
-291.14558304302273
 30
0.0
 11
0.2841209491825794
 21
-291.14648955219508
 31
0.0
  0
LINE
  8
OUTLINE
  6
CONTINUOUS
 62
     3
 10
0.2841209491825794
 20
-291.14648955219508
 30
0.0
 11
0.2743967428878022
 21
-291.14732074942162
 31
0.0
  0
LINE
  8
OUTLINE
  6
CONTINUOUS
 62
     3
 10
0.2743967428878022
 20
-291.14732074942162
 30
0.0
 11
0.2743967428878022
 21
-291.14732074942162
 31
0.0
  0
LINE
  8
OUTLINE
  6
CONTINUOUS
 62
     3
 10
0.2743967428878022
 20
-291.14732074942162
 30
0.0
 11
0.2646357897888265
 21
-291.1480837968943
 31
0.0
  0
LINE
  8
OUTLINE
  6
CONTINUOUS
 62
     3
 10
0.2646357897888265
 20
-291.1480837968943
 30
0.0
 11
0.2549211939558518
 21
-291.14878193908021
 31
0.0
  0
LINE
  8
OUTLINE
  6
CONTINUOUS
 62
     3
 10
0.2549211939558518
 20
-291.14878193908021
 30
0.0
 11
0.2549211939558518
 21
-291.14878193908021
 31
0.0
  0
LINE
  8
OUTLINE
  6
CONTINUOUS
 62
     3
 10
0.2549211939558518
 20
-291.14878193908021
 30
0.0
 11
0.2452762852012711
 21
-291.14942109630192
 31
0.0
  0
LINE
  8
OUTLINE
  6
CONTINUOUS
 62
     3
 10
0.2452762852012711
 20
-291.14942109630192
 30
0.0
 11
0.2353977807201773
 21
-291.15002181003018
 31
0.0
  0
LINE
  8
OUTLINE
  6
CONTINUOUS
 62
     3
 10
0.2353977807201773
 20
-291.15002181003018
 30
0.0
 11
0.2353977807201773
 21
-291.15002181003018
 31
0.0
  0
LINE
  8
OUTLINE
  6
CONTINUOUS
 62
     3
 10
0.2353977807201773
 20
-291.15002181003018
 30
0.0
 11
0.2252054782748019
 21
-291.15059463530622
 31
0.0
  0
LINE
  8
OUTLINE
  6
CONTINUOUS
 62
     3
 10
0.2252054782748019
 20
-291.15059463530622
 30
0.0
 11
0.2158381105082299
 21
-291.15109556030143
 31
0.0
  0
LINE
  8
OUTLINE
  6
CONTINUOUS
 62
     3
 10
0.2158381105082299
 20
-291.15109556030143
 30
0.0
 11
0.2158381105082299
 21
-291.15109556030143
 31
0.0
  0
LINE
  8
OUTLINE
  6
CONTINUOUS
 62
     3
 10
0.2158381105082299
 20
-291.15109556030143
 30
0.0
 11
0.2076018620559807
 21
-291.15151784305152
 31
0.0
  0
LINE
  8
OUTLINE
  6
CONTINUOUS
 62
     3
 10
0.2076018620559807
 20
-291.15151784305152
 30
0.0
 11
0.1962537906451871
 21
-291.15205838792548
 31
0.0
  0
LINE
  8
OUTLINE
  6
CONTINUOUS
 62
     3
 10
0.1962537906451871
 20
-291.15205838792548
 30
0.0
 11
0.1962537906451871
 21
-291.15205838792548
 31
0.0
  0
LINE
  8
OUTLINE
  6
CONTINUOUS
 62
     3
 10
0.1962537906451871
 20
-291.15205838792548
 30
0.0
 11
0.1782066073192254
 21
-291.15288052175578
 31
0.0
  0
LINE
  8
OUTLINE
  6
CONTINUOUS
 62
     3
 10
0.1782066073192254
 20
-291.15288052175578
 30
0.0
 11
0.1570447633030199
 21
-291.15380961489922
 31
0.0
  0
LINE
  8
OUTLINE
  6
CONTINUOUS
 62
     3
 10
0.1570447633030199
 20
-291.15380961489922
 30
0.0
 11
0.1570447633030199
 21
-291.15380961489922
 31
0.0
  0
LINE
  8
OUTLINE
  6
CONTINUOUS
 62
     3
 10
0.1570447633030199
 20
-291.15380961489922
 30
0.0
 11
0.1370097172612077
 21
-291.15464312469942
 31
0.0
  0
LINE
  8
OUTLINE
  6
CONTINUOUS
 62
     3
 10
0.1370097172612077
 20
-291.15464312469942
 30
0.0
 11
0.1177992174448264
 21
-291.15540481293368
 31
0.0
  0
LINE
  8
OUTLINE
  6
CONTINUOUS
 62
     3
 10
0.1177992174448264
 20
-291.15540481293368
 30
0.0
 11
0.1177992174448264
 21
-291.15540481293368
 31
0.0
  0
LINE
  8
OUTLINE
  6
CONTINUOUS
 62
     3
 10
0.1177992174448264
 20
-291.15540481293368
 30
0.0
 11
0.0982792925965441
 21
-291.15615961440108
 31
0.0
  0
LINE
  8
OUTLINE
  6
CONTINUOUS
 62
     3
 10
0.0982792925965441
 20
-291.15615961440108
 30
0.0
 11
0.0785328038518855
 21
-291.15691085156038
 31
0.0
  0
LINE
  8
OUTLINE
  6
CONTINUOUS
 62
     3
 10
0.0785328038518855
 20
-291.15691085156038
 30
0.0
 11
0.0785328038518855
 21
-291.15691085156038
 31
0.0
  0
LINE
  8
OUTLINE
  6
CONTINUOUS
 62
     3
 10
0.0785328038518855
 20
-291.15691085156038
 30
0.0
 11
0.0588659156555877
 21
-291.15765148001719
 31
0.0
  0
LINE
  8
OUTLINE
  6
CONTINUOUS
 62
     3
 10
0.0588659156555877
 20
-291.15765148001719
 30
0.0
 11
0.0392611733027479
 21
-291.1583946003085
 31
0.0
  0
LINE
  8
OUTLINE
  6
CONTINUOUS
 62
     3
 10
0.0392611733027479
 20
-291.1583946003085
 30
0.0
 11
0.0392611733027479
 21
-291.1583946003085
 31
0.0
  0
LINE
  8
OUTLINE
  6
CONTINUOUS
 62
     3
 10
0.0392611733027479
 20
-291.1583946003085
 30
0.0
 11
0.0196396283527065
 21
-291.15915360735772
 31
0.0
  0
LINE
  8
OUTLINE
  6
CONTINUOUS
 62
     3
 10
0.0196396283527065
 20
-291.15915360735772
 30
0.0
 11
-0.0000000234217623
 21
-291.15992292870919
 31
0.0
  0
LINE
  8
OUTLINE
  6
CONTINUOUS
 62
     3
 10
0.0
 20
-291.15992292870919
 30
0.0
 11
-0.0193569623893382
 21
-291.15917584720592
 31
0.0
  0
LINE
  8
OUTLINE
  6
CONTINUOUS
 62
     3
 10
-0.0193569623893382
 20
-291.15917584720592
 30
0.0
 11
-0.0386942322547839
 21
-291.15843905847032
 31
0.0
  0
LINE
  8
OUTLINE
  6
CONTINUOUS
 62
     3
 10
-0.0386942322547839
 20
-291.15843905847032
 30
0.0
 11
-0.0386942322547839
 21
-291.15843905847032
 31
0.0
  0
LINE
  8
OUTLINE
  6
CONTINUOUS
 62
     3
 10
-0.0386942322547839
 20
-291.15843905847032
 30
0.0
 11
-0.0580120140684812
 21
-291.15771813583609
 31
0.0
  0
LINE
  8
OUTLINE
  6
CONTINUOUS
 62
     3
 10
-0.0580120140684812
 20
-291.15771813583609
 30
0.0
 11
-0.0773901002853563
 21
-291.15699977490402
 31
0.0
  0
LINE
  8
OUTLINE
  6
CONTINUOUS
 62
     3
 10
-0.0773901002853563
 20
-291.15699977490402
 30
0.0
 11
-0.0773901002853563
 21
-291.15699977490402
 31
0.0
  0
LINE
  8
OUTLINE
  6
CONTINUOUS
 62
     3
 10
-0.0773901002853563
 20
-291.15699977490402
 30
0.0
 11
-0.0968480812016423
 21
-291.15627089625292
 31
0.0
  0
LINE
  8
OUTLINE
  6
CONTINUOUS
 62
     3
 10
-0.0968480812016423
 20
-291.15627089625292
 30
0.0
 11
-0.1160851504973834
 21
-291.15553819811407
 31
0.0
  0
LINE
  8
OUTLINE
  6
CONTINUOUS
 62
     3
 10
-0.1160851504973834
 20
-291.15553819811407
 30
0.0
 11
-0.1160851504973834
 21
-291.15553819811407
 31
0.0
  0
LINE
  8
OUTLINE
  6
CONTINUOUS
 62
     3
 10
-0.1160851504973834
 20
-291.15553819811407
 30
0.0
 11
-0.1350209023194111
 21
-291.15479826491242
 31
0.0
  0
LINE
  8
OUTLINE
  6
CONTINUOUS
 62
     3
 10
-0.1350209023194111
 20
-291.15479826491242
 30
0.0
 11
-0.1547769292965313
 21
-291.15398744820618
 31
0.0
  0
LINE
  8
OUTLINE
  6
CONTINUOUS
 62
     3
 10
-0.1547769292965313
 20
-291.15398744820618
 30
0.0
 11
-0.1547769292965313
 21
-291.15398744820618
 31
0.0
  0
LINE
  8
OUTLINE
  6
CONTINUOUS
 62
     3
 10
-0.1547769292965313
 20
-291.15398744820618
 30
0.0
 11
-0.1756534243490933
 21
-291.15308232979112
 31
0.0
  0
LINE
  8
OUTLINE
  6
CONTINUOUS
 62
     3
 10
-0.1756534243490933
 20
-291.15308232979112
 30
0.0
 11
-0.1934629830871017
 21
-291.1522806452856
 31
0.0
  0
LINE
  8
OUTLINE
  6
CONTINUOUS
 62
     3
 10
-0.1934629830871017
 20
-291.1522806452856
 30
0.0
 11
-0.1934629830871017
 21
-291.1522806452856
 31
0.0
  0
LINE
  8
OUTLINE
  6
CONTINUOUS
 62
     3
 10
-0.1934629830871017
 20
-291.1522806452856
 30
0.0
 11
-0.2046661361973747
 21
-291.15175296151477
 31
0.0
  0
LINE
  8
OUTLINE
  6
CONTINUOUS
 62
     3
 10
-0.2046661361973747
 20
-291.15175296151477
 30
0.0
 11
-0.2128027519902389
 21
-291.15134001630707
 31
0.0
  0
LINE
  8
OUTLINE
  6
CONTINUOUS
 62
     3
 10
-0.2128027519902389
 20
-291.15134001630707
 30
0.0
 11
-0.2128027519902389
 21
-291.15134001630707
 31
0.0
  0
LINE
  8
OUTLINE
  6
CONTINUOUS
 62
     3
 10
-0.2128027519902389
 20
-291.15134001630707
 30
0.0
 11
-0.2220603982909779
 21
-291.15084971326593
 31
0.0
  0
LINE
  8
OUTLINE
  6
CONTINUOUS
 62
     3
 10
-0.2220603982909779
 20
-291.15084971326593
 30
0.0
 11
-0.2321381033480066
 21
-291.15028844808762
 31
0.0
  0
LINE
  8
OUTLINE
  6
CONTINUOUS
 62
     3
 10
-0.2321381033480066
 20
-291.15028844808762
 30
0.0
 11
-0.2321381033480066
 21
-291.15028844808762
 31
0.0
  0
LINE
  8
OUTLINE
  6
CONTINUOUS
 62
     3
 10
-0.2321381033480066
 20
-291.15028844808762
 30
0.0
 11
-0.2419134356568975
 21
-291.14969894304448
 31
0.0
  0
LINE
  8
OUTLINE
  6
CONTINUOUS
 62
     3
 10
-0.2419134356568975
 20
-291.14969894304448
 30
0.0
 11
-0.2514666642655357
 21
-291.14907073461251
 31
0.0
  0
LINE
  8
OUTLINE
  6
CONTINUOUS
 62
     3
 10
-0.2514666642655357
 20
-291.14907073461251
 30
0.0
 11
-0.2514666642655357
 21
-291.14907073461251
 31
0.0
  0
LINE
  8
OUTLINE
  6
CONTINUOUS
 62
     3
 10
-0.2514666642655357
 20
-291.14907073461251
 30
0.0
 11
-0.2610981677007658
 21
-291.14838362558959
 31
0.0
  0
LINE
  8
OUTLINE
  6
CONTINUOUS
 62
     3
 10
-0.2610981677007658
 20
-291.14838362558959
 30
0.0
 11
-0.2707860618475024
 21
-291.14763166986711
 31
0.0
  0
LINE
  8
OUTLINE
  6
CONTINUOUS
 62
     3
 10
-0.2707860618475024
 20
-291.14763166986711
 30
0.0
 11
-0.2707860618475024
 21
-291.14763166986711
 31
0.0
  0
LINE
  8
OUTLINE
  6
CONTINUOUS
 62
     3
 10
-0.2707860618475024
 20
-291.14763166986711
 30
0.0
 11
-0.2804494844331202
 21
-291.14681152946582
 31
0.0
  0
LINE
  8
OUTLINE
  6
CONTINUOUS
 62
     3
 10
-0.2804494844331202
 20
-291.14681152946582
 30
0.0
 11
-0.2900939231999473
 21
-291.14591604783772
 31
0.0
  0
LINE
  8
OUTLINE
  6
CONTINUOUS
 62
     3
 10
-0.2900939231999473
 20
-291.14591604783772
 30
0.0
 11
-0.2900939231999473
 21
-291.14591604783772
 31
0.0
  0
LINE
  8
OUTLINE
  6
CONTINUOUS
 62
     3
 10
-0.2900939231999473
 20
-291.14591604783772
 30
0.0
 11
-0.299740815664336
 21
-291.14494057676018
 31
0.0
  0
LINE
  8
OUTLINE
  6
CONTINUOUS
 62
     3
 10
-0.299740815664336
 20
-291.14494057676018
 30
0.0
 11
-0.3093890484292388
 21
-291.14389431987581
 31
0.0
  0
LINE
  8
OUTLINE
  6
CONTINUOUS
 62
     3
 10
-0.3093890484292388
 20
-291.14389431987581
 30
0.0
 11
-0.3093890484292388
 21
-291.14389431987581
 31
0.0
  0
LINE
  8
OUTLINE
  6
CONTINUOUS
 62
     3
 10
-0.3093890484292388
 20
-291.14389431987581
 30
0.0
 11
-0.3190334202795384
 21
-291.14278987525222
 31
0.0
  0
LINE
  8
OUTLINE
  6
CONTINUOUS
 62
     3
 10
-0.3190334202795384
 20
-291.14278987525222
 30
0.0
 11
-0.3286749296535163
 21
-291.14163956679658
 31
0.0
  0
LINE
  8
OUTLINE
  6
CONTINUOUS
 62
     3
 10
-0.3286749296535163
 20
-291.14163956679658
 30
0.0
 11
-0.3286749296535163
 21
-291.14163956679658
 31
0.0
  0
LINE
  8
OUTLINE
  6
CONTINUOUS
 62
     3
 10
-0.3286749296535163
 20
-291.14163956679658
 30
0.0
 11
-0.3383157096036484
 21
-291.14045566824137
 31
0.0
  0
LINE
  8
OUTLINE
  6
CONTINUOUS
 62
     3
 10
-0.3383157096036484
 20
-291.14045566824137
 30
0.0
 11
-0.3479562319917022
 21
-291.13925052678093
 31
0.0
  0
LINE
  8
OUTLINE
  6
CONTINUOUS
 62
     3
 10
-0.3479562319917022
 20
-291.13925052678093
 30
0.0
 11
-0.3479562319917022
 21
-291.13925052678093
 31
0.0
  0
LINE
  8
OUTLINE
  6
CONTINUOUS
 62
     3
 10
-0.3479562319917022
 20
-291.13925052678093
 30
0.0
 11
-0.3575966646585584
 21
-291.13803650305198
 31
0.0
  0
LINE
  8
OUTLINE
  6
CONTINUOUS
 62
     3
 10
-0.3575966646585584
 20
-291.13803650305198
 30
0.0
 11
-0.3672376205627188
 21
-291.13682593800991
 31
0.0
  0
LINE
  8
OUTLINE
  6
CONTINUOUS
 62
     3
 10
-0.3672376205627188
 20
-291.13682593800991
 30
0.0
 11
-0.3672376205627188
 21
-291.13682593800991
 31
0.0
  0
LINE
  8
OUTLINE
  6
CONTINUOUS
 62
     3
 10
-0.3672376205627188
 20
-291.13682593800991
 30
0.0
 11
-0.3768797941220328
 21
-291.13563116900502
 31
0.0
  0
LINE
  8
OUTLINE
  6
CONTINUOUS
 62
     3
 10
-0.3768797941220328
 20
-291.13563116900502
 30
0.0
 11
-0.3865237604868526
 21
-291.13446453866482
 31
0.0
  0
LINE
  8
OUTLINE
  6
CONTINUOUS
 62
     3
 10
-0.3865237604868526
 20
-291.13446453866482
 30
0.0
 11
-0.3865237604868526
 21
-291.13446453866482
 31
0.0
  0
LINE
  8
OUTLINE
  6
CONTINUOUS
 62
     3
 10
-0.3865237604868526
 20
-291.13446453866482
 30
0.0
 11
-0.3961698375687774
 21
-291.13333434238922
 31
0.0
  0
LINE
  8
OUTLINE
  6
CONTINUOUS
 62
     3
 10
-0.3961698375687774
 20
-291.13333434238922
 30
0.0
 11
-0.4058174335891636
 21
-291.13223268140558
 31
0.0
  0
LINE
  8
OUTLINE
  6
CONTINUOUS
 62
     3
 10
-0.4058174335891636
 20
-291.13223268140558
 30
0.0
 11
-0.4058174335891636
 21
-291.13223268140558
 31
0.0
  0
LINE
  8
OUTLINE
  6
CONTINUOUS
 62
     3
 10
-0.4058174335891636
 20
-291.13223268140558
 30
0.0
 11
-0.4154657272074473
 21
-291.1311476084926
 31
0.0
  0
LINE
  8
OUTLINE
  6
CONTINUOUS
 62
     3
 10
-0.4154657272074473
 20
-291.1311476084926
 30
0.0
 11
-0.4251138885192631
 21
-291.13006717680759
 31
0.0
  0
LINE
  8
OUTLINE
  6
CONTINUOUS
 62
     3
 10
-0.4251138885192631
 20
-291.13006717680759
 30
0.0
 11
-0.4251138885192631
 21
-291.13006717680759
 31
0.0
  0
LINE
  8
OUTLINE
  6
CONTINUOUS
 62
     3
 10
-0.4251138885192631
 20
-291.13006717680759
 30
0.0
 11
-0.4347610860531859
 21
-291.1289794395766
 31
0.0
  0
LINE
  8
OUTLINE
  6
CONTINUOUS
 62
     3
 10
-0.4347610860531859
 20
-291.1289794395766
 30
0.0
 11
-0.4444064906319909
 21
-291.12787244992433
 31
0.0
  0
LINE
  8
OUTLINE
  6
CONTINUOUS
 62
     3
 10
-0.4444064906319909
 20
-291.12787244992433
 30
0.0
 11
-0.4444064906319909
 21
-291.12787244992433
 31
0.0
  0
LINE
  8
OUTLINE
  6
CONTINUOUS
 62
     3
 10
-0.4444064906319909
 20
-291.12787244992433
 30
0.0
 11
-0.4540492734995496
 21
-291.12673426095802
 31
0.0
  0
LINE
  8
OUTLINE
  6
CONTINUOUS
 62
     3
 10
-0.4540492734995496
 20
-291.12673426095802
 30
0.0
 11
-0.463688605283096
 21
-291.12555292581021
 31
0.0
  0
LINE
  8
OUTLINE
  6
CONTINUOUS
 62
     3
 10
-0.463688605283096
 20
-291.12555292581021
 30
0.0
 11
-0.463688605283096
 21
-291.12555292581021
 31
0.0
  0
LINE
  8
OUTLINE
  6
CONTINUOUS
 62
     3
 10
-0.463688605283096
 20
-291.12555292581021
 30
0.0
 11
-0.4733236564993604
 21
-291.12431649761987
 31
0.0
  0
LINE
  8
OUTLINE
  6
CONTINUOUS
 62
     3
 10
-0.4733236564993604
 20
-291.12431649761987
 30
0.0
 11
-0.4829535978278727
 21
-291.1230130295188
 31
0.0
  0
LINE
  8
OUTLINE
  6
CONTINUOUS
 62
     3
 10
-0.4829535978278727
 20
-291.1230130295188
 30
0.0
 11
-0.4829535978278727
 21
-291.1230130295188
 31
0.0
  0
LINE
  8
OUTLINE
  6
CONTINUOUS
 62
     3
 10
-0.4829535978278727
 20
-291.1230130295188
 30
0.0
 11
-0.4925777923199348
 21
-291.12163341021068
 31
0.0
  0
LINE
  8
OUTLINE
  6
CONTINUOUS
 62
     3
 10
-0.4925777923199348
 20
-291.12163341021068
 30
0.0
 11
-0.5021963723402223
 21
-291.12017987069919
 31
0.0
  0
LINE
  8
OUTLINE
  6
CONTINUOUS
 62
     3
 10
-0.5021963723402223
 20
-291.12017987069919
 30
0.0
 11
-0.5021963723402223
 21
-291.12017987069919
 31
0.0
  0
LINE
  8
OUTLINE
  6
CONTINUOUS
 62
     3
 10
-0.5021963723402223
 20
-291.12017987069919
 30
0.0
 11
-0.5118096625865292
 21
-291.11865747756281
 31
0.0
  0
LINE
  8
OUTLINE
  6
CONTINUOUS
 62
     3
 10
-0.5118096625865292
 20
-291.11865747756281
 30
0.0
 11
-0.5214179877671086
 21
-291.11707129737908
 31
0.0
  0
LINE
  8
OUTLINE
  6
CONTINUOUS
 62
     3
 10
-0.5214179877671086
 20
-291.11707129737908
 30
0.0
 11
-0.5214179877671086
 21
-291.11707129737908
 31
0.0
  0
LINE
  8
OUTLINE
  6
CONTINUOUS
 62
     3
 10
-0.5214179877671086
 20
-291.11707129737908
 30
0.0
 11
-0.5310216725938517
 21
-291.11542639672609
 31
0.0
  0
LINE
  8
OUTLINE
  6
CONTINUOUS
 62
     3
 10
-0.5310216725938517
 20
-291.11542639672609
 30
0.0
 11
-0.5406210417741022
 21
-291.11372784218167
 31
0.0
  0
LINE
  8
OUTLINE
  6
CONTINUOUS
 62
     3
 10
-0.5406210417741022
 20
-291.11372784218167
 30
0.0
 11
-0.5406210417741022
 21
-291.11372784218167
 31
0.0
  0
LINE
  8
OUTLINE
  6
CONTINUOUS
 62
     3
 10
-0.5406210417741022
 20
-291.11372784218167
 30
0.0
 11
-0.5502164200161133
 21
-291.1119807003231
 31
0.0
  0
LINE
  8
OUTLINE
  6
CONTINUOUS
 62
     3
 10
-0.5502164200161133
 20
-291.1119807003231
 30
0.0
 11
-0.5598081320276833
 21
-291.11019003772878
 31
0.0
  0
LINE
  8
OUTLINE
  6
CONTINUOUS
 62
     3
 10
-0.5598081320276833
 20
-291.11019003772878
 30
0.0
 11
-0.5598081320276833
 21
-291.11019003772878
 31
0.0
  0
LINE
  8
OUTLINE
  6
CONTINUOUS
 62
     3
 10
-0.5598081320276833
 20
-291.11019003772878
 30
0.0
 11
-0.5693965025166108
 21
-291.10836092097628
 31
0.0
  0
LINE
  8
OUTLINE
  6
CONTINUOUS
 62
     3
 10
-0.5693965025166108
 20
-291.10836092097628
 30
0.0
 11
-0.5789818561916036
 21
-291.10649841664372
 31
0.0
  0
LINE
  8
OUTLINE
  6
CONTINUOUS
 62
     3
 10
-0.5789818561916036
 20
-291.10649841664372
 30
0.0
 11
-0.5789818561916036
 21
-291.10649841664372
 31
0.0
  0
LINE
  8
OUTLINE
  6
CONTINUOUS
 62
     3
 10
-0.5789818561916036
 20
-291.10649841664372
 30
0.0
 11
-0.5885645861831108
 21
-291.10460789185618
 31
0.0
  0
LINE
  8
OUTLINE
  6
CONTINUOUS
 62
     3
 10
-0.5885645861831108
 20
-291.10460789185618
 30
0.0
 11
-0.5981453593039987
 21
-291.10269591593078
 31
0.0
  0
LINE
  8
OUTLINE
  6
CONTINUOUS
 62
     3
 10
-0.5981453593039987
 20
-291.10269591593078
 30
0.0
 11
-0.5981453593039987
 21
-291.10269591593078
 31
0.0
  0
LINE
  8
OUTLINE
  6
CONTINUOUS
 62
     3
 10
-0.5981453593039987
 20
-291.10269591593078
 30
0.0
 11
-0.6077249107920579
 21
-291.10076935873212
 31
0.0
  0
LINE
  8
OUTLINE
  6
CONTINUOUS
 62
     3
 10
-0.6077249107920579
 20
-291.10076935873212
 30
0.0
 11
-0.6173039758814412
 21
-291.09883509012479
 31
0.0
  0
LINE
  8
OUTLINE
  6
CONTINUOUS
 62
     3
 10
-0.6173039758814412
 20
-291.09883509012479
 30
0.0
 11
-0.6173039758814412
 21
-291.09883509012479
 31
0.0
  0
LINE
  8
OUTLINE
  6
CONTINUOUS
 62
     3
 10
-0.6173039758814412
 20
-291.09883509012479
 30
0.0
 11
-0.626883289809939
 21
-291.0968999799727
 31
0.0
  0
LINE
  8
OUTLINE
  6
CONTINUOUS
 62
     3
 10
-0.626883289809939
 20
-291.0968999799727
 30
0.0
 11
-0.636463587812159
 21
-291.09497089814113
 31
0.0
  0
LINE
  8
OUTLINE
  6
CONTINUOUS
 62
     3
 10
-0.636463587812159
 20
-291.09497089814113
 30
0.0
 11
-0.636463587812159
 21
-291.09497089814113
 31
0.0
  0
LINE
  8
OUTLINE
  6
CONTINUOUS
 62
     3
 10
-0.636463587812159
 20
-291.09497089814113
 30
0.0
 11
-0.6460456051249821
 21
-291.09305471449397
 31
0.0
  0
LINE
  8
OUTLINE
  6
CONTINUOUS
 62
     3
 10
-0.6460456051249821
 20
-291.09305471449397
 30
0.0
 11
-0.6556300769839254
 21
-291.09115829889652
 31
0.0
  0
LINE
  8
OUTLINE
  6
CONTINUOUS
 62
     3
 10
-0.6556300769839254
 20
-291.09115829889652
 30
0.0
 11
-0.6556300769839254
 21
-291.09115829889652
 31
0.0
  0
LINE
  8
OUTLINE
  6
CONTINUOUS
 62
     3
 10
-0.6556300769839254
 20
-291.09115829889652
 30
0.0
 11
-0.6652177386249605
 21
-291.08928852121278
 31
0.0
  0
LINE
  8
OUTLINE
  6
CONTINUOUS
 62
     3
 10
-0.6652177386249605
 20
-291.08928852121278
 30
0.0
 11
-0.6748093252845138
 21
-291.08745225130718
 31
0.0
  0
LINE
  8
OUTLINE
  6
CONTINUOUS
 62
     3
 10
-0.6748093252845138
 20
-291.08745225130718
 30
0.0
 11
-0.6748093252845138
 21
-291.08745225130718
 31
0.0
  0
LINE
  8
OUTLINE
  6
CONTINUOUS
 62
     3
 10
-0.6748093252845138
 20
-291.08745225130718
 30
0.0
 11
-0.6844051061725622
 21
-291.08565232128058
 31
0.0
  0
LINE
  8
OUTLINE
  6
CONTINUOUS
 62
     3
 10
-0.6844051061725622
 20
-291.08565232128058
 30
0.0
 11
-0.6940034863991969
 21
-291.08387541217689
 31
0.0
  0
LINE
  8
OUTLINE
  6
CONTINUOUS
 62
     3
 10
-0.6940034863991969
 20
-291.08387541217689
 30
0.0
 11
-0.6940034863991969
 21
-291.08387541217689
 31
0.0
  0
LINE
  8
OUTLINE
  6
CONTINUOUS
 62
     3
 10
-0.6940034863991969
 20
-291.08387541217689
 30
0.0
 11
-0.7036024050485139
 21
-291.0821041672757
 31
0.0
  0
LINE
  8
OUTLINE
  6
CONTINUOUS
 62
     3
 10
-0.7036024050485139
 20
-291.0821041672757
 30
0.0
 11
-0.7131998012037002
 21
-291.08032122985787
 31
0.0
  0
LINE
  8
OUTLINE
  6
CONTINUOUS
 62
     3
 10
-0.7131998012037002
 20
-291.08032122985787
 30
0.0
 11
-0.7131998012037002
 21
-291.08032122985787
 31
0.0
  0
LINE
  8
OUTLINE
  6
CONTINUOUS
 62
     3
 10
-0.7131998012037002
 20
-291.08032122985787
 30
0.0
 11
-0.7227936139502162
 21
-291.07850924320383
 31
0.0
  0
LINE
  8
OUTLINE
  6
CONTINUOUS
 62
     3
 10
-0.7227936139502162
 20
-291.07850924320383
 30
0.0
 11
-0.7323817823712489
 21
-291.07665085059318
 31
0.0
  0
LINE
  8
OUTLINE
  6
CONTINUOUS
 62
     3
 10
-0.7323817823712489
 20
-291.07665085059318
 30
0.0
 11
-0.7323817823712489
 21
-291.07665085059318
 31
0.0
  0
LINE
  8
OUTLINE
  6
CONTINUOUS
 62
     3
 10
-0.7323817823712489
 20
-291.07665085059318
 30
0.0
 11
-0.7419622455508943
 21
-291.07472869530602
 31
0.0
  0
LINE
  8
OUTLINE
  6
CONTINUOUS
 62
     3
 10
-0.7419622455508943
 20
-291.07472869530602
 30
0.0
 11
-0.7515329425741584
 21
-291.07272542062287
 31
0.0
  0
LINE
  8
OUTLINE
  6
CONTINUOUS
 62
     3
 10
-0.7515329425741584
 20
-291.07272542062287
 30
0.0
 11
-0.7515329425741584
 21
-291.07272542062287
 31
0.0
  0
LINE
  8
OUTLINE
  6
CONTINUOUS
 62
     3
 10
-0.7515329425741584
 20
-291.07272542062287
 30
0.0
 11
-0.7610918125237731
 21
-291.07062366982308
 31
0.0
  0
LINE
  8
OUTLINE
  6
CONTINUOUS
 62
     3
 10
-0.7610918125237731
 20
-291.07062366982308
 30
0.0
 11
-0.7706367944847443
 21
-291.06840608618768
 31
0.0
  0
LINE
  8
OUTLINE
  6
CONTINUOUS
 62
     3
 10
-0.7706367944847443
 20
-291.06840608618768
 30
0.0
 11
-0.7706367944847443
 21
-291.06840608618768
 31
0.0
  0
LINE
  8
OUTLINE
  6
CONTINUOUS
 62
     3
 10
-0.7706367944847443
 20
-291.06840608618768
 30
0.0
 11
-0.7801665212282387
 21
-291.06606109669087
 31
0.0
  0
LINE
  8
OUTLINE
  6
CONTINUOUS
 62
     3
 10
-0.7801665212282387
 20
-291.06606109669087
 30
0.0
 11
-0.7896824002727954
 21
-291.0636002630863
 31
0.0
  0
LINE
  8
OUTLINE
  6
CONTINUOUS
 62
     3
 10
-0.7896824002727954
 20
-291.0636002630863
 30
0.0
 11
-0.7896824002727954
 21
-291.0636002630863
 31
0.0
  0
LINE
  8
OUTLINE
  6
CONTINUOUS
 62
     3
 10
-0.7896824002727954
 20
-291.0636002630863
 30
0.0
 11
-0.7991865328231143
 21
-291.06104093082041
 31
0.0
  0
LINE
  8
OUTLINE
  6
CONTINUOUS
 62
     3
 10
-0.7991865328231143
 20
-291.06104093082041
 30
0.0
 11
-0.8086810200866239
 21
-291.05840044534148
 31
0.0
  0
LINE
  8
OUTLINE
  6
CONTINUOUS
 62
     3
 10
-0.8086810200866239
 20
-291.05840044534148
 30
0.0
 11
-0.8086810200866239
 21
-291.05840044534148
 31
0.0
  0
LINE
  8
OUTLINE
  6
CONTINUOUS
 62
     3
 10
-0.8086810200866239
 20
-291.05840044534148
 30
0.0
 11
-0.8181679632680243
 21
-291.05569615209669
 31
0.0
  0
LINE
  8
OUTLINE
  6
CONTINUOUS
 62
     3
 10
-0.8181679632680243
 20
-291.05569615209669
 30
0.0
 11
-0.8276494635733798
 21
-291.05294539653443
 31
0.0
  0
LINE
  8
OUTLINE
  6
CONTINUOUS
 62
     3
 10
-0.8276494635733798
 20
-291.05294539653443
 30
0.0
 11
-0.8276494635733798
 21
-291.05294539653443
 31
0.0
  0
LINE
  8
OUTLINE
  6
CONTINUOUS
 62
     3
 10
-0.8276494635733798
 20
-291.05294539653443
 30
0.0
 11
-0.8371276222082997
 21
-291.05016552410052
 31
0.0
  0
LINE
  8
OUTLINE
  6
CONTINUOUS
 62
     3
 10
-0.8371276222082997
 20
-291.05016552410052
 30
0.0
 11
-0.8466045403783937
 21
-291.04737388024398
 31
0.0
  0
LINE
  8
OUTLINE
  6
CONTINUOUS
 62
     3
 10
-0.8466045403783937
 20
-291.04737388024398
 30
0.0
 11
-0.8466045403783937
 21
-291.04737388024398
 31
0.0
  0
LINE
  8
OUTLINE
  6
CONTINUOUS
 62
     3
 10
-0.8466045403783937
 20
-291.04737388024398
 30
0.0
 11
-0.8560823192892713
 21
-291.04458781041171
 31
0.0
  0
LINE
  8
OUTLINE
  6
CONTINUOUS
 62
     3
 10
-0.8560823192892713
 20
-291.04458781041171
 30
0.0
 11
-0.8655630601469966
 21
-291.04182466005199
 31
0.0
  0
LINE
  8
OUTLINE
  6
CONTINUOUS
 62
     3
 10
-0.8655630601469966
 20
-291.04182466005199
 30
0.0
 11
-0.8655630601469966
 21
-291.04182466005199
 31
0.0
  0
LINE
  8
OUTLINE
  6
CONTINUOUS
 62
     3
 10
-0.8655630601469966
 20
-291.04182466005199
 30
0.0
 11
-0.8750483578423882
 21
-291.03909774811962
 31
0.0
  0
LINE
  8
OUTLINE
  6
CONTINUOUS
 62
     3
 10
-0.8750483578423882
 20
-291.03909774811962
 30
0.0
 11
-0.8845377820057365
 21
-291.03640428760127
 31
0.0
  0
LINE
  8
OUTLINE
  6
CONTINUOUS
 62
     3
 10
-0.8845377820057365
 20
-291.03640428760127
 30
0.0
 11
-0.8845377820057365
 21
-291.03640428760127
 31
0.0
  0
LINE
  8
OUTLINE
  6
CONTINUOUS
 62
     3
 10
-0.8845377820057365
 20
-291.03640428760127
 30
0.0
 11
-0.8940303959525409
 21
-291.03373746499068
 31
0.0
  0
LINE
  8
OUTLINE
  6
CONTINUOUS
 62
     3
 10
-0.8940303959525409
 20
-291.03373746499068
 30
0.0
 11
-0.9035252629983006
 21
-291.03109046678378
 31
0.0
  0
LINE
  8
OUTLINE
  6
CONTINUOUS
 62
     3
 10
-0.9035252629983006
 20
-291.03109046678378
 30
0.0
 11
-0.9035252629983006
 21
-291.03109046678378
 31
0.0
  0
LINE
  8
OUTLINE
  6
CONTINUOUS
 62
     3
 10
-0.9035252629983006
 20
-291.03109046678378
 30
0.0
 11
-0.9130214464589699
 21
-291.02845647947458
 31
0.0
  0
LINE
  8
OUTLINE
  6
CONTINUOUS
 62
     3
 10
-0.9130214464589699
 20
-291.02845647947458
 30
0.0
 11
-0.9225180096495933
 21
-291.02582868955727
 31
0.0
  0
LINE
  8
OUTLINE
  6
CONTINUOUS
 62
     3
 10
-0.9225180096495933
 20
-291.02582868955727
 30
0.0
 11
-0.9225180096495933
 21
-291.02582868955727
 31
0.0
  0
LINE
  8
OUTLINE
  6
CONTINUOUS
 62
     3
 10
-0.9225180096495933
 20
-291.02582868955727
 30
0.0
 11
-0.932014015886125
 21
-291.02320028352688
 31
0.0
  0
LINE
  8
OUTLINE
  6
CONTINUOUS
 62
     3
 10
-0.932014015886125
 20
-291.02320028352688
 30
0.0
 11
-0.9415085284845191
 21
-291.02056444787718
 31
0.0
  0
LINE
  8
OUTLINE
  6
CONTINUOUS
 62
     3
 10
-0.9415085284845191
 20
-291.02056444787718
 30
0.0
 11
-0.9415085284845191
 21
-291.02056444787718
 31
0.0
  0
LINE
  8
OUTLINE
  6
CONTINUOUS
 62
     3
 10
-0.9415085284845191
 20
-291.02056444787718
 30
0.0
 11
-0.9510006107593654
 21
-291.01791436910281
 31
0.0
  0
LINE
  8
OUTLINE
  6
CONTINUOUS
 62
     3
 10
-0.9510006107593654
 20
-291.01791436910281
 30
0.0
 11
-0.9604893260266181
 21
-291.01524323369932
 31
0.0
  0
LINE
  8
OUTLINE
  6
CONTINUOUS
 62
     3
 10
-0.9604893260266181
 20
-291.01524323369932
 30
0.0
 11
-0.9604893260266181
 21
-291.01524323369932
 31
0.0
  0
LINE
  8
OUTLINE
  6
CONTINUOUS
 62
     3
 10
-0.9604893260266181
 20
-291.01524323369932
 30
0.0
 11
-0.9699737688952155
 21
-291.01254453105088
 31
0.0
  0
LINE
  8
OUTLINE
  6
CONTINUOUS
 62
     3
 10
-0.9699737688952155
 20
-291.01254453105088
 30
0.0
 11
-0.9794531591451232
 21
-291.00981296210938
 31
0.0
  0
LINE
  8
OUTLINE
  6
CONTINUOUS
 62
     3
 10
-0.9794531591451232
 20
-291.00981296210938
 30
0.0
 11
-0.9794531591451232
 21
-291.00981296210938
 31
0.0
  0
LINE
  8
OUTLINE
  6
CONTINUOUS
 62
     3
 10
-0.9794531591451232
 20
-291.00981296210938
 30
0.0
 11
-0.9889267478497459
 21
-291.00704353071433
 31
0.0
  0
LINE
  8
OUTLINE
  6
CONTINUOUS
 62
     3
 10
-0.9889267478497459
 20
-291.00704353071433
 30
0.0
 11
-0.9983937860829428
 21
-291.00423124070841
 31
0.0
  0
LINE
  8
OUTLINE
  6
CONTINUOUS
 62
     3
 10
-0.9983937860829428
 20
-291.00423124070841
 30
0.0
 11
-0.9983937860829428
 21
-291.00423124070841
 31
0.0
  0
LINE
  8
OUTLINE
  6
CONTINUOUS
 62
     3
 10
-0.9983937860829428
 20
-291.00423124070841
 30
0.0
 11
-1.0078535249181191
 21
-291.00137109593197
 31
0.0
  0
LINE
  8
OUTLINE
  6
CONTINUOUS
 62
     3
 10
-1.0078535249181191
 20
-291.00137109593197
 30
0.0
 11
-1.017305215427768
 21
-290.99845810022782
 31
0.0
  0
LINE
  8
OUTLINE
  6
CONTINUOUS
 62
     3
 10
-1.017305215427768
 20
-290.99845810022782
 30
0.0
 11
-1.017305215427768
 21
-290.99845810022782
 31
0.0
  0
LINE
  8
OUTLINE
  6
CONTINUOUS
 62
     3
 10
-1.017305215427768
 20
-290.99845810022782
 30
0.0
 11
-1.026748108684842
 21
-290.99548725743603
 31
0.0
  0
LINE
  8
OUTLINE
  6
CONTINUOUS
 62
     3
 10
-1.026748108684842
 20
-290.99548725743603
 30
0.0
 11
-1.036181455766382
 21
-290.99245357139768
 31
0.0
  0
LINE
  8
OUTLINE
  6
CONTINUOUS
 62
     3
 10
-1.036181455766382
 20
-290.99245357139768
 30
0.0
 11
-1.036181455766382
 21
-290.99245357139768
 31
0.0
  0
LINE
  8
OUTLINE
  6
CONTINUOUS
 62
     3
 10
-1.036181455766382
 20
-290.99245357139768
 30
0.0
 11
-1.045604507745338
 21
-290.98935204595341
 31
0.0
  0
LINE
  8
OUTLINE
  6
CONTINUOUS
 62
     3
 10
-1.045604507745338
 20
-290.98935204595341
 30
0.0
 11
-1.055016515685566
 21
-290.98617768494989
 31
0.0
  0
LINE
  8
OUTLINE
  6
CONTINUOUS
 62
     3
 10
-1.055016515685566
 20
-290.98617768494989
 30
0.0
 11
-1.055016515685566
 21
-290.98617768494989
 31
0.0
  0
LINE
  8
OUTLINE
  6
CONTINUOUS
 62
     3
 10
-1.055016515685566
 20
-290.98617768494989
 30
0.0
 11
-1.06441711180014
 21
-290.98292830715599
 31
0.0
  0
LINE
  8
OUTLINE
  6
CONTINUOUS
 62
     3
 10
-1.06441711180014
 20
-290.98292830715599
 30
0.0
 11
-1.0738074529217561
 21
-290.97961299103048
 31
0.0
  0
LINE
  8
OUTLINE
  6
CONTINUOUS
 62
     3
 10
-1.0738074529217561
 20
-290.97961299103048
 30
0.0
 11
-1.0738074529217561
 21
-290.97961299103048
 31
0.0
  0
LINE
  8
OUTLINE
  6
CONTINUOUS
 62
     3
 10
-1.0738074529217561
 20
-290.97961299103048
 30
0.0
 11
-1.083189076994131
 21
-290.97624362997112
 31
0.0
  0
LINE
  8
OUTLINE
  6
CONTINUOUS
 62
     3
 10
-1.083189076994131
 20
-290.97624362997112
 30
0.0
 11
-1.092563521804095
 21
-290.97283211744798
 31
0.0
  0
LINE
  8
OUTLINE
  6
CONTINUOUS
 62
     3
 10
-1.092563521804095
 20
-290.97283211744798
 30
0.0
 11
-1.092563521804095
 21
-290.97283211744798
 31
0.0
  0
LINE
  8
OUTLINE
  6
CONTINUOUS
 62
     3
 10
-1.092563521804095
 20
-290.97283211744798
 30
0.0
 11
-1.101932325246707
 21
-290.96939034688148
 31
0.0
  0
LINE
  8
OUTLINE
  6
CONTINUOUS
 62
     3
 10
-1.101932325246707
 20
-290.96939034688148
 30
0.0
 11
-1.111297025812291
 21
-290.96593021142849
 31
0.0
  0
LINE
  8
OUTLINE
  6
CONTINUOUS
 62
     3
 10
-1.111297025812291
 20
-290.96593021142849
 30
0.0
 11
-1.111297025812291
 21
-290.96593021142849
 31
0.0
  0
LINE
  8
OUTLINE
  6
CONTINUOUS
 62
     3
 10
-1.111297025812291
 20
-290.96593021142849
 30
0.0
 11
-1.1206591615837169
 21
-290.96246360442569
 31
0.0
  0
LINE
  8
OUTLINE
  6
CONTINUOUS
 62
     3
 10
-1.1206591615837169
 20
-290.96246360442569
 30
0.0
 11
-1.1300202684246869
 21
-290.95900242019547
 31
0.0
  0
LINE
  8
OUTLINE
  6
CONTINUOUS
 62
     3
 10
-1.1300202684246869
 20
-290.95900242019547
 30
0.0
 11
-1.1300202684246869
 21
-290.95900242019547
 31
0.0
  0
LINE
  8
OUTLINE
  6
CONTINUOUS
 62
     3
 10
-1.1300202684246869
 20
-290.95900242019547
 30
0.0
 11
-1.139381883715487
 21
-290.95555855238808
 31
0.0
  0
LINE
  8
OUTLINE
  6
CONTINUOUS
 62
     3
 10
-1.139381883715487
 20
-290.95555855238808
 30
0.0
 11
-1.148745553120079
 21
-290.95214389097367
 31
0.0
  0
LINE
  8
OUTLINE
  6
CONTINUOUS
 62
     3
 10
-1.148745553120079
 20
-290.95214389097367
 30
0.0
 11
-1.148745553120079
 21
-290.95214389097367
 31
0.0
  0
LINE
  8
OUTLINE
  6
CONTINUOUS
 62
     3
 10
-1.148745553120079
 20
-290.95214389097367
 30
0.0
 11
-1.1581124580052351
 21
-290.94876621820589
 31
0.0
  0
LINE
  8
OUTLINE
  6
CONTINUOUS
 62
     3
 10
-1.1581124580052351
 20
-290.94876621820589
 30
0.0
 11
-1.167482314264362
 21
-290.9454168891433
 31
0.0
  0
LINE
  8
OUTLINE
  6
CONTINUOUS
 62
     3
 10
-1.167482314264362
 20
-290.9454168891433
 30
0.0
 11
-1.167482314264362
 21
-290.9454168891433
 31
0.0
  0
LINE
  8
OUTLINE
  6
CONTINUOUS
 62
     3
 10
-1.167482314264362
 20
-290.9454168891433
 30
0.0
 11
-1.1768545002682911
 21
-290.94208313923667
 31
0.0
  0
LINE
  8
OUTLINE
  6
CONTINUOUS
 62
     3
 10
-1.1768545002682911
 20
-290.94208313923667
 30
0.0
 11
-1.1862285097722629
 21
-290.93875215269782
 31
0.0
  0
LINE
  8
OUTLINE
  6
CONTINUOUS
 62
     3
 10
-1.1862285097722629
 20
-290.93875215269782
 30
0.0
 11
-1.1862285097722629
 21
-290.93875215269782
 31
0.0
  0
LINE
  8
OUTLINE
  6
CONTINUOUS
 62
     3
 10
-1.1862285097722629
 20
-290.93875215269782
 30
0.0
 11
-1.1956037577219829
 21
-290.93541114873437
 31
0.0
  0
LINE
  8
OUTLINE
  6
CONTINUOUS
 62
     3
 10
-1.1956037577219829
 20
-290.93541114873437
 30
0.0
 11
-1.2049792284460641
 21
-290.93204753778662
 31
0.0
  0
LINE
  8
OUTLINE
  6
CONTINUOUS
 62
     3
 10
-1.2049792284460641
 20
-290.93204753778662
 30
0.0
 11
-1.2049792284460641
 21
-290.93204753778662
 31
0.0
  0
LINE
  8
OUTLINE
  6
CONTINUOUS
 62
     3
 10
-1.2049792284460641
 20
-290.93204753778662
 30
0.0
 11
-1.214354200390972
 21
-290.92864859968063
 31
0.0
  0
LINE
  8
OUTLINE
  6
CONTINUOUS
 62
     3
 10
-1.214354200390972
 20
-290.92864859968063
 30
0.0
 11
-1.2237295590884969
 21
-290.92520090055791
 31
0.0
  0
LINE
  8
OUTLINE
  6
CONTINUOUS
 62
     3
 10
-1.2237295590884969
 20
-290.92520090055791
 30
0.0
 11
-1.2237295590884969
 21
-290.92520090055791
 31
0.0
  0
LINE
  8
OUTLINE
  6
CONTINUOUS
 62
     3
 10
-1.2237295590884969
 20
-290.92520090055791
 30
0.0
 11
-1.2331050924099149
 21
-290.92169149401502
 31
0.0
  0
LINE
  8
OUTLINE
  6
CONTINUOUS
 62
     3
 10
-1.2331050924099149
 20
-290.92169149401502
 30
0.0
 11
-1.2424745905004779
 21
-290.91811009716059
 31
0.0
  0
LINE
  8
OUTLINE
  6
CONTINUOUS
 62
     3
 10
-1.2424745905004779
 20
-290.91811009716059
 30
0.0
 11
-1.2424745905004779
 21
-290.91811009716059
 31
0.0
  0
LINE
  8
OUTLINE
  6
CONTINUOUS
 62
     3
 10
-1.2424745905004779
 20
-290.91811009716059
 30
0.0
 11
-1.2518360820758969
 21
-290.91444793430293
 31
0.0
  0
LINE
  8
OUTLINE
  6
CONTINUOUS
 62
     3
 10
-1.2518360820758969
 20
-290.91444793430293
 30
0.0
 11
-1.2612105478642659
 21
-290.91069959505
 31
0.0
  0
LINE
  8
OUTLINE
  6
CONTINUOUS
 62
     3
 10
-1.2612105478642659
 20
-290.91069959505
 30
0.0
 11
-1.2612105478642659
 21
-290.91069959505
 31
0.0
  0
LINE
  8
OUTLINE
  6
CONTINUOUS
 62
     3
 10
-1.2612105478642659
 20
-290.91069959505
 30
0.0
 11
-1.270603822206795
 21
-290.90686978481119
 31
0.0
  0
LINE
  8
OUTLINE
  6
CONTINUOUS
 62
     3
 10
-1.270603822206795
 20
-290.90686978481119
 30
0.0
 11
-1.279938201878394
 21
-290.90300030690628
 31
0.0
  0
LINE
  8
OUTLINE
  6
CONTINUOUS
 62
     3
 10
-1.279938201878394
 20
-290.90300030690628
 30
0.0
 11
-1.279938201878394
 21
-290.90300030690628
 31
0.0
  0
LINE
  8
OUTLINE
  6
CONTINUOUS
 62
     3
 10
-1.279938201878394
 20
-290.90300030690628
 30
0.0
 11
-1.2891930408727601
 21
-290.89910762631052
 31
0.0
  0
LINE
  8
OUTLINE
  6
CONTINUOUS
 62
     3
 10
-1.2891930408727601
 20
-290.89910762631052
 30
0.0
 11
-1.298659459620467
 21
-290.89506975671679
 31
0.0
  0
LINE
  8
OUTLINE
  6
CONTINUOUS
 62
     3
 10
-1.298659459620467
 20
-290.89506975671679
 30
0.0
 11
-1.298659459620467
 21
-290.89506975671679
 31
0.0
  0
LINE
  8
OUTLINE
  6
CONTINUOUS
 62
     3
 10
-1.298659459620467
 20
-290.89506975671679
 30
0.0
 11
-1.308415638116458
 21
-290.89085927580152
 31
0.0
  0
LINE
  8
OUTLINE
  6
CONTINUOUS
 62
     3
 10
-1.308415638116458
 20
-290.89085927580152
 30
0.0
 11
-1.3173762281685411
 21
-290.8869654684662
 31
0.0
  0
LINE
  8
OUTLINE
  6
CONTINUOUS
 62
     3
 10
-1.3173762281685411
 20
-290.8869654684662
 30
0.0
 11
-1.3173762281685411
 21
-290.8869654684662
 31
0.0
  0
LINE
  8
OUTLINE
  6
CONTINUOUS
 62
     3
 10
-1.3173762281685411
 20
-290.8869654684662
 30
0.0
 11
-1.3252505861155439
 21
-290.88352470201488
 31
0.0
  0
LINE
  8
OUTLINE
  6
CONTINUOUS
 62
     3
 10
-1.3252505861155439
 20
-290.88352470201488
 30
0.0
 11
-1.336090414600221
 21
-290.87874496614359
 31
0.0
  0
LINE
  8
OUTLINE
  6
CONTINUOUS
 62
     3
 10
-1.336090414600221
 20
-290.87874496614359
 30
0.0
 11
-1.336090414600221
 21
-290.87874496614359
 31
0.0
  0
LINE
  8
OUTLINE
  6
CONTINUOUS
 62
     3
 10
-1.336090414600221
 20
-290.87874496614359
 30
0.0
 11
-1.3533205805415489
 21
-290.87110819205623
 31
0.0
  0
LINE
  8
OUTLINE
  6
CONTINUOUS
 62
     3
 10
-1.3533205805415489
 20
-290.87110819205623
 30
0.0
 11
-1.373516261661734
 21
-290.86212045459388
 31
0.0
  0
LINE
  8
OUTLINE
  6
CONTINUOUS
 62
     3
 10
-1.373516261661734
 20
-290.86212045459388
 30
0.0
 11
-1.373516261661734
 21
-290.86212045459388
 31
0.0
  0
LINE
  8
OUTLINE
  6
CONTINUOUS
 62
     3
 10
-1.373516261661734
 20
-290.86212045459388
 30
0.0
 11
-1.39262584181688
 21
-290.85356774928903
 31
0.0
  0
LINE
  8
OUTLINE
  6
CONTINUOUS
 62
     3
 10
-1.39262584181688
 20
-290.85356774928903
 30
0.0
 11
-1.4109402186054469
 21
-290.84533161080248
 31
0.0
  0
LINE
  8
OUTLINE
  6
CONTINUOUS
 62
     3
 10
-1.4109402186054469
 20
-290.84533161080248
 30
0.0
 11
-1.4109402186054469
 21
-290.84533161080248
 31
0.0
  0
LINE
  8
OUTLINE
  6
CONTINUOUS
 62
     3
 10
-1.4109402186054469
 20
-290.84533161080248
 30
0.0
 11
-1.429545121718093
 21
-290.83694472742877
 31
0.0
  0
LINE
  8
OUTLINE
  6
CONTINUOUS
 62
     3
 10
-1.429545121718093
 20
-290.83694472742877
 30
0.0
 11
-1.448363095466902
 21
-290.82844886287319
 31
0.0
  0
LINE
  8
OUTLINE
  6
CONTINUOUS
 62
     3
 10
-1.448363095466902
 20
-290.82844886287319
 30
0.0
 11
-1.448363095466902
 21
-290.82844886287319
 31
0.0
  0
LINE
  8
OUTLINE
  6
CONTINUOUS
 62
     3
 10
-1.448363095466902
 20
-290.82844886287319
 30
0.0
 11
-1.46710344476196
 21
-290.81998008950183
 31
0.0
  0
LINE
  8
OUTLINE
  6
CONTINUOUS
 62
     3
 10
-1.46710344476196
 20
-290.81998008950183
 30
0.0
 11
-1.4857857022816461
 21
-290.81154263890897
 31
0.0
  0
LINE
  8
OUTLINE
  6
CONTINUOUS
 62
     3
 10
-1.4857857022816461
 20
-290.81154263890897
 30
0.0
 11
-1.4857857022816461
 21
-290.81154263890897
 31
0.0
  0
LINE
  8
OUTLINE
  6
CONTINUOUS
 62
     3
 10
-1.4857857022816461
 20
-290.81154263890897
 30
0.0
 11
-1.50448752622242
 21
-290.80311235441638
 31
0.0
  0
LINE
  8
OUTLINE
  6
CONTINUOUS
 62
     3
 10
-1.50448752622242
 20
-290.80311235441638
 30
0.0
 11
-1.523208849085677
 21
-290.79468336701439
 31
0.0
  0
LINE
  8
OUTLINE
  6
CONTINUOUS
 62
     3
 10
238.333333333333
 20
-99.591522157995882
 30
0.0
 11
206.53232368060429
 21
-99.591522157995882
 31
0.0
  0
LINE
  8
OUTLINE
  6
CONTINUOUS
 62
     3
 10
-206.53232368060461
 20
-99.591522157995882
 30
0.0
 11
-238.33333333333351
 21
-99.591522157995882
 31
0.0
  0
ARC
  8
OUTLINE
  6
CONTINUOUS
 62
     3
 10
-238.33333333333351
 20
-64.524084778419933
 30
0.0
 40
34.46628131021189
 50
295.68763667251
 51
337.34310834579748
  0
ARC
  8
OUTLINE
  6
CONTINUOUS
 62
     3
 10
-233.3236994219653
 20
-49.495183044315809
 30
0.0
 40
29.456647398843931
 50
24.53934114489633
 51
90.0
  0
ARC
  8
OUTLINE
  6
CONTINUOUS
 62
     3
 10
238.333333333333
 20
-64.524084778419933
 30
0.0
 40
34.466281310211997
 50
202.6568916542025
 51
244.31236332749
  0
ARC
  8
OUTLINE
  6
CONTINUOUS
 62
     3
 10
233.3236994219651
 20
-49.495183044315809
 30
0.0
 40
29.45664739884392
 50
91.044076173411327
 51
155.4606588551037
  0
LINE
  8
DETAIL
  6
CONTINUOUS
 62
     5
 10
-256.99421965317919
 20
-6.4123314065507202
 30
0.0
 11
-256.99421965317919
 21
-3.0057803468209841
 31
0.0
  0
LINE
  8
DETAIL
  6
CONTINUOUS
 62
     5
 10
-253.8226442489304
 20
-3.0057803468209841
 30
0.0
 11
-253.8226442489304
 21
-5.1098265895952864
 31
0.0
  0
LINE
  8
DETAIL
  6
CONTINUOUS
 62
     5
 10
-246.9749518304429
 20
-16.4315992292868
 30
0.0
 11
-246.9749518304429
 21
-13.89435725155761
 31
0.0
  0
LINE
  8
DETAIL
  6
CONTINUOUS
 62
     5
 10
-206.53232368060461
 20
-160.30828516377619
 30
0.0
 11
-206.53232368060461
 21
-14.52793834296688
 31
0.0
  0
LINE
  8
DETAIL
  6
CONTINUOUS
 62
     5
 10
-204.22979870900599
 20
-5.1098265895952864
 30
0.0
 11
-204.22979870900599
 21
-3.0057803468209841
 31
0.0
  0
LINE
  8
DETAIL
  6
CONTINUOUS
 62
     5
 10
-203.34421218136779
 20
-14.52793834296688
 30
0.0
 11
-203.34421218136779
 21
-160.30828516377619
 31
0.0
  0
LINE
  8
DETAIL
  6
CONTINUOUS
 62
     5
 10
-192.89429115732059
 20
-3.0057803468209841
 30
0.0
 11
-192.89429115732059
 21
-6.4123314065507202
 31
0.0
  0
LINE
  8
DETAIL
  6
CONTINUOUS
 62
     5
 10
-185.15147907239199
 20
-14.52793834296688
 30
0.0
 11
-185.15147907239199
 21
-18.53564547206156
 31
0.0
  0
LINE
  8
DETAIL
  6
CONTINUOUS
 62
     5
 10
-180.67319707734671
 20
-18.53564547206156
 30
0.0
 11
-180.67319707734671
 21
-160.30828516377619
 31
0.0
  0
LINE
  8
DETAIL
  6
CONTINUOUS
 62
     5
 10
-180.14184516102409
 20
-14.52793834296688
 30
0.0
 11
-180.14184516102409
 21
-18.088203018141598
 31
0.0
  0
LINE
  8
DETAIL
  6
CONTINUOUS
 62
     5
 10
-175.13221124965591
 20
-18.53564547206156
 30
0.0
 11
-175.13221124965591
 21
-14.52793834296688
 31
0.0
  0
LINE
  8
DETAIL
  6
CONTINUOUS
 62
     5
 10
-4.7090558766858521
 20
-289.15606936416168
 30
0.0
 11
4.7090558766858521
 21
-289.15606936416168
 31
0.0
  0
LINE
  8
DETAIL
  6
CONTINUOUS
 62
     5
 10
57.911368015414148
 20
-288.65510597302489
 30
0.0
 11
-57.911368015414148
 21
-288.65510597302489
 31
0.0
  0
LINE
  8
DETAIL
  6
CONTINUOUS
 62
     5
 10
-163.1385838328456
 20
-14.52793834296688
 30
0.0
 11
-163.1385838328456
 21
-10.019267822736079
 31
0.0
  0
LINE
  8
DETAIL
  6
CONTINUOUS
 62
     5
 10
-151.09460705917991
 20
-13.02504816955684
 30
0.0
 11
-151.09460705917991
 21
-16.4315992292868
 31
0.0
  0
LINE
  8
DETAIL
  6
CONTINUOUS
 62
     5
 10
89.672447013487727
 20
-266.51252408477842
 30
0.0
 11
-89.672447013487727
 21
-266.51252408477842
 31
0.0
  0
LINE
  8
DETAIL
  6
CONTINUOUS
 62
     5
 10
89.672447013487727
 20
-262.50481695568402
 30
0.0
 11
131.0803515379412
 21
-262.50481695550047
 31
0.0
  0
LINE
  8
DETAIL
  6
CONTINUOUS
 62
     5
 10
-0.6705511643272075
 20
-240.3838155989788
 30
0.0
 11
0.6705030750945298
 21
-240.3838155989788
 31
0.0
  0
LINE
  8
DETAIL
  6
CONTINUOUS
 62
     5
 10
-2.5793238251380899
 20
-238.99550512504061
 30
0.0
 11
2.5793139581110149
 21
-238.99550512504061
 31
0.0
  0
LINE
  8
DETAIL
  6
CONTINUOUS
 62
     5
 10
-131.0803515374223
 20
-230.4431599229288
 30
0.0
 11
-89.672447013487727
 21
-230.4431599229288
 31
0.0
  0
LINE
  8
DETAIL
  6
CONTINUOUS
 62
     5
 10
89.672447013487727
 20
-230.4431599229288
 30
0.0
 11
131.08035153742179
 21
-230.4431599229288
 31
0.0
  0
LINE
  8
DETAIL
  6
CONTINUOUS
 62
     5
 10
83.660886319845758
 20
-225.4335260115605
 30
0.0
 11
-83.660886319845758
 21
-225.4335260115605
 31
0.0
  0
LINE
  8
DETAIL
  6
CONTINUOUS
 62
     5
 10
-86.165703275529722
 20
-225.4335260115605
 30
0.0
 11
-83.869947366163615
 21
-225.4335260115605
 31
0.0
  0
LINE
  8
DETAIL
  6
CONTINUOUS
 62
     5
 10
83.869947366163615
 20
-225.4335260115605
 30
0.0
 11
86.165703275529722
 21
-225.4335260115605
 31
0.0
  0
LINE
  8
DETAIL
  6
CONTINUOUS
 62
     5
 10
-86.165703275529722
 20
-221.4258188824663
 30
0.0
 11
86.165703275529722
 21
-221.4258188824663
 31
0.0
  0
LINE
  8
DETAIL
  6
CONTINUOUS
 62
     5
 10
-89.672447013487727
 20
-266.51252408477842
 30
0.0
 11
-89.672447013487727
 21
-230.4431599229288
 31
0.0
  0
LINE
  8
DETAIL
  6
CONTINUOUS
 62
     5
 10
-61.064654178564979
 20
-214.913294797688
 30
0.0
 11
-48.039606009008367
 21
-214.913294797688
 31
0.0
  0
LINE
  8
DETAIL
  6
CONTINUOUS
 62
     5
 10
48.039606009008367
 20
-214.913294797688
 30
0.0
 11
61.064654178565434
 21
-214.913294797688
 31
0.0
  0
LINE
  8
DETAIL
  6
CONTINUOUS
 62
     5
 10
57.808392136175833
 20
-211.70712909441229
 30
0.0
 11
51.29586805139752
 21
-211.70712909441229
 31
0.0
  0
LINE
  8
DETAIL
  6
CONTINUOUS
 62
     5
 10
-51.29586805139752
 20
-211.70712909441229
 30
0.0
 11
-57.808392136175833
 21
-211.70712909441229
 31
0.0
  0
LINE
  8
DETAIL
  6
CONTINUOUS
 62
     5
 10
-66.127167630057556
 20
-219.4219653179189
 30
0.0
 11
-66.127167630057556
 21
-185.8214505583162
 31
0.0
  0
LINE
  8
DETAIL
  6
CONTINUOUS
 62
     5
 10
-65.325626204239143
 20
-281.24084778420018
 30
0.0
 11
-65.325626204239143
 21
-266.51252408477842
 31
0.0
  0
LINE
  8
DETAIL
  6
CONTINUOUS
 62
     5
 10
-65.325626204239143
 20
-184.43314008437801
 30
0.0
 11
-65.325626204239143
 21
-155.89980732177261
 31
0.0
  0
LINE
  8
DETAIL
  6
CONTINUOUS
 62
     5
 10
-66.127167630057556
 20
-185.8214505583162
 30
0.0
 11
61.536712870104573
 21
-185.8214505583162
 31
0.0
  0
LINE
  8
DETAIL
  6
CONTINUOUS
 62
     5
 10
-65.325626204239143
 20
-184.43314008437801
 30
0.0
 11
60.370917483822268
 21
-184.43314008437801
 31
0.0
  0
LINE
  8
DETAIL
  6
CONTINUOUS
 62
     5
 10
-61.064654178564979
 20
-221.4258188824663
 30
0.0
 11
-61.064654178564979
 21
-214.913294797688
 31
0.0
  0
LINE
  8
DETAIL
  6
CONTINUOUS
 62
     5
 10
-57.808392136175833
 20
-211.70712909441229
 30
0.0
 11
-57.808392136175833
 21
-214.913294797688
 31
0.0
  0
LINE
  8
DETAIL
  6
CONTINUOUS
 62
     5
 10
-54.552130093786673
 20
-221.4258188824663
 30
0.0
 11
-54.552130093786673
 21
-215.4949699869378
 31
0.0
  0
LINE
  8
DETAIL
  6
CONTINUOUS
 62
     5
 10
-51.29586805139752
 20
-211.70712909441229
 30
0.0
 11
-51.29586805139752
 21
-214.913294797688
 31
0.0
  0
LINE
  8
DETAIL
  6
CONTINUOUS
 62
     5
 10
-48.039606009008367
 20
-221.4258188824663
 30
0.0
 11
-48.039606009008367
 21
-214.913294797688
 31
0.0
  0
LINE
  8
DETAIL
  6
CONTINUOUS
 62
     5
 10
-23.044315992292919
 20
-110.41233140655081
 30
0.0
 11
-23.044315992292919
 21
-102.39691714836211
 31
0.0
  0
LINE
  8
DETAIL
  6
CONTINUOUS
 62
     5
 10
-26.05775073442965
 20
-144.67822736030831
 30
0.0
 11
-25.22835217746433
 21
-135.1981584741884
 31
0.0
  0
LINE
  8
DETAIL
  6
CONTINUOUS
 62
     5
 10
-65.325626204239143
 20
-184.43314008437801
 30
0.0
 11
-66.127167630057556
 21
-185.8214505583162
 31
0.0
  0
LINE
  8
DETAIL
  6
CONTINUOUS
 62
     5
 10
-57.911368015414148
 20
-148.48554913294791
 30
0.0
 11
57.911368015414148
 21
-148.48554913294791
 31
0.0
  0
LINE
  8
DETAIL
  6
CONTINUOUS
 62
     5
 10
-13.02500367880293
 20
-147.98458574181089
 30
0.0
 11
13.02504816955661
 21
-147.98458574181089
 31
0.0
  0
LINE
  8
DETAIL
  6
CONTINUOUS
 62
     5
 10
26.057750734429192
 20
-144.67822736030831
 30
0.0
 11
-26.05775073442965
 21
-144.67822736030831
 31
0.0
  0
LINE
  8
DETAIL
  6
CONTINUOUS
 62
     5
 10
-10.513107275029141
 20
-147.94003997557721
 30
0.0
 11
-12.856099651027311
 21
-145.59702468343201
 31
0.0
  0
LINE
  8
DETAIL
  6
CONTINUOUS
 62
     5
 10
-19.03660886319858
 20
-116.4238874640043
 30
0.0
 11
-19.03660886319858
 21
-112.41618497109801
 31
0.0
  0
LINE
  8
DETAIL
  6
CONTINUOUS
 62
     5
 10
-14.0269749518302
 20
-121.93448940269759
 30
0.0
 11
-14.0269749518302
 21
-117.4258188824659
 31
0.0
  0
LINE
  8
DETAIL
  6
CONTINUOUS
 62
     5
 10
-8.5163776493254773
 20
-130.15028901734081
 30
0.0
 11
-8.5163776493254773
 21
-121.93448940269759
 31
0.0
  0
LINE
  8
DETAIL
  6
CONTINUOUS
 62
     5
 10
-6.1587747573503293
 20
-121.93448940269759
 30
0.0
 11
-6.1587747573503293
 21
-119.93063583815049
 31
0.0
  0
LINE
  8
DETAIL
  6
CONTINUOUS
 62
     5
 10
-4.7090558766858521
 20
-289.15606936416168
 30
0.0
 11
-4.7090558766858521
 21
-288.65510597302489
 31
0.0
  0
LINE
  8
DETAIL
  6
CONTINUOUS
 62
     5
 10
-15.02890173410378
 20
-130.15028901734081
 30
0.0
 11
-20.674399794259902
 21
-130.6442060974903
 31
0.0
  0
LINE
  8
DETAIL
  6
CONTINUOUS
 62
     5
 10
15.02890173410378
 20
-130.15028901734081
 30
0.0
 11
-15.02890173410378
 21
-130.15028901734081
 31
0.0
  0
LINE
  8
DETAIL
  6
CONTINUOUS
 62
     5
 10
14.026700509771221
 20
-121.93448940269759
 30
0.0
 11
6.081871711032818
 21
-121.93448940269759
 31
0.0
  0
LINE
  8
DETAIL
  6
CONTINUOUS
 62
     5
 10
-6.1587694842228302
 20
-121.93448940269759
 30
0.0
 11
-14.02676547756664
 21
-121.93448940269759
 31
0.0
  0
LINE
  8
DETAIL
  6
CONTINUOUS
 62
     5
 10
-14.02676547756664
 20
-119.93063583815049
 30
0.0
 11
14.02640600315317
 21
-119.93063583815049
 31
0.0
  0
LINE
  8
DETAIL
  6
CONTINUOUS
 62
     5
 10
18.034695632309649
 20
-117.4258188824659
 30
0.0
 11
-18.0346956323101
 21
-117.4258188824659
 31
0.0
  0
LINE
  8
DETAIL
  6
CONTINUOUS
 62
     5
 10
19.03660886124635
 20
-116.42388701508909
 30
0.0
 11
-19.036608861246801
 21
-116.42388701508909
 31
0.0
  0
LINE
  8
DETAIL
  6
CONTINUOUS
 62
     5
 10
15.02890173410378
 20
-130.15028901734081
 30
0.0
 11
20.67439979425944
 21
-130.6442060974903
 31
0.0
  0
LINE
  8
DETAIL
  6
CONTINUOUS
 62
     5
 10
-26.48215678172301
 20
-106.4482650494206
 30
0.0
 11
-23.044315992292919
 21
-108.6942778632736
 31
0.0
  0
LINE
  8
DETAIL
  6
CONTINUOUS
 62
     5
 10
-30.042848722067902
 20
-104.1008306362387
 30
0.0
 11
-26.48215678172301
 21
-106.4482650494206
 31
0.0
  0
LINE
  8
DETAIL
  6
CONTINUOUS
 62
     5
 10
-32.601814378049767
 20
-102.39691714836211
 30
0.0
 11
-32.512063724144809
 21
-102.4569902599403
 31
0.0
  0
LINE
  8
DETAIL
  6
CONTINUOUS
 62
     5
 10
-32.512063724144809
 20
-102.4569902599403
 30
0.0
 11
-30.042848722067902
 21
-104.1008306362387
 31
0.0
  0
LINE
  8
DETAIL
  6
CONTINUOUS
 62
     5
 10
-18.034683706128359
 20
-117.42582488296659
 30
0.0
 11
-19.036615205915499
 21
-116.4238938067211
 31
0.0
  0
LINE
  8
DETAIL
  6
CONTINUOUS
 62
     5
 10
4.7090558766858521
 20
-289.15606936416168
 30
0.0
 11
4.7090558766858521
 21
-288.65510597302489
 31
0.0
  0
LINE
  8
DETAIL
  6
CONTINUOUS
 62
     5
 10
6.0818940897829634
 20
-121.93448940269759
 30
0.0
 11
6.0818940897829634
 21
-119.93063583815049
 31
0.0
  0
LINE
  8
DETAIL
  6
CONTINUOUS
 62
     5
 10
8.5163776493254773
 20
-130.15028901734081
 30
0.0
 11
8.5163776493254773
 21
-121.93448940269759
 31
0.0
  0
LINE
  8
DETAIL
  6
CONTINUOUS
 62
     5
 10
14.0269749518302
 20
-121.93448940269759
 30
0.0
 11
14.0269749518302
 21
-117.4258188824659
 31
0.0
  0
LINE
  8
DETAIL
  6
CONTINUOUS
 62
     5
 10
19.036608863198129
 20
-116.4238874640043
 30
0.0
 11
19.036608863198129
 21
-112.41618497109801
 31
0.0
  0
LINE
  8
DETAIL
  6
CONTINUOUS
 62
     5
 10
18.034683706127911
 20
-117.42582488296659
 30
0.0
 11
19.036615205915499
 21
-116.4238938067211
 31
0.0
  0
LINE
  8
DETAIL
  6
CONTINUOUS
 62
     5
 10
-23.044306123964819
 20
-110.41233140655081
 30
0.0
 11
23.044306123964819
 21
-110.41233140655081
 31
0.0
  0
LINE
  8
DETAIL
  6
CONTINUOUS
 62
     5
 10
27.35897457107831
 20
-102.39691714836211
 30
0.0
 11
-38.150974169056553
 21
-102.39691714836211
 31
0.0
  0
LINE
  8
DETAIL
  6
CONTINUOUS
 62
     5
 10
-238.33333333333351
 20
-99.591522157995882
 30
0.0
 11
-206.53232368060461
 21
-99.591522157995882
 31
0.0
  0
LINE
  8
DETAIL
  6
CONTINUOUS
 62
     5
 10
-180.67319707734671
 20
-99.591522157995882
 30
0.0
 11
180.6731970773462
 21
-99.591522157995882
 31
0.0
  0
LINE
  8
DETAIL
  6
CONTINUOUS
 62
     5
 10
206.53232368060429
 20
-99.591522157995882
 30
0.0
 11
238.333333333333
 21
-99.591522157995882
 31
0.0
  0
LINE
  8
DETAIL
  6
CONTINUOUS
 62
     5
 10
-238.33333333333351
 20
-95.58381502890154
 30
0.0
 11
-206.53232368060461
 21
-95.58381502890154
 31
0.0
  0
LINE
  8
DETAIL
  6
CONTINUOUS
 62
     5
 10
-180.67319707734671
 20
-95.58381502890154
 30
0.0
 11
180.6731970773462
 21
-95.58381502890154
 31
0.0
  0
LINE
  8
DETAIL
  6
CONTINUOUS
 62
     5
 10
206.53232368060429
 20
-95.58381502890154
 30
0.0
 11
238.333333333333
 21
-95.58381502890154
 31
0.0
  0
LINE
  8
DETAIL
  6
CONTINUOUS
 62
     5
 10
26.057750734429192
 20
-144.67822736030831
 30
0.0
 11
25.22835217746433
 21
-135.1981584741884
 31
0.0
  0
LINE
  8
DETAIL
  6
CONTINUOUS
 62
     5
 10
23.044315992292919
 20
-110.41233140655081
 30
0.0
 11
23.044315992292919
 21
-102.39691714836211
 31
0.0
  0
LINE
  8
DETAIL
  6
CONTINUOUS
 62
     5
 10
10.513107275029141
 20
-147.94003997557721
 30
0.0
 11
12.856099651026851
 21
-145.59702468343201
 31
0.0
  0
LINE
  8
DETAIL
  6
CONTINUOUS
 62
     5
 10
209.43116466766739
 20
-78.901734104046
 30
0.0
 11
207.01572659314891
 21
-78.901734104046
 31
0.0
  0
LINE
  8
DETAIL
  6
CONTINUOUS
 62
     5
 10
209.43116466766739
 20
-75.394990366088564
 30
0.0
 11
206.53232368060429
 21
-75.394990366088564
 31
0.0
  0
LINE
  8
DETAIL
  6
CONTINUOUS
 62
     5
 10
48.039606009008367
 20
-221.4258188824663
 30
0.0
 11
48.039606009008367
 21
-214.913294797688
 31
0.0
  0
LINE
  8
DETAIL
  6
CONTINUOUS
 62
     5
 10
51.29586805139752
 20
-211.70712909441229
 30
0.0
 11
51.29586805139752
 21
-214.913294797688
 31
0.0
  0
LINE
  8
DETAIL
  6
CONTINUOUS
 62
     5
 10
54.552130093786673
 20
-221.4258188824663
 30
0.0
 11
54.552130093786673
 21
-215.4949699869378
 31
0.0
  0
LINE
  8
DETAIL
  6
CONTINUOUS
 62
     5
 10
57.808392136175833
 20
-211.70712909441229
 30
0.0
 11
57.808392136175833
 21
-214.913294797688
 31
0.0
  0
LINE
  8
DETAIL
  6
CONTINUOUS
 62
     5
 10
61.064654178565434
 20
-221.4258188824663
 30
0.0
 11
61.064654178565434
 21
-214.913294797688
 31
0.0
  0
LINE
  8
DETAIL
  6
CONTINUOUS
 62
     5
 10
63.569471134249397
 20
-225.4335260115605
 30
0.0
 11
63.569471134249397
 21
-221.4258188824663
 31
0.0
  0
LINE
  8
DETAIL
  6
CONTINUOUS
 62
     5
 10
65.325626204238688
 20
-281.24084778420018
 30
0.0
 11
65.325626204238688
 21
-266.51252408477842
 31
0.0
  0
LINE
  8
DETAIL
  6
CONTINUOUS
 62
     5
 10
65.325626204238688
 20
-175.2744335423769
 30
0.0
 11
65.325626204238688
 21
-155.89980732177261
 31
0.0
  0
LINE
  8
DETAIL
  6
CONTINUOUS
 62
     5
 10
66.127167630057556
 20
-219.4219653179189
 30
0.0
 11
66.127167630057556
 21
-186.75500383099359
 31
0.0
  0
LINE
  8
DETAIL
  6
CONTINUOUS
 62
     5
 10
86.165703275529722
 20
-225.4335260115605
 30
0.0
 11
86.165703275529722
 21
-221.4258188824663
 31
0.0
  0
LINE
  8
DETAIL
  6
CONTINUOUS
 62
     5
 10
89.672447013487727
 20
-266.51252408477842
 30
0.0
 11
89.672447013487727
 21
-230.4431599229288
 31
0.0
  0
LINE
  8
DETAIL
  6
CONTINUOUS
 62
     5
 10
243.368015414258
 20
-20.038535645472049
 30
0.0
 11
206.53232368060429
 21
-20.038535645472049
 31
0.0
  0
LINE
  8
DETAIL
  6
CONTINUOUS
 62
     5
 10
180.6731970773462
 20
-20.038535645472049
 30
0.0
 11
-180.67319707734671
 21
-20.038535645472049
 31
0.0
  0
LINE
  8
DETAIL
  6
CONTINUOUS
 62
     5
 10
-206.53232368060461
 20
-20.038535645472049
 30
0.0
 11
-243.36801541425831
 21
-20.038535645472049
 31
0.0
  0
LINE
  8
DETAIL
  6
CONTINUOUS
 62
     5
 10
216.32412484017729
 20
-18.53564547206156
 30
0.0
 11
206.53232368060429
 21
-18.53564547206156
 31
0.0
  0
LINE
  8
DETAIL
  6
CONTINUOUS
 62
     5
 10
-175.13221124965591
 20
-18.53564547206156
 30
0.0
 11
-185.15147907239199
 21
-18.53564547206156
 31
0.0
  0
LINE
  8
DETAIL
  6
CONTINUOUS
 62
     5
 10
244.5005606345367
 20
-14.52793834296688
 30
0.0
 11
163.13858383284509
 21
-14.52793834296688
 31
0.0
  0
LINE
  8
DETAIL
  6
CONTINUOUS
 62
     5
 10
-163.1385838328456
 20
-14.52793834296688
 30
0.0
 11
-244.50056063453709
 21
-14.52793834296688
 31
0.0
  0
LINE
  8
DETAIL
  6
CONTINUOUS
 62
     5
 10
253.38728323699431
 20
-10.019267822736079
 30
0.0
 11
250.1758680125113
 21
-10.019267822736079
 31
0.0
  0
LINE
  8
DETAIL
  6
CONTINUOUS
 62
     5
 10
189.28735474113549
 20
-10.019267822736079
 30
0.0
 11
-189.28735474113549
 21
-10.019267822736079
 31
0.0
  0
LINE
  8
DETAIL
  6
CONTINUOUS
 62
     5
 10
-189.28735474113549
 20
-10.019267822736079
 30
0.0
 11
-194.90771509461271
 21
-10.019267822736079
 31
0.0
  0
LINE
  8
DETAIL
  6
CONTINUOUS
 62
     5
 10
-250.1758680125115
 20
-10.019267822736079
 30
0.0
 11
-253.38728323699431
 21
-10.019267822736079
 31
0.0
  0
LINE
  8
DETAIL
  6
CONTINUOUS
 62
     5
 10
189.28735474113549
 20
-10.019267822736079
 30
0.0
 11
194.90771509461231
 21
-10.019267822736079
 31
0.0
  0
LINE
  8
DETAIL
  6
CONTINUOUS
 62
     5
 10
253.8226442489304
 20
-5.1098265895952864
 30
0.0
 11
203.82636743547761
 21
-5.1098265895952864
 31
0.0
  0
LINE
  8
DETAIL
  6
CONTINUOUS
 62
     5
 10
-253.8226442489304
 20
-5.1098265895952864
 30
0.0
 11
-203.82636743547801
 21
-5.1098265895952864
 31
0.0
  0
LINE
  8
DETAIL
  6
CONTINUOUS
 62
     5
 10
258.49710982658962
 20
-3.0057803468209841
 30
0.0
 11
-258.49710982658962
 21
-3.0057803468209841
 31
0.0
  0
LINE
  8
DETAIL
  6
CONTINUOUS
 62
     5
 10
258.49710982658962
 20
0.0
 30
0.0
 11
-258.49710982658962
 21
0.0
 31
0.0
  0
LINE
  8
DETAIL
  6
CONTINUOUS
 62
     5
 10
207.19673085749309
 20
-78.901734104046
 30
0.0
 11
207.90520007947359
 21
-77.899807321772641
 31
0.0
  0
LINE
  8
DETAIL
  6
CONTINUOUS
 62
     5
 10
151.09460705917991
 20
-16.4315992292868
 30
0.0
 11
151.09460705917991
 21
-13.02504816955684
 31
0.0
  0
LINE
  8
DETAIL
  6
CONTINUOUS
 62
     5
 10
163.13858383284509
 20
-14.52793834296688
 30
0.0
 11
163.13858383284509
 21
-10.019267822736079
 31
0.0
  0
LINE
  8
DETAIL
  6
CONTINUOUS
 62
     5
 10
180.6731970773462
 20
-160.30828516377619
 30
0.0
 11
180.6731970773462
 21
-14.52793834296688
 31
0.0
  0
LINE
  8
DETAIL
  6
CONTINUOUS
 62
     5
 10
192.8942911573204
 20
-6.4123314065507202
 30
0.0
 11
192.8942911573204
 21
-3.0057803468209841
 31
0.0
  0
LINE
  8
DETAIL
  6
CONTINUOUS
 62
     5
 10
203.34421218136779
 20
-160.30828516377619
 30
0.0
 11
203.34421218136779
 21
-14.52793834296688
 31
0.0
  0
LINE
  8
DETAIL
  6
CONTINUOUS
 62
     5
 10
204.22979870900599
 20
-5.1098265895952864
 30
0.0
 11
204.22979870900599
 21
-3.0057803468209841
 31
0.0
  0
LINE
  8
DETAIL
  6
CONTINUOUS
 62
     5
 10
206.53232368060429
 20
-14.52793834296688
 30
0.0
 11
206.53232368060429
 21
-160.30828516377619
 31
0.0
  0
LINE
  8
DETAIL
  6
CONTINUOUS
 62
     5
 10
207.90520007947359
 20
-76.396917148362263
 30
0.0
 11
207.90520007947359
 21
-77.899807321772641
 31
0.0
  0
LINE
  8
DETAIL
  6
CONTINUOUS
 62
     5
 10
209.43117939273819
 20
-75.394990366088564
 30
0.0
 11
209.43117939273819
 21
-78.901734104046
 31
0.0
  0
LINE
  8
DETAIL
  6
CONTINUOUS
 62
     5
 10
207.90520007947359
 20
-76.396917148362263
 30
0.0
 11
207.19673085749309
 21
-75.394990366088564
 31
0.0
  0
LINE
  8
DETAIL
  6
CONTINUOUS
 62
     5
 10
211.31449092880891
 20
-14.52793834296688
 30
0.0
 11
211.31449092880891
 21
-18.088203018141598
 31
0.0
  0
LINE
  8
DETAIL
  6
CONTINUOUS
 62
     5
 10
216.32412484017729
 20
-18.53564547206156
 30
0.0
 11
216.32412484017729
 21
-14.52793834296688
 31
0.0
  0
LINE
  8
DETAIL
  6
CONTINUOUS
 62
     5
 10
246.97495183044339
 20
-13.89435725155761
 30
0.0
 11
246.97495183044339
 21
-16.4315992292868
 31
0.0
  0
LINE
  8
DETAIL
  6
CONTINUOUS
 62
     5
 10
253.8226442489304
 20
-5.1098265895952864
 30
0.0
 11
253.8226442489304
 21
-3.0057803468209841
 31
0.0
  0
LINE
  8
DETAIL
  6
CONTINUOUS
 62
     5
 10
256.99421965317919
 20
-3.0057803468209841
 30
0.0
 11
256.99421965317919
 21
-6.4123314065507202
 31
0.0
  0
ARC
  8
DETAIL
  6
CONTINUOUS
 62
     5
 10
-57.911368015414148
 20
-281.24084778420018
 30
0.0
 40
7.4142581888247037
 50
180.0
 51
270.0
  0
ARC
  8
DETAIL
  6
CONTINUOUS
 62
     5
 10
-83.660886319845758
 20
-231.44508670520199
 30
0.0
 40
6.0115606936415116
 50
90.0
 51
180.0
  0
ARC
  8
DETAIL
  6
CONTINUOUS
 62
     5
 10
-253.38728323699431
 20
-6.4123314065507202
 30
0.0
 40
3.606936416184908
 50
180.0
 51
270.0
  0
ARC
  8
DETAIL
  6
CONTINUOUS
 62
     5
 10
-189.28735474113549
 20
-6.4123314065507202
 30
0.0
 40
3.6069364161849649
 50
180.0
 51
270.0
  0
ARC
  8
DETAIL
  6
CONTINUOUS
 62
     5
 10
-243.36801541425831
 20
-16.4315992292868
 30
0.0
 40
3.606936416184908
 50
180.0
 51
270.0
  0
ARC
  8
DETAIL
  6
CONTINUOUS
 62
     5
 10
-147.487670642995
 20
-16.4315992292868
 30
0.0
 40
3.6069364161849649
 50
180.0
 51
270.0
  0
ARC
  8
DETAIL
  6
CONTINUOUS
 62
     5
 10
-154.10038740600069
 20
-13.02504816955684
 30
0.0
 40
3.005780346820814
 50
0.0
 51
90.0
  0
ARC
  8
DETAIL
  6
CONTINUOUS
 62
     5
 10
-238.33333333333351
 20
-97.587668593448825
 30
0.0
 40
2.0038535645472848
 50
90.0
 51
270.0
  0
ARC
  8
DETAIL
  6
CONTINUOUS
 62
     5
 10
-258.49710982658962
 20
-1.5028901734103779
 30
0.0
 40
1.5028901734103779
 50
90.0
 51
270.0
  0
ARC
  8
DETAIL
  6
CONTINUOUS
 62
     5
 10
-57.911368015414148
 20
-155.89980732177261
 30
0.0
 40
7.4142581888247614
 50
90.0
 51
180.0
  0
ARC
  8
DETAIL
  6
CONTINUOUS
 62
     5
 10
-20.237781435127541
 20
-135.63477683982691
 30
0.0
 40
5.0096339113681569
 50
94.999999935999412
 51
174.99999998889709
  0
ARC
  8
DETAIL
  6
CONTINUOUS
 62
     5
 10
-13.02504816955661
 20
-151.591522157996
 30
0.0
 40
3.606936416184908
 50
90.0
 51
120.506440523105
  0
ARC
  8
DETAIL
  6
CONTINUOUS
 62
     5
 10
-21.040462427745751
 20
-112.41618497109801
 30
0.0
 40
2.0038535645471711
 50
0.0
 51
85.568182080995882
  0
ARC
  8
DETAIL
  6
CONTINUOUS
 62
     5
 10
-68.131021194605182
 20
-219.4219653179189
 30
0.0
 40
2.003853564547057
 50
270.0
 51
0.0
  0
ARC
  8
DETAIL
  6
CONTINUOUS
 62
     5
 10
-11.722543352600949
 20
-144.4634794719116
 30
0.0
 40
1.603082851637744
 50
187.70070112469659
 51
224.99971980700289
  0
ARC
  8
DETAIL
  6
CONTINUOUS
 62
     5
 10
-11.22157996146416
 20
-148.64850573310289
 30
0.0
 40
1.00192678227364
 50
41.609122939317203
 51
44.999719807005199
  0
ARC
  8
DETAIL
  6
CONTINUOUS
 62
     5
 10
57.911368015414148
 20
-281.24084778420018
 30
0.0
 40
7.4142581888247614
 50
270.0
 51
0.0
  0
ARC
  8
DETAIL
  6
CONTINUOUS
 62
     5
 10
0.0
 20
-284.6248554913293
 30
0.0
 40
6.5350674373797446
 50
223.89739816710741
 51
316.10260183289262
  0
ARC
  8
DETAIL
  6
CONTINUOUS
 62
     5
 10
83.660886319845758
 20
-231.44508670520199
 30
0.0
 40
6.0115606936416279
 50
0.0
 51
90.0
  0
ARC
  8
DETAIL
  6
CONTINUOUS
 62
     5
 10
57.911368015414148
 20
-155.89980732177261
 30
0.0
 40
7.4142581888247037
 50
0.0
 51
90.0
  0
ARC
  8
DETAIL
  6
CONTINUOUS
 62
     5
 10
20.237781435127541
 20
-135.63477683982691
 30
0.0
 40
5.0096339113680806
 50
5.0000000111029186
 51
85.000000064000588
  0
ARC
  8
DETAIL
  6
CONTINUOUS
 62
     5
 10
13.02504816955661
 20
-151.591522157996
 30
0.0
 40
3.6069364161849888
 50
59.493559476894958
 51
90.0
  0
ARC
  8
DETAIL
  6
CONTINUOUS
 62
     5
 10
21.040462427745751
 20
-112.41618497109801
 30
0.0
 40
2.003853564547073
 50
90.0
 51
180.0
  0
ARC
  8
DETAIL
  6
CONTINUOUS
 62
     5
 10
68.131021194604727
 20
-219.4219653179189
 30
0.0
 40
2.003853564547228
 50
180.0
 51
270.0
  0
ARC
  8
DETAIL
  6
CONTINUOUS
 62
     5
 10
11.722543352600949
 20
-144.4634794719116
 30
0.0
 40
1.6030828516377471
 50
315.00028019299708
 51
352.29929887529039
  0
ARC
  8
DETAIL
  6
CONTINUOUS
 62
     5
 10
11.22157996146416
 20
-148.64850573310289
 30
0.0
 40
1.001926782273612
 50
135.00028019299481
 51
138.39087706068281
  0
ARC
  8
DETAIL
  6
CONTINUOUS
 62
     5
 10
189.28735474113549
 20
-6.4123314065507202
 30
0.0
 40
3.606936416184793
 50
270.0
 51
0.0
  0
ARC
  8
DETAIL
  6
CONTINUOUS
 62
     5
 10
147.487670642995
 20
-16.4315992292868
 30
0.0
 40
3.606936416185023
 50
270.0
 51
0.0
  0
ARC
  8
DETAIL
  6
CONTINUOUS
 62
     5
 10
243.368015414258
 20
-16.4315992292868
 30
0.0
 40
3.606936416185023
 50
270.0
 51
0.0
  0
ARC
  8
DETAIL
  6
CONTINUOUS
 62
     5
 10
253.38728323699431
 20
-6.4123314065507202
 30
0.0
 40
3.606936416184793
 50
270.0
 51
0.0
  0
ARC
  8
DETAIL
  6
CONTINUOUS
 62
     5
 10
154.10038740600069
 20
-13.02504816955684
 30
0.0
 40
3.0057803468207571
 50
90.0
 51
180.0
  0
ARC
  8
DETAIL
  6
CONTINUOUS
 62
     5
 10
238.333333333333
 20
-97.587668593448825
 30
0.0
 40
2.003853564547057
 50
270.0
 51
90.0
  0
ARC
  8
DETAIL
  6
CONTINUOUS
 62
     5
 10
258.49710982658962
 20
-1.5028901734103779
 30
0.0
 40
1.5028901734103779
 50
270.0
 51
90.0
  0
LINE
  8
DETAIL
  6
CONTINUOUS
 62
     5
 10
1.5232088276152349
 20
-290.79468337742401
 30
0.0
 11
1.5047595783680661
 21
-290.80300158206842
 31
0.0
  0
LINE
  8
DETAIL
  6
CONTINUOUS
 62
     5
 10
1.5047595783680661
 20
-290.80300158206842
 30
0.0
 11
1.486331320117642
 21
-290.81132032424989
 31
0.0
  0
LINE
  8
DETAIL
  6
CONTINUOUS
 62
     5
 10
1.486331320117642
 20
-290.81132032424989
 30
0.0
 11
1.486331320117642
 21
-290.81132032424989
 31
0.0
  0
LINE
  8
DETAIL
  6
CONTINUOUS
 62
     5
 10
1.486331320117642
 20
-290.81132032424989
 30
0.0
 11
1.4679251588713671
 21
-290.81964496111777
 31
0.0
  0
LINE
  8
DETAIL
  6
CONTINUOUS
 62
     5
 10
1.4679251588713671
 20
-290.81964496111777
 30
0.0
 11
1.44946266068564
 21
-290.82800012827431
 31
0.0
  0
LINE
  8
DETAIL
  6
CONTINUOUS
 62
     5
 10
1.44946266068564
 20
-290.82800012827431
 30
0.0
 11
1.44946266068564
 21
-290.82800012827431
 31
0.0
  0
LINE
  8
DETAIL
  6
CONTINUOUS
 62
     5
 10
1.44946266068564
 20
-290.82800012827431
 30
0.0
 11
1.4309222815618341
 21
-290.83638260960993
 31
0.0
  0
LINE
  8
DETAIL
  6
CONTINUOUS
 62
     5
 10
1.4309222815618341
 20
-290.83638260960993
 30
0.0
 11
1.412589577238577
 21
-290.84465850371657
 31
0.0
  0
LINE
  8
DETAIL
  6
CONTINUOUS
 62
     5
 10
1.412589577238577
 20
-290.84465850371657
 30
0.0
 11
1.412589577238577
 21
-290.84465850371657
 31
0.0
  0
LINE
  8
DETAIL
  6
CONTINUOUS
 62
     5
 10
1.412589577238577
 20
-290.84465850371657
 30
0.0
 11
1.394539663639534
 21
-290.85278710354692
 31
0.0
  0
LINE
  8
DETAIL
  6
CONTINUOUS
 62
     5
 10
1.394539663639534
 20
-290.85278710354692
 30
0.0
 11
1.3756987976926209
 21
-290.86123116479638
 31
0.0
  0
LINE
  8
DETAIL
  6
CONTINUOUS
 62
     5
 10
1.3756987976926209
 20
-290.86123116479638
 30
0.0
 11
1.3756987976926209
 21
-290.86123116479638
 31
0.0
  0
LINE
  8
DETAIL
  6
CONTINUOUS
 62
     5
 10
1.3756987976926209
 20
-290.86123116479638
 30
0.0
 11
1.3557781056379099
 21
-290.87010851742679
 31
0.0
  0
LINE
  8
DETAIL
  6
CONTINUOUS
 62
     5
 10
1.3557781056379099
 20
-290.87010851742679
 30
0.0
 11
1.3387770499657561
 21
-290.8776538257332
 31
0.0
  0
LINE
  8
DETAIL
  6
CONTINUOUS
 62
     5
 10
1.3387770499657561
 20
-290.8776538257332
 30
0.0
 11
1.3387770499657561
 21
-290.8776538257332
 31
0.0
  0
LINE
  8
DETAIL
  6
CONTINUOUS
 62
     5
 10
1.3387770499657561
 20
-290.8776538257332
 30
0.0
 11
1.3280770380815741
 21
-290.88237814810708
 31
0.0
  0
LINE
  8
DETAIL
  6
CONTINUOUS
 62
     5
 10
1.3280770380815741
 20
-290.88237814810708
 30
0.0
 11
1.3202989207998139
 21
-290.88578128500279
 31
0.0
  0
LINE
  8
DETAIL
  6
CONTINUOUS
 62
     5
 10
1.3202989207998139
 20
-290.88578128500279
 30
0.0
 11
1.3202989207998139
 21
-290.88578128500279
 31
0.0
  0
LINE
  8
DETAIL
  6
CONTINUOUS
 62
     5
 10
1.3202989207998139
 20
-290.88578128500279
 30
0.0
 11
1.3114443957374531
 21
-290.88963397236438
 31
0.0
  0
LINE
  8
DETAIL
  6
CONTINUOUS
 62
     5
 10
1.3114443957374531
 20
-290.88963397236438
 30
0.0
 11
1.3017991043061561
 21
-290.89380194603859
 31
0.0
  0
LINE
  8
DETAIL
  6
CONTINUOUS
 62
     5
 10
1.3017991043061561
 20
-290.89380194603859
 30
0.0
 11
1.3017991043061561
 21
-290.89380194603859
 31
0.0
  0
LINE
  8
DETAIL
  6
CONTINUOUS
 62
     5
 10
1.3017991043061561
 20
-290.89380194603859
 30
0.0
 11
1.292432704047314
 21
-290.89780230265637
 31
0.0
  0
LINE
  8
DETAIL
  6
CONTINUOUS
 62
     5
 10
1.292432704047314
 20
-290.89780230265637
 30
0.0
 11
1.2832669732219979
 21
-290.90166258208728
 31
0.0
  0
LINE
  8
DETAIL
  6
CONTINUOUS
 62
     5
 10
1.2832669732219979
 20
-290.90166258208728
 30
0.0
 11
1.2832669732219979
 21
-290.90166258208728
 31
0.0
  0
LINE
  8
DETAIL
  6
CONTINUOUS
 62
     5
 10
1.2832669732219979
 20
-290.90166258208728
 30
0.0
 11
1.2740136136017099
 21
-290.90550374179628
 31
0.0
  0
LINE
  8
DETAIL
  6
CONTINUOUS
 62
     5
 10
1.2740136136017099
 20
-290.90550374179628
 30
0.0
 11
1.26469190028547
 21
-290.90930996639548
 31
0.0
  0
LINE
  8
DETAIL
  6
CONTINUOUS
 62
     5
 10
1.26469190028547
 20
-290.90930996639548
 30
0.0
 11
1.26469190028547
 21
-290.90930996639548
 31
0.0
  0
LINE
  8
DETAIL
  6
CONTINUOUS
 62
     5
 10
1.26469190028547
 20
-290.90930996639548
 30
0.0
 11
1.255377398196742
 21
-290.91304040932778
 31
0.0
  0
LINE
  8
DETAIL
  6
CONTINUOUS
 62
     5
 10
1.255377398196742
 20
-290.91304040932778
 30
0.0
 11
1.2460632582346991
 21
-290.91669087221089
 31
0.0
  0
LINE
  8
DETAIL
  6
CONTINUOUS
 62
     5
 10
1.2460632582346991
 20
-290.91669087221089
 30
0.0
 11
1.2460632582346991
 21
-290.91669087221089
 31
0.0
  0
LINE
  8
DETAIL
  6
CONTINUOUS
 62
     5
 10
1.2460632582346991
 20
-290.91669087221089
 30
0.0
 11
1.236728157589823
 21
-290.92026696002063
 31
0.0
  0
LINE
  8
DETAIL
  6
CONTINUOUS
 62
     5
 10
1.236728157589823
 20
-290.92026696002063
 30
0.0
 11
1.227375292638953
 21
-290.92377684298708
 31
0.0
  0
LINE
  8
DETAIL
  6
CONTINUOUS
 62
     5
 10
1.227375292638953
 20
-290.92377684298708
 30
0.0
 11
1.227375292638953
 21
-290.92377684298708
 31
0.0
  0
LINE
  8
DETAIL
  6
CONTINUOUS
 62
     5
 10
1.227375292638953
 20
-290.92377684298708
 30
0.0
 11
1.218012510291373
 21
-290.92722999046032
 31
0.0
  0
LINE
  8
DETAIL
  6
CONTINUOUS
 62
     5
 10
1.218012510291373
 20
-290.92722999046032
 30
0.0
 11
1.208641740394341
 21
-290.9306385030095
 31
0.0
  0
LINE
  8
DETAIL
  6
CONTINUOUS
 62
     5
 10
1.208641740394341
 20
-290.9306385030095
 30
0.0
 11
1.208641740394341
 21
-290.9306385030095
 31
0.0
  0
LINE
  8
DETAIL
  6
CONTINUOUS
 62
     5
 10
1.208641740394341
 20
-290.9306385030095
 30
0.0
 11
1.199263829900246
 21
-290.93401496275249
 31
0.0
  0
LINE
  8
DETAIL
  6
CONTINUOUS
 62
     5
 10
1.199263829900246
 20
-290.93401496275249
 30
0.0
 11
1.189881211230386
 21
-290.93737124677102
 31
0.0
  0
LINE
  8
DETAIL
  6
CONTINUOUS
 62
     5
 10
1.189881211230386
 20
-290.93737124677102
 30
0.0
 11
1.189881211230386
 21
-290.93737124677102
 31
0.0
  0
LINE
  8
DETAIL
  6
CONTINUOUS
 62
     5
 10
1.189881211230386
 20
-290.93737124677102
 30
0.0
 11
1.1804966069685181
 21
-290.94071910311959
 31
0.0
  0
LINE
  8
DETAIL
  6
CONTINUOUS
 62
     5
 10
1.1804966069685181
 20
-290.94071910311959
 30
0.0
 11
1.1711123148734259
 21
-290.94407046876358
 31
0.0
  0
LINE
  8
DETAIL
  6
CONTINUOUS
 62
     5
 10
1.1711123148734259
 20
-290.94407046876358
 30
0.0
 11
1.1711123148734259
 21
-290.94407046876358
 31
0.0
  0
LINE
  8
DETAIL
  6
CONTINUOUS
 62
     5
 10
1.1711123148734259
 20
-290.94407046876358
 30
0.0
 11
1.1617305549548289
 21
-290.94743731524272
 31
0.0
  0
LINE
  8
DETAIL
  6
CONTINUOUS
 62
     5
 10
1.1617305549548289
 20
-290.94743731524272
 30
0.0
 11
1.152353661052985
 21
-290.95083156347908
 31
0.0
  0
LINE
  8
DETAIL
  6
CONTINUOUS
 62
     5
 10
1.152353661052985
 20
-290.95083156347908
 30
0.0
 11
1.152353661052985
 21
-290.95083156347908
 31
0.0
  0
LINE
  8
DETAIL
  6
CONTINUOUS
 62
     5
 10
1.152353661052985
 20
-290.95083156347908
 30
0.0
 11
1.142983266536248
 21
-290.95426119344802
 31
0.0
  0
LINE
  8
DETAIL
  6
CONTINUOUS
 62
     5
 10
1.142983266536248
 20
-290.95426119344802
 30
0.0
 11
1.133618089043011
 21
-290.95771847196642
 31
0.0
  0
LINE
  8
DETAIL
  6
CONTINUOUS
 62
     5
 10
1.133618089043011
 20
-290.95771847196642
 30
0.0
 11
1.133618089043011
 21
-290.95771847196642
 31
0.0
  0
LINE
  8
DETAIL
  6
CONTINUOUS
 62
     5
 10
1.133618089043011
 20
-290.95771847196642
 30
0.0
 11
1.124256119323036
 21
-290.96119173665193
 31
0.0
  0
LINE
  8
DETAIL
  6
CONTINUOUS
 62
     5
 10
1.124256119323036
 20
-290.96119173665193
 30
0.0
 11
1.1148953563001669
 21
-290.96466932148928
 31
0.0
  0
LINE
  8
DETAIL
  6
CONTINUOUS
 62
     5
 10
1.1148953563001669
 20
-290.96466932148928
 30
0.0
 11
1.1148953563001669
 21
-290.96466932148928
 31
0.0
  0
LINE
  8
DETAIL
  6
CONTINUOUS
 62
     5
 10
1.1148953563001669
 20
-290.96466932148928
 30
0.0
 11
1.1055338003925499
 21
-290.96813955979712
 31
0.0
  0
LINE
  8
DETAIL
  6
CONTINUOUS
 62
     5
 10
1.1055338003925499
 20
-290.96813955979712
 30
0.0
 11
1.096169449828267
 21
-290.9715907858689
 31
0.0
  0
LINE
  8
DETAIL
  6
CONTINUOUS
 62
     5
 10
1.096169449828267
 20
-290.9715907858689
 30
0.0
 11
1.096169449828267
 21
-290.9715907858689
 31
0.0
  0
LINE
  8
DETAIL
  6
CONTINUOUS
 62
     5
 10
1.096169449828267
 20
-290.9715907858689
 30
0.0
 11
1.0868003024356769
 21
-290.97501133417461
 31
0.0
  0
LINE
  8
DETAIL
  6
CONTINUOUS
 62
     5
 10
1.0868003024356769
 20
-290.97501133417461
 30
0.0
 11
1.077424356630218
 21
-290.97838953892449
 31
0.0
  0
LINE
  8
DETAIL
  6
CONTINUOUS
 62
     5
 10
1.077424356630218
 20
-290.97838953892449
 30
0.0
 11
1.077424356630218
 21
-290.97838953892449
 31
0.0
  0
LINE
  8
DETAIL
  6
CONTINUOUS
 62
     5
 10
1.077424356630218
 20
-290.97838953892449
 30
0.0
 11
1.068039610932829
 21
-290.98171373428102
 31
0.0
  0
LINE
  8
DETAIL
  6
CONTINUOUS
 62
     5
 10
1.068039610932829
 20
-290.98171373428102
 30
0.0
 11
1.0586440637089249
 21
-290.9849722544767
 31
0.0
  0
LINE
  8
DETAIL
  6
CONTINUOUS
 62
     5
 10
1.0586440637089249
 20
-290.9849722544767
 30
0.0
 11
1.0586440637089249
 21
-290.9849722544767
 31
0.0
  0
LINE
  8
DETAIL
  6
CONTINUOUS
 62
     5
 10
1.0586440637089249
 20
-290.9849722544767
 30
0.0
 11
1.0492361926271769
 21
-290.98815620051482
 31
0.0
  0
LINE
  8
DETAIL
  6
CONTINUOUS
 62
     5
 10
1.0492361926271769
 20
-290.98815620051482
 30
0.0
 11
1.039816392728881
 21
-290.99126774041679
 31
0.0
  0
LINE
  8
DETAIL
  6
CONTINUOUS
 62
     5
 10
1.039816392728881
 20
-290.99126774041679
 30
0.0
 11
1.039816392728881
 21
-290.99126774041679
 31
0.0
  0
LINE
  8
DETAIL
  6
CONTINUOUS
 62
     5
 10
1.039816392728881
 20
-290.99126774041679
 30
0.0
 11
1.030385538395876
 21
-290.99431180895863
 31
0.0
  0
LINE
  8
DETAIL
  6
CONTINUOUS
 62
     5
 10
1.030385538395876
 20
-290.99431180895863
 30
0.0
 11
1.0209445039981799
 21
-290.99729334092081
 31
0.0
  0
LINE
  8
DETAIL
  6
CONTINUOUS
 62
     5
 10
1.0209445039981799
 20
-290.99729334092081
 30
0.0
 11
1.0209445039981799
 21
-290.99729334092081
 31
0.0
  0
LINE
  8
DETAIL
  6
CONTINUOUS
 62
     5
 10
1.0209445039981799
 20
-290.99729334092081
 30
0.0
 11
1.0114941639039901
 21
-291.00021727108572
 31
0.0
  0
LINE
  8
DETAIL
  6
CONTINUOUS
 62
     5
 10
1.0114941639039901
 20
-291.00021727108572
 30
0.0
 11
1.0020353924846861
 21
-291.00308853423508
 31
0.0
  0
LINE
  8
DETAIL
  6
CONTINUOUS
 62
     5
 10
1.0020353924846861
 20
-291.00308853423508
 30
0.0
 11
1.0020353924846861
 21
-291.00308853423508
 31
0.0
  0
LINE
  8
DETAIL
  6
CONTINUOUS
 62
     5
 10
1.0020353924846861
 20
-291.00308853423508
 30
0.0
 11
0.9925690641125584
 21
-291.00591206514832
 31
0.0
  0
LINE
  8
DETAIL
  6
CONTINUOUS
 62
     5
 10
0.9925690641125584
 20
-291.00591206514832
 30
0.0
 11
0.9830960531580786
 21
-291.00869279860672
 31
0.0
  0
LINE
  8
DETAIL
  6
CONTINUOUS
 62
     5
 10
0.9830960531580786
 20
-291.00869279860672
 30
0.0
 11
0.9830960531580786
 21
-291.00869279860672
 31
0.0
  0
LINE
  8
DETAIL
  6
CONTINUOUS
 62
     5
 10
0.9830960531580786
 20
-291.00869279860672
 30
0.0
 11
0.973617233992627
 21
-291.01143566939118
 31
0.0
  0
LINE
  8
DETAIL
  6
CONTINUOUS
 62
     5
 10
0.973617233992627
 20
-291.01143566939118
 30
0.0
 11
0.9641334809866748
 21
-291.01414561228262
 31
0.0
  0
LINE
  8
DETAIL
  6
CONTINUOUS
 62
     5
 10
0.9641334809866748
 20
-291.01414561228262
 30
0.0
 11
0.9641334809866748
 21
-291.01414561228262
 31
0.0
  0
LINE
  8
DETAIL
  6
CONTINUOUS
 62
     5
 10
0.9641334809866748
 20
-291.01414561228262
 30
0.0
 11
0.9546456739662972
 21
-291.01682787770733
 31
0.0
  0
LINE
  8
DETAIL
  6
CONTINUOUS
 62
     5
 10
0.9546456739662972
 20
-291.01682787770733
 30
0.0
 11
0.9451547145754375
 21
-291.01948897867169
 31
0.0
  0
LINE
  8
DETAIL
  6
CONTINUOUS
 62
     5
 10
0.9451547145754375
 20
-291.01948897867169
 30
0.0
 11
0.9451547145754375
 21
-291.01948897867169
 31
0.0
  0
LINE
  8
DETAIL
  6
CONTINUOUS
 62
     5
 10
0.9451547145754375
 20
-291.01948897867169
 30
0.0
 11
0.9356615099118244
 21
-291.02213574382631
 31
0.0
  0
LINE
  8
DETAIL
  6
CONTINUOUS
 62
     5
 10
0.9356615099118244
 20
-291.02213574382631
 30
0.0
 11
0.9261669670745505
 21
-291.02477500182351
 31
0.0
  0
LINE
  8
DETAIL
  6
CONTINUOUS
 62
     5
 10
0.9261669670745505
 20
-291.02477500182351
 30
0.0
 11
0.9261669670745505
 21
-291.02477500182351
 31
0.0
  0
LINE
  8
DETAIL
  6
CONTINUOUS
 62
     5
 10
0.9261669670745505
 20
-291.02477500182351
 30
0.0
 11
0.9166719931613443
 21
-291.0274135813147
 31
0.0
  0
LINE
  8
DETAIL
  6
CONTINUOUS
 62
     5
 10
0.9166719931613443
 20
-291.0274135813147
 30
0.0
 11
0.9071774952708438
 21
-291.0300583109514
 31
0.0
  0
LINE
  8
DETAIL
  6
CONTINUOUS
 62
     5
 10
0.9071774952708438
 20
-291.0300583109514
 30
0.0
 11
0.9071774952708438
 21
-291.0300583109514
 31
0.0
  0
LINE
  8
DETAIL
  6
CONTINUOUS
 62
     5
 10
0.9071774952708438
 20
-291.0300583109514
 30
0.0
 11
0.8976843805012322
 21
-291.03271601938479
 31
0.0
  0
LINE
  8
DETAIL
  6
CONTINUOUS
 62
     5
 10
0.8976843805012322
 20
-291.03271601938479
 30
0.0
 11
0.8881935559502381
 21
-291.03539353526651
 31
0.0
  0
LINE
  8
DETAIL
  6
CONTINUOUS
 62
     5
 10
0.8881935559502381
 20
-291.03539353526651
 30
0.0
 11
0.8881935559502381
 21
-291.03539353526651
 31
0.0
  0
LINE
  8
DETAIL
  6
CONTINUOUS
 62
     5
 10
0.8881935559502381
 20
-291.03539353526651
 30
0.0
 11
0.8787059287178636
 21
-291.03809768724801
 31
0.0
  0
LINE
  8
DETAIL
  6
CONTINUOUS
 62
     5
 10
0.8787059287178636
 20
-291.03809768724801
 30
0.0
 11
0.869222405900473
 21
-291.04083530398088
 31
0.0
  0
LINE
  8
DETAIL
  6
CONTINUOUS
 62
     5
 10
0.869222405900473
 20
-291.04083530398088
 30
0.0
 11
0.869222405900473
 21
-291.04083530398088
 31
0.0
  0
LINE
  8
DETAIL
  6
CONTINUOUS
 62
     5
 10
0.869222405900473
 20
-291.04083530398088
 30
0.0
 11
0.8597433934455694
 21
-291.0436091847763
 31
0.0
  0
LINE
  8
DETAIL
  6
CONTINUOUS
 62
     5
 10
0.8597433934455694
 20
-291.0436091847763
 30
0.0
 11
0.8502672926929336
 21
-291.04640601158258
 31
0.0
  0
LINE
  8
DETAIL
  6
CONTINUOUS
 62
     5
 10
0.8502672926929336
 20
-291.04640601158258
 30
0.0
 11
0.8502672926929336
 21
-291.04640601158258
 31
0.0
  0
LINE
  8
DETAIL
  6
CONTINUOUS
 62
     5
 10
0.8502672926929336
 20
-291.04640601158258
 30
0.0
 11
0.8407920038303018
 21
-291.04920843700688
 31
0.0
  0
LINE
  8
DETAIL
  6
CONTINUOUS
 62
     5
 10
0.8407920038303018
 20
-291.04920843700688
 30
0.0
 11
0.8313154270454106
 21
-291.05199911365781
 31
0.0
  0
LINE
  8
DETAIL
  6
CONTINUOUS
 62
     5
 10
0.8313154270454106
 20
-291.05199911365781
 30
0.0
 11
0.8313154270454106
 21
-291.05199911365781
 31
0.0
  0
LINE
  8
DETAIL
  6
CONTINUOUS
 62
     5
 10
0.8313154270454106
 20
-291.05199911365781
 30
0.0
 11
0.8218354625259963
 21
-291.05476069414289
 31
0.0
  0
LINE
  8
DETAIL
  6
CONTINUOUS
 62
     5
 10
0.8218354625259963
 20
-291.05476069414289
 30
0.0
 11
0.8123500104597952
 21
-291.05747583107001
 31
0.0
  0
LINE
  8
DETAIL
  6
CONTINUOUS
 62
     5
 10
0.8123500104597952
 20
-291.05747583107001
 30
0.0
 11
0.8123500104597952
 21
-291.05747583107001
 31
0.0
  0
LINE
  8
DETAIL
  6
CONTINUOUS
 62
     5
 10
0.8123500104597952
 20
-291.05747583107001
 30
0.0
 11
0.8028569710349984
 21
-291.06012717704652
 31
0.0
  0
LINE
  8
DETAIL
  6
CONTINUOUS
 62
     5
 10
0.8028569710349984
 20
-291.06012717704652
 30
0.0
 11
0.7933542444402519
 21
-291.0626973846812
 31
0.0
  0
LINE
  8
DETAIL
  6
CONTINUOUS
 62
     5
 10
0.7933542444402519
 20
-291.0626973846812
 30
0.0
 11
0.7933542444402519
 21
-291.0626973846812
 31
0.0
  0
LINE
  8
DETAIL
  6
CONTINUOUS
 62
     5
 10
0.7933542444402519
 20
-291.0626973846812
 30
0.0
 11
0.7838397308619278
 21
-291.06516910658081
 31
0.0
  0
LINE
  8
DETAIL
  6
CONTINUOUS
 62
     5
 10
0.7838397308619278
 20
-291.06516910658081
 30
0.0
 11
0.7743113304891267
 21
-291.06752499535389
 31
0.0
  0
LINE
  8
DETAIL
  6
CONTINUOUS
 62
     5
 10
0.7743113304891267
 20
-291.06752499535389
 30
0.0
 11
0.7743113304891267
 21
-291.06752499535389
 31
0.0
  0
LINE
  8
DETAIL
  6
CONTINUOUS
 62
     5
 10
0.7743113304891267
 20
-291.06752499535389
 30
0.0
 11
0.7647676366686937
 21
-291.0697534874289
 31
0.0
  0
LINE
  8
DETAIL
  6
CONTINUOUS
 62
     5
 10
0.7647676366686937
 20
-291.0697534874289
 30
0.0
 11
0.7552100153898209
 21
-291.07186615451798
 31
0.0
  0
LINE
  8
DETAIL
  6
CONTINUOUS
 62
     5
 10
0.7552100153898209
 20
-291.07186615451798
 30
0.0
 11
0.7552100153898209
 21
-291.07186615451798
 31
0.0
  0
LINE
  8
DETAIL
  6
CONTINUOUS
 62
     5
 10
0.7552100153898209
 20
-291.07186615451798
 30
0.0
 11
0.7456405257998995
 21
-291.07388035215422
 31
0.0
  0
LINE
  8
DETAIL
  6
CONTINUOUS
 62
     5
 10
0.7456405257998995
 20
-291.07388035215422
 30
0.0
 11
0.7360612270481397
 21
-291.0758134358714
 31
0.0
  0
LINE
  8
DETAIL
  6
CONTINUOUS
 62
     5
 10
0.7360612270481397
 20
-291.0758134358714
 30
0.0
 11
0.7360612270481397
 21
-291.0758134358714
 31
0.0
  0
LINE
  8
DETAIL
  6
CONTINUOUS
 62
     5
 10
0.7360612270481397
 20
-291.0758134358714
 30
0.0
 11
0.7264741782819328
 21
-291.07768276120203
 31
0.0
  0
LINE
  8
DETAIL
  6
CONTINUOUS
 62
     5
 10
0.7264741782819328
 20
-291.07768276120203
 30
0.0
 11
0.7168814386491249
 21
-291.0795056836796
 31
0.0
  0
LINE
  8
DETAIL
  6
CONTINUOUS
 62
     5
 10
0.7168814386491249
 20
-291.0795056836796
 30
0.0
 11
0.7168814386491249
 21
-291.0795056836796
 31
0.0
  0
LINE
  8
DETAIL
  6
CONTINUOUS
 62
     5
 10
0.7168814386491249
 20
-291.0795056836796
 30
0.0
 11
0.7072850672984714
 21
-291.08129955883692
 31
0.0
  0
LINE
  8
DETAIL
  6
CONTINUOUS
 62
     5
 10
0.7072850672984714
 20
-291.08129955883692
 30
0.0
 11
0.6976871233787279
 21
-291.08308174220781
 31
0.0
  0
LINE
  8
DETAIL
  6
CONTINUOUS
 62
     5
 10
0.6976871233787279
 20
-291.08308174220781
 30
0.0
 11
0.6976871233787279
 21
-291.08308174220781
 31
0.0
  0
LINE
  8
DETAIL
  6
CONTINUOUS
 62
     5
 10
0.6976871233787279
 20
-291.08308174220781
 30
0.0
 11
0.6880896660372855
 21
-291.08486958932463
 31
0.0
  0
LINE
  8
DETAIL
  6
CONTINUOUS
 62
     5
 10
0.6880896660372855
 20
-291.08486958932463
 30
0.0
 11
0.6784947544228999
 21
-291.08668045572119
 31
0.0
  0
LINE
  8
DETAIL
  6
CONTINUOUS
 62
     5
 10
0.6784947544228999
 20
-291.08668045572119
 30
0.0
 11
0.6784947544228999
 21
-291.08668045572119
 31
0.0
  0
LINE
  8
DETAIL
  6
CONTINUOUS
 62
     5
 10
0.6784947544228999
 20
-291.08668045572119
 30
0.0
 11
0.6689039871957903
 21
-291.08852765944971
 31
0.0
  0
LINE
  8
DETAIL
  6
CONTINUOUS
 62
     5
 10
0.6689039871957903
 20
-291.08852765944971
 30
0.0
 11
0.6593171210683977
 21
-291.0904083686371
 31
0.0
  0
LINE
  8
DETAIL
  6
CONTINUOUS
 62
     5
 10
0.6593171210683977
 20
-291.0904083686371
 30
0.0
 11
0.6593171210683977
 21
-291.0904083686371
 31
0.0
  0
LINE
  8
DETAIL
  6
CONTINUOUS
 62
     5
 10
0.6593171210683977
 20
-291.0904083686371
 30
0.0
 11
0.6497334522655365
 21
-291.09231571392888
 31
0.0
  0
LINE
  8
DETAIL
  6
CONTINUOUS
 62
     5
 10
0.6497334522655365
 20
-291.09231571392888
 30
0.0
 11
0.6401522770106567
 21
-291.09424282597229
 31
0.0
  0
LINE
  8
DETAIL
  6
CONTINUOUS
 62
     5
 10
0.6401522770106567
 20
-291.09424282597229
 30
0.0
 11
0.6401522770106567
 21
-291.09424282597229
 31
0.0
  0
LINE
  8
DETAIL
  6
CONTINUOUS
 62
     5
 10
0.6401522770106567
 20
-291.09424282597229
 30
0.0
 11
0.6305728915285727
 21
-291.09618283541317
 31
0.0
  0
LINE
  8
DETAIL
  6
CONTINUOUS
 62
     5
 10
0.6305728915285727
 20
-291.09618283541317
 30
0.0
 11
0.6209945920445534
 21
-291.0981288728982
 31
0.0
  0
LINE
  8
DETAIL
  6
CONTINUOUS
 62
     5
 10
0.6209945920445534
 20
-291.0981288728982
 30
0.0
 11
0.6209945920445534
 21
-291.0981288728982
 31
0.0
  0
LINE
  8
DETAIL
  6
CONTINUOUS
 62
     5
 10
0.6209945920445534
 20
-291.0981288728982
 30
0.0
 11
0.6114166747825038
 21
-291.10007406907238
 31
0.0
  0
LINE
  8
DETAIL
  6
CONTINUOUS
 62
     5
 10
0.6114166747825038
 20
-291.10007406907238
 30
0.0
 11
0.6018384359667834
 21
-291.10201155458287
 31
0.0
  0
LINE
  8
DETAIL
  6
CONTINUOUS
 62
     5
 10
0.6018384359667834
 20
-291.10201155458287
 30
0.0
 11
0.6018384359667834
 21
-291.10201155458287
 31
0.0
  0
LINE
  8
DETAIL
  6
CONTINUOUS
 62
     5
 10
0.6018384359667834
 20
-291.10201155458287
 30
0.0
 11
0.5922591718226613
 21
-291.10393446007561
 31
0.0
  0
LINE
  8
DETAIL
  6
CONTINUOUS
 62
     5
 10
0.5922591718226613
 20
-291.10393446007561
 30
0.0
 11
0.5826781785735875
 21
-291.10583591619729
 31
0.0
  0
LINE
  8
DETAIL
  6
CONTINUOUS
 62
     5
 10
0.5826781785735875
 20
-291.10583591619729
 30
0.0
 11
0.5826781785735875
 21
-291.10583591619729
 31
0.0
  0
LINE
  8
DETAIL
  6
CONTINUOUS
 62
     5
 10
0.5826781785735875
 20
-291.10583591619729
 30
0.0
 11
0.5730947934998767
 21
-291.10770935414388
 31
0.0
  0
LINE
  8
DETAIL
  6
CONTINUOUS
 62
     5
 10
0.5730947934998767
 20
-291.10770935414388
 30
0.0
 11
0.5635085181006616
 21
-291.10954940731523
 31
0.0
  0
LINE
  8
DETAIL
  6
CONTINUOUS
 62
     5
 10
0.5635085181006616
 20
-291.10954940731523
 30
0.0
 11
0.5635085181006616
 21
-291.10954940731523
 31
0.0
  0
LINE
  8
DETAIL
  6
CONTINUOUS
 62
     5
 10
0.5635085181006616
 20
-291.10954940731523
 30
0.0
 11
0.5539188949314848
 21
-291.11135100966038
 31
0.0
  0
LINE
  8
DETAIL
  6
CONTINUOUS
 62
     5
 10
0.5539188949314848
 20
-291.11135100966038
 30
0.0
 11
0.54432546654607
 21
-291.11310909513008
 31
0.0
  0
LINE
  8
DETAIL
  6
CONTINUOUS
 62
     5
 10
0.54432546654607
 20
-291.11310909513008
 30
0.0
 11
0.54432546654607
 21
-291.11310909513008
 31
0.0
  0
LINE
  8
DETAIL
  6
CONTINUOUS
 62
     5
 10
0.54432546654607
 20
-291.11310909513008
 30
0.0
 11
0.53472777549905
 21
-291.11481859767349
 31
0.0
  0
LINE
  8
DETAIL
  6
CONTINUOUS
 62
     5
 10
0.53472777549905
 20
-291.11481859767349
 30
0.0
 11
0.5251253643468772
 21
-291.11647445124089
 31
0.0
  0
LINE
  8
DETAIL
  6
CONTINUOUS
 62
     5
 10
0.5251253643468772
 20
-291.11647445124089
 30
0.0
 11
0.5251253643468772
 21
-291.11647445124089
 31
0.0
  0
LINE
  8
DETAIL
  6
CONTINUOUS
 62
     5
 10
0.5251253643468772
 20
-291.11647445124089
 30
0.0
 11
0.5155177756437297
 21
-291.11807158978138
 31
0.0
  0
LINE
  8
DETAIL
  6
CONTINUOUS
 62
     5
 10
0.5155177756437297
 20
-291.11807158978138
 30
0.0
 11
0.5059045519410574
 21
-291.11960494724542
 31
0.0
  0
LINE
  8
DETAIL
  6
CONTINUOUS
 62
     5
 10
0.5059045519410574
 20
-291.11960494724542
 30
0.0
 11
0.5059045519410574
 21
-291.11960494724542
 31
0.0
  0
LINE
  8
DETAIL
  6
CONTINUOUS
 62
     5
 10
0.5059045519410574
 20
-291.11960494724542
 30
0.0
 11
0.4962852357939482
 21
-291.12106945758228
 31
0.0
  0
LINE
  8
DETAIL
  6
CONTINUOUS
 62
     5
 10
0.4962852357939482
 20
-291.12106945758228
 30
0.0
 11
0.4866593697670396
 21
-291.12246005474208
 31
0.0
  0
LINE
  8
DETAIL
  6
CONTINUOUS
 62
     5
 10
0.4866593697670396
 20
-291.12246005474208
 30
0.0
 11
0.4866593697670396
 21
-291.12246005474208
 31
0.0
  0
LINE
  8
DETAIL
  6
CONTINUOUS
 62
     5
 10
0.4866593697670396
 20
-291.12246005474208
 30
0.0
 11
0.477026792686047
 21
-291.12377450795219
 31
0.0
  0
LINE
  8
DETAIL
  6
CONTINUOUS
 62
     5
 10
0.477026792686047
 20
-291.12377450795219
 30
0.0
 11
0.4673885284009884
 21
-291.12502192755733
 31
0.0
  0
LINE
  8
DETAIL
  6
CONTINUOUS
 62
     5
 10
0.4673885284009884
 20
-291.12502192755733
 30
0.0
 11
0.4673885284009884
 21
-291.12502192755733
 31
0.0
  0
LINE
  8
DETAIL
  6
CONTINUOUS
 62
     5
 10
0.4673885284009884
 20
-291.12502192755733
 30
0.0
 11
0.457745897060704
 21
-291.12621425917769
 31
0.0
  0
LINE
  8
DETAIL
  6
CONTINUOUS
 62
     5
 10
0.457745897060704
 20
-291.12621425917769
 30
0.0
 11
0.4481002189804713
 21
-291.12736344842688
 31
0.0
  0
LINE
  8
DETAIL
  6
CONTINUOUS
 62
     5
 10
0.4481002189804713
 20
-291.12736344842688
 30
0.0
 11
0.4481002189804713
 21
-291.12736344842688
 31
0.0
  0
LINE
  8
DETAIL
  6
CONTINUOUS
 62
     5
 10
0.4481002189804713
 20
-291.12736344842688
 30
0.0
 11
0.4384528143618809
 21
-291.12848144092311
 31
0.0
  0
LINE
  8
DETAIL
  6
CONTINUOUS
 62
     5
 10
0.4384528143618809
 20
-291.12848144092311
 30
0.0
 11
0.4288050027817008
 21
-291.1295801823137
 31
0.0
  0
LINE
  8
DETAIL
  6
CONTINUOUS
 62
     5
 10
0.4288050027817008
 20
-291.1295801823137
 30
0.0
 11
0.4288050027817008
 21
-291.1295801823137
 31
0.0
  0
LINE
  8
DETAIL
  6
CONTINUOUS
 62
     5
 10
0.4288050027817008
 20
-291.1295801823137
 30
0.0
 11
0.4191581042450707
 21
-291.13067161822482
 31
0.0
  0
LINE
  8
DETAIL
  6
CONTINUOUS
 62
     5
 10
0.4191581042450707
 20
-291.13067161822482
 30
0.0
 11
0.4095134410808896
 21
-291.13176769418033
 31
0.0
  0
LINE
  8
DETAIL
  6
CONTINUOUS
 62
     5
 10
0.4095134410808896
 20
-291.13176769418033
 30
0.0
 11
0.4095134410808896
 21
-291.13176769418033
 31
0.0
  0
LINE
  8
DETAIL
  6
CONTINUOUS
 62
     5
 10
0.4095134410808896
 20
-291.13176769418033
 30
0.0
 11
0.3998723340300785
 21
-291.13288035577489
 31
0.0
  0
LINE
  8
DETAIL
  6
CONTINUOUS
 62
     5
 10
0.3998723340300785
 20
-291.13288035577489
 30
0.0
 11
0.3902360951547053
 21
-291.13402154899092
 31
0.0
  0
LINE
  8
DETAIL
  6
CONTINUOUS
 62
     5
 10
0.3902360951547053
 20
-291.13402154899092
 30
0.0
 11
0.3902360951547053
 21
-291.13402154899092
 31
0.0
  0
LINE
  8
DETAIL
  6
CONTINUOUS
 62
     5
 10
0.3902360951547053
 20
-291.13402154899092
 30
0.0
 11
0.3806054230180962
 21
-291.13519917184829
 31
0.0
  0
LINE
  8
DETAIL
  6
CONTINUOUS
 62
     5
 10
0.3806054230180962
 20
-291.13519917184829
 30
0.0
 11
0.3709785708661002
 21
-291.13640493012542
 31
0.0
  0
LINE
  8
DETAIL
  6
CONTINUOUS
 62
     5
 10
0.3709785708661002
 20
-291.13640493012542
 30
0.0
 11
0.3709785708661002
 21
-291.13640493012542
 31
0.0
  0
LINE
  8
DETAIL
  6
CONTINUOUS
 62
     5
 10
0.3709785708661002
 20
-291.13640493012542
 30
0.0
 11
0.3613531503960985
 21
-291.1376264828923
 31
0.0
  0
LINE
  8
DETAIL
  6
CONTINUOUS
 62
     5
 10
0.3613531503960985
 20
-291.1376264828923
 30
0.0
 11
0.3517266524268052
 21
-291.13885149463101
 31
0.0
  0
LINE
  8
DETAIL
  6
CONTINUOUS
 62
     5
 10
0.3517266524268052
 20
-291.13885149463101
 30
0.0
 11
0.3517266524268052
 21
-291.13885149463101
 31
0.0
  0
LINE
  8
DETAIL
  6
CONTINUOUS
 62
     5
 10
0.3517266524268052
 20
-291.13885149463101
 30
0.0
 11
0.3420966503385898
 21
-291.14006762612769
 31
0.0
  0
LINE
  8
DETAIL
  6
CONTINUOUS
 62
     5
 10
0.3420966503385898
 20
-291.14006762612769
 30
0.0
 11
0.332461168635291
 21
-291.14126251797302
 31
0.0
  0
LINE
  8
DETAIL
  6
CONTINUOUS
 62
     5
 10
0.332461168635291
 20
-291.14126251797302
 30
0.0
 11
0.332461168635291
 21
-291.14126251797302
 31
0.0
  0
LINE
  8
DETAIL
  6
CONTINUOUS
 62
     5
 10
0.332461168635291
 20
-291.14126251797302
 30
0.0
 11
0.32281792369713
 21
-291.14242382455092
 31
0.0
  0
LINE
  8
DETAIL
  6
CONTINUOUS
 62
     5
 10
0.32281792369713
 20
-291.14242382455092
 30
0.0
 11
0.313162948290028
 21
-291.14353927561518
 31
0.0
  0
LINE
  8
DETAIL
  6
CONTINUOUS
 62
     5
 10
0.313162948290028
 20
-291.14353927561518
 30
0.0
 11
0.313162948290028
 21
-291.14353927561518
 31
0.0
  0
LINE
  8
DETAIL
  6
CONTINUOUS
 62
     5
 10
0.313162948290028
 20
-291.14353927561518
 30
0.0
 11
0.3034934251099912
 21
-291.14459654944062
 31
0.0
  0
LINE
  8
DETAIL
  6
CONTINUOUS
 62
     5
 10
0.3034934251099912
 20
-291.14459654944062
 30
0.0
 11
0.2938128201899417
 21
-291.14558304302273
 31
0.0
  0
LINE
  8
DETAIL
  6
CONTINUOUS
 62
     5
 10
0.2938128201899417
 20
-291.14558304302273
 30
0.0
 11
0.2938128201899417
 21
-291.14558304302273
 31
0.0
  0
LINE
  8
DETAIL
  6
CONTINUOUS
 62
     5
 10
0.2938128201899417
 20
-291.14558304302273
 30
0.0
 11
0.2841209491825794
 21
-291.14648955219508
 31
0.0
  0
LINE
  8
DETAIL
  6
CONTINUOUS
 62
     5
 10
0.2841209491825794
 20
-291.14648955219508
 30
0.0
 11
0.2743967428878022
 21
-291.14732074942162
 31
0.0
  0
LINE
  8
DETAIL
  6
CONTINUOUS
 62
     5
 10
0.2743967428878022
 20
-291.14732074942162
 30
0.0
 11
0.2743967428878022
 21
-291.14732074942162
 31
0.0
  0
LINE
  8
DETAIL
  6
CONTINUOUS
 62
     5
 10
0.2743967428878022
 20
-291.14732074942162
 30
0.0
 11
0.2646357897888265
 21
-291.1480837968943
 31
0.0
  0
LINE
  8
DETAIL
  6
CONTINUOUS
 62
     5
 10
0.2646357897888265
 20
-291.1480837968943
 30
0.0
 11
0.2549211939558518
 21
-291.14878193908021
 31
0.0
  0
LINE
  8
DETAIL
  6
CONTINUOUS
 62
     5
 10
0.2549211939558518
 20
-291.14878193908021
 30
0.0
 11
0.2549211939558518
 21
-291.14878193908021
 31
0.0
  0
LINE
  8
DETAIL
  6
CONTINUOUS
 62
     5
 10
0.2549211939558518
 20
-291.14878193908021
 30
0.0
 11
0.2452762852012711
 21
-291.14942109630192
 31
0.0
  0
LINE
  8
DETAIL
  6
CONTINUOUS
 62
     5
 10
0.2452762852012711
 20
-291.14942109630192
 30
0.0
 11
0.2353977807201773
 21
-291.15002181003018
 31
0.0
  0
LINE
  8
DETAIL
  6
CONTINUOUS
 62
     5
 10
0.2353977807201773
 20
-291.15002181003018
 30
0.0
 11
0.2353977807201773
 21
-291.15002181003018
 31
0.0
  0
LINE
  8
DETAIL
  6
CONTINUOUS
 62
     5
 10
0.2353977807201773
 20
-291.15002181003018
 30
0.0
 11
0.2252054782748019
 21
-291.15059463530622
 31
0.0
  0
LINE
  8
DETAIL
  6
CONTINUOUS
 62
     5
 10
0.2252054782748019
 20
-291.15059463530622
 30
0.0
 11
0.2158381105082299
 21
-291.15109556030143
 31
0.0
  0
LINE
  8
DETAIL
  6
CONTINUOUS
 62
     5
 10
0.2158381105082299
 20
-291.15109556030143
 30
0.0
 11
0.2158381105082299
 21
-291.15109556030143
 31
0.0
  0
LINE
  8
DETAIL
  6
CONTINUOUS
 62
     5
 10
0.2158381105082299
 20
-291.15109556030143
 30
0.0
 11
0.2076018620559807
 21
-291.15151784305152
 31
0.0
  0
LINE
  8
DETAIL
  6
CONTINUOUS
 62
     5
 10
0.2076018620559807
 20
-291.15151784305152
 30
0.0
 11
0.1962537906451871
 21
-291.15205838792548
 31
0.0
  0
LINE
  8
DETAIL
  6
CONTINUOUS
 62
     5
 10
0.1962537906451871
 20
-291.15205838792548
 30
0.0
 11
0.1962537906451871
 21
-291.15205838792548
 31
0.0
  0
LINE
  8
DETAIL
  6
CONTINUOUS
 62
     5
 10
0.1962537906451871
 20
-291.15205838792548
 30
0.0
 11
0.1782066073192254
 21
-291.15288052175578
 31
0.0
  0
LINE
  8
DETAIL
  6
CONTINUOUS
 62
     5
 10
0.1782066073192254
 20
-291.15288052175578
 30
0.0
 11
0.1570447633030199
 21
-291.15380961489922
 31
0.0
  0
LINE
  8
DETAIL
  6
CONTINUOUS
 62
     5
 10
0.1570447633030199
 20
-291.15380961489922
 30
0.0
 11
0.1570447633030199
 21
-291.15380961489922
 31
0.0
  0
LINE
  8
DETAIL
  6
CONTINUOUS
 62
     5
 10
0.1570447633030199
 20
-291.15380961489922
 30
0.0
 11
0.1370097172612077
 21
-291.15464312469942
 31
0.0
  0
LINE
  8
DETAIL
  6
CONTINUOUS
 62
     5
 10
0.1370097172612077
 20
-291.15464312469942
 30
0.0
 11
0.1177992174448264
 21
-291.15540481293368
 31
0.0
  0
LINE
  8
DETAIL
  6
CONTINUOUS
 62
     5
 10
0.1177992174448264
 20
-291.15540481293368
 30
0.0
 11
0.1177992174448264
 21
-291.15540481293368
 31
0.0
  0
LINE
  8
DETAIL
  6
CONTINUOUS
 62
     5
 10
0.1177992174448264
 20
-291.15540481293368
 30
0.0
 11
0.0982792925965441
 21
-291.15615961440108
 31
0.0
  0
LINE
  8
DETAIL
  6
CONTINUOUS
 62
     5
 10
0.0982792925965441
 20
-291.15615961440108
 30
0.0
 11
0.0785328038518855
 21
-291.15691085156038
 31
0.0
  0
LINE
  8
DETAIL
  6
CONTINUOUS
 62
     5
 10
0.0785328038518855
 20
-291.15691085156038
 30
0.0
 11
0.0785328038518855
 21
-291.15691085156038
 31
0.0
  0
LINE
  8
DETAIL
  6
CONTINUOUS
 62
     5
 10
0.0785328038518855
 20
-291.15691085156038
 30
0.0
 11
0.0588659156555877
 21
-291.15765148001719
 31
0.0
  0
LINE
  8
DETAIL
  6
CONTINUOUS
 62
     5
 10
0.0588659156555877
 20
-291.15765148001719
 30
0.0
 11
0.0392611733027479
 21
-291.1583946003085
 31
0.0
  0
LINE
  8
DETAIL
  6
CONTINUOUS
 62
     5
 10
0.0392611733027479
 20
-291.1583946003085
 30
0.0
 11
0.0392611733027479
 21
-291.1583946003085
 31
0.0
  0
LINE
  8
DETAIL
  6
CONTINUOUS
 62
     5
 10
0.0392611733027479
 20
-291.1583946003085
 30
0.0
 11
0.0196396283527065
 21
-291.15915360735772
 31
0.0
  0
LINE
  8
DETAIL
  6
CONTINUOUS
 62
     5
 10
0.0196396283527065
 20
-291.15915360735772
 30
0.0
 11
-0.0000000234217623
 21
-291.15992292870919
 31
0.0
  0
LINE
  8
DETAIL
  6
CONTINUOUS
 62
     5
 10
0.0
 20
-291.15992292870919
 30
0.0
 11
-0.0193569623893382
 21
-291.15917584720592
 31
0.0
  0
LINE
  8
DETAIL
  6
CONTINUOUS
 62
     5
 10
-0.0193569623893382
 20
-291.15917584720592
 30
0.0
 11
-0.0386942322547839
 21
-291.15843905847032
 31
0.0
  0
LINE
  8
DETAIL
  6
CONTINUOUS
 62
     5
 10
-0.0386942322547839
 20
-291.15843905847032
 30
0.0
 11
-0.0386942322547839
 21
-291.15843905847032
 31
0.0
  0
LINE
  8
DETAIL
  6
CONTINUOUS
 62
     5
 10
-0.0386942322547839
 20
-291.15843905847032
 30
0.0
 11
-0.0580120140684812
 21
-291.15771813583609
 31
0.0
  0
LINE
  8
DETAIL
  6
CONTINUOUS
 62
     5
 10
-0.0580120140684812
 20
-291.15771813583609
 30
0.0
 11
-0.0773901002853563
 21
-291.15699977490402
 31
0.0
  0
LINE
  8
DETAIL
  6
CONTINUOUS
 62
     5
 10
-0.0773901002853563
 20
-291.15699977490402
 30
0.0
 11
-0.0773901002853563
 21
-291.15699977490402
 31
0.0
  0
LINE
  8
DETAIL
  6
CONTINUOUS
 62
     5
 10
-0.0773901002853563
 20
-291.15699977490402
 30
0.0
 11
-0.0968480812016423
 21
-291.15627089625292
 31
0.0
  0
LINE
  8
DETAIL
  6
CONTINUOUS
 62
     5
 10
-0.0968480812016423
 20
-291.15627089625292
 30
0.0
 11
-0.1160851504973834
 21
-291.15553819811407
 31
0.0
  0
LINE
  8
DETAIL
  6
CONTINUOUS
 62
     5
 10
-0.1160851504973834
 20
-291.15553819811407
 30
0.0
 11
-0.1160851504973834
 21
-291.15553819811407
 31
0.0
  0
LINE
  8
DETAIL
  6
CONTINUOUS
 62
     5
 10
-0.1160851504973834
 20
-291.15553819811407
 30
0.0
 11
-0.1350209023194111
 21
-291.15479826491242
 31
0.0
  0
LINE
  8
DETAIL
  6
CONTINUOUS
 62
     5
 10
-0.1350209023194111
 20
-291.15479826491242
 30
0.0
 11
-0.1547769292965313
 21
-291.15398744820618
 31
0.0
  0
LINE
  8
DETAIL
  6
CONTINUOUS
 62
     5
 10
-0.1547769292965313
 20
-291.15398744820618
 30
0.0
 11
-0.1547769292965313
 21
-291.15398744820618
 31
0.0
  0
LINE
  8
DETAIL
  6
CONTINUOUS
 62
     5
 10
-0.1547769292965313
 20
-291.15398744820618
 30
0.0
 11
-0.1756534243490933
 21
-291.15308232979112
 31
0.0
  0
LINE
  8
DETAIL
  6
CONTINUOUS
 62
     5
 10
-0.1756534243490933
 20
-291.15308232979112
 30
0.0
 11
-0.1934629830871017
 21
-291.1522806452856
 31
0.0
  0
LINE
  8
DETAIL
  6
CONTINUOUS
 62
     5
 10
-0.1934629830871017
 20
-291.1522806452856
 30
0.0
 11
-0.1934629830871017
 21
-291.1522806452856
 31
0.0
  0
LINE
  8
DETAIL
  6
CONTINUOUS
 62
     5
 10
-0.1934629830871017
 20
-291.1522806452856
 30
0.0
 11
-0.2046661361973747
 21
-291.15175296151477
 31
0.0
  0
LINE
  8
DETAIL
  6
CONTINUOUS
 62
     5
 10
-0.2046661361973747
 20
-291.15175296151477
 30
0.0
 11
-0.2128027519902389
 21
-291.15134001630707
 31
0.0
  0
LINE
  8
DETAIL
  6
CONTINUOUS
 62
     5
 10
-0.2128027519902389
 20
-291.15134001630707
 30
0.0
 11
-0.2128027519902389
 21
-291.15134001630707
 31
0.0
  0
LINE
  8
DETAIL
  6
CONTINUOUS
 62
     5
 10
-0.2128027519902389
 20
-291.15134001630707
 30
0.0
 11
-0.2220603982909779
 21
-291.15084971326593
 31
0.0
  0
LINE
  8
DETAIL
  6
CONTINUOUS
 62
     5
 10
-0.2220603982909779
 20
-291.15084971326593
 30
0.0
 11
-0.2321381033480066
 21
-291.15028844808762
 31
0.0
  0
LINE
  8
DETAIL
  6
CONTINUOUS
 62
     5
 10
-0.2321381033480066
 20
-291.15028844808762
 30
0.0
 11
-0.2321381033480066
 21
-291.15028844808762
 31
0.0
  0
LINE
  8
DETAIL
  6
CONTINUOUS
 62
     5
 10
-0.2321381033480066
 20
-291.15028844808762
 30
0.0
 11
-0.2419134356568975
 21
-291.14969894304448
 31
0.0
  0
LINE
  8
DETAIL
  6
CONTINUOUS
 62
     5
 10
-0.2419134356568975
 20
-291.14969894304448
 30
0.0
 11
-0.2514666642655357
 21
-291.14907073461251
 31
0.0
  0
LINE
  8
DETAIL
  6
CONTINUOUS
 62
     5
 10
-0.2514666642655357
 20
-291.14907073461251
 30
0.0
 11
-0.2514666642655357
 21
-291.14907073461251
 31
0.0
  0
LINE
  8
DETAIL
  6
CONTINUOUS
 62
     5
 10
-0.2514666642655357
 20
-291.14907073461251
 30
0.0
 11
-0.2610981677007658
 21
-291.14838362558959
 31
0.0
  0
LINE
  8
DETAIL
  6
CONTINUOUS
 62
     5
 10
-0.2610981677007658
 20
-291.14838362558959
 30
0.0
 11
-0.2707860618475024
 21
-291.14763166986711
 31
0.0
  0
LINE
  8
DETAIL
  6
CONTINUOUS
 62
     5
 10
-0.2707860618475024
 20
-291.14763166986711
 30
0.0
 11
-0.2707860618475024
 21
-291.14763166986711
 31
0.0
  0
LINE
  8
DETAIL
  6
CONTINUOUS
 62
     5
 10
-0.2707860618475024
 20
-291.14763166986711
 30
0.0
 11
-0.2804494844331202
 21
-291.14681152946582
 31
0.0
  0
LINE
  8
DETAIL
  6
CONTINUOUS
 62
     5
 10
-0.2804494844331202
 20
-291.14681152946582
 30
0.0
 11
-0.2900939231999473
 21
-291.14591604783772
 31
0.0
  0
LINE
  8
DETAIL
  6
CONTINUOUS
 62
     5
 10
-0.2900939231999473
 20
-291.14591604783772
 30
0.0
 11
-0.2900939231999473
 21
-291.14591604783772
 31
0.0
  0
LINE
  8
DETAIL
  6
CONTINUOUS
 62
     5
 10
-0.2900939231999473
 20
-291.14591604783772
 30
0.0
 11
-0.299740815664336
 21
-291.14494057676018
 31
0.0
  0
LINE
  8
DETAIL
  6
CONTINUOUS
 62
     5
 10
-0.299740815664336
 20
-291.14494057676018
 30
0.0
 11
-0.3093890484292388
 21
-291.14389431987581
 31
0.0
  0
LINE
  8
DETAIL
  6
CONTINUOUS
 62
     5
 10
-0.3093890484292388
 20
-291.14389431987581
 30
0.0
 11
-0.3093890484292388
 21
-291.14389431987581
 31
0.0
  0
LINE
  8
DETAIL
  6
CONTINUOUS
 62
     5
 10
-0.3093890484292388
 20
-291.14389431987581
 30
0.0
 11
-0.3190334202795384
 21
-291.14278987525222
 31
0.0
  0
LINE
  8
DETAIL
  6
CONTINUOUS
 62
     5
 10
-0.3190334202795384
 20
-291.14278987525222
 30
0.0
 11
-0.3286749296535163
 21
-291.14163956679658
 31
0.0
  0
LINE
  8
DETAIL
  6
CONTINUOUS
 62
     5
 10
-0.3286749296535163
 20
-291.14163956679658
 30
0.0
 11
-0.3286749296535163
 21
-291.14163956679658
 31
0.0
  0
LINE
  8
DETAIL
  6
CONTINUOUS
 62
     5
 10
-0.3286749296535163
 20
-291.14163956679658
 30
0.0
 11
-0.3383157096036484
 21
-291.14045566824137
 31
0.0
  0
LINE
  8
DETAIL
  6
CONTINUOUS
 62
     5
 10
-0.3383157096036484
 20
-291.14045566824137
 30
0.0
 11
-0.3479562319912475
 21
-291.13925052678093
 31
0.0
  0
LINE
  8
DETAIL
  6
CONTINUOUS
 62
     5
 10
-0.3479562319912475
 20
-291.13925052678093
 30
0.0
 11
-0.3479562319912475
 21
-291.13925052678093
 31
0.0
  0
LINE
  8
DETAIL
  6
CONTINUOUS
 62
     5
 10
-0.3479562319912475
 20
-291.13925052678093
 30
0.0
 11
-0.3575966646585584
 21
-291.13803650305198
 31
0.0
  0
LINE
  8
DETAIL
  6
CONTINUOUS
 62
     5
 10
-0.3575966646585584
 20
-291.13803650305198
 30
0.0
 11
-0.3672376205627188
 21
-291.13682593800991
 31
0.0
  0
LINE
  8
DETAIL
  6
CONTINUOUS
 62
     5
 10
-0.3672376205627188
 20
-291.13682593800991
 30
0.0
 11
-0.3672376205627188
 21
-291.13682593800991
 31
0.0
  0
LINE
  8
DETAIL
  6
CONTINUOUS
 62
     5
 10
-0.3672376205627188
 20
-291.13682593800991
 30
0.0
 11
-0.3768797941220328
 21
-291.13563116900502
 31
0.0
  0
LINE
  8
DETAIL
  6
CONTINUOUS
 62
     5
 10
-0.3768797941220328
 20
-291.13563116900502
 30
0.0
 11
-0.3865237604868526
 21
-291.13446453866482
 31
0.0
  0
LINE
  8
DETAIL
  6
CONTINUOUS
 62
     5
 10
-0.3865237604868526
 20
-291.13446453866482
 30
0.0
 11
-0.3865237604868526
 21
-291.13446453866482
 31
0.0
  0
LINE
  8
DETAIL
  6
CONTINUOUS
 62
     5
 10
-0.3865237604868526
 20
-291.13446453866482
 30
0.0
 11
-0.3961698375687774
 21
-291.13333434238922
 31
0.0
  0
LINE
  8
DETAIL
  6
CONTINUOUS
 62
     5
 10
-0.3961698375687774
 20
-291.13333434238922
 30
0.0
 11
-0.4058174335891636
 21
-291.13223268140558
 31
0.0
  0
LINE
  8
DETAIL
  6
CONTINUOUS
 62
     5
 10
-0.4058174335891636
 20
-291.13223268140558
 30
0.0
 11
-0.4058174335891636
 21
-291.13223268140558
 31
0.0
  0
LINE
  8
DETAIL
  6
CONTINUOUS
 62
     5
 10
-0.4058174335891636
 20
-291.13223268140558
 30
0.0
 11
-0.4154657272074473
 21
-291.1311476084926
 31
0.0
  0
LINE
  8
DETAIL
  6
CONTINUOUS
 62
     5
 10
-0.4154657272074473
 20
-291.1311476084926
 30
0.0
 11
-0.4251138885192631
 21
-291.13006717680759
 31
0.0
  0
LINE
  8
DETAIL
  6
CONTINUOUS
 62
     5
 10
-0.4251138885192631
 20
-291.13006717680759
 30
0.0
 11
-0.4251138885192631
 21
-291.13006717680759
 31
0.0
  0
LINE
  8
DETAIL
  6
CONTINUOUS
 62
     5
 10
-0.4251138885192631
 20
-291.13006717680759
 30
0.0
 11
-0.4347610860531859
 21
-291.1289794395766
 31
0.0
  0
LINE
  8
DETAIL
  6
CONTINUOUS
 62
     5
 10
-0.4347610860531859
 20
-291.1289794395766
 30
0.0
 11
-0.4444064906319909
 21
-291.12787244992433
 31
0.0
  0
LINE
  8
DETAIL
  6
CONTINUOUS
 62
     5
 10
-0.4444064906319909
 20
-291.12787244992433
 30
0.0
 11
-0.4444064906319909
 21
-291.12787244992433
 31
0.0
  0
LINE
  8
DETAIL
  6
CONTINUOUS
 62
     5
 10
-0.4444064906319909
 20
-291.12787244992433
 30
0.0
 11
-0.4540492734995496
 21
-291.12673426095802
 31
0.0
  0
LINE
  8
DETAIL
  6
CONTINUOUS
 62
     5
 10
-0.4540492734995496
 20
-291.12673426095802
 30
0.0
 11
-0.463688605283096
 21
-291.12555292581021
 31
0.0
  0
LINE
  8
DETAIL
  6
CONTINUOUS
 62
     5
 10
-0.463688605283096
 20
-291.12555292581021
 30
0.0
 11
-0.463688605283096
 21
-291.12555292581021
 31
0.0
  0
LINE
  8
DETAIL
  6
CONTINUOUS
 62
     5
 10
-0.463688605283096
 20
-291.12555292581021
 30
0.0
 11
-0.4733236564993604
 21
-291.12431649761987
 31
0.0
  0
LINE
  8
DETAIL
  6
CONTINUOUS
 62
     5
 10
-0.4733236564993604
 20
-291.12431649761987
 30
0.0
 11
-0.4829535978278727
 21
-291.1230130295188
 31
0.0
  0
LINE
  8
DETAIL
  6
CONTINUOUS
 62
     5
 10
-0.4829535978278727
 20
-291.1230130295188
 30
0.0
 11
-0.4829535978278727
 21
-291.1230130295188
 31
0.0
  0
LINE
  8
DETAIL
  6
CONTINUOUS
 62
     5
 10
-0.4829535978278727
 20
-291.1230130295188
 30
0.0
 11
-0.4925777923199348
 21
-291.12163341021068
 31
0.0
  0
LINE
  8
DETAIL
  6
CONTINUOUS
 62
     5
 10
-0.4925777923199348
 20
-291.12163341021068
 30
0.0
 11
-0.5021963723402223
 21
-291.12017987069919
 31
0.0
  0
LINE
  8
DETAIL
  6
CONTINUOUS
 62
     5
 10
-0.5021963723402223
 20
-291.12017987069919
 30
0.0
 11
-0.5021963723402223
 21
-291.12017987069919
 31
0.0
  0
LINE
  8
DETAIL
  6
CONTINUOUS
 62
     5
 10
-0.5021963723402223
 20
-291.12017987069919
 30
0.0
 11
-0.5118096625865292
 21
-291.11865747756281
 31
0.0
  0
LINE
  8
DETAIL
  6
CONTINUOUS
 62
     5
 10
-0.5118096625865292
 20
-291.11865747756281
 30
0.0
 11
-0.5214179877671086
 21
-291.11707129737908
 31
0.0
  0
LINE
  8
DETAIL
  6
CONTINUOUS
 62
     5
 10
-0.5214179877671086
 20
-291.11707129737908
 30
0.0
 11
-0.5214179877671086
 21
-291.11707129737908
 31
0.0
  0
LINE
  8
DETAIL
  6
CONTINUOUS
 62
     5
 10
-0.5214179877671086
 20
-291.11707129737908
 30
0.0
 11
-0.5310216725938517
 21
-291.11542639672609
 31
0.0
  0
LINE
  8
DETAIL
  6
CONTINUOUS
 62
     5
 10
-0.5310216725938517
 20
-291.11542639672609
 30
0.0
 11
-0.5406210417741022
 21
-291.11372784218167
 31
0.0
  0
LINE
  8
DETAIL
  6
CONTINUOUS
 62
     5
 10
-0.5406210417741022
 20
-291.11372784218167
 30
0.0
 11
-0.5406210417741022
 21
-291.11372784218167
 31
0.0
  0
LINE
  8
DETAIL
  6
CONTINUOUS
 62
     5
 10
-0.5406210417741022
 20
-291.11372784218167
 30
0.0
 11
-0.5502164200161133
 21
-291.1119807003231
 31
0.0
  0
LINE
  8
DETAIL
  6
CONTINUOUS
 62
     5
 10
-0.5502164200161133
 20
-291.1119807003231
 30
0.0
 11
-0.5598081320276833
 21
-291.11019003772878
 31
0.0
  0
LINE
  8
DETAIL
  6
CONTINUOUS
 62
     5
 10
-0.5598081320276833
 20
-291.11019003772878
 30
0.0
 11
-0.5598081320276833
 21
-291.11019003772878
 31
0.0
  0
LINE
  8
DETAIL
  6
CONTINUOUS
 62
     5
 10
-0.5598081320276833
 20
-291.11019003772878
 30
0.0
 11
-0.5693965025166108
 21
-291.10836092097628
 31
0.0
  0
LINE
  8
DETAIL
  6
CONTINUOUS
 62
     5
 10
-0.5693965025166108
 20
-291.10836092097628
 30
0.0
 11
-0.5789818561916036
 21
-291.10649841664372
 31
0.0
  0
LINE
  8
DETAIL
  6
CONTINUOUS
 62
     5
 10
-0.5789818561916036
 20
-291.10649841664372
 30
0.0
 11
-0.5789818561916036
 21
-291.10649841664372
 31
0.0
  0
LINE
  8
DETAIL
  6
CONTINUOUS
 62
     5
 10
-0.5789818561916036
 20
-291.10649841664372
 30
0.0
 11
-0.5885645861831108
 21
-291.10460789185618
 31
0.0
  0
LINE
  8
DETAIL
  6
CONTINUOUS
 62
     5
 10
-0.5885645861831108
 20
-291.10460789185618
 30
0.0
 11
-0.5981453593039987
 21
-291.10269591593078
 31
0.0
  0
LINE
  8
DETAIL
  6
CONTINUOUS
 62
     5
 10
-0.5981453593039987
 20
-291.10269591593078
 30
0.0
 11
-0.5981453593039987
 21
-291.10269591593078
 31
0.0
  0
LINE
  8
DETAIL
  6
CONTINUOUS
 62
     5
 10
-0.5981453593039987
 20
-291.10269591593078
 30
0.0
 11
-0.6077249107920579
 21
-291.10076935873212
 31
0.0
  0
LINE
  8
DETAIL
  6
CONTINUOUS
 62
     5
 10
-0.6077249107920579
 20
-291.10076935873212
 30
0.0
 11
-0.6173039758814412
 21
-291.09883509012479
 31
0.0
  0
LINE
  8
DETAIL
  6
CONTINUOUS
 62
     5
 10
-0.6173039758814412
 20
-291.09883509012479
 30
0.0
 11
-0.6173039758814412
 21
-291.09883509012479
 31
0.0
  0
LINE
  8
DETAIL
  6
CONTINUOUS
 62
     5
 10
-0.6173039758814412
 20
-291.09883509012479
 30
0.0
 11
-0.626883289809939
 21
-291.0968999799727
 31
0.0
  0
LINE
  8
DETAIL
  6
CONTINUOUS
 62
     5
 10
-0.626883289809939
 20
-291.0968999799727
 30
0.0
 11
-0.636463587812159
 21
-291.09497089814113
 31
0.0
  0
LINE
  8
DETAIL
  6
CONTINUOUS
 62
     5
 10
-0.636463587812159
 20
-291.09497089814113
 30
0.0
 11
-0.636463587812159
 21
-291.09497089814113
 31
0.0
  0
LINE
  8
DETAIL
  6
CONTINUOUS
 62
     5
 10
-0.636463587812159
 20
-291.09497089814113
 30
0.0
 11
-0.6460456051249821
 21
-291.09305471449397
 31
0.0
  0
LINE
  8
DETAIL
  6
CONTINUOUS
 62
     5
 10
-0.6460456051249821
 20
-291.09305471449397
 30
0.0
 11
-0.6556300769839254
 21
-291.09115829889652
 31
0.0
  0
LINE
  8
DETAIL
  6
CONTINUOUS
 62
     5
 10
-0.6556300769839254
 20
-291.09115829889652
 30
0.0
 11
-0.6556300769839254
 21
-291.09115829889652
 31
0.0
  0
LINE
  8
DETAIL
  6
CONTINUOUS
 62
     5
 10
-0.6556300769839254
 20
-291.09115829889652
 30
0.0
 11
-0.6652177386249605
 21
-291.08928852121278
 31
0.0
  0
LINE
  8
DETAIL
  6
CONTINUOUS
 62
     5
 10
-0.6652177386249605
 20
-291.08928852121278
 30
0.0
 11
-0.6748093252845138
 21
-291.08745225130718
 31
0.0
  0
LINE
  8
DETAIL
  6
CONTINUOUS
 62
     5
 10
-0.6748093252845138
 20
-291.08745225130718
 30
0.0
 11
-0.6748093252845138
 21
-291.08745225130718
 31
0.0
  0
LINE
  8
DETAIL
  6
CONTINUOUS
 62
     5
 10
-0.6748093252845138
 20
-291.08745225130718
 30
0.0
 11
-0.6844051061725622
 21
-291.08565232128058
 31
0.0
  0
LINE
  8
DETAIL
  6
CONTINUOUS
 62
     5
 10
-0.6844051061725622
 20
-291.08565232128058
 30
0.0
 11
-0.6940034863991969
 21
-291.08387541217689
 31
0.0
  0
LINE
  8
DETAIL
  6
CONTINUOUS
 62
     5
 10
-0.6940034863991969
 20
-291.08387541217689
 30
0.0
 11
-0.6940034863991969
 21
-291.08387541217689
 31
0.0
  0
LINE
  8
DETAIL
  6
CONTINUOUS
 62
     5
 10
-0.6940034863991969
 20
-291.08387541217689
 30
0.0
 11
-0.7036024050485139
 21
-291.0821041672757
 31
0.0
  0
LINE
  8
DETAIL
  6
CONTINUOUS
 62
     5
 10
-0.7036024050485139
 20
-291.0821041672757
 30
0.0
 11
-0.7131998012037002
 21
-291.08032122985787
 31
0.0
  0
LINE
  8
DETAIL
  6
CONTINUOUS
 62
     5
 10
-0.7131998012037002
 20
-291.08032122985787
 30
0.0
 11
-0.7131998012037002
 21
-291.08032122985787
 31
0.0
  0
LINE
  8
DETAIL
  6
CONTINUOUS
 62
     5
 10
-0.7131998012037002
 20
-291.08032122985787
 30
0.0
 11
-0.7227936139502162
 21
-291.07850924320383
 31
0.0
  0
LINE
  8
DETAIL
  6
CONTINUOUS
 62
     5
 10
-0.7227936139502162
 20
-291.07850924320383
 30
0.0
 11
-0.7323817823712489
 21
-291.07665085059318
 31
0.0
  0
LINE
  8
DETAIL
  6
CONTINUOUS
 62
     5
 10
-0.7323817823712489
 20
-291.07665085059318
 30
0.0
 11
-0.7323817823712489
 21
-291.07665085059318
 31
0.0
  0
LINE
  8
DETAIL
  6
CONTINUOUS
 62
     5
 10
-0.7323817823712489
 20
-291.07665085059318
 30
0.0
 11
-0.7419622455508943
 21
-291.07472869530602
 31
0.0
  0
LINE
  8
DETAIL
  6
CONTINUOUS
 62
     5
 10
-0.7419622455508943
 20
-291.07472869530602
 30
0.0
 11
-0.7515329425741584
 21
-291.07272542062287
 31
0.0
  0
LINE
  8
DETAIL
  6
CONTINUOUS
 62
     5
 10
-0.7515329425741584
 20
-291.07272542062287
 30
0.0
 11
-0.7515329425741584
 21
-291.07272542062287
 31
0.0
  0
LINE
  8
DETAIL
  6
CONTINUOUS
 62
     5
 10
-0.7515329425741584
 20
-291.07272542062287
 30
0.0
 11
-0.7610918125237731
 21
-291.07062366982308
 31
0.0
  0
LINE
  8
DETAIL
  6
CONTINUOUS
 62
     5
 10
-0.7610918125237731
 20
-291.07062366982308
 30
0.0
 11
-0.7706367944847443
 21
-291.06840608618768
 31
0.0
  0
LINE
  8
DETAIL
  6
CONTINUOUS
 62
     5
 10
-0.7706367944847443
 20
-291.06840608618768
 30
0.0
 11
-0.7706367944847443
 21
-291.06840608618768
 31
0.0
  0
LINE
  8
DETAIL
  6
CONTINUOUS
 62
     5
 10
-0.7706367944847443
 20
-291.06840608618768
 30
0.0
 11
-0.7801665212282387
 21
-291.06606109669087
 31
0.0
  0
LINE
  8
DETAIL
  6
CONTINUOUS
 62
     5
 10
-0.7801665212282387
 20
-291.06606109669087
 30
0.0
 11
-0.7896824002727954
 21
-291.0636002630863
 31
0.0
  0
LINE
  8
DETAIL
  6
CONTINUOUS
 62
     5
 10
-0.7896824002727954
 20
-291.0636002630863
 30
0.0
 11
-0.7896824002727954
 21
-291.0636002630863
 31
0.0
  0
LINE
  8
DETAIL
  6
CONTINUOUS
 62
     5
 10
-0.7896824002727954
 20
-291.0636002630863
 30
0.0
 11
-0.7991865328231143
 21
-291.06104093082041
 31
0.0
  0
LINE
  8
DETAIL
  6
CONTINUOUS
 62
     5
 10
-0.7991865328231143
 20
-291.06104093082041
 30
0.0
 11
-0.8086810200866239
 21
-291.05840044534148
 31
0.0
  0
LINE
  8
DETAIL
  6
CONTINUOUS
 62
     5
 10
-0.8086810200866239
 20
-291.05840044534148
 30
0.0
 11
-0.8086810200866239
 21
-291.05840044534148
 31
0.0
  0
LINE
  8
DETAIL
  6
CONTINUOUS
 62
     5
 10
-0.8086810200866239
 20
-291.05840044534148
 30
0.0
 11
-0.8181679632680243
 21
-291.05569615209669
 31
0.0
  0
LINE
  8
DETAIL
  6
CONTINUOUS
 62
     5
 10
-0.8181679632680243
 20
-291.05569615209669
 30
0.0
 11
-0.8276494635733798
 21
-291.05294539653443
 31
0.0
  0
LINE
  8
DETAIL
  6
CONTINUOUS
 62
     5
 10
-0.8276494635733798
 20
-291.05294539653443
 30
0.0
 11
-0.8276494635733798
 21
-291.05294539653443
 31
0.0
  0
LINE
  8
DETAIL
  6
CONTINUOUS
 62
     5
 10
-0.8276494635733798
 20
-291.05294539653443
 30
0.0
 11
-0.8371276222082997
 21
-291.05016552410052
 31
0.0
  0
LINE
  8
DETAIL
  6
CONTINUOUS
 62
     5
 10
-0.8371276222082997
 20
-291.05016552410052
 30
0.0
 11
-0.8466045403783937
 21
-291.04737388024398
 31
0.0
  0
LINE
  8
DETAIL
  6
CONTINUOUS
 62
     5
 10
-0.8466045403783937
 20
-291.04737388024398
 30
0.0
 11
-0.8466045403783937
 21
-291.04737388024398
 31
0.0
  0
LINE
  8
DETAIL
  6
CONTINUOUS
 62
     5
 10
-0.8466045403783937
 20
-291.04737388024398
 30
0.0
 11
-0.8560823192892713
 21
-291.04458781041171
 31
0.0
  0
LINE
  8
DETAIL
  6
CONTINUOUS
 62
     5
 10
-0.8560823192892713
 20
-291.04458781041171
 30
0.0
 11
-0.8655630601469966
 21
-291.04182466005199
 31
0.0
  0
LINE
  8
DETAIL
  6
CONTINUOUS
 62
     5
 10
-0.8655630601469966
 20
-291.04182466005199
 30
0.0
 11
-0.8655630601469966
 21
-291.04182466005199
 31
0.0
  0
LINE
  8
DETAIL
  6
CONTINUOUS
 62
     5
 10
-0.8655630601469966
 20
-291.04182466005199
 30
0.0
 11
-0.8750483578423882
 21
-291.03909774811962
 31
0.0
  0
LINE
  8
DETAIL
  6
CONTINUOUS
 62
     5
 10
-0.8750483578423882
 20
-291.03909774811962
 30
0.0
 11
-0.8845377820057365
 21
-291.03640428760127
 31
0.0
  0
LINE
  8
DETAIL
  6
CONTINUOUS
 62
     5
 10
-0.8845377820057365
 20
-291.03640428760127
 30
0.0
 11
-0.8845377820057365
 21
-291.03640428760127
 31
0.0
  0
LINE
  8
DETAIL
  6
CONTINUOUS
 62
     5
 10
-0.8845377820057365
 20
-291.03640428760127
 30
0.0
 11
-0.8940303959525409
 21
-291.03373746499068
 31
0.0
  0
LINE
  8
DETAIL
  6
CONTINUOUS
 62
     5
 10
-0.8940303959525409
 20
-291.03373746499068
 30
0.0
 11
-0.9035252629983006
 21
-291.03109046678378
 31
0.0
  0
LINE
  8
DETAIL
  6
CONTINUOUS
 62
     5
 10
-0.9035252629983006
 20
-291.03109046678378
 30
0.0
 11
-0.9035252629983006
 21
-291.03109046678378
 31
0.0
  0
LINE
  8
DETAIL
  6
CONTINUOUS
 62
     5
 10
-0.9035252629983006
 20
-291.03109046678378
 30
0.0
 11
-0.9130214464589699
 21
-291.02845647947458
 31
0.0
  0
LINE
  8
DETAIL
  6
CONTINUOUS
 62
     5
 10
-0.9130214464589699
 20
-291.02845647947458
 30
0.0
 11
-0.9225180096495933
 21
-291.02582868955727
 31
0.0
  0
LINE
  8
DETAIL
  6
CONTINUOUS
 62
     5
 10
-0.9225180096495933
 20
-291.02582868955727
 30
0.0
 11
-0.9225180096495933
 21
-291.02582868955727
 31
0.0
  0
LINE
  8
DETAIL
  6
CONTINUOUS
 62
     5
 10
-0.9225180096495933
 20
-291.02582868955727
 30
0.0
 11
-0.932014015886125
 21
-291.02320028352688
 31
0.0
  0
LINE
  8
DETAIL
  6
CONTINUOUS
 62
     5
 10
-0.932014015886125
 20
-291.02320028352688
 30
0.0
 11
-0.9415085284845191
 21
-291.02056444787718
 31
0.0
  0
LINE
  8
DETAIL
  6
CONTINUOUS
 62
     5
 10
-0.9415085284845191
 20
-291.02056444787718
 30
0.0
 11
-0.9415085284845191
 21
-291.02056444787718
 31
0.0
  0
LINE
  8
DETAIL
  6
CONTINUOUS
 62
     5
 10
-0.9415085284845191
 20
-291.02056444787718
 30
0.0
 11
-0.9510006107593654
 21
-291.01791436910281
 31
0.0
  0
LINE
  8
DETAIL
  6
CONTINUOUS
 62
     5
 10
-0.9510006107593654
 20
-291.01791436910281
 30
0.0
 11
-0.9604893260266181
 21
-291.01524323369932
 31
0.0
  0
LINE
  8
DETAIL
  6
CONTINUOUS
 62
     5
 10
-0.9604893260266181
 20
-291.01524323369932
 30
0.0
 11
-0.9604893260266181
 21
-291.01524323369932
 31
0.0
  0
LINE
  8
DETAIL
  6
CONTINUOUS
 62
     5
 10
-0.9604893260266181
 20
-291.01524323369932
 30
0.0
 11
-0.9699737688952155
 21
-291.01254453105088
 31
0.0
  0
LINE
  8
DETAIL
  6
CONTINUOUS
 62
     5
 10
-0.9699737688952155
 20
-291.01254453105088
 30
0.0
 11
-0.9794531591451232
 21
-291.00981296210938
 31
0.0
  0
LINE
  8
DETAIL
  6
CONTINUOUS
 62
     5
 10
-0.9794531591451232
 20
-291.00981296210938
 30
0.0
 11
-0.9794531591451232
 21
-291.00981296210938
 31
0.0
  0
LINE
  8
DETAIL
  6
CONTINUOUS
 62
     5
 10
-0.9794531591451232
 20
-291.00981296210938
 30
0.0
 11
-0.9889267478497459
 21
-291.00704353071433
 31
0.0
  0
LINE
  8
DETAIL
  6
CONTINUOUS
 62
     5
 10
-0.9889267478497459
 20
-291.00704353071433
 30
0.0
 11
-0.9983937860829428
 21
-291.00423124070841
 31
0.0
  0
LINE
  8
DETAIL
  6
CONTINUOUS
 62
     5
 10
-0.9983937860829428
 20
-291.00423124070841
 30
0.0
 11
-0.9983937860829428
 21
-291.00423124070841
 31
0.0
  0
LINE
  8
DETAIL
  6
CONTINUOUS
 62
     5
 10
-0.9983937860829428
 20
-291.00423124070841
 30
0.0
 11
-1.0078535249181191
 21
-291.00137109593197
 31
0.0
  0
LINE
  8
DETAIL
  6
CONTINUOUS
 62
     5
 10
-1.0078535249181191
 20
-291.00137109593197
 30
0.0
 11
-1.017305215427768
 21
-290.99845810022782
 31
0.0
  0
LINE
  8
DETAIL
  6
CONTINUOUS
 62
     5
 10
-1.017305215427768
 20
-290.99845810022782
 30
0.0
 11
-1.017305215427768
 21
-290.99845810022782
 31
0.0
  0
LINE
  8
DETAIL
  6
CONTINUOUS
 62
     5
 10
-1.017305215427768
 20
-290.99845810022782
 30
0.0
 11
-1.026748108684842
 21
-290.99548725743603
 31
0.0
  0
LINE
  8
DETAIL
  6
CONTINUOUS
 62
     5
 10
-1.026748108684842
 20
-290.99548725743603
 30
0.0
 11
-1.036181455766382
 21
-290.99245357139768
 31
0.0
  0
LINE
  8
DETAIL
  6
CONTINUOUS
 62
     5
 10
-1.036181455766382
 20
-290.99245357139768
 30
0.0
 11
-1.036181455766382
 21
-290.99245357139768
 31
0.0
  0
LINE
  8
DETAIL
  6
CONTINUOUS
 62
     5
 10
-1.036181455766382
 20
-290.99245357139768
 30
0.0
 11
-1.045604507745338
 21
-290.98935204595341
 31
0.0
  0
LINE
  8
DETAIL
  6
CONTINUOUS
 62
     5
 10
-1.045604507745338
 20
-290.98935204595341
 30
0.0
 11
-1.055016515685566
 21
-290.98617768494989
 31
0.0
  0
LINE
  8
DETAIL
  6
CONTINUOUS
 62
     5
 10
-1.055016515685566
 20
-290.98617768494989
 30
0.0
 11
-1.055016515685566
 21
-290.98617768494989
 31
0.0
  0
LINE
  8
DETAIL
  6
CONTINUOUS
 62
     5
 10
-1.055016515685566
 20
-290.98617768494989
 30
0.0
 11
-1.06441711180014
 21
-290.98292830715599
 31
0.0
  0
LINE
  8
DETAIL
  6
CONTINUOUS
 62
     5
 10
-1.06441711180014
 20
-290.98292830715599
 30
0.0
 11
-1.0738074529213011
 21
-290.97961299103048
 31
0.0
  0
LINE
  8
DETAIL
  6
CONTINUOUS
 62
     5
 10
-1.0738074529213011
 20
-290.97961299103048
 30
0.0
 11
-1.0738074529213011
 21
-290.97961299103048
 31
0.0
  0
LINE
  8
DETAIL
  6
CONTINUOUS
 62
     5
 10
-1.0738074529213011
 20
-290.97961299103048
 30
0.0
 11
-1.083189076994131
 21
-290.97624362997112
 31
0.0
  0
LINE
  8
DETAIL
  6
CONTINUOUS
 62
     5
 10
-1.083189076994131
 20
-290.97624362997112
 30
0.0
 11
-1.092563521804095
 21
-290.97283211744798
 31
0.0
  0
LINE
  8
DETAIL
  6
CONTINUOUS
 62
     5
 10
-1.092563521804095
 20
-290.97283211744798
 30
0.0
 11
-1.092563521804095
 21
-290.97283211744798
 31
0.0
  0
LINE
  8
DETAIL
  6
CONTINUOUS
 62
     5
 10
-1.092563521804095
 20
-290.97283211744798
 30
0.0
 11
-1.101932325246707
 21
-290.96939034688148
 31
0.0
  0
LINE
  8
DETAIL
  6
CONTINUOUS
 62
     5
 10
-1.101932325246707
 20
-290.96939034688148
 30
0.0
 11
-1.111297025812291
 21
-290.96593021142849
 31
0.0
  0
LINE
  8
DETAIL
  6
CONTINUOUS
 62
     5
 10
-1.111297025812291
 20
-290.96593021142849
 30
0.0
 11
-1.111297025812291
 21
-290.96593021142849
 31
0.0
  0
LINE
  8
DETAIL
  6
CONTINUOUS
 62
     5
 10
-1.111297025812291
 20
-290.96593021142849
 30
0.0
 11
-1.1206591615837169
 21
-290.96246360442569
 31
0.0
  0
LINE
  8
DETAIL
  6
CONTINUOUS
 62
     5
 10
-1.1206591615837169
 20
-290.96246360442569
 30
0.0
 11
-1.1300202684246869
 21
-290.95900242019547
 31
0.0
  0
LINE
  8
DETAIL
  6
CONTINUOUS
 62
     5
 10
-1.1300202684246869
 20
-290.95900242019547
 30
0.0
 11
-1.1300202684246869
 21
-290.95900242019547
 31
0.0
  0
LINE
  8
DETAIL
  6
CONTINUOUS
 62
     5
 10
-1.1300202684246869
 20
-290.95900242019547
 30
0.0
 11
-1.139381883715487
 21
-290.95555855238808
 31
0.0
  0
LINE
  8
DETAIL
  6
CONTINUOUS
 62
     5
 10
-1.139381883715487
 20
-290.95555855238808
 30
0.0
 11
-1.148745553120079
 21
-290.95214389097367
 31
0.0
  0
LINE
  8
DETAIL
  6
CONTINUOUS
 62
     5
 10
-1.148745553120079
 20
-290.95214389097367
 30
0.0
 11
-1.148745553120079
 21
-290.95214389097367
 31
0.0
  0
LINE
  8
DETAIL
  6
CONTINUOUS
 62
     5
 10
-1.148745553120079
 20
-290.95214389097367
 30
0.0
 11
-1.1581124580052351
 21
-290.94876621820589
 31
0.0
  0
LINE
  8
DETAIL
  6
CONTINUOUS
 62
     5
 10
-1.1581124580052351
 20
-290.94876621820589
 30
0.0
 11
-1.167482314264362
 21
-290.9454168891433
 31
0.0
  0
LINE
  8
DETAIL
  6
CONTINUOUS
 62
     5
 10
-1.167482314264362
 20
-290.9454168891433
 30
0.0
 11
-1.167482314264362
 21
-290.9454168891433
 31
0.0
  0
LINE
  8
DETAIL
  6
CONTINUOUS
 62
     5
 10
-1.167482314264362
 20
-290.9454168891433
 30
0.0
 11
-1.1768545002682911
 21
-290.94208313923667
 31
0.0
  0
LINE
  8
DETAIL
  6
CONTINUOUS
 62
     5
 10
-1.1768545002682911
 20
-290.94208313923667
 30
0.0
 11
-1.1862285097722629
 21
-290.93875215269782
 31
0.0
  0
LINE
  8
DETAIL
  6
CONTINUOUS
 62
     5
 10
-1.1862285097722629
 20
-290.93875215269782
 30
0.0
 11
-1.1862285097722629
 21
-290.93875215269782
 31
0.0
  0
LINE
  8
DETAIL
  6
CONTINUOUS
 62
     5
 10
-1.1862285097722629
 20
-290.93875215269782
 30
0.0
 11
-1.1956037577219829
 21
-290.93541114873437
 31
0.0
  0
LINE
  8
DETAIL
  6
CONTINUOUS
 62
     5
 10
-1.1956037577219829
 20
-290.93541114873437
 30
0.0
 11
-1.2049792284460641
 21
-290.93204753778662
 31
0.0
  0
LINE
  8
DETAIL
  6
CONTINUOUS
 62
     5
 10
-1.2049792284460641
 20
-290.93204753778662
 30
0.0
 11
-1.2049792284460641
 21
-290.93204753778662
 31
0.0
  0
LINE
  8
DETAIL
  6
CONTINUOUS
 62
     5
 10
-1.2049792284460641
 20
-290.93204753778662
 30
0.0
 11
-1.214354200390972
 21
-290.92864859968063
 31
0.0
  0
LINE
  8
DETAIL
  6
CONTINUOUS
 62
     5
 10
-1.214354200390972
 20
-290.92864859968063
 30
0.0
 11
-1.2237295590884969
 21
-290.92520090055791
 31
0.0
  0
LINE
  8
DETAIL
  6
CONTINUOUS
 62
     5
 10
-1.2237295590884969
 20
-290.92520090055791
 30
0.0
 11
-1.2237295590884969
 21
-290.92520090055791
 31
0.0
  0
LINE
  8
DETAIL
  6
CONTINUOUS
 62
     5
 10
-1.2237295590884969
 20
-290.92520090055791
 30
0.0
 11
-1.2331050924099149
 21
-290.92169149401502
 31
0.0
  0
LINE
  8
DETAIL
  6
CONTINUOUS
 62
     5
 10
-1.2331050924099149
 20
-290.92169149401502
 30
0.0
 11
-1.2424745905004779
 21
-290.91811009716059
 31
0.0
  0
LINE
  8
DETAIL
  6
CONTINUOUS
 62
     5
 10
-1.2424745905004779
 20
-290.91811009716059
 30
0.0
 11
-1.2424745905004779
 21
-290.91811009716059
 31
0.0
  0
LINE
  8
DETAIL
  6
CONTINUOUS
 62
     5
 10
-1.2424745905004779
 20
-290.91811009716059
 30
0.0
 11
-1.2518360820758969
 21
-290.91444793430293
 31
0.0
  0
LINE
  8
DETAIL
  6
CONTINUOUS
 62
     5
 10
-1.2518360820758969
 20
-290.91444793430293
 30
0.0
 11
-1.2612105478642659
 21
-290.91069959505
 31
0.0
  0
LINE
  8
DETAIL
  6
CONTINUOUS
 62
     5
 10
-1.2612105478642659
 20
-290.91069959505
 30
0.0
 11
-1.2612105478642659
 21
-290.91069959505
 31
0.0
  0
LINE
  8
DETAIL
  6
CONTINUOUS
 62
     5
 10
-1.2612105478642659
 20
-290.91069959505
 30
0.0
 11
-1.270603822206795
 21
-290.90686978481119
 31
0.0
  0
LINE
  8
DETAIL
  6
CONTINUOUS
 62
     5
 10
-1.270603822206795
 20
-290.90686978481119
 30
0.0
 11
-1.279938201878394
 21
-290.90300030690628
 31
0.0
  0
LINE
  8
DETAIL
  6
CONTINUOUS
 62
     5
 10
-1.279938201878394
 20
-290.90300030690628
 30
0.0
 11
-1.279938201878394
 21
-290.90300030690628
 31
0.0
  0
LINE
  8
DETAIL
  6
CONTINUOUS
 62
     5
 10
-1.279938201878394
 20
-290.90300030690628
 30
0.0
 11
-1.2891930408727601
 21
-290.89910762631052
 31
0.0
  0
LINE
  8
DETAIL
  6
CONTINUOUS
 62
     5
 10
-1.2891930408727601
 20
-290.89910762631052
 30
0.0
 11
-1.298659459620467
 21
-290.89506975671679
 31
0.0
  0
LINE
  8
DETAIL
  6
CONTINUOUS
 62
     5
 10
-1.298659459620467
 20
-290.89506975671679
 30
0.0
 11
-1.298659459620467
 21
-290.89506975671679
 31
0.0
  0
LINE
  8
DETAIL
  6
CONTINUOUS
 62
     5
 10
-1.298659459620467
 20
-290.89506975671679
 30
0.0
 11
-1.308415638116458
 21
-290.89085927580152
 31
0.0
  0
LINE
  8
DETAIL
  6
CONTINUOUS
 62
     5
 10
-1.308415638116458
 20
-290.89085927580152
 30
0.0
 11
-1.3173762281685411
 21
-290.8869654684662
 31
0.0
  0
LINE
  8
DETAIL
  6
CONTINUOUS
 62
     5
 10
-1.3173762281685411
 20
-290.8869654684662
 30
0.0
 11
-1.3173762281685411
 21
-290.8869654684662
 31
0.0
  0
LINE
  8
DETAIL
  6
CONTINUOUS
 62
     5
 10
-1.3173762281685411
 20
-290.8869654684662
 30
0.0
 11
-1.3252505861155439
 21
-290.88352470201488
 31
0.0
  0
LINE
  8
DETAIL
  6
CONTINUOUS
 62
     5
 10
-1.3252505861155439
 20
-290.88352470201488
 30
0.0
 11
-1.336090414600221
 21
-290.87874496614359
 31
0.0
  0
LINE
  8
DETAIL
  6
CONTINUOUS
 62
     5
 10
-1.336090414600221
 20
-290.87874496614359
 30
0.0
 11
-1.336090414600221
 21
-290.87874496614359
 31
0.0
  0
LINE
  8
DETAIL
  6
CONTINUOUS
 62
     5
 10
-1.336090414600221
 20
-290.87874496614359
 30
0.0
 11
-1.3533205805420041
 21
-290.87110819205623
 31
0.0
  0
LINE
  8
DETAIL
  6
CONTINUOUS
 62
     5
 10
-1.3533205805420041
 20
-290.87110819205623
 30
0.0
 11
-1.373516261661734
 21
-290.86212045459388
 31
0.0
  0
LINE
  8
DETAIL
  6
CONTINUOUS
 62
     5
 10
-1.373516261661734
 20
-290.86212045459388
 30
0.0
 11
-1.373516261661734
 21
-290.86212045459388
 31
0.0
  0
LINE
  8
DETAIL
  6
CONTINUOUS
 62
     5
 10
-1.373516261661734
 20
-290.86212045459388
 30
0.0
 11
-1.39262584181688
 21
-290.85356774928903
 31
0.0
  0
LINE
  8
DETAIL
  6
CONTINUOUS
 62
     5
 10
-1.39262584181688
 20
-290.85356774928903
 30
0.0
 11
-1.4109402186054469
 21
-290.84533161080248
 31
0.0
  0
LINE
  8
DETAIL
  6
CONTINUOUS
 62
     5
 10
-1.4109402186054469
 20
-290.84533161080248
 30
0.0
 11
-1.4109402186054469
 21
-290.84533161080248
 31
0.0
  0
LINE
  8
DETAIL
  6
CONTINUOUS
 62
     5
 10
-1.4109402186054469
 20
-290.84533161080248
 30
0.0
 11
-1.429545121718093
 21
-290.83694472742877
 31
0.0
  0
LINE
  8
DETAIL
  6
CONTINUOUS
 62
     5
 10
-1.429545121718093
 20
-290.83694472742877
 30
0.0
 11
-1.448363095466902
 21
-290.82844886287319
 31
0.0
  0
LINE
  8
DETAIL
  6
CONTINUOUS
 62
     5
 10
-1.448363095466902
 20
-290.82844886287319
 30
0.0
 11
-1.448363095466902
 21
-290.82844886287319
 31
0.0
  0
LINE
  8
DETAIL
  6
CONTINUOUS
 62
     5
 10
-1.448363095466902
 20
-290.82844886287319
 30
0.0
 11
-1.46710344476196
 21
-290.81998008950183
 31
0.0
  0
LINE
  8
DETAIL
  6
CONTINUOUS
 62
     5
 10
-1.46710344476196
 20
-290.81998008950183
 30
0.0
 11
-1.4857857022816461
 21
-290.81154263890897
 31
0.0
  0
LINE
  8
DETAIL
  6
CONTINUOUS
 62
     5
 10
-1.4857857022816461
 20
-290.81154263890897
 30
0.0
 11
-1.4857857022816461
 21
-290.81154263890897
 31
0.0
  0
LINE
  8
DETAIL
  6
CONTINUOUS
 62
     5
 10
-1.4857857022816461
 20
-290.81154263890897
 30
0.0
 11
-1.50448752622242
 21
-290.80311235441638
 31
0.0
  0
LINE
  8
DETAIL
  6
CONTINUOUS
 62
     5
 10
-1.50448752622242
 20
-290.80311235441638
 30
0.0
 11
-1.523208849085677
 21
-290.79468336701439
 31
0.0
  0
LINE
  8
DETAIL
  6
CONTINUOUS
 62
     5
 10
19.380374526336709
 20
-102.3969132096188
 30
0.0
 11
19.351475466597549
 21
-102.3966439709712
 31
0.0
  0
LINE
  8
DETAIL
  6
CONTINUOUS
 62
     5
 10
19.351475466597549
 20
-102.3966439709712
 30
0.0
 11
19.322576778243729
 21
-102.3961245105188
 31
0.0
  0
LINE
  8
DETAIL
  6
CONTINUOUS
 62
     5
 10
19.322576778243729
 20
-102.3961245105188
 30
0.0
 11
19.322576778243729
 21
-102.3961245105188
 31
0.0
  0
LINE
  8
DETAIL
  6
CONTINUOUS
 62
     5
 10
19.322576778243729
 20
-102.3961245105188
 30
0.0
 11
19.29368097549332
 21
-102.3951579334863
 31
0.0
  0
LINE
  8
DETAIL
  6
CONTINUOUS
 62
     5
 10
19.29368097549332
 20
-102.3951579334863
 30
0.0
 11
19.264799143898021
 21
-102.3937606532224
 31
0.0
  0
LINE
  8
DETAIL
  6
CONTINUOUS
 62
     5
 10
19.264799143898021
 20
-102.3937606532224
 30
0.0
 11
19.264799143898021
 21
-102.3937606532224
 31
0.0
  0
LINE
  8
DETAIL
  6
CONTINUOUS
 62
     5
 10
19.264799143898021
 20
-102.3937606532224
 30
0.0
 11
19.235939614540712
 21
-102.39198746678051
 31
0.0
  0
LINE
  8
DETAIL
  6
CONTINUOUS
 62
     5
 10
19.235939614540712
 20
-102.39198746678051
 30
0.0
 11
19.207091129303539
 21
-102.3898333979168
 31
0.0
  0
LINE
  8
DETAIL
  6
CONTINUOUS
 62
     5
 10
19.207091129303539
 20
-102.3898333979168
 30
0.0
 11
19.207091129303539
 21
-102.3898333979168
 31
0.0
  0
LINE
  8
DETAIL
  6
CONTINUOUS
 62
     5
 10
19.207091129303539
 20
-102.3898333979168
 30
0.0
 11
19.178254979136909
 21
-102.38728497333069
 31
0.0
  0
LINE
  8
DETAIL
  6
CONTINUOUS
 62
     5
 10
19.178254979136909
 20
-102.38728497333069
 30
0.0
 11
19.14950224046606
 21
-102.3843545047885
 31
0.0
  0
LINE
  8
DETAIL
  6
CONTINUOUS
 62
     5
 10
19.14950224046606
 20
-102.3843545047885
 30
0.0
 11
19.14950224046606
 21
-102.3843545047885
 31
0.0
  0
LINE
  8
DETAIL
  6
CONTINUOUS
 62
     5
 10
19.14950224046606
 20
-102.3843545047885
 30
0.0
 11
19.120856547910531
 21
-102.38104990858049
 31
0.0
  0
LINE
  8
DETAIL
  6
CONTINUOUS
 62
     5
 10
19.120856547910531
 20
-102.38104990858049
 30
0.0
 11
19.092081983389111
 21
-102.3773357340237
 31
0.0
  0
LINE
  8
DETAIL
  6
CONTINUOUS
 62
     5
 10
19.092081983389111
 20
-102.3773357340237
 30
0.0
 11
19.092081983389111
 21
-102.3773357340237
 31
0.0
  0
LINE
  8
DETAIL
  6
CONTINUOUS
 62
     5
 10
19.092081983389111
 20
-102.3773357340237
 30
0.0
 11
19.06297966829106
 21
-102.3731800440022
 31
0.0
  0
LINE
  8
DETAIL
  6
CONTINUOUS
 62
     5
 10
19.06297966829106
 20
-102.3731800440022
 30
0.0
 11
19.033758434597981
 21
-102.36860832264099
 31
0.0
  0
LINE
  8
DETAIL
  6
CONTINUOUS
 62
     5
 10
19.033758434597981
 20
-102.36860832264099
 30
0.0
 11
19.033758434597981
 21
-102.36860832264099
 31
0.0
  0
LINE
  8
DETAIL
  6
CONTINUOUS
 62
     5
 10
19.033758434597981
 20
-102.36860832264099
 30
0.0
 11
19.004665851998649
 21
-102.36365311314481
 31
0.0
  0
LINE
  8
DETAIL
  6
CONTINUOUS
 62
     5
 10
19.004665851998649
 20
-102.36365311314481
 30
0.0
 11
18.97569673042744
 21
-102.35831777379749
 31
0.0
  0
LINE
  8
DETAIL
  6
CONTINUOUS
 62
     5
 10
18.97569673042744
 20
-102.35831777379749
 30
0.0
 11
18.97569673042744
 21
-102.35831777379749
 31
0.0
  0
LINE
  8
DETAIL
  6
CONTINUOUS
 62
     5
 10
18.97569673042744
 20
-102.35831777379749
 30
0.0
 11
18.946792264069241
 21
-102.35259819120699
 31
0.0
  0
LINE
  8
DETAIL
  6
CONTINUOUS
 62
     5
 10
18.946792264069241
 20
-102.35259819120699
 30
0.0
 11
18.917931943865369
 21
-102.3464895501985
 31
0.0
  0
LINE
  8
DETAIL
  6
CONTINUOUS
 62
     5
 10
18.917931943865369
 20
-102.3464895501985
 30
0.0
 11
18.917931943865369
 21
-102.3464895501985
 31
0.0
  0
LINE
  8
DETAIL
  6
CONTINUOUS
 62
     5
 10
18.917931943865369
 20
-102.3464895501985
 30
0.0
 11
18.889129728127951
 21
-102.33999485816329
 31
0.0
  0
LINE
  8
DETAIL
  6
CONTINUOUS
 62
     5
 10
18.889129728127951
 20
-102.33999485816329
 30
0.0
 11
18.860499147898739
 21
-102.33314911455059
 31
0.0
  0
LINE
  8
DETAIL
  6
CONTINUOUS
 62
     5
 10
18.860499147898739
 20
-102.33314911455059
 30
0.0
 11
18.860499147898739
 21
-102.33314911455059
 31
0.0
  0
LINE
  8
DETAIL
  6
CONTINUOUS
 62
     5
 10
18.860499147898739
 20
-102.33314911455059
 30
0.0
 11
18.832069480483369
 21
-102.3259635002117
 31
0.0
  0
LINE
  8
DETAIL
  6
CONTINUOUS
 62
     5
 10
18.832069480483369
 20
-102.3259635002117
 30
0.0
 11
18.803433415514519
 21
-102.318321929559
 31
0.0
  0
LINE
  8
DETAIL
  6
CONTINUOUS
 62
     5
 10
18.803433415514519
 20
-102.318321929559
 30
0.0
 11
18.803433415514519
 21
-102.318321929559
 31
0.0
  0
LINE
  8
DETAIL
  6
CONTINUOUS
 62
     5
 10
18.803433415514519
 20
-102.318321929559
 30
0.0
 11
18.774248292954329
 21
-102.3101242666545
 31
0.0
  0
LINE
  8
DETAIL
  6
CONTINUOUS
 62
     5
 10
18.774248292954329
 20
-102.3101242666545
 30
0.0
 11
18.744866641755831
 21
-102.301461440596
 31
0.0
  0
LINE
  8
DETAIL
  6
CONTINUOUS
 62
     5
 10
18.744866641755831
 20
-102.301461440596
 30
0.0
 11
18.744866641755831
 21
-102.301461440596
 31
0.0
  0
LINE
  8
DETAIL
  6
CONTINUOUS
 62
     5
 10
18.744866641755831
 20
-102.301461440596
 30
0.0
 11
18.715707206801198
 21
-102.2924451232643
 31
0.0
  0
LINE
  8
DETAIL
  6
CONTINUOUS
 62
     5
 10
18.715707206801198
 20
-102.2924451232643
 30
0.0
 11
18.686758407697202
 21
-102.2830788926283
 31
0.0
  0
LINE
  8
DETAIL
  6
CONTINUOUS
 62
     5
 10
18.686758407697202
 20
-102.2830788926283
 30
0.0
 11
18.686758407697202
 21
-102.2830788926283
 31
0.0
  0
LINE
  8
DETAIL
  6
CONTINUOUS
 62
     5
 10
18.686758407697202
 20
-102.2830788926283
 30
0.0
 11
18.657916269559792
 21
-102.2733406433382
 31
0.0
  0
LINE
  8
DETAIL
  6
CONTINUOUS
 62
     5
 10
18.657916269559792
 20
-102.2733406433382
 30
0.0
 11
18.629137564816119
 21
-102.2632136306775
 31
0.0
  0
LINE
  8
DETAIL
  6
CONTINUOUS
 62
     5
 10
18.629137564816119
 20
-102.2632136306775
 30
0.0
 11
18.629137564816119
 21
-102.2632136306775
 31
0.0
  0
LINE
  8
DETAIL
  6
CONTINUOUS
 62
     5
 10
18.629137564816119
 20
-102.2632136306775
 30
0.0
 11
18.60044108672901
 21
-102.2527041129329
 31
0.0
  0
LINE
  8
DETAIL
  6
CONTINUOUS
 62
     5
 10
18.60044108672901
 20
-102.2527041129329
 30
0.0
 11
18.57203296458874
 21
-102.2419049997654
 31
0.0
  0
LINE
  8
DETAIL
  6
CONTINUOUS
 62
     5
 10
18.57203296458874
 20
-102.2419049997654
 30
0.0
 11
18.57203296458874
 21
-102.2419049997654
 31
0.0
  0
LINE
  8
DETAIL
  6
CONTINUOUS
 62
     5
 10
18.57203296458874
 20
-102.2419049997654
 30
0.0
 11
18.543963638836431
 21
-102.23084287214741
 31
0.0
  0
LINE
  8
DETAIL
  6
CONTINUOUS
 62
     5
 10
18.543963638836431
 20
-102.23084287214741
 30
0.0
 11
18.515473458492579
 21
-102.21919234491421
 31
0.0
  0
LINE
  8
DETAIL
  6
CONTINUOUS
 62
     5
 10
18.515473458492579
 20
-102.21919234491421
 30
0.0
 11
18.515473458492579
 21
-102.21919234491421
 31
0.0
  0
LINE
  8
DETAIL
  6
CONTINUOUS
 62
     5
 10
18.515473458492579
 20
-102.21919234491421
 30
0.0
 11
18.485923473745061
 21
-102.20667461203639
 31
0.0
  0
LINE
  8
DETAIL
  6
CONTINUOUS
 62
     5
 10
18.485923473745061
 20
-102.20667461203639
 30
0.0
 11
18.455967630870418
 21
-102.1935491501528
 31
0.0
  0
LINE
  8
DETAIL
  6
CONTINUOUS
 62
     5
 10
18.455967630870418
 20
-102.1935491501528
 30
0.0
 11
18.455967630870418
 21
-102.1935491501528
 31
0.0
  0
LINE
  8
DETAIL
  6
CONTINUOUS
 62
     5
 10
18.455967630870418
 20
-102.1935491501528
 30
0.0
 11
18.426380843144219
 21
-102.1801302492822
 31
0.0
  0
LINE
  8
DETAIL
  6
CONTINUOUS
 62
     5
 10
18.426380843144219
 20
-102.1801302492822
 30
0.0
 11
18.397128995741241
 21
-102.1664131702902
 31
0.0
  0
LINE
  8
DETAIL
  6
CONTINUOUS
 62
     5
 10
18.397128995741241
 20
-102.1664131702902
 30
0.0
 11
18.397128995741241
 21
-102.1664131702902
 31
0.0
  0
LINE
  8
DETAIL
  6
CONTINUOUS
 62
     5
 10
18.397128995741241
 20
-102.1664131702902
 30
0.0
 11
18.368012134732911
 21
-102.15232438082229
 31
0.0
  0
LINE
  8
DETAIL
  6
CONTINUOUS
 62
     5
 10
18.368012134732911
 20
-102.15232438082229
 30
0.0
 11
18.338975977868358
 21
-102.13783420480151
 31
0.0
  0
LINE
  8
DETAIL
  6
CONTINUOUS
 62
     5
 10
18.338975977868358
 20
-102.13783420480151
 30
0.0
 11
18.338975977868358
 21
-102.13783420480151
 31
0.0
  0
LINE
  8
DETAIL
  6
CONTINUOUS
 62
     5
 10
18.338975977868358
 20
-102.13783420480151
 30
0.0
 11
18.31005924616284
 21
-102.12295983122991
 31
0.0
  0
LINE
  8
DETAIL
  6
CONTINUOUS
 62
     5
 10
18.31005924616284
 20
-102.12295983122991
 30
0.0
 11
18.28152700201554
 21
-102.10786205316219
 31
0.0
  0
LINE
  8
DETAIL
  6
CONTINUOUS
 62
     5
 10
18.28152700201554
 20
-102.10786205316219
 30
0.0
 11
18.28152700201554
 21
-102.10786205316219
 31
0.0
  0
LINE
  8
DETAIL
  6
CONTINUOUS
 62
     5
 10
18.28152700201554
 20
-102.10786205316219
 30
0.0
 11
18.2534381338678
 21
-102.0925829965455
 31
0.0
  0
LINE
  8
DETAIL
  6
CONTINUOUS
 62
     5
 10
18.2534381338678
 20
-102.0925829965455
 30
0.0
 11
18.224800492946091
 21
-102.0765465148485
 31
0.0
  0
LINE
  8
DETAIL
  6
CONTINUOUS
 62
     5
 10
18.224800492946091
 20
-102.0765465148485
 30
0.0
 11
18.224800492946091
 21
-102.0765465148485
 31
0.0
  0
LINE
  8
DETAIL
  6
CONTINUOUS
 62
     5
 10
18.224800492946091
 20
-102.0765465148485
 30
0.0
 11
18.194781059019991
 21
-102.0592613947513
 31
0.0
  0
LINE
  8
DETAIL
  6
CONTINUOUS
 62
     5
 10
18.194781059019991
 20
-102.0592613947513
 30
0.0
 11
18.164234363244759
 21
-102.04119442826
 31
0.0
  0
LINE
  8
DETAIL
  6
CONTINUOUS
 62
     5
 10
18.164234363244759
 20
-102.04119442826
 30
0.0
 11
18.164234363244759
 21
-102.04119442826
 31
0.0
  0
LINE
  8
DETAIL
  6
CONTINUOUS
 62
     5
 10
18.164234363244759
 20
-102.04119442826
 30
0.0
 11
18.134171706959481
 21
-102.0229075121789
 31
0.0
  0
LINE
  8
DETAIL
  6
CONTINUOUS
 62
     5
 10
18.134171706959481
 20
-102.0229075121789
 30
0.0
 11
18.104543920853761
 21
-102.0043849571838
 31
0.0
  0
LINE
  8
DETAIL
  6
CONTINUOUS
 62
     5
 10
18.104543920853761
 20
-102.0043849571838
 30
0.0
 11
18.104543920853761
 21
-102.0043849571838
 31
0.0
  0
LINE
  8
DETAIL
  6
CONTINUOUS
 62
     5
 10
18.104543920853761
 20
-102.0043849571838
 30
0.0
 11
18.075086851696138
 21
-101.9854896271554
 31
0.0
  0
LINE
  8
DETAIL
  6
CONTINUOUS
 62
     5
 10
18.075086851696138
 20
-101.9854896271554
 30
0.0
 11
18.045736881231282
 21
-101.96617618492721
 31
0.0
  0
LINE
  8
DETAIL
  6
CONTINUOUS
 62
     5
 10
18.045736881231282
 20
-101.96617618492721
 30
0.0
 11
18.045736881231282
 21
-101.96617618492721
 31
0.0
  0
LINE
  8
DETAIL
  6
CONTINUOUS
 62
     5
 10
18.045736881231282
 20
-101.96617618492721
 30
0.0
 11
18.01654510763365
 21
-101.9464748406497
 31
0.0
  0
LINE
  8
DETAIL
  6
CONTINUOUS
 62
     5
 10
18.01654510763365
 20
-101.9464748406497
 30
0.0
 11
17.98782095983324
 21
-101.9266261947994
 31
0.0
  0
LINE
  8
DETAIL
  6
CONTINUOUS
 62
     5
 10
17.98782095983324
 20
-101.9266261947994
 30
0.0
 11
17.98782095983324
 21
-101.9266261947994
 31
0.0
  0
LINE
  8
DETAIL
  6
CONTINUOUS
 62
     5
 10
17.98782095983324
 20
-101.9266261947994
 30
0.0
 11
17.959629984949519
 21
-101.9066901053707
 31
0.0
  0
LINE
  8
DETAIL
  6
CONTINUOUS
 62
     5
 10
17.959629984949519
 20
-101.9066901053707
 30
0.0
 11
17.930803872116481
 21
-101.88579307010789
 31
0.0
  0
LINE
  8
DETAIL
  6
CONTINUOUS
 62
     5
 10
17.930803872116481
 20
-101.88579307010789
 30
0.0
 11
17.930803872116481
 21
-101.88579307010789
 31
0.0
  0
LINE
  8
DETAIL
  6
CONTINUOUS
 62
     5
 10
17.930803872116481
 20
-101.88579307010789
 30
0.0
 11
17.900362839353871
 21
-101.8631926591902
 31
0.0
  0
LINE
  8
DETAIL
  6
CONTINUOUS
 62
     5
 10
17.900362839353871
 20
-101.8631926591902
 30
0.0
 11
17.869315078208729
 21
-101.83960409279111
 31
0.0
  0
LINE
  8
DETAIL
  6
CONTINUOUS
 62
     5
 10
17.869315078208729
 20
-101.83960409279111
 30
0.0
 11
17.869315078208729
 21
-101.83960409279111
 31
0.0
  0
LINE
  8
DETAIL
  6
CONTINUOUS
 62
     5
 10
17.869315078208729
 20
-101.83960409279111
 30
0.0
 11
17.838852377420611
 21
-101.8158850325508
 31
0.0
  0
LINE
  8
DETAIL
  6
CONTINUOUS
 62
     5
 10
17.838852377420611
 20
-101.8158850325508
 30
0.0
 11
17.808912940961822
 21
-101.7920052559863
 31
0.0
  0
LINE
  8
DETAIL
  6
CONTINUOUS
 62
     5
 10
17.808912940961822
 20
-101.7920052559863
 30
0.0
 11
17.808912940961822
 21
-101.7920052559863
 31
0.0
  0
LINE
  8
DETAIL
  6
CONTINUOUS
 62
     5
 10
17.808912940961822
 20
-101.7920052559863
 30
0.0
 11
17.779182917694921
 21
-101.76775072901479
 31
0.0
  0
LINE
  8
DETAIL
  6
CONTINUOUS
 62
     5
 10
17.779182917694921
 20
-101.76775072901479
 30
0.0
 11
17.749593820804421
 21
-101.7430600552771
 31
0.0
  0
LINE
  8
DETAIL
  6
CONTINUOUS
 62
     5
 10
17.749593820804421
 20
-101.7430600552771
 30
0.0
 11
17.749593820804421
 21
-101.7430600552771
 31
0.0
  0
LINE
  8
DETAIL
  6
CONTINUOUS
 62
     5
 10
17.749593820804421
 20
-101.7430600552771
 30
0.0
 11
17.720206536424939
 21
-101.7179793311517
 31
0.0
  0
LINE
  8
DETAIL
  6
CONTINUOUS
 62
     5
 10
17.720206536424939
 20
-101.7179793311517
 30
0.0
 11
17.691354078164299
 21
-101.692831986245
 31
0.0
  0
LINE
  8
DETAIL
  6
CONTINUOUS
 62
     5
 10
17.691354078164299
 20
-101.692831986245
 30
0.0
 11
17.691354078164299
 21
-101.692831986245
 31
0.0
  0
LINE
  8
DETAIL
  6
CONTINUOUS
 62
     5
 10
17.691354078164299
 20
-101.692831986245
 30
0.0
 11
17.663104022944939
 21
-101.6676952908101
 31
0.0
  0
LINE
  8
DETAIL
  6
CONTINUOUS
 62
     5
 10
17.663104022944939
 20
-101.6676952908101
 30
0.0
 11
17.634190073470108
 21
-101.64138454447171
 31
0.0
  0
LINE
  8
DETAIL
  6
CONTINUOUS
 62
     5
 10
17.634190073470108
 20
-101.64138454447171
 30
0.0
 11
17.634190073470108
 21
-101.64138454447171
 31
0.0
  0
LINE
  8
DETAIL
  6
CONTINUOUS
 62
     5
 10
17.634190073470108
 20
-101.64138454447171
 30
0.0
 11
17.60355157373397
 21
-101.61289514509239
 31
0.0
  0
LINE
  8
DETAIL
  6
CONTINUOUS
 62
     5
 10
17.60355157373397
 20
-101.61289514509239
 30
0.0
 11
17.572284307107111
 21
-101.58320485412401
 31
0.0
  0
LINE
  8
DETAIL
  6
CONTINUOUS
 62
     5
 10
17.572284307107111
 20
-101.58320485412401
 30
0.0
 11
17.572284307107111
 21
-101.58320485412401
 31
0.0
  0
LINE
  8
DETAIL
  6
CONTINUOUS
 62
     5
 10
17.572284307107111
 20
-101.58320485412401
 30
0.0
 11
17.541681863358921
 21
-101.55348271373011
 31
0.0
  0
LINE
  8
DETAIL
  6
CONTINUOUS
 62
     5
 10
17.541681863358921
 20
-101.55348271373011
 30
0.0
 11
17.511672618476041
 21
-101.52368052533051
 31
0.0
  0
LINE
  8
DETAIL
  6
CONTINUOUS
 62
     5
 10
17.511672618476041
 20
-101.52368052533051
 30
0.0
 11
17.511672618476041
 21
-101.52368052533051
 31
0.0
  0
LINE
  8
DETAIL
  6
CONTINUOUS
 62
     5
 10
17.511672618476041
 20
-101.52368052533051
 30
0.0
 11
17.48191347815191
 21
-101.49350223011911
 31
0.0
  0
LINE
  8
DETAIL
  6
CONTINUOUS
 62
     5
 10
17.48191347815191
 20
-101.49350223011911
 30
0.0
 11
17.452340680687939
 21
-101.4628775691267
 31
0.0
  0
LINE
  8
DETAIL
  6
CONTINUOUS
 62
     5
 10
17.452340680687939
 20
-101.4628775691267
 30
0.0
 11
17.452340680687939
 21
-101.4628775691267
 31
0.0
  0
LINE
  8
DETAIL
  6
CONTINUOUS
 62
     5
 10
17.452340680687939
 20
-101.4628775691267
 30
0.0
 11
17.423022268373639
 21
-101.4318712436923
 31
0.0
  0
LINE
  8
DETAIL
  6
CONTINUOUS
 62
     5
 10
17.423022268373639
 20
-101.4318712436923
 30
0.0
 11
17.394274166854299
 21
-101.40086199654721
 31
0.0
  0
LINE
  8
DETAIL
  6
CONTINUOUS
 62
     5
 10
17.394274166854299
 20
-101.40086199654721
 30
0.0
 11
17.394274166854299
 21
-101.40086199654721
 31
0.0
  0
LINE
  8
DETAIL
  6
CONTINUOUS
 62
     5
 10
17.394274166854299
 20
-101.40086199654721
 30
0.0
 11
17.366156556106031
 21
-101.3699365894187
 31
0.0
  0
LINE
  8
DETAIL
  6
CONTINUOUS
 62
     5
 10
17.366156556106031
 20
-101.3699365894187
 30
0.0
 11
17.33745875008572
 21
-101.3376998186278
 31
0.0
  0
LINE
  8
DETAIL
  6
CONTINUOUS
 62
     5
 10
17.33745875008572
 20
-101.3376998186278
 30
0.0
 11
17.33745875008572
 21
-101.3376998186278
 31
0.0
  0
LINE
  8
DETAIL
  6
CONTINUOUS
 62
     5
 10
17.33745875008572
 20
-101.3376998186278
 30
0.0
 11
17.307167895149629
 21
-101.30297056879699
 31
0.0
  0
LINE
  8
DETAIL
  6
CONTINUOUS
 62
     5
 10
17.307167895149629
 20
-101.30297056879699
 30
0.0
 11
17.276333333276849
 21
-101.2669060431662
 31
0.0
  0
LINE
  8
DETAIL
  6
CONTINUOUS
 62
     5
 10
17.276333333276849
 20
-101.2669060431662
 30
0.0
 11
17.276333333276849
 21
-101.2669060431662
 31
0.0
  0
LINE
  8
DETAIL
  6
CONTINUOUS
 62
     5
 10
17.276333333276849
 20
-101.2669060431662
 30
0.0
 11
17.246193870824751
 21
-101.23088907160491
 31
0.0
  0
LINE
  8
DETAIL
  6
CONTINUOUS
 62
     5
 10
17.246193870824751
 20
-101.23088907160491
 30
0.0
 11
17.21668397603889
 21
-101.1948666718943
 31
0.0
  0
LINE
  8
DETAIL
  6
CONTINUOUS
 62
     5
 10
17.21668397603889
 20
-101.1948666718943
 30
0.0
 11
17.21668397603889
 21
-101.1948666718943
 31
0.0
  0
LINE
  8
DETAIL
  6
CONTINUOUS
 62
     5
 10
17.21668397603889
 20
-101.1948666718943
 30
0.0
 11
17.18747466477544
 21
-101.1584879333589
 31
0.0
  0
LINE
  8
DETAIL
  6
CONTINUOUS
 62
     5
 10
17.18747466477544
 20
-101.1584879333589
 30
0.0
 11
17.158487481442531
 21
-101.1216460435942
 31
0.0
  0
LINE
  8
DETAIL
  6
CONTINUOUS
 62
     5
 10
17.158487481442531
 20
-101.1216460435942
 30
0.0
 11
17.158487481442531
 21
-101.1216460435942
 31
0.0
  0
LINE
  8
DETAIL
  6
CONTINUOUS
 62
     5
 10
17.158487481442531
 20
-101.1216460435942
 30
0.0
 11
17.12978215856128
 21
-101.08441006951389
 31
0.0
  0
LINE
  8
DETAIL
  6
CONTINUOUS
 62
     5
 10
17.12978215856128
 20
-101.08441006951389
 30
0.0
 11
17.101720652558921
 21
-101.04730849704561
 31
0.0
  0
LINE
  8
DETAIL
  6
CONTINUOUS
 62
     5
 10
17.101720652558921
 20
-101.04730849704561
 30
0.0
 11
17.101720652558921
 21
-101.04730849704561
 31
0.0
  0
LINE
  8
DETAIL
  6
CONTINUOUS
 62
     5
 10
17.101720652558921
 20
-101.04730849704561
 30
0.0
 11
17.074375619794861
 21
-101.01046422328859
 31
0.0
  0
LINE
  8
DETAIL
  6
CONTINUOUS
 62
     5
 10
17.074375619794861
 20
-101.01046422328859
 30
0.0
 11
17.046360292459209
 21
-100.9719183710301
 31
0.0
  0
LINE
  8
DETAIL
  6
CONTINUOUS
 62
     5
 10
17.046360292459209
 20
-100.9719183710301
 30
0.0
 11
17.046360292459209
 21
-100.9719183710301
 31
0.0
  0
LINE
  8
DETAIL
  6
CONTINUOUS
 62
     5
 10
17.046360292459209
 20
-100.9719183710301
 30
0.0
 11
17.01651480196961
 21
-100.9300131323666
 31
0.0
  0
LINE
  8
DETAIL
  6
CONTINUOUS
 62
     5
 10
17.01651480196961
 20
-100.9300131323666
 30
0.0
 11
16.986046300819449
 21
-100.8863767509603
 31
0.0
  0
LINE
  8
DETAIL
  6
CONTINUOUS
 62
     5
 10
16.986046300819449
 20
-100.8863767509603
 30
0.0
 11
16.986046300819449
 21
-100.8863767509603
 31
0.0
  0
LINE
  8
DETAIL
  6
CONTINUOUS
 62
     5
 10
16.986046300819449
 20
-100.8863767509603
 30
0.0
 11
16.956378465267331
 21
-100.8429530295581
 31
0.0
  0
LINE
  8
DETAIL
  6
CONTINUOUS
 62
     5
 10
16.956378465267331
 20
-100.8429530295581
 30
0.0
 11
16.927434045550399
 21
-100.7996619556906
 31
0.0
  0
LINE
  8
DETAIL
  6
CONTINUOUS
 62
     5
 10
16.927434045550399
 20
-100.7996619556906
 30
0.0
 11
16.927434045550399
 21
-100.7996619556906
 31
0.0
  0
LINE
  8
DETAIL
  6
CONTINUOUS
 62
     5
 10
16.927434045550399
 20
-100.7996619556906
 30
0.0
 11
16.898833981264492
 21
-100.7560056339719
 31
0.0
  0
LINE
  8
DETAIL
  6
CONTINUOUS
 62
     5
 10
16.898833981264492
 20
-100.7560056339719
 30
0.0
 11
16.870492895453939
 21
-100.7118384525774
 31
0.0
  0
LINE
  8
DETAIL
  6
CONTINUOUS
 62
     5
 10
16.870492895453939
 20
-100.7118384525774
 30
0.0
 11
16.870492895453939
 21
-100.7118384525774
 31
0.0
  0
LINE
  8
DETAIL
  6
CONTINUOUS
 62
     5
 10
16.870492895453939
 20
-100.7118384525774
 30
0.0
 11
16.842480380081721
 21
-100.6672565408157
 31
0.0
  0
LINE
  8
DETAIL
  6
CONTINUOUS
 62
     5
 10
16.842480380081721
 20
-100.6672565408157
 30
0.0
 11
16.815192219331951
 21
-100.62297070897721
 31
0.0
  0
LINE
  8
DETAIL
  6
CONTINUOUS
 62
     5
 10
16.815192219331951
 20
-100.62297070897721
 30
0.0
 11
16.815192219331951
 21
-100.62297070897721
 31
0.0
  0
LINE
  8
DETAIL
  6
CONTINUOUS
 62
     5
 10
16.815192219331951
 20
-100.62297070897721
 30
0.0
 11
16.78870613235949
 21
-100.5791426857255
 31
0.0
  0
LINE
  8
DETAIL
  6
CONTINUOUS
 62
     5
 10
16.78870613235949
 20
-100.5791426857255
 30
0.0
 11
16.761501385985412
 21
-100.5331231922471
 31
0.0
  0
LINE
  8
DETAIL
  6
CONTINUOUS
 62
     5
 10
16.761501385985412
 20
-100.5331231922471
 30
0.0
 11
16.761501385985412
 21
-100.5331231922471
 31
0.0
  0
LINE
  8
DETAIL
  6
CONTINUOUS
 62
     5
 10
16.761501385985412
 20
-100.5331231922471
 30
0.0
 11
16.732311499387379
 21
-100.4826792512202
 31
0.0
  0
LINE
  8
DETAIL
  6
CONTINUOUS
 62
     5
 10
16.732311499387379
 20
-100.4826792512202
 30
0.0
 11
16.702485453505691
 21
-100.4300540987782
 31
0.0
  0
LINE
  8
DETAIL
  6
CONTINUOUS
 62
     5
 10
16.702485453505691
 20
-100.4300540987782
 30
0.0
 11
16.702485453505691
 21
-100.4300540987782
 31
0.0
  0
LINE
  8
DETAIL
  6
CONTINUOUS
 62
     5
 10
16.702485453505691
 20
-100.4300540987782
 30
0.0
 11
16.67359217769399
 21
-100.3778800431726
 31
0.0
  0
LINE
  8
DETAIL
  6
CONTINUOUS
 62
     5
 10
16.67359217769399
 20
-100.3778800431726
 30
0.0
 11
16.645464933189938
 21
-100.32586946767189
 31
0.0
  0
LINE
  8
DETAIL
  6
CONTINUOUS
 62
     5
 10
16.645464933189938
 20
-100.32586946767189
 30
0.0
 11
16.645464933189938
 21
-100.32586946767189
 31
0.0
  0
LINE
  8
DETAIL
  6
CONTINUOUS
 62
     5
 10
16.645464933189938
 20
-100.32586946767189
 30
0.0
 11
16.61766502275168
 21
-100.2733002862019
 31
0.0
  0
LINE
  8
DETAIL
  6
CONTINUOUS
 62
     5
 10
16.61766502275168
 20
-100.2733002862019
 30
0.0
 11
16.590401583334369
 21
-100.2206324603001
 31
0.0
  0
LINE
  8
DETAIL
  6
CONTINUOUS
 62
     5
 10
16.590401583334369
 20
-100.2206324603001
 30
0.0
 11
16.590401583334369
 21
-100.2206324603001
 31
0.0
  0
LINE
  8
DETAIL
  6
CONTINUOUS
 62
     5
 10
16.590401583334369
 20
-100.2206324603001
 30
0.0
 11
16.563831793274861
 21
-100.16816939703931
 31
0.0
  0
LINE
  8
DETAIL
  6
CONTINUOUS
 62
     5
 10
16.563831793274861
 20
-100.16816939703931
 30
0.0
 11
16.53725716223698
 21
-100.1144062380363
 31
0.0
  0
LINE
  8
DETAIL
  6
CONTINUOUS
 62
     5
 10
16.53725716223698
 20
-100.1144062380363
 30
0.0
 11
16.53725716223698
 21
-100.1144062380363
 31
0.0
  0
LINE
  8
DETAIL
  6
CONTINUOUS
 62
     5
 10
16.53725716223698
 20
-100.1144062380363
 30
0.0
 11
16.510458992840089
 21
-100.0588988120987
 31
0.0
  0
LINE
  8
DETAIL
  6
CONTINUOUS
 62
     5
 10
16.510458992840089
 20
-100.0588988120987
 30
0.0
 11
16.485993428195339
 21
-100.0072539622545
 31
0.0
  0
LINE
  8
DETAIL
  6
CONTINUOUS
 62
     5
 10
16.485993428195339
 20
-100.0072539622545
 30
0.0
 11
16.485993428195339
 21
-100.0072539622545
 31
0.0
  0
LINE
  8
DETAIL
  6
CONTINUOUS
 62
     5
 10
16.485993428195339
 20
-100.0072539622545
 30
0.0
 11
16.466006651557109
 21
-99.964231594882904
 31
0.0
  0
LINE
  8
DETAIL
  6
CONTINUOUS
 62
     5
 10
16.466006651557109
 20
-99.964231594882904
 30
0.0
 11
16.44823016625924
 21
-99.925152855557485
 31
0.0
  0
LINE
  8
DETAIL
  6
CONTINUOUS
 62
     5
 10
16.44823016625924
 20
-99.925152855557485
 30
0.0
 11
16.44823016625924
 21
-99.925152855557485
 31
0.0
  0
LINE
  8
DETAIL
  6
CONTINUOUS
 62
     5
 10
16.44823016625924
 20
-99.925152855557485
 30
0.0
 11
16.430004581947738
 21
-99.884466989968246
 31
0.0
  0
LINE
  8
DETAIL
  6
CONTINUOUS
 62
     5
 10
16.430004581947738
 20
-99.884466989968246
 30
0.0
 11
16.4115216134478
 21
-99.842574405084974
 31
0.0
  0
LINE
  8
DETAIL
  6
CONTINUOUS
 62
     5
 10
16.4115216134478
 20
-99.842574405084974
 30
0.0
 11
16.4115216134478
 21
-99.842574405084974
 31
0.0
  0
LINE
  8
DETAIL
  6
CONTINUOUS
 62
     5
 10
16.4115216134478
 20
-99.842574405084974
 30
0.0
 11
16.393492579506528
 21
-99.800965651285878
 31
0.0
  0
LINE
  8
DETAIL
  6
CONTINUOUS
 62
     5
 10
16.393492579506528
 20
-99.800965651285878
 30
0.0
 11
16.37585610937867
 21
-99.759540691300913
 31
0.0
  0
LINE
  8
DETAIL
  6
CONTINUOUS
 62
     5
 10
16.37585610937867
 20
-99.759540691300913
 30
0.0
 11
16.37585610937867
 21
-99.759540691300913
 31
0.0
  0
LINE
  8
DETAIL
  6
CONTINUOUS
 62
     5
 10
16.37585610937867
 20
-99.759540691300913
 30
0.0
 11
16.358417573145289
 21
-99.717904638277901
 31
0.0
  0
LINE
  8
DETAIL
  6
CONTINUOUS
 62
     5
 10
16.358417573145289
 20
-99.717904638277901
 30
0.0
 11
16.34122199366902
 21
-99.676073794671424
 31
0.0
  0
LINE
  8
DETAIL
  6
CONTINUOUS
 62
     5
 10
16.34122199366902
 20
-99.676073794671424
 30
0.0
 11
16.34122199366902
 21
-99.676073794671424
 31
0.0
  0
LINE
  8
DETAIL
  6
CONTINUOUS
 62
     5
 10
16.34122199366902
 20
-99.676073794671424
 30
0.0
 11
16.324327826598161
 21
-99.634153717866639
 31
0.0
  0
LINE
  8
DETAIL
  6
CONTINUOUS
 62
     5
 10
16.324327826598161
 20
-99.634153717866639
 30
0.0
 11
16.307607605935569
 21
-99.592195795660814
 31
0.0
  0
LINE
  8
DETAIL
  6
CONTINUOUS
 62
     5
 10
67.584348631483863
 20
-161.4851741687645
 30
0.0
 11
67.584348631483863
 21
-161.4851741687645
 31
0.0
  0
LINE
  8
DETAIL
  6
CONTINUOUS
 62
     5
 10
67.584348631483863
 20
-161.4851741687645
 30
0.0
 11
67.344646232361811
 21
-161.3733358982295
 31
0.0
  0
LINE
  8
DETAIL
  6
CONTINUOUS
 62
     5
 10
67.344646232361811
 20
-161.3733358982295
 30
0.0
 11
67.095169947010163
 21
-161.25671595051469
 31
0.0
  0
LINE
  8
DETAIL
  6
CONTINUOUS
 62
     5
 10
67.095169947010163
 20
-161.25671595051469
 30
0.0
 11
67.095169947010163
 21
-161.25671595051469
 31
0.0
  0
LINE
  8
DETAIL
  6
CONTINUOUS
 62
     5
 10
67.095169947010163
 20
-161.25671595051469
 30
0.0
 11
66.832284001387052
 21
-161.13359739862619
 31
0.0
  0
LINE
  8
DETAIL
  6
CONTINUOUS
 62
     5
 10
66.832284001387052
 20
-161.13359739862619
 30
0.0
 11
66.606288299853986
 21
-161.0276231320631
 31
0.0
  0
LINE
  8
DETAIL
  6
CONTINUOUS
 62
     5
 10
66.606288299853986
 20
-161.0276231320631
 30
0.0
 11
66.606288299853986
 21
-161.0276231320631
 31
0.0
  0
LINE
  8
DETAIL
  6
CONTINUOUS
 62
     5
 10
66.606288299853986
 20
-161.0276231320631
 30
0.0
 11
66.459700908634659
 21
-160.9587944355421
 31
0.0
  0
LINE
  8
DETAIL
  6
CONTINUOUS
 62
     5
 10
66.459700908634659
 20
-160.9587944355421
 30
0.0
 11
66.349976863008123
 21
-160.90718635816481
 31
0.0
  0
LINE
  8
DETAIL
  6
CONTINUOUS
 62
     5
 10
66.349976863008123
 20
-160.90718635816481
 30
0.0
 11
66.349976863008123
 21
-160.90718635816481
 31
0.0
  0
LINE
  8
DETAIL
  6
CONTINUOUS
 62
     5
 10
66.349976863008123
 20
-160.90718635816481
 30
0.0
 11
66.226789964025556
 21
-160.8492122790326
 31
0.0
  0
LINE
  8
DETAIL
  6
CONTINUOUS
 62
     5
 10
66.226789964025556
 20
-160.8492122790326
 30
0.0
 11
66.093752106776719
 21
-160.7865651328691
 31
0.0
  0
LINE
  8
DETAIL
  6
CONTINUOUS
 62
     5
 10
66.093752106776719
 20
-160.7865651328691
 30
0.0
 11
66.093752106776719
 21
-160.7865651328691
 31
0.0
  0
LINE
  8
DETAIL
  6
CONTINUOUS
 62
     5
 10
66.093752106776719
 20
-160.7865651328691
 30
0.0
 11
65.964347605393414
 21
-160.7255652930348
 31
0.0
  0
LINE
  8
DETAIL
  6
CONTINUOUS
 62
     5
 10
65.964347605393414
 20
-160.7255652930348
 30
0.0
 11
65.837612356135651
 21
-160.66576333182081
 31
0.0
  0
LINE
  8
DETAIL
  6
CONTINUOUS
 62
     5
 10
65.837612356135651
 20
-160.66576333182081
 30
0.0
 11
65.837612356135651
 21
-160.66576333182081
 31
0.0
  0
LINE
  8
DETAIL
  6
CONTINUOUS
 62
     5
 10
65.837612356135651
 20
-160.66576333182081
 30
0.0
 11
65.709934045157752
 21
-160.60546728341481
 31
0.0
  0
LINE
  8
DETAIL
  6
CONTINUOUS
 62
     5
 10
65.709934045157752
 20
-160.60546728341481
 30
0.0
 11
65.581555936062614
 21
-160.54478483066339
 31
0.0
  0
LINE
  8
DETAIL
  6
CONTINUOUS
 62
     5
 10
65.581555936062614
 20
-160.54478483066339
 30
0.0
 11
65.581555936062614
 21
-160.54478483066339
 31
0.0
  0
LINE
  8
DETAIL
  6
CONTINUOUS
 62
     5
 10
65.581555936062614
 20
-160.54478483066339
 30
0.0
 11
65.453441713835673
 21
-160.4841663701861
 31
0.0
  0
LINE
  8
DETAIL
  6
CONTINUOUS
 62
     5
 10
65.453441713835673
 20
-160.4841663701861
 30
0.0
 11
65.325581171533486
 21
-160.42363350504209
 31
0.0
  0
LINE
  8
DETAIL
  6
CONTINUOUS
 62
     5
 10
-86.165703275529722
 20
-225.4335260115605
 30
0.0
 11
-86.165703275529722
 21
-221.4258188824663
 31
0.0
  0
LINE
  8
DETAIL
  6
CONTINUOUS
 62
     5
 10
2.5048169556839639
 20
-213.4104046242775
 30
0.0
 11
-2.5048169556839639
 21
-213.4104046242775
 31
0.0
  0
LINE
  8
DETAIL
  6
CONTINUOUS
 62
     5
 10
-63.569471134249397
 20
-225.4335260115605
 30
0.0
 11
-63.569471134249397
 21
-221.4258188824663
 31
0.0
  0
LINE
  8
DETAIL
  6
CONTINUOUS
 62
     5
 10
-2.5048169556839639
 20
-213.4104046242775
 30
0.0
 11
-2.5048169556839639
 21
-221.4258188824663
 31
0.0
  0
LINE
  8
DETAIL
  6
CONTINUOUS
 62
     5
 10
2.5048169556839639
 20
-213.4104046242775
 30
0.0
 11
2.5048169556839639
 21
-221.4258188824663
 31
0.0
  0
LINE
  8
DETAIL
  6
CONTINUOUS
 62
     5
 10
238.333333333333
 20
-99.591522157995882
 30
0.0
 11
206.53232368060429
 21
-99.591522157995882
 31
0.0
  0
LINE
  8
DETAIL
  6
CONTINUOUS
 62
     5
 10
180.6731970773462
 20
-99.591522157995882
 30
0.0
 11
-180.67319707734671
 21
-99.591522157995882
 31
0.0
  0
LINE
  8
DETAIL
  6
CONTINUOUS
 62
     5
 10
-206.53232368060461
 20
-99.591522157995882
 30
0.0
 11
-238.33333333333351
 21
-99.591522157995882
 31
0.0
  0
ARC
  8
DETAIL
  6
CONTINUOUS
 62
     5
 10
-238.33333333333351
 20
-64.524084778419933
 30
0.0
 40
34.46628131021189
 50
295.68763667251
 51
337.34310834579748
  0
ARC
  8
DETAIL
  6
CONTINUOUS
 62
     5
 10
-233.3236994219653
 20
-49.495183044315809
 30
0.0
 40
29.456647398843931
 50
24.53934114489633
 51
90.0
  0
CIRCLE
  8
DETAIL
  6
CONTINUOUS
 62
     5
 10
0.0
 20
-237.45664739884401
 30
0.0
 40
3.005780346820814
  0
ARC
  8
DETAIL
  6
CONTINUOUS
 62
     5
 10
238.333333333333
 20
-64.524084778419933
 30
0.0
 40
34.466281310211997
 50
202.6568916542025
 51
244.31236332749
  0
ARC
  8
DETAIL
  6
CONTINUOUS
 62
     5
 10
233.3236994219651
 20
-49.495183044315809
 30
0.0
 40
29.45664739884392
 50
91.044076173411327
 51
155.4606588551037
  0
LINE
  8
NOTE
  6
CONTINUOUS
 62
     4
 10
-230.4431599229288
 20
-34.681212037984778
 30
0.0
 11
-230.4431599229288
 21
14.48682129364261
 31
0.0
  0
LINE
  8
NOTE
  6
CONTINUOUS
 62
     4
 10
230.4431599229288
 20
-34.681212037984778
 30
0.0
 11
230.4431599229288
 21
14.48682129364261
 31
0.0
  0
LINE
  8
BASIS
  6
DASHDOT
 62
     6
 10
0.0
 20
-310.17828768981798
 30
0.0
 11
0.0
 21
89.079948621606036
 31
0.0
  0
LINE
  8
OUTLINE
  6
CONTINUOUS
 62
     3
 10
-256.99421965317919
 20
-3.0057803468209841
 30
0.0
 11
-258.49710982658962
 21
-3.0057803468209841
 31
0.0
  0
LINE
  8
OUTLINE
  6
CONTINUOUS
 62
     3
 10
-65.325626204239143
 20
-266.51252408477842
 30
0.0
 11
-89.672447013487727
 21
-266.51252408477842
 31
0.0
  0
LINE
  8
SIZE
  6
CONTINUOUS
 62
    30
 10
-65.325626204239143
 20
-301.24084778420018
 30
0.0
 11
-65.325626204239143
 21
-462.88094283804179
 31
0.0
  0
LINE
  8
SIZE
  6
CONTINUOUS
 62
    30
 10
65.325626204238688
 20
-301.24084778420018
 30
0.0
 11
65.325626204238688
 21
-462.88094283804179
 31
0.0
  0
LINE
  8
SIZE
  6
CONTINUOUS
 62
    30
 10
-53.325626204239143
 20
-442.88094283804179
 30
0.0
 11
53.325626204238688
 21
-442.88094283804179
 31
0.0
  0
LINE
  8
SIZE
  6
CONTINUOUS
 62
    30
 10
65.325626204238688
 20
-442.88094283804179
 30
0.0
 11
300.12562620423893
 21
-442.88094283804179
 31
0.0
  0
CIRCLE
  8
SIZE
  6
CONTINUOUS
 62
    30
 10
-65.325626204239143
 20
-442.88094283804179
 30
0.0
 40
6.0
  0
LINE
  8
SIZE
  6
CONTINUOUS
 62
    30
 10
-65.325626204239143
 20
-442.88094283804179
 30
0.0
 11
-53.325626204239143
 21
-442.88094283804179
 31
0.0
  0
CIRCLE
  8
SIZE
  6
CONTINUOUS
 62
    30
 10
65.325626204238688
 20
-442.88094283804179
 30
0.0
 40
6.0
  0
LINE
  8
SIZE
  6
CONTINUOUS
 62
    30
 10
65.325626204238688
 20
-442.88094283804179
 30
0.0
 11
53.325626204238688
 21
-442.88094283804179
 31
0.0
  0
TEXT
  8
SIZE
  6
CONTINUOUS
 62
    30
 10
92.177054775667358
 20
-407.21427617137522
 30
0.0
 40
64.0
  1
φ131
 41
0.9
 72
     1
 11
188.72562620423881
 21
-407.21427617137522
 31
0.0
  0
POINT
  8
DEFPOINTS
  6
CONTINUOUS
 62
    30
 10
-65.325626204239143
 20
-281.24084778420018
 30
0.0
  0
POINT
  8
DEFPOINTS
  6
CONTINUOUS
 62
    30
 10
65.325626204238688
 20
-281.24084778420018
 30
0.0
  0
POINT
  8
DEFPOINTS
  6
CONTINUOUS
 62
    30
 10
65.325626204238688
 20
-442.88094283804179
 30
0.0
  0
ARC
  8
DETAIL
  6
CONTINUOUS
 62
     5
 10
194.71600823209431
 20
-7.4346750959505243
 30
0.0
 40
2.5916927064155608
 50
274.24202891535191
 51
345.98509350748668
  0
ARC
  8
DETAIL
  6
CONTINUOUS
 62
     5
 10
210.59185320260991
 20
-10.541280470920359
 30
0.0
 40
13.58931915512612
 50
146.31138144914581
 51
169.48924874747041
  0
ARC
  8
DETAIL
  6
CONTINUOUS
 62
     5
 10
194.43226356615111
 20
-8.0794983657353896
 30
0.0
 40
6.4659440374839088
 50
274.2168590202055
 51
345.0608587707668
  0
ARC
  8
DETAIL
  6
CONTINUOUS
 62
     5
 10
205.85084148326811
 20
-9.8698550613510179
 30
0.0
 40
5.1726556254472236
 50
113.0403953827352
 51
178.6320990709319
  0
ARC
  8
DETAIL
  6
CONTINUOUS
 62
     5
 10
244.127670549231
 20
-8.2323180326802685
 30
0.0
 40
6.3066537963497042
 50
273.38967333439069
 51
343.54013889896089
  0
ARC
  8
DETAIL
  6
CONTINUOUS
 62
     5
 10
255.41019132464359
 20
-9.9511880313150414
 30
0.0
 40
5.2347660304861217
 50
112.3545959426619
 51
180.7451707800021
  0
ARC
  8
DETAIL
  6
CONTINUOUS
 62
     5
 10
-92.605509031346628
 20
-155.2713971033975
 30
0.0
 40
113.9268179092507
 50
180.0137067026478
 51
250.26225425598989
  0
ARC
  8
DETAIL
  6
CONTINUOUS
 62
     5
 10
-84.998092109993195
 20
-153.48407494091751
 30
0.0
 40
118.36003051381221
 50
180.878435363687
 51
247.08657980766259
  0
ARC
  8
DETAIL
  6
CONTINUOUS
 62
     5
 10
-96.54119006624569
 20
-153.71141786982389
 30
0.0
 40
84.146978042210307
 50
181.0808132357709
 51
245.7661214318031
  0
ARC
  8
DETAIL
  6
CONTINUOUS
 62
     5
 10
-194.71600823209431
 20
-7.4346750959505243
 30
0.0
 40
2.5916927064155608
 50
194.01490649251329
 51
265.75797108464809
  0
ARC
  8
DETAIL
  6
CONTINUOUS
 62
     5
 10
-210.59185320260991
 20
-10.541280470920359
 30
0.0
 40
13.58931915512612
 50
10.510751252529589
 51
33.688618550854159
  0
ARC
  8
DETAIL
  6
CONTINUOUS
 62
     5
 10
-194.43226356615111
 20
-8.0794983657353896
 30
0.0
 40
6.4659440374839088
 50
194.9391412292332
 51
265.7831409797945
  0
ARC
  8
DETAIL
  6
CONTINUOUS
 62
     5
 10
-205.8508414832686
 20
-9.8698550613510179
 30
0.0
 40
5.1726556254472236
 50
1.367900929068075
 51
66.959604617264773
  0
ARC
  8
DETAIL
  6
CONTINUOUS
 62
     5
 10
-244.127670549231
 20
-8.2323180326802685
 30
0.0
 40
6.3066537963497042
 50
196.459861101039
 51
266.61032666560931
  0
ARC
  8
DETAIL
  6
CONTINUOUS
 62
     5
 10
-255.4101913246441
 20
-9.9511880313150414
 30
0.0
 40
5.2347660304861217
 50
359.25482921999787
 51
67.645404057338055
  0
ARC
  8
DETAIL
  6
CONTINUOUS
 62
     5
 10
92.605509029519453
 20
-155.27139710284439
 30
0.0
 40
113.92681791107771
 50
289.73774574484042
 51
359.98629329707859
  0
ARC
  8
DETAIL
  6
CONTINUOUS
 62
     5
 10
84.998092107941375
 20
-153.4840749403011
 30
0.0
 40
118.3600305158736
 50
292.91342019318421
 51
359.12156463603952
  0
ARC
  8
DETAIL
  6
CONTINUOUS
 62
     5
 10
96.5411900662466
 20
-153.711417869824
 30
0.0
 40
84.146978042209952
 50
294.23387856819687
 51
358.9191867642291
  0
ARC
  8
DETAIL
  6
CONTINUOUS
 62
     5
 10
147.1616563671987
 20
-419.53583638093482
 30
0.0
 40
432.41915789927828
 50
132.27763682479181
 51
139.28166322589669
  0
ARC
  8
DETAIL
  6
CONTINUOUS
 62
     5
 10
-131.79516459948951
 20
-212.41454801831401
 30
0.0
 40
61.761151761724328
 50
114.4403854604205
 51
139.81423526230779
  0
ARC
  8
DETAIL
  6
CONTINUOUS
 62
     5
 10
-172.3501677695117
 20
-113.0832550409207
 30
0.0
 40
45.627881933985613
 50
289.34937526696291
 51
311.24250669047689
  0
ARC
  8
DETAIL
  6
CONTINUOUS
 62
     5
 10
-108.27722183657259
 20
-196.24585134909421
 30
0.0
 40
59.516468664900167
 50
105.5500060078765
 51
124.83051473676321
  0
ARC
  8
DETAIL
  6
CONTINUOUS
 62
     5
 10
-178.54075066349969
 20
25.53014538133516
 30
0.0
 40
173.17677292767681
 50
288.29877484179917
 51
296.19973293119091
  0
ARC
  8
DETAIL
  6
CONTINUOUS
 62
     5
 10
-61.993947935742199
 20
-226.98547226208169
 30
0.0
 40
105.08597006835851
 50
104.90165974023191
 51
112.32021240569721
  0
ARC
  8
DETAIL
  6
CONTINUOUS
 62
     5
 10
-120.3625731994057
 20
-20.863665434129189
 30
0.0
 40
109.1641609945689
 50
286.64152408962832
 51
305.09295070898168
  0
ARC
  8
DETAIL
  6
CONTINUOUS
 62
     5
 10
-35.893104565100657
 20
-136.22764416530089
 30
0.0
 40
33.905988639769333
 50
93.818269516881372
 51
129.81526500601009
  0
ARC
  8
DETAIL
  6
CONTINUOUS
 62
     5
 10
620.98517510831698
 20
972.53030990320713
 30
0.0
 40
1264.0816035756841
 50
238.31492007053811
 51
239.84436342406761
  0
ARC
  8
DETAIL
  6
CONTINUOUS
 62
     5
 10
620.98517502275172
 20
972.53030975456932
 30
0.0
 40
1264.081603404177
 50
239.97625933305429
 51
240.13281039425641
  0
ARC
  8
DETAIL
  6
CONTINUOUS
 62
     5
 10
454.52403969003439
 20
710.98484871052278
 30
0.0
 40
954.27075528653415
 50
243.30214762399291
 51
244.24452892691511
  0
ARC
  8
DETAIL
  6
CONTINUOUS
 62
     5
 10
106.3104347874196
 20
-77.909585298380989
 30
0.0
 40
92.132113713768561
 50
243.5863391500553
 51
249.5128289143974
  0
ARC
  8
DETAIL
  6
CONTINUOUS
 62
     5
 10
-3.2649445152719641
 20
-140.41332663557799
 30
0.0
 40
27.95682196726731
 50
39.101915880365233
 51
51.79172132704705
  0
ARC
  8
DETAIL
  6
CONTINUOUS
 62
     5
 10
16.747726074569069
 20
-124.20485028317169
 30
0.0
 40
2.204204386591035
 50
309.13683453936909
 51
40.24152250419047
  0
ARC
  8
DETAIL
  6
CONTINUOUS
 62
     5
 10
18.978439667293969
 20
-126.2489703261879
 30
0.0
 40
0.9116999705855878
 50
158.47905673348191
 51
253.72483060306419
  0
ARC
  8
DETAIL
  6
CONTINUOUS
 62
     5
 10
269.36182333217039
 20
446.13734513864961
 30
0.0
 40
627.69569154607279
 50
249.38000987977489
 51
251.75530561990141
  0
ARC
  8
DETAIL
  6
CONTINUOUS
 62
     5
 10
-168.81308301725949
 20
-556.07154583359761
 30
0.0
 40
468.15129908815038
 50
62.368536147973543
 51
66.385027535522326
  0
ARC
  8
DETAIL
  6
CONTINUOUS
 62
     5
 10
544.4695196977018
 20
1386.092369190397
 30
0.0
 40
1575.7549528482359
 50
250.8424513138547
 51
251.95520334600801
  0
ARC
  8
DETAIL
  6
CONTINUOUS
 62
     5
 10
55.447439402632433
 20
-113.4662367670921
 30
0.0
 40
1.6361559255352569
 50
51.460570474570758
 51
205.61828857624349
  0
ARC
  8
DETAIL
  6
CONTINUOUS
 62
     5
 10
72.027935135948155
 20
-105.74602796000499
 30
0.0
 40
19.831134347499809
 50
205.97829748819041
 51
267.68064786369979
  0
ARC
  8
DETAIL
  6
CONTINUOUS
 62
     5
 10
71.445128082649717
 20
-131.41788233068311
 30
0.0
 40
5.813328485028336
 50
350.84047416751429
 51
90.0
  0
ARC
  8
DETAIL
  6
CONTINUOUS
 62
     5
 10
80.287059456607494
 20
-134.91354409281351
 30
0.0
 40
3.9079466606389759
 50
147.0670846163425
 51
264.68284542441381
  0
ARC
  8
DETAIL
  6
CONTINUOUS
 62
     5
 10
79.07819280382364
 20
-141.6655176501649
 30
0.0
 40
2.983040036297198
 50
329.71157921104032
 51
73.559197472395766
  0
ARC
  8
DETAIL
  6
CONTINUOUS
 62
     5
 10
77.802663510548427
 20
-152.36048746471101
 30
0.0
 40
5.6295796045159552
 50
107.48696370014861
 51
222.8181999861477
  0
ARC
  8
DETAIL
  6
CONTINUOUS
 62
     5
 10
23.840426722694701
 20
-64.942584296561108
 30
0.0
 40
97.283975759702741
 50
302.49997843355851
 51
306.42598134176097
  0
ARC
  8
DETAIL
  6
CONTINUOUS
 62
     5
 10
60.360262057709413
 20
-160.75178827153579
 30
0.0
 40
14.134828536574391
 50
308.78499027151469
 51
18.156300272237399
  0
ARC
  8
DETAIL
  6
CONTINUOUS
 62
     5
 10
111.1538988182465
 20
-216.35516647570381
 30
0.0
 40
61.204590061242577
 50
132.73765535333601
 51
145.70951667503161
  0
ARC
  8
DETAIL
  6
CONTINUOUS
 62
     5
 10
64.443384106671601
 20
-182.89899030163591
 30
0.0
 40
3.916755696064715
 50
161.5875160343106
 51
276.84679292092591
  0
ARC
  8
DETAIL
  6
CONTINUOUS
 62
     5
 10
14.194319399809959
 20
28.780900025198889
 30
0.0
 40
221.45424574942029
 50
283.23899623480361
 51
318.74264253160891
  0
ARC
  8
DETAIL
  6
CONTINUOUS
 62
     5
 10
485.68293654223771
 20
742.99895143007961
 30
0.0
 40
996.33554961928701
 50
247.21090206147639
 51
248.94029530024699
  0
ARC
  8
DETAIL
  6
CONTINUOUS
 62
     5
 10
67.189076095856308
 20
-252.53523359749479
 30
0.0
 40
91.549771094355506
 50
47.512842069079682
 51
63.042054318259389
  0
ARC
  8
DETAIL
  6
CONTINUOUS
 62
     5
 10
127.7693390299137
 20
-185.46302831521831
 30
0.0
 40
1.329391714538618
 50
265.24487534709851
 51
19.2928858851729
  0
LINE
  8
DETAIL
  6
CONTINUOUS
 62
     5
 10
-131.08035153754739
 20
-262.50481695490942
 30
0.0
 11
-89.672447013487727
 21
-262.50481695568402
 31
0.0
  0
ARC
  8
OUTLINE
  6
CONTINUOUS
 62
     3
 10
244.127670549231
 20
-8.2323180326802685
 30
0.0
 40
6.3066537963497042
 50
273.38967333439069
 51
343.54013889896089
  0
ARC
  8
OUTLINE
  6
CONTINUOUS
 62
     3
 10
-92.605509031346628
 20
-155.2713971033975
 30
0.0
 40
113.9268179092507
 50
180.0137067026478
 51
250.26225425598889
  0
ARC
  8
OUTLINE
  6
CONTINUOUS
 62
     3
 10
-244.127670549231
 20
-8.2323180326802685
 30
0.0
 40
6.3066537963497042
 50
196.459861101039
 51
266.61032666560931
  0
ARC
  8
OUTLINE
  6
CONTINUOUS
 62
     3
 10
92.605509029519453
 20
-155.27139710284439
 30
0.0
 40
113.92681791107771
 50
289.73774574484042
 51
359.98629329707859
  0
LINE
  8
OUTLINE
  6
CONTINUOUS
 62
     3
 10
-131.08035153754739
 20
-262.5048169549093
 30
0.0
 11
-89.672447013487727
 21
-262.50481695568402
 31
0.0
  0
TEXT
  8
ETC
  6
CONTINUOUS
 62
    61
 10
389.37127711142239
 20
268.58854800971272
 30
0.0
 40
40.0
  1
EWF-40ETA2
 41
0.9
  0
TEXT
  8
ETC
  6
CONTINUOUS
 62
    61
 10
389.37127711142239
 20
202.5885480097127
 30
0.0
 40
40.0
  1
EWF-40ETA2-PR
 41
0.9
  0
ENDSEC
  0
EOF
