  0
SECTION
  2
HEADER
  9
$ACADVER
  1
AC1009
  9
$DWGCODEPAGE
  3
dos932
  9
$INSBASE
 10
0.0
 20
0.0
 30
0.0
  9
$EXTMIN
 10
-391.55271754315248
 20
-389.00755658863091
 30
-0.0015257624927045
  9
$EXTMAX
 10
960.30121998663526
 20
572.93701971990049
 30
0.0022888765696933
  9
$LIMMIN
 10
-2970.0
 20
-2100.0
  9
$LIMMAX
 10
2970.0
 20
2100.0
  9
$ORTHOMODE
 70
     1
  9
$REGENMODE
 70
     1
  9
$FILLMODE
 70
     1
  9
$QTEXTMODE
 70
     0
  9
$MIRRTEXT
 70
     0
  9
$LTSCALE
 40
20.0
  9
$ATTMODE
 70
     1
  9
$TEXTSIZE
 40
64.0
  9
$TRACEWID
 40
0.05
  9
$TEXTSTYLE
  7
STANDARD
  9
$CLAYER
  8
SIZE
  9
$CELTYPE
  6
CONTINUOUS
  9
$CECOLOR
 62
     7
  9
$DIMSCALE
 40
1.0
  9
$DIMASZ
 40
12.0
  9
$DIMEXO
 40
20.0
  9
$DIMDLI
 40
200.0
  9
$DIMRND
 40
0.0
  9
$DIMDLE
 40
0.0
  9
$DIMEXE
 40
20.0
  9
$DIMTP
 40
0.0
  9
$DIMTM
 40
0.0
  9
$DIMTXT
 40
64.0
  9
$DIMCEN
 40
0.09
  9
$DIMTSZ
 40
0.0
  9
$DIMTOL
 70
     0
  9
$DIMLIM
 70
     0
  9
$DIMTIH
 70
     0
  9
$DIMTOH
 70
     0
  9
$DIMSE1
 70
     0
  9
$DIMSE2
 70
     0
  9
$DIMTAD
 70
     1
  9
$DIMZIN
 70
     8
  9
$DIMBLK
  1

  9
$DIMASO
 70
     1
  9
$DIMSHO
 70
     0
  9
$DIMPOST
  1

  9
$DIMAPOST
  1

  9
$DIMALT
 70
     0
  9
$DIMALTD
 70
     2
  9
$DIMALTF
 40
25.399999999999999
  9
$DIMLFAC
 40
1.0
  9
$DIMTOFL
 70
     1
  9
$DIMTVP
 40
0.0
  9
$DIMTIX
 70
     1
  9
$DIMSOXD
 70
     0
  9
$DIMSAH
 70
     0
  9
$DIMBLK1
  1

  9
$DIMBLK2
  1

  9
$DIMSTYLE
  2
STANDARD
  9
$DIMCLRD
 70
     7
  9
$DIMCLRE
 70
     7
  9
$DIMCLRT
 70
     7
  9
$DIMTFAC
 40
1.0
  9
$DIMGAP
 40
25.0
  9
$LUNITS
 70
     2
  9
$LUPREC
 70
     4
  9
$SKETCHINC
 40
0.1
  9
$FILLETRAD
 40
3.0
  9
$AUNITS
 70
     1
  9
$AUPREC
 70
     3
  9
$MENU
  1
ACAD
  9
$ELEVATION
 40
0.0
  9
$PELEVATION
 40
0.0
  9
$THICKNESS
 40
50.0
  9
$LIMCHECK
 70
     0
  9
$CHAMFERA
 40
0.0
  9
$CHAMFERB
 40
0.0
  9
$SKPOLY
 70
     0
  9
$TDCREATE
 40
2453019.62301037
  9
$TDUPDATE
 40
2458949.444063322
  9
$TDINDWG
 40
1.7208608912
  9
$TDUSRTIMER
 40
1.7208608912
  9
$USRTIMER
 70
     1
  9
$ANGBASE
 50
0.0
  9
$ANGDIR
 70
     0
  9
$PDMODE
 70
     3
  9
$PDSIZE
 40
-2.0
  9
$PLINEWID
 40
0.0
  9
$SPLFRAME
 70
     0
  9
$SPLINETYPE
 70
     6
  9
$SPLINESEGS
 70
     8
  9
$SURFTAB1
 70
     6
  9
$SURFTAB2
 70
     6
  9
$SURFTYPE
 70
     6
  9
$SURFU
 70
     6
  9
$SURFV
 70
     6
  9
$UCSNAME
  2

  9
$UCSORG
 10
0.0
 20
0.0
 30
0.0
  9
$UCSXDIR
 10
1.0
 20
0.0
 30
0.0
  9
$UCSYDIR
 10
0.0
 20
1.0
 30
0.0
  9
$PUCSNAME
  2

  9
$PUCSORG
 10
0.0
 20
0.0
 30
0.0
  9
$PUCSXDIR
 10
1.0
 20
0.0
 30
0.0
  9
$PUCSYDIR
 10
0.0
 20
1.0
 30
0.0
  9
$USERI1
 70
     0
  9
$USERI2
 70
     0
  9
$USERI3
 70
     0
  9
$USERI4
 70
     0
  9
$USERI5
 70
     0
  9
$USERR1
 40
20.0
  9
$USERR2
 40
0.0
  9
$USERR3
 40
0.0
  9
$USERR4
 40
0.0
  9
$USERR5
 40
0.0
  9
$WORLDVIEW
 70
     1
  9
$SHADEDGE
 70
     3
  9
$SHADEDIF
 70
    70
  9
$TILEMODE
 70
     1
  9
$MAXACTVP
 70
    48
  9
$PINSBASE
 10
0.0
 20
0.0
 30
0.0
  9
$PLIMCHECK
 70
     0
  9
$PEXTMIN
 10
-100000000000000000000.0
 20
-100000000000000000000.0
 30
-100000000000000000000.0
  9
$PEXTMAX
 10
100000000000000000000.0
 20
100000000000000000000.0
 30
100000000000000000000.0
  9
$PLIMMIN
 10
0.0
 20
0.0
  9
$PLIMMAX
 10
12.0
 20
9.0
  9
$UNITMODE
 70
     0
  9
$VISRETAIN
 70
     0
  9
$PLINEGEN
 70
     0
  9
$PSLTSCALE
 70
     0
  9
$TREEDEPTH
 70
  3020
  9
$ATTDIA
 70
     0
  9
$ATTREQ
 70
     1
  9
$BLIPMODE
 70
     1
  9
$COORDS
 70
     1
  9
$DRAGMODE
 70
     2
  9
$OSMODE
 70
     0
  9
$HANDLING
 70
     0
  9
$HANDSEED
  5
11A97
  0
ENDSEC
  0
SECTION
  2
TABLES
  0
TABLE
  2
LTYPE
 70
     2
  0
LTYPE
  2
CONTINUOUS
 70
     0
  3
実線
 72
    65
 73
     0
 40
0.0
  0
LTYPE
  2
DASHDOT
 70
     0
  3
____ _ ____ _ ____ _ ____ _ ____ _ ____ _ ____
 72
    65
 73
     4
 40
5.5
 49
4.0
 49
-0.6
 49
0.3
 49
-0.6
  0
ENDTAB
  0
TABLE
  2
LAYER
 70
    12
  0
LAYER
  2
0
 70
     0
 62
     7
  6
CONTINUOUS
  0
LAYER
  2
BASIS
 70
     0
 62
     6
  6
DASHDOT
  0
LAYER
  2
OUTLINE
 70
     0
 62
     3
  6
CONTINUOUS
  0
LAYER
  2
DETAIL
 70
     0
 62
     5
  6
CONTINUOUS
  0
LAYER
  2
SIZE
 70
     0
 62
    30
  6
CONTINUOUS
  0
LAYER
  2
ARRANGE
 70
     0
 62
     1
  6
CONTINUOUS
  0
LAYER
  2
DEFPOINTS
 70
     0
 62
     7
  6
CONTINUOUS
  0
LAYER
  2
ETC
 70
     0
 62
    61
  6
CONTINUOUS
  0
LAYER
  2
FIX
 70
     0
 62
    11
  6
CONTINUOUS
  0
LAYER
  2
NOTE
 70
     0
 62
     4
  6
CONTINUOUS
  0
LAYER
  2
SERVICESPACE
 70
    64
 62
     2
  6
DASHDOT
  0
LAYER
  2
SYMBOLLINE
 70
    64
 62
    15
  6
CONTINUOUS
  0
ENDTAB
  0
TABLE
  2
STYLE
 70
     1
  0
STYLE
  2
STANDARD
 70
     0
 40
64.0
 41
0.9
 50
0.0
 71
     0
 42
64.0
  3
SIMPLEX.shx
  4
BIGFONT.shx
  0
ENDTAB
  0
TABLE
  2
APPID
 70
    19
  0
APPID
  2
ACAD
 70
     0
  0
APPID
  2
AUTOCAD_POSTSCRIPT_FIGURE
 70
     0
  0
APPID
  2
ACAD_EXEMPT_FROM_CAD_STANDARDS
 70
     0
  0
APPID
  2
ACAD_PSEXT
 70
     0
  0
APPID
  2
ACAUTHENVIRON
 70
     0
  0
APPID
  2
GENIUS_GENOENT_13
 70
     0
  0
APPID
  2
GENIUS_GENCFG_13
 70
     0
  0
APPID
  2
GENIUS_GENCFG0_13
 70
     0
  0
APPID
  2
GENIUS_GENCFG1_13
 70
     0
  0
APPID
  2
GENIUS_GENCFG2_13
 70
     0
  0
APPID
  2
GENIUS_GENCFG3_13
 70
     0
  0
APPID
  2
GENIUS_GENCFG4_13
 70
     0
  0
APPID
  2
GENIUS_GEVCFG0_13
 70
     0
  0
APPID
  2
CONTENTBLOCKICON
 70
     0
  0
APPID
  2
CONTENTBLOCKDESCRIPTION
 70
     0
  0
APPID
  2
ACAD_NAV_VCDISPLAY
 70
     0
  0
APPID
  2
ACAD_MLEADERVER
 70
     0
  0
APPID
  2
ACDBDYNAMICBLOCKTRUENAME
 70
     0
  0
APPID
  2
ACDBDYNAMICBLOCKGUID
 70
     0
  0
ENDTAB
  0
TABLE
  2
DIMSTYLE
 70
     1
  0
DIMSTYLE
  2
STANDARD
 70
     0
  3

  4

  5
_ORIGIN
  6

  7

 40
1.0
 41
12.0
 42
20.0
 43
200.0
 44
20.0
 45
0.0
 46
0.0
 47
0.0
 48
0.0
140
64.0
141
0.09
142
0.0
143
25.399999999999999
144
1.0
145
0.0
146
1.0
147
25.0
 71
     0
 72
     0
 73
     0
 74
     0
 75
     0
 76
     0
 77
     1
 78
     8
170
     0
171
     2
172
     1
173
     0
174
     1
175
     0
176
     7
177
     7
178
     7
  0
ENDTAB
  0
TABLE
  2
VIEW
 70
     1
  0
VIEW
  2
ALL
 70
     0
 40
4282.6198079999986
 10
0.0
 20
41.309904000000003
 41
5940.0
 11
0.0
 21
0.0
 31
1.0
 12
0.0
 22
0.0
 32
0.0
 42
50.0
 43
0.0
 44
0.0
 50
0.0
 71
     0
  0
ENDTAB
  0
TABLE
  2
UCS
 70
     0
  0
ENDTAB
  0
TABLE
  2
VPORT
 70
     1
  0
VPORT
  2
*ACTIVE
 70
     0
 10
0.0
 20
0.0
 11
1.0
 21
1.0
 12
284.37425122174119
 22
91.964731565634736
 13
0.0
 23
0.0
 14
1.0
 24
1.0
 15
0.0
 25
0.0
 16
0.0
 26
0.0
 36
1.0
 17
0.0
 27
0.0
 37
0.0
 40
968.3221094111293
 41
1.747787610619469
 42
50.0
 43
0.0
 44
0.0
 50
0.0
 51
0.0
 71
     0
 72
  1000
 73
     1
 74
     3
 75
     0
 76
     0
 77
     0
 78
     0
  0
ENDTAB
  0
ENDSEC
  0
SECTION
  2
BLOCKS
  0
BLOCK
  8
0
  2
_ORIGIN
 70
     0
 10
0.0
 20
0.0
 30
0.0
  3
_ORIGIN
  1
_ORIGIN
  0
CIRCLE
  8
0
  6
CONTINUOUS
 62
     7
 10
0.0
 20
0.0
 30
0.0
 40
0.5
  0
LINE
  8
0
  6
CONTINUOUS
 62
     7
 10
0.0
 20
0.0
 30
0.0
 11
-1.0
 21
0.0
 31
0.0
  0
ENDBLK
  8
0
  0
ENDSEC
  0
SECTION
  2
ENTITIES
  0
CIRCLE
  8
ARRANGE
  6
CONTINUOUS
 62
     1
 10
0.0
 20
0.0
 30
0.0
 40
40.0
  0
POINT
  8
ARRANGE
  6
CONTINUOUS
 62
     1
 10
-0.0000000000000284
 20
0.0
 30
0.0
 50
359.99829045418988
  0
TEXT
  8
ETC
  6
CONTINUOUS
 62
    61
 10
345.79045797914841
 20
503.50171197505767
 30
0.0
 40
64.0
  1
EWF-40ETA2_5
 41
0.9
  0
TEXT
  8
ETC
  6
CONTINUOUS
 62
    61
 10
341.60446397914802
 20
385.54640196022649
 30
0.0
 40
64.0
  1
産業扇
 41
0.9
  0
TEXT
  8
NOTE
  6
CONTINUOUS
 62
     4
 10
-391.52894172444911
 20
-374.36737008823337
 30
0.0
 40
64.0
  1
4-φ14
 41
0.9
 72
     2
 11
-111.20894172444901
 21
-374.36737008823337
 31
0.0
  0
LINE
  8
SIZE
  6
CONTINUOUS
 62
    30
 10
9.9999999998039755
 20
273.01496029197131
 30
0.0
 11
9.9999999998039755
 21
313.38278573767383
 31
0.0
  0
LINE
  8
SIZE
  6
CONTINUOUS
 62
    30
 10
-0.0000000000000284
 20
278.49710982658968
 30
0.0
 11
-0.0000000000000284
 21
313.38278573767383
 31
0.0
  0
LINE
  8
SIZE
  6
CONTINUOUS
 62
    30
 10
21.999999999803979
 20
293.38278573767383
 30
0.0
 11
33.999999999803983
 21
293.38278573767383
 31
0.0
  0
LINE
  8
SIZE
  6
CONTINUOUS
 62
    30
 10
-12.00000000000003
 20
293.38278573767383
 30
0.0
 11
-156.28571428571439
 21
293.38278573767383
 31
0.0
  0
LINE
  8
SIZE
  6
CONTINUOUS
 62
    30
 10
9.9999999998039755
 20
293.38278573767383
 30
0.0
 11
-0.0000000000000284
 21
293.38278573767383
 31
0.0
  0
CIRCLE
  8
SIZE
  6
CONTINUOUS
 62
    30
 10
9.9999999998039755
 20
293.38278573767383
 30
0.0
 40
6.0
  0
LINE
  8
SIZE
  6
CONTINUOUS
 62
    30
 10
9.9999999998039755
 20
293.38278573767383
 30
0.0
 11
21.999999999803979
 21
293.38278573767383
 31
0.0
  0
CIRCLE
  8
SIZE
  6
CONTINUOUS
 62
    30
 10
-0.0000000000000284
 20
293.38278573767383
 30
0.0
 40
6.0
  0
LINE
  8
SIZE
  6
CONTINUOUS
 62
    30
 10
-0.0000000000000284
 20
293.38278573767383
 30
0.0
 11
-12.00000000000003
 21
293.38278573767383
 31
0.0
  0
TEXT
  8
SIZE
  6
CONTINUOUS
 62
    30
 10
-131.28571428571431
 20
318.38278573767383
 30
0.0
 40
64.0
  1
10
 41
0.9
 72
     1
 11
-90.142857142857167
 21
318.38278573767383
 31
0.0
  0
POINT
  8
DEFPOINTS
  6
CONTINUOUS
 62
    30
 10
9.9999999998039755
 20
253.01496029197131
 30
0.0
  0
POINT
  8
DEFPOINTS
  6
CONTINUOUS
 62
    30
 10
-0.0000000000000284
 20
258.49710982658968
 30
0.0
  0
POINT
  8
DEFPOINTS
  6
CONTINUOUS
 62
    30
 10
-0.0000000000000284
 20
293.38278573767383
 30
0.0
  0
LINE
  8
SIZE
  6
CONTINUOUS
 62
    30
 10
19.999999999608551
 20
257.9999999996088
 30
0.0
 11
19.999999999608551
 21
313.38278573767383
 31
0.0
  0
LINE
  8
SIZE
  6
CONTINUOUS
 62
    30
 10
9.9999999998039755
 20
273.01496029197131
 30
0.0
 11
9.9999999998039755
 21
313.38278573767383
 31
0.0
  0
LINE
  8
SIZE
  6
CONTINUOUS
 62
    30
 10
-2.000000000196025
 20
293.38278573767383
 30
0.0
 11
-14.000000000196019
 21
293.38278573767383
 31
0.0
  0
LINE
  8
SIZE
  6
CONTINUOUS
 62
    30
 10
31.999999999608551
 20
293.38278573767383
 30
0.0
 11
211.29194323289829
 21
293.38278573767383
 31
0.0
  0
LINE
  8
SIZE
  6
CONTINUOUS
 62
    30
 10
9.9999999998039755
 20
293.38278573767383
 30
0.0
 11
19.999999999608551
 21
293.38278573767383
 31
0.0
  0
CIRCLE
  8
SIZE
  6
CONTINUOUS
 62
    30
 10
9.9999999998039755
 20
293.38278573767383
 30
0.0
 40
6.0
  0
LINE
  8
SIZE
  6
CONTINUOUS
 62
    30
 10
9.9999999998039755
 20
293.38278573767383
 30
0.0
 11
-2.000000000196025
 21
293.38278573767383
 31
0.0
  0
CIRCLE
  8
SIZE
  6
CONTINUOUS
 62
    30
 10
19.999999999608551
 20
293.38278573767383
 30
0.0
 40
6.0
  0
LINE
  8
SIZE
  6
CONTINUOUS
 62
    30
 10
19.999999999608551
 20
293.38278573767383
 30
0.0
 11
31.999999999608551
 21
293.38278573767383
 31
0.0
  0
TEXT
  8
SIZE
  6
CONTINUOUS
 62
    30
 10
104.006228947184
 20
318.38278573767383
 30
0.0
 40
64.0
  1
10
 41
0.9
 72
     1
 11
145.14908609004121
 21
318.38278573767383
 31
0.0
  0
POINT
  8
DEFPOINTS
  6
CONTINUOUS
 62
    30
 10
19.999999999608551
 20
237.9999999996088
 30
0.0
  0
POINT
  8
DEFPOINTS
  6
CONTINUOUS
 62
    30
 10
9.9999999998039755
 20
253.01496029197131
 30
0.0
  0
POINT
  8
DEFPOINTS
  6
CONTINUOUS
 62
    30
 10
9.9999999998039755
 20
293.38278573767383
 30
0.0
  0
LINE
  8
SIZE
  6
CONTINUOUS
 62
    30
 10
-18.497109826589419
 20
260.0
 30
0.0
 11
-268.99560713796342
 21
260.0
 31
0.0
  0
LINE
  8
SIZE
  6
CONTINUOUS
 62
    30
 10
-18.500000000000028
 20
-259.9999972209846
 30
0.0
 11
-268.99560713796347
 21
-259.99999722098448
 31
0.0
  0
LINE
  8
SIZE
  6
CONTINUOUS
 62
    30
 10
-248.9956071379633
 20
248.0
 30
0.0
 11
-248.99560713796339
 21
-247.99999722098451
 31
0.0
  0
CIRCLE
  8
SIZE
  6
CONTINUOUS
 62
    30
 10
-248.9956071379633
 20
260.0
 30
0.0
 40
6.0
  0
LINE
  8
SIZE
  6
CONTINUOUS
 62
    30
 10
-248.9956071379633
 20
260.0
 30
0.0
 11
-248.9956071379633
 21
248.0
 31
0.0
  0
CIRCLE
  8
SIZE
  6
CONTINUOUS
 62
    30
 10
-248.99560713796339
 20
-259.99999722098448
 30
0.0
 40
6.0
  0
LINE
  8
SIZE
  6
CONTINUOUS
 62
    30
 10
-248.99560713796339
 20
-259.99999722098448
 30
0.0
 11
-248.99560713796339
 21
-247.99999722098451
 31
0.0
  0
TEXT
  8
SIZE
  6
CONTINUOUS
 62
    30
 10
-273.99560713796347
 20
-80.859766315695907
 30
0.0
 40
64.0
  1
520
 50
90.0
 41
0.9
 72
     1
 11
-273.99560713796347
 21
-6.8026234585530574
 31
0.0
  0
POINT
  8
DEFPOINTS
  6
CONTINUOUS
 62
    30
 10
1.5028901734105771
 20
260.0
 30
0.0
  0
POINT
  8
DEFPOINTS
  6
CONTINUOUS
 62
    30
 10
1.499999999999972
 20
-259.9999972209846
 30
0.0
  0
POINT
  8
DEFPOINTS
  6
CONTINUOUS
 62
    30
 10
-248.99560713796339
 20
-259.99999722098448
 30
0.0
  0
LINE
  8
SIZE
  6
CONTINUOUS
 62
    30
 10
-40.64887960711556
 20
230.4431599229288
 30
0.0
 11
-150.43124537190661
 21
230.4431599229288
 31
0.0
  0
LINE
  8
SIZE
  6
CONTINUOUS
 62
    30
 10
-40.64887960711556
 20
-230.44315992292849
 30
0.0
 11
-150.43124537190681
 21
-230.44315992292849
 31
0.0
  0
LINE
  8
SIZE
  6
CONTINUOUS
 62
    30
 10
-130.43124537190661
 20
218.4431599229288
 30
0.0
 11
-130.43124537190681
 21
-218.44315992292849
 31
0.0
  0
CIRCLE
  8
SIZE
  6
CONTINUOUS
 62
    30
 10
-130.43124537190661
 20
230.4431599229288
 30
0.0
 40
6.0
  0
LINE
  8
SIZE
  6
CONTINUOUS
 62
    30
 10
-130.43124537190661
 20
230.4431599229288
 30
0.0
 11
-130.43124537190661
 21
218.4431599229288
 31
0.0
  0
CIRCLE
  8
SIZE
  6
CONTINUOUS
 62
    30
 10
-130.43124537190681
 20
-230.44315992292849
 30
0.0
 40
6.0
  0
LINE
  8
SIZE
  6
CONTINUOUS
 62
    30
 10
-130.43124537190681
 20
-230.44315992292849
 30
0.0
 11
-130.43124537190681
 21
-218.44315992292849
 31
0.0
  0
TEXT
  8
SIZE
  6
CONTINUOUS
 62
    30
 10
-155.4312453719067
 20
-74.057142857142736
 30
0.0
 40
64.0
  1
460
 50
90.0
 41
0.9
 72
     1
 11
-155.4312453719067
 21
0.0000000000001137
 31
0.0
  0
POINT
  8
DEFPOINTS
  6
CONTINUOUS
 62
    30
 10
-20.64887960711556
 20
230.4431599229288
 30
0.0
  0
POINT
  8
DEFPOINTS
  6
CONTINUOUS
 62
    30
 10
-20.64887960711556
 20
-230.44315992292849
 30
0.0
  0
POINT
  8
DEFPOINTS
  6
CONTINUOUS
 62
    30
 10
-130.43124537190681
 20
-230.44315992292849
 30
0.0
  0
CIRCLE
  8
FIX
  6
CONTINUOUS
 62
    11
 10
0.000000000000199
 20
-230.44315992292849
 30
0.0
 40
7.0
  0
CIRCLE
  8
FIX
  6
CONTINUOUS
 62
    11
 10
-0.0000000000000284
 20
230.44315992292849
 30
0.0
 40
7.0
  0
LINE
  8
SIZE
  6
CONTINUOUS
 62
    30
 10
-0.0000000000000284
 20
278.49710982658968
 30
0.0
 11
-0.0000000000000284
 21
423.61822213141693
 31
0.0
  0
LINE
  8
SIZE
  6
CONTINUOUS
 62
    30
 10
99.591522157996422
 20
258.33333333333343
 30
0.0
 11
99.591522157996422
 21
423.61822213141693
 31
0.0
  0
LINE
  8
SIZE
  6
CONTINUOUS
 62
    30
 10
87.591522157996422
 20
403.61822213141693
 30
0.0
 11
11.99999999999997
 21
403.61822213141693
 31
0.0
  0
LINE
  8
SIZE
  6
CONTINUOUS
 62
    30
 10
-0.0000000000000284
 20
403.61822213141693
 30
0.0
 11
-175.82857142857151
 21
403.61822213141693
 31
0.0
  0
CIRCLE
  8
SIZE
  6
CONTINUOUS
 62
    30
 10
99.591522157996422
 20
403.61822213141693
 30
0.0
 40
6.0
  0
LINE
  8
SIZE
  6
CONTINUOUS
 62
    30
 10
99.591522157996422
 20
403.61822213141693
 30
0.0
 11
87.591522157996422
 21
403.61822213141693
 31
0.0
  0
CIRCLE
  8
SIZE
  6
CONTINUOUS
 62
    30
 10
-0.0000000000000284
 20
403.61822213141693
 30
0.0
 40
6.0
  0
LINE
  8
SIZE
  6
CONTINUOUS
 62
    30
 10
-0.0000000000000284
 20
403.61822213141693
 30
0.0
 11
11.99999999999997
 21
403.61822213141693
 31
0.0
  0
TEXT
  8
SIZE
  6
CONTINUOUS
 62
    30
 10
-150.82857142857151
 20
428.61822213141693
 30
0.0
 40
64.0
  1
99
 41
0.9
 72
     1
 11
-105.5714285714286
 21
428.61822213141693
 31
0.0
  0
POINT
  8
DEFPOINTS
  6
CONTINUOUS
 62
    30
 10
-0.0000000000000284
 20
258.49710982658968
 30
0.0
  0
POINT
  8
DEFPOINTS
  6
CONTINUOUS
 62
    30
 10
99.591522157996422
 20
238.3333333333334
 30
0.0
  0
POINT
  8
DEFPOINTS
  6
CONTINUOUS
 62
    30
 10
99.591522157996422
 20
403.61822213141693
 30
0.0
  0
LINE
  8
SIZE
  6
CONTINUOUS
 62
    30
 10
0.000000000000199
 20
278.49710982658968
 30
0.0
 11
0.000000000000199
 21
503.79932798255419
 31
0.0
  0
LINE
  8
SIZE
  6
CONTINUOUS
 62
    30
 10
291.15843905874681
 20
-28.55475470784279
 30
0.0
 11
291.15843905874681
 21
503.79932798255419
 31
0.0
  0
LINE
  8
SIZE
  6
CONTINUOUS
 62
    30
 10
12.000000000000201
 20
483.79932798255419
 30
0.0
 11
279.15843905874698
 21
483.79932798255419
 31
0.0
  0
CIRCLE
  8
SIZE
  6
CONTINUOUS
 62
    30
 10
0.000000000000199
 20
483.79932798255419
 30
0.0
 40
6.0
  0
LINE
  8
SIZE
  6
CONTINUOUS
 62
    30
 10
0.000000000000199
 20
483.79932798255419
 30
0.0
 11
12.000000000000201
 21
483.79932798255419
 31
0.0
  0
CIRCLE
  8
SIZE
  6
CONTINUOUS
 62
    30
 10
291.15843905874681
 20
483.79932798255419
 30
0.0
 40
6.0
  0
LINE
  8
SIZE
  6
CONTINUOUS
 62
    30
 10
291.15843905874681
 20
483.79932798255419
 30
0.0
 11
279.15843905874698
 21
483.79932798255419
 31
0.0
  0
TEXT
  8
SIZE
  6
CONTINUOUS
 62
    30
 10
83.864933815087838
 20
508.79932798255419
 30
0.0
 40
64.0
  1
291
 41
0.9
 72
     1
 11
145.57921952937349
 21
508.79932798255419
 31
0.0
  0
POINT
  8
DEFPOINTS
  6
CONTINUOUS
 62
    30
 10
0.000000000000199
 20
258.49710982658968
 30
0.0
  0
POINT
  8
DEFPOINTS
  6
CONTINUOUS
 62
    30
 10
291.15843905874681
 20
-48.55475470784279
 30
0.0
  0
POINT
  8
DEFPOINTS
  6
CONTINUOUS
 62
    30
 10
291.15843905874681
 20
483.79932798255419
 30
0.0
  0
TEXT
  8
NOTE
  6
CONTINUOUS
 62
     4
 10
249.8826429066381
 20
-328.11561265162641
 30
0.0
 40
64.0
  1
EL
 41
0.9
  0
LINE
  8
SIZE
  6
CONTINUOUS
 62
    30
 10
301.24084778420018
 20
65.325626204239029
 30
0.0
 11
493.4833789270524
 21
65.325626204238915
 31
0.0
  0
LINE
  8
SIZE
  6
CONTINUOUS
 62
    30
 10
301.24084778420018
 20
-65.325626204238915
 30
0.0
 11
493.4833789270524
 21
-65.325626204239029
 31
0.0
  0
LINE
  8
SIZE
  6
CONTINUOUS
 62
    30
 10
473.4833789270524
 20
53.325626204238922
 30
0.0
 11
473.4833789270524
 21
-53.325626204239029
 31
0.0
  0
LINE
  8
SIZE
  6
CONTINUOUS
 62
    30
 10
473.4833789270524
 20
-65.325626204238972
 30
0.0
 11
473.48337892705217
 21
-300.12562620423898
 31
0.0
  0
CIRCLE
  8
SIZE
  6
CONTINUOUS
 62
    30
 10
473.4833789270524
 20
65.325626204238915
 30
0.0
 40
6.0
  0
LINE
  8
SIZE
  6
CONTINUOUS
 62
    30
 10
473.4833789270524
 20
65.325626204238915
 30
0.0
 11
473.4833789270524
 21
53.325626204238922
 31
0.0
  0
CIRCLE
  8
SIZE
  6
CONTINUOUS
 62
    30
 10
473.4833789270524
 20
-65.325626204238972
 30
0.0
 40
6.0
  0
LINE
  8
SIZE
  6
CONTINUOUS
 62
    30
 10
473.4833789270524
 20
-65.325626204238972
 30
0.0
 11
473.4833789270524
 21
-53.325626204238972
 31
0.0
  0
TEXT
  8
SIZE
  6
CONTINUOUS
 62
    30
 10
437.81671226038583
 20
-285.27419763281029
 30
0.0
 40
64.0
  1
φ131
 50
90.0
 41
0.9
 72
     1
 11
437.81671226038583
 21
-188.72562620423889
 31
0.0
  0
POINT
  8
DEFPOINTS
  6
CONTINUOUS
 62
    30
 10
281.24084778420018
 20
65.325626204239029
 30
0.0
  0
POINT
  8
DEFPOINTS
  6
CONTINUOUS
 62
    30
 10
281.24084778420018
 20
-65.325626204238915
 30
0.0
  0
POINT
  8
DEFPOINTS
  6
CONTINUOUS
 62
    30
 10
473.4833789270524
 20
-65.325626204238972
 30
0.0
  0
LINE
  8
NOTE
  6
CONTINUOUS
 62
     4
 10
46.77196599448061
 20
230.44315992292891
 30
0.0
 11
-27.531861756715809
 21
230.44315992292891
 31
0.0
  0
LINE
  8
DETAIL
  6
CONTINUOUS
 62
     4
 10
98.263888028593072
 20
-212.1410697535398
 30
0.0
 11
95.521392315499696
 21
-206.5676133256429
 31
0.0
  0
LINE
  8
DETAIL
  6
CONTINUOUS
 62
     4
 10
95.521392315499696
 20
-206.5676133256429
 30
0.0
 11
100.6831966940058
 21
-210.02311254399581
 31
0.0
  0
LINE
  8
DETAIL
  6
CONTINUOUS
 62
     4
 10
95.521392315499696
 20
-206.5676133256429
 30
0.0
 11
103.42569240709911
 21
-215.59656897189259
 31
0.0
  0
LINE
  8
NOTE
  6
CONTINUOUS
 62
     4
 10
103.42569240709911
 20
-215.59656897189259
 30
0.0
 11
224.88264290663861
 21
-354.33490206663311
 31
0.0
  0
LINE
  8
NOTE
  6
CONTINUOUS
 62
     4
 10
224.88264290663861
 20
-354.33490206663311
 30
0.0
 11
344.0995518535816
 21
-353.80453052892273
 31
0.0
  0
LINE
  8
DETAIL
  6
CONTINUOUS
 62
     4
 10
-4.6352176254302719
 20
-234.57830887488959
 30
0.0
 11
-0.0000000000000284
 21
-230.443159922929
 31
0.0
  0
LINE
  8
DETAIL
  6
CONTINUOUS
 62
     4
 10
-0.0000000000000284
 20
-230.443159922929
 30
0.0
 11
-1.9466328506207731
 21
-236.34191570994739
 31
0.0
  0
LINE
  8
DETAIL
  6
CONTINUOUS
 62
     4
 10
-0.0000000000000284
 20
-230.443159922929
 30
0.0
 11
-6.5818504760510166
 21
-240.47706466190809
 31
0.0
  0
LINE
  8
NOTE
  6
CONTINUOUS
 62
     4
 10
-6.5818504760510166
 20
-240.47706466190809
 30
0.0
 11
-103.8777347687132
 21
-388.80277306861899
 31
0.0
  0
LINE
  8
NOTE
  6
CONTINUOUS
 62
     4
 10
-103.8777347687132
 20
-388.80277306861899
 30
0.0
 11
-389.7748371153848
 21
-388.49263268102459
 31
0.0
  0
LINE
  8
OUTLINE
  6
CONTINUOUS
 62
     3
 10
6.4123314065506918
 20
-256.99421965317907
 30
0.0
 11
3.005780346820274
 21
-256.99421965317907
 31
0.0
  0
LINE
  8
OUTLINE
  6
CONTINUOUS
 62
     3
 10
16.431599229286551
 20
-246.97495183044319
 30
0.0
 11
13.89435725220798
 21
-246.97495183044319
 31
0.0
  0
LINE
  8
OUTLINE
  6
CONTINUOUS
 62
     3
 10
20.03853564547191
 20
-241.96531791907509
 30
0.0
 11
20.539499036608699
 21
-241.96531791907509
 31
0.0
  0
LINE
  8
OUTLINE
  6
CONTINUOUS
 62
     3
 10
20.03853564547191
 20
-211.9075144508671
 30
0.0
 11
20.539499036608699
 21
-211.9075144508671
 31
0.0
  0
LINE
  8
OUTLINE
  6
CONTINUOUS
 62
     3
 10
75.394990366088308
 20
-210.91932258058699
 30
0.0
 11
78.901734104045858
 21
-210.91932258058699
 31
0.0
  0
LINE
  8
OUTLINE
  6
CONTINUOUS
 62
     3
 10
160.3082851637763
 20
-206.532323679954
 30
0.0
 11
20.03853564547191
 21
-206.532323679954
 31
0.0
  0
LINE
  8
OUTLINE
  6
CONTINUOUS
 62
     3
 10
-0.0000000000000284
 20
258.49710982658968
 30
0.0
 11
-0.0000000000000284
 21
-258.49710982658962
 31
0.0
  0
LINE
  8
OUTLINE
  6
CONTINUOUS
 62
     3
 10
3.005780346820274
 20
258.49710982658968
 30
0.0
 11
3.005780346820274
 21
256.99421965317941
 31
0.0
  0
LINE
  8
OUTLINE
  6
CONTINUOUS
 62
     3
 10
10.019267822735831
 20
253.38728323699419
 30
0.0
 11
10.019267822735831
 21
250.1758680125115
 31
0.0
  0
LINE
  8
OUTLINE
  6
CONTINUOUS
 62
     3
 10
10.019267822735831
 20
-250.17586801186101
 30
0.0
 11
10.019267822735831
 21
-253.38728323699419
 31
0.0
  0
LINE
  8
OUTLINE
  6
CONTINUOUS
 62
     3
 10
20.03853564547191
 20
243.36801541425811
 30
0.0
 11
20.03853564547191
 21
206.53232368060461
 31
0.0
  0
LINE
  8
OUTLINE
  6
CONTINUOUS
 62
     3
 10
20.03853564547191
 20
-206.532323679954
 30
0.0
 11
20.03853564547191
 21
-243.3680154142582
 31
0.0
  0
LINE
  8
OUTLINE
  6
CONTINUOUS
 62
     3
 10
20.539499036608699
 20
-211.9075226952931
 30
0.0
 11
20.539499036608699
 21
-241.96531791907509
 31
0.0
  0
LINE
  8
OUTLINE
  6
CONTINUOUS
 62
     3
 10
265.51059730250438
 20
-95.18304431599222
 30
0.0
 11
262.50481695568402
 21
-95.18304431599222
 31
0.0
  0
LINE
  8
OUTLINE
  6
CONTINUOUS
 62
     3
 10
262.50481695568402
 20
-94.682080924855427
 30
0.0
 11
266.51252408477808
 21
-94.682080924855427
 31
0.0
  0
LINE
  8
OUTLINE
  6
CONTINUOUS
 62
     3
 10
75.394990366088308
 20
-206.532323679954
 30
0.0
 11
75.394990366088308
 21
-210.9165728445812
 31
0.0
  0
LINE
  8
OUTLINE
  6
CONTINUOUS
 62
     3
 10
78.901734104045858
 20
-207.01572659314871
 30
0.0
 11
78.901734104045858
 21
-210.9165728445812
 31
0.0
  0
LINE
  8
OUTLINE
  6
CONTINUOUS
 62
     3
 10
95.583815028901398
 20
-238.27157755338689
 30
0.0
 11
95.583815028901398
 21
-206.532323679954
 31
0.0
  0
LINE
  8
OUTLINE
  6
CONTINUOUS
 62
     3
 10
95.583815028901398
 20
206.53232368060461
 30
0.0
 11
95.583815028901398
 21
238.3333333333334
 31
0.0
  0
LINE
  8
OUTLINE
  6
CONTINUOUS
 62
     3
 10
281.24084778420018
 20
-65.325626204238915
 30
0.0
 11
266.51252408477808
 21
-65.325626204238915
 31
0.0
  0
LINE
  8
OUTLINE
  6
CONTINUOUS
 62
     3
 10
99.59152215799574
 20
-238.33333333333329
 30
0.0
 11
99.59152215799574
 21
-206.532323679954
 31
0.0
  0
LINE
  8
OUTLINE
  6
CONTINUOUS
 62
     3
 10
99.59152215799574
 20
206.53232368060461
 30
0.0
 11
99.59152215799574
 21
238.3333333333334
 31
0.0
  0
LINE
  8
OUTLINE
  6
CONTINUOUS
 62
     3
 10
289.15606936416162
 20
-53.302504816955597
 30
0.0
 11
288.65510597302477
 21
-53.302504816955597
 31
0.0
  0
LINE
  8
OUTLINE
  6
CONTINUOUS
 62
     3
 10
289.15606936416162
 20
-43.884393063583794
 30
0.0
 11
288.65510597302477
 21
-43.884393063583794
 31
0.0
  0
LINE
  8
OUTLINE
  6
CONTINUOUS
 62
     3
 10
281.24084778420018
 20
65.325626204239029
 30
0.0
 11
266.51252408477808
 21
65.325626204239029
 31
0.0
  0
LINE
  8
OUTLINE
  6
CONTINUOUS
 62
     3
 10
262.50481695568402
 20
94.682080924855541
 30
0.0
 11
266.51252408477808
 21
94.682080924855541
 31
0.0
  0
LINE
  8
OUTLINE
  6
CONTINUOUS
 62
     3
 10
262.50481695568402
 20
-131.0803515374221
 30
0.0
 11
262.50481695568402
 21
-94.682080924855427
 31
0.0
  0
LINE
  8
OUTLINE
  6
CONTINUOUS
 62
     3
 10
265.51059730250438
 20
-95.18304431599222
 30
0.0
 11
265.51059730250438
 21
-94.682080924855427
 31
0.0
  0
LINE
  8
OUTLINE
  6
CONTINUOUS
 62
     3
 10
266.51252408477808
 20
94.682080924855541
 30
0.0
 11
266.51252408477808
 21
65.325626204239029
 31
0.0
  0
LINE
  8
OUTLINE
  6
CONTINUOUS
 62
     3
 10
288.65510597302477
 20
57.911368015414268
 30
0.0
 11
288.65510597302477
 21
-57.911368015414268
 31
0.0
  0
LINE
  8
OUTLINE
  6
CONTINUOUS
 62
     3
 10
289.15606936416162
 20
-43.884393063583794
 30
0.0
 11
289.15606936416162
 21
-53.302504816955597
 31
0.0
  0
LINE
  8
OUTLINE
  6
CONTINUOUS
 62
     3
 10
20.03853564547191
 20
206.53232368060461
 30
0.0
 11
160.3082851637763
 21
206.53232368060461
 31
0.0
  0
LINE
  8
OUTLINE
  6
CONTINUOUS
 62
     3
 10
13.89435725220798
 20
246.97495183044299
 30
0.0
 11
16.431599229286551
 21
246.97495183044299
 31
0.0
  0
LINE
  8
OUTLINE
  6
CONTINUOUS
 62
     3
 10
3.005780346820274
 20
256.99421965317941
 30
0.0
 11
6.4123314065506918
 21
256.99421965317941
 31
0.0
  0
ARC
  8
OUTLINE
  6
CONTINUOUS
 62
     3
 10
16.431599229286551
 20
-243.3680154142582
 30
0.0
 40
3.6069364161849791
 50
270.0
 51
0.0
  0
ARC
  8
OUTLINE
  6
CONTINUOUS
 62
     3
 10
6.4123314065506918
 20
-253.38728323699419
 30
0.0
 40
3.6069364161849791
 50
270.0
 51
0.0
  0
ARC
  8
OUTLINE
  6
CONTINUOUS
 62
     3
 10
97.587668593448683
 20
-238.33333333333329
 30
0.0
 40
2.0038535645472848
 50
180.0
 51
0.0
  0
ARC
  8
OUTLINE
  6
CONTINUOUS
 62
     3
 10
1.502890173410123
 20
-258.49710982658962
 30
0.0
 40
1.5028901734103779
 50
180.0
 51
0.0
  0
ARC
  8
OUTLINE
  6
CONTINUOUS
 62
     3
 10
16.431599229286551
 20
243.36801541425811
 30
0.0
 40
3.6069364161851341
 50
0.0
 51
90.0
  0
ARC
  8
OUTLINE
  6
CONTINUOUS
 62
     3
 10
6.4123314065506918
 20
253.38728323699419
 30
0.0
 40
3.6069364161851341
 50
0.0
 51
90.0
  0
ARC
  8
OUTLINE
  6
CONTINUOUS
 62
     3
 10
97.587668593448683
 20
238.3333333333334
 30
0.0
 40
2.0038535645472848
 50
0.0
 51
180.0
  0
ARC
  8
OUTLINE
  6
CONTINUOUS
 62
     3
 10
1.502890173410123
 20
258.49710982658968
 30
0.0
 40
1.502890173410151
 50
0.0
 51
180.0
  0
ARC
  8
OUTLINE
  6
CONTINUOUS
 62
     3
 10
281.24084778420018
 20
-57.911368015414268
 30
0.0
 40
7.414258188824661
 50
270.0
 51
0.0
  0
ARC
  8
OUTLINE
  6
CONTINUOUS
 62
     3
 10
284.6248554913293
 20
-48.593448940269703
 30
0.0
 40
6.5350674373796558
 50
313.89739816709238
 51
46.102601832907602
  0
ARC
  8
OUTLINE
  6
CONTINUOUS
 62
     3
 10
281.24084778420018
 20
57.911368015414268
 30
0.0
 40
7.4142581888246468
 50
0.0
 51
90.0
  0
LINE
  8
OUTLINE
  6
CONTINUOUS
 62
     3
 10
291.15992292870891
 20
-48.593448940269703
 30
0.0
 11
291.15917584735797
 21
-48.574091977711419
 31
0.0
  0
LINE
  8
OUTLINE
  6
CONTINUOUS
 62
     3
 10
291.15917584735797
 20
-48.574091977711419
 30
0.0
 11
291.15843905874158
 21
-48.554754707697548
 31
0.0
  0
LINE
  8
OUTLINE
  6
CONTINUOUS
 62
     3
 10
291.15843905874158
 20
-48.554754707697548
 30
0.0
 11
291.15843905874158
 21
-48.554754707697548
 31
0.0
  0
LINE
  8
OUTLINE
  6
CONTINUOUS
 62
     3
 10
291.15843905874158
 20
-48.554754707697548
 30
0.0
 11
291.15771813616902
 21
-48.535436925771819
 31
0.0
  0
LINE
  8
OUTLINE
  6
CONTINUOUS
 62
     3
 10
291.15771813616902
 20
-48.535436925771819
 30
0.0
 11
291.15699977525168
 21
-48.516058839474233
 31
0.0
  0
LINE
  8
OUTLINE
  6
CONTINUOUS
 62
     3
 10
291.15699977525168
 20
-48.516058839474233
 30
0.0
 11
291.15699977525168
 21
-48.516058839474233
 31
0.0
  0
LINE
  8
OUTLINE
  6
CONTINUOUS
 62
     3
 10
291.15699977525168
 20
-48.516058839474233
 30
0.0
 11
291.15627089658608
 21
-48.496600858499278
 31
0.0
  0
LINE
  8
OUTLINE
  6
CONTINUOUS
 62
     3
 10
291.15627089658608
 20
-48.496600858499278
 30
0.0
 11
291.15553819841062
 21
-48.477363789163228
 31
0.0
  0
LINE
  8
OUTLINE
  6
CONTINUOUS
 62
     3
 10
291.15553819841062
 20
-48.477363789163228
 30
0.0
 11
291.15553819841062
 21
-48.477363789163228
 31
0.0
  0
LINE
  8
OUTLINE
  6
CONTINUOUS
 62
     3
 10
291.15553819841062
 20
-48.477363789163228
 30
0.0
 11
291.15479826515673
 21
-48.458428037317219
 31
0.0
  0
LINE
  8
OUTLINE
  6
CONTINUOUS
 62
     3
 10
291.15479826515673
 20
-48.458428037317219
 30
0.0
 11
291.15398744838888
 21
-48.438672010328162
 31
0.0
  0
LINE
  8
OUTLINE
  6
CONTINUOUS
 62
     3
 10
291.15398744838888
 20
-48.438672010328162
 30
0.0
 11
291.15398744838888
 21
-48.438672010328162
 31
0.0
  0
LINE
  8
OUTLINE
  6
CONTINUOUS
 62
     3
 10
291.15398744838888
 20
-48.438672010328162
 30
0.0
 11
291.15308232991168
 21
-48.417795515270711
 31
0.0
  0
LINE
  8
OUTLINE
  6
CONTINUOUS
 62
     3
 10
291.15308232991168
 20
-48.417795515270711
 30
0.0
 11
291.15228064535802
 21
-48.399985956532021
 31
0.0
  0
LINE
  8
OUTLINE
  6
CONTINUOUS
 62
     3
 10
291.15228064535802
 20
-48.399985956532021
 30
0.0
 11
291.15228064535802
 21
-48.399985956532021
 31
0.0
  0
LINE
  8
OUTLINE
  6
CONTINUOUS
 62
     3
 10
291.15228064535802
 20
-48.399985956532021
 30
0.0
 11
291.15175296156281
 21
-48.388782803421982
 31
0.0
  0
LINE
  8
OUTLINE
  6
CONTINUOUS
 62
     3
 10
291.15175296156281
 20
-48.388782803421982
 30
0.0
 11
291.15134001634488
 21
-48.38064618762877
 31
0.0
  0
LINE
  8
OUTLINE
  6
CONTINUOUS
 62
     3
 10
291.15134001634488
 20
-48.38064618762877
 30
0.0
 11
291.15134001634488
 21
-48.38064618762877
 31
0.0
  0
LINE
  8
OUTLINE
  6
CONTINUOUS
 62
     3
 10
291.15134001634488
 20
-48.38064618762877
 30
0.0
 11
291.15084971329429
 21
-48.371388541328372
 31
0.0
  0
LINE
  8
OUTLINE
  6
CONTINUOUS
 62
     3
 10
291.15084971329429
 20
-48.371388541328372
 30
0.0
 11
291.1502884481099
 21
-48.361310836271059
 31
0.0
  0
LINE
  8
OUTLINE
  6
CONTINUOUS
 62
     3
 10
291.1502884481099
 20
-48.361310836271059
 30
0.0
 11
291.1502884481099
 21
-48.361310836271059
 31
0.0
  0
LINE
  8
OUTLINE
  6
CONTINUOUS
 62
     3
 10
291.1502884481099
 20
-48.361310836271059
 30
0.0
 11
291.14969894306682
 21
-48.351535503962339
 31
0.0
  0
LINE
  8
OUTLINE
  6
CONTINUOUS
 62
     3
 10
291.14969894306682
 20
-48.351535503962339
 30
0.0
 11
291.14907073464002
 21
-48.341982275353637
 31
0.0
  0
LINE
  8
OUTLINE
  6
CONTINUOUS
 62
     3
 10
291.14907073464002
 20
-48.341982275353637
 30
0.0
 11
291.14907073464002
 21
-48.341982275353637
 31
0.0
  0
LINE
  8
OUTLINE
  6
CONTINUOUS
 62
     3
 10
291.14907073464002
 20
-48.341982275353637
 30
0.0
 11
291.14838362562892
 21
-48.332350771918023
 31
0.0
  0
LINE
  8
OUTLINE
  6
CONTINUOUS
 62
     3
 10
291.14838362562892
 20
-48.332350771918023
 30
0.0
 11
291.14763166992321
 21
-48.322662877771279
 31
0.0
  0
LINE
  8
OUTLINE
  6
CONTINUOUS
 62
     3
 10
291.14763166992321
 20
-48.322662877771279
 30
0.0
 11
291.14763166992321
 21
-48.322662877771279
 31
0.0
  0
LINE
  8
OUTLINE
  6
CONTINUOUS
 62
     3
 10
291.14763166992321
 20
-48.322662877771279
 30
0.0
 11
291.14681152954472
 21
-48.312999455185832
 31
0.0
  0
LINE
  8
OUTLINE
  6
CONTINUOUS
 62
     3
 10
291.14681152954472
 20
-48.312999455185832
 30
0.0
 11
291.14591604794617
 21
-48.303355016419182
 31
0.0
  0
LINE
  8
OUTLINE
  6
CONTINUOUS
 62
     3
 10
291.14591604794617
 20
-48.303355016419182
 30
0.0
 11
291.14591604794617
 21
-48.303355016419182
 31
0.0
  0
LINE
  8
OUTLINE
  6
CONTINUOUS
 62
     3
 10
291.14591604794617
 20
-48.303355016419182
 30
0.0
 11
291.14494057690422
 21
-48.293708123954502
 31
0.0
  0
LINE
  8
OUTLINE
  6
CONTINUOUS
 62
     3
 10
291.14494057690422
 20
-48.293708123954502
 30
0.0
 11
291.14389432006078
 21
-48.284059891190573
 31
0.0
  0
LINE
  8
OUTLINE
  6
CONTINUOUS
 62
     3
 10
291.14389432006078
 20
-48.284059891190573
 30
0.0
 11
291.14389432006078
 21
-48.284059891190573
 31
0.0
  0
LINE
  8
OUTLINE
  6
CONTINUOUS
 62
     3
 10
291.14389432006078
 20
-48.284059891190573
 30
0.0
 11
291.14278987548158
 21
-48.274415519342483
 31
0.0
  0
LINE
  8
OUTLINE
  6
CONTINUOUS
 62
     3
 10
291.14278987548158
 20
-48.274415519342483
 30
0.0
 11
291.14163956707318
 21
-48.264774009972712
 31
0.0
  0
LINE
  8
OUTLINE
  6
CONTINUOUS
 62
     3
 10
291.14163956707318
 20
-48.264774009972712
 30
0.0
 11
291.14163956707318
 21
-48.264774009972712
 31
0.0
  0
LINE
  8
OUTLINE
  6
CONTINUOUS
 62
     3
 10
291.14163956707318
 20
-48.264774009972712
 30
0.0
 11
291.14045566856669
 21
-48.255133230029116
 31
0.0
  0
LINE
  8
OUTLINE
  6
CONTINUOUS
 62
     3
 10
291.14045566856669
 20
-48.255133230029116
 30
0.0
 11
291.13925052715439
 21
-48.245492707651117
 31
0.0
  0
LINE
  8
OUTLINE
  6
CONTINUOUS
 62
     3
 10
291.13925052715439
 20
-48.245492707651117
 30
0.0
 11
291.13925052715439
 21
-48.245492707651117
 31
0.0
  0
LINE
  8
OUTLINE
  6
CONTINUOUS
 62
     3
 10
291.13925052715439
 20
-48.245492707651117
 30
0.0
 11
291.13803650347307
 21
-48.235852274997512
 31
0.0
  0
LINE
  8
OUTLINE
  6
CONTINUOUS
 62
     3
 10
291.13803650347307
 20
-48.235852274997512
 30
0.0
 11
291.13682593847562
 21
-48.226211319112053
 31
0.0
  0
LINE
  8
OUTLINE
  6
CONTINUOUS
 62
     3
 10
291.13682593847562
 20
-48.226211319112053
 30
0.0
 11
291.13682593847562
 21
-48.226211319112053
 31
0.0
  0
LINE
  8
OUTLINE
  6
CONTINUOUS
 62
     3
 10
291.13682593847562
 20
-48.226211319112053
 30
0.0
 11
291.13563116951201
 21
-48.216569145576273
 31
0.0
  0
LINE
  8
OUTLINE
  6
CONTINUOUS
 62
     3
 10
291.13563116951201
 20
-48.216569145576273
 30
0.0
 11
291.13446453920687
 21
-48.206925179240727
 31
0.0
  0
LINE
  8
OUTLINE
  6
CONTINUOUS
 62
     3
 10
291.13446453920687
 20
-48.206925179240727
 30
0.0
 11
291.13446453920687
 21
-48.206925179240727
 31
0.0
  0
LINE
  8
OUTLINE
  6
CONTINUOUS
 62
     3
 10
291.13446453920687
 20
-48.206925179240727
 30
0.0
 11
291.13333434296032
 21
-48.197279102194443
 31
0.0
  0
LINE
  8
OUTLINE
  6
CONTINUOUS
 62
     3
 10
291.13333434296032
 20
-48.197279102194443
 30
0.0
 11
291.13223268199948
 21
-48.187631506213897
 31
0.0
  0
LINE
  8
OUTLINE
  6
CONTINUOUS
 62
     3
 10
291.13223268199948
 20
-48.187631506213897
 30
0.0
 11
291.13223268199948
 21
-48.187631506213897
 31
0.0
  0
LINE
  8
OUTLINE
  6
CONTINUOUS
 62
     3
 10
291.13223268199948
 20
-48.187631506213897
 30
0.0
 11
291.13114760910298
 21
-48.177983212638253
 31
0.0
  0
LINE
  8
OUTLINE
  6
CONTINUOUS
 62
     3
 10
291.13114760910298
 20
-48.177983212638253
 30
0.0
 11
291.13006717742752
 21
-48.168335051369752
 31
0.0
  0
LINE
  8
OUTLINE
  6
CONTINUOUS
 62
     3
 10
291.13006717742752
 20
-48.168335051369752
 30
0.0
 11
291.13006717742752
 21
-48.168335051369752
 31
0.0
  0
LINE
  8
OUTLINE
  6
CONTINUOUS
 62
     3
 10
291.13006717742752
 20
-48.168335051369752
 30
0.0
 11
291.1289794401996
 21
-48.158687853877893
 31
0.0
  0
LINE
  8
OUTLINE
  6
CONTINUOUS
 62
     3
 10
291.1289794401996
 20
-48.158687853877893
 30
0.0
 11
291.12787245054437
 21
-48.149042449337628
 31
0.0
  0
LINE
  8
OUTLINE
  6
CONTINUOUS
 62
     3
 10
291.12787245054437
 20
-48.149042449337628
 30
0.0
 11
291.12787245054437
 21
-48.149042449337628
 31
0.0
  0
LINE
  8
OUTLINE
  6
CONTINUOUS
 62
     3
 10
291.12787245054437
 20
-48.149042449337628
 30
0.0
 11
291.126734261568
 21
-48.139399666503827
 31
0.0
  0
LINE
  8
OUTLINE
  6
CONTINUOUS
 62
     3
 10
291.126734261568
 20
-48.139399666503827
 30
0.0
 11
291.12555292640423
 21
-48.129760334746322
 31
0.0
  0
LINE
  8
OUTLINE
  6
CONTINUOUS
 62
     3
 10
291.12555292640423
 20
-48.129760334746322
 30
0.0
 11
291.12555292640423
 21
-48.129760334746322
 31
0.0
  0
LINE
  8
OUTLINE
  6
CONTINUOUS
 62
     3
 10
291.12555292640423
 20
-48.129760334746322
 30
0.0
 11
291.12431649819132
 21
-48.120125283547452
 31
0.0
  0
LINE
  8
OUTLINE
  6
CONTINUOUS
 62
     3
 10
291.12431649819132
 20
-48.120125283547452
 30
0.0
 11
291.12301303006069
 21
-48.110495342224851
 31
0.0
  0
LINE
  8
OUTLINE
  6
CONTINUOUS
 62
     3
 10
291.12301303006069
 20
-48.110495342224851
 30
0.0
 11
291.12301303006069
 21
-48.110495342224851
 31
0.0
  0
LINE
  8
OUTLINE
  6
CONTINUOUS
 62
     3
 10
291.12301303006069
 20
-48.110495342224851
 30
0.0
 11
291.12163341071721
 21
-48.100871147726821
 31
0.0
  0
LINE
  8
OUTLINE
  6
CONTINUOUS
 62
     3
 10
291.12163341071721
 20
-48.100871147726821
 30
0.0
 11
291.12017987116559
 21
-48.091252567689253
 31
0.0
  0
LINE
  8
OUTLINE
  6
CONTINUOUS
 62
     3
 10
291.12017987116559
 20
-48.091252567689253
 30
0.0
 11
291.12017987116559
 21
-48.091252567689253
 31
0.0
  0
LINE
  8
OUTLINE
  6
CONTINUOUS
 62
     3
 10
291.12017987116559
 20
-48.091252567689253
 30
0.0
 11
291.11865747798691
 21
-48.081639277416798
 31
0.0
  0
LINE
  8
OUTLINE
  6
CONTINUOUS
 62
     3
 10
291.11865747798691
 20
-48.081639277416798
 30
0.0
 11
291.11707129775999
 21
-48.072030952202567
 31
0.0
  0
LINE
  8
OUTLINE
  6
CONTINUOUS
 62
     3
 10
291.11707129775999
 20
-48.072030952202567
 30
0.0
 11
291.11707129775999
 21
-48.072030952202567
 31
0.0
  0
LINE
  8
OUTLINE
  6
CONTINUOUS
 62
     3
 10
291.11707129775999
 20
-48.072030952202567
 30
0.0
 11
291.11542639706488
 21
-48.062427267337227
 31
0.0
  0
LINE
  8
OUTLINE
  6
CONTINUOUS
 62
     3
 10
291.11542639706488
 20
-48.062427267337227
 30
0.0
 11
291.11372784248152
 21
-48.052827898114799
 31
0.0
  0
LINE
  8
OUTLINE
  6
CONTINUOUS
 62
     3
 10
291.11372784248152
 20
-48.052827898114799
 30
0.0
 11
291.11372784248152
 21
-48.052827898114799
 31
0.0
  0
LINE
  8
OUTLINE
  6
CONTINUOUS
 62
     3
 10
291.11372784248152
 20
-48.052827898114799
 30
0.0
 11
291.11198070058958
 21
-48.043232519829758
 31
0.0
  0
LINE
  8
OUTLINE
  6
CONTINUOUS
 62
     3
 10
291.11198070058958
 20
-48.043232519829758
 30
0.0
 11
291.11019003796878
 21
-48.033640807775782
 31
0.0
  0
LINE
  8
OUTLINE
  6
CONTINUOUS
 62
     3
 10
291.11019003796878
 20
-48.033640807775782
 30
0.0
 11
291.11019003796878
 21
-48.033640807775782
 31
0.0
  0
LINE
  8
OUTLINE
  6
CONTINUOUS
 62
     3
 10
291.11019003796878
 20
-48.033640807775782
 30
0.0
 11
291.10836092119922
 21
-48.024052437246439
 31
0.0
  0
LINE
  8
OUTLINE
  6
CONTINUOUS
 62
     3
 10
291.10836092119922
 20
-48.024052437246439
 30
0.0
 11
291.10649841686012
 21
-48.014467083535521
 31
0.0
  0
LINE
  8
OUTLINE
  6
CONTINUOUS
 62
     3
 10
291.10649841686012
 20
-48.014467083535521
 30
0.0
 11
291.10649841686012
 21
-48.014467083535521
 31
0.0
  0
LINE
  8
OUTLINE
  6
CONTINUOUS
 62
     3
 10
291.10649841686012
 20
-48.014467083535521
 30
0.0
 11
291.10460789207912
 21
-48.004884353515308
 31
0.0
  0
LINE
  8
OUTLINE
  6
CONTINUOUS
 62
     3
 10
291.10460789207912
 20
-48.004884353515308
 30
0.0
 11
291.10269591617129
 21
-47.995303580371292
 31
0.0
  0
LINE
  8
OUTLINE
  6
CONTINUOUS
 62
     3
 10
291.10269591617129
 20
-47.995303580371292
 30
0.0
 11
291.10269591617129
 21
-47.995303580371292
 31
0.0
  0
LINE
  8
OUTLINE
  6
CONTINUOUS
 62
     3
 10
291.10269591617129
 20
-47.995303580371292
 30
0.0
 11
291.10076935899878
 21
-47.985724028867367
 31
0.0
  0
LINE
  8
OUTLINE
  6
CONTINUOUS
 62
     3
 10
291.10076935899878
 20
-47.985724028867367
 30
0.0
 11
291.09883509042481
 21
-47.976144963767808
 31
0.0
  0
LINE
  8
OUTLINE
  6
CONTINUOUS
 62
     3
 10
291.09883509042481
 20
-47.976144963767808
 30
0.0
 11
291.09883509042481
 21
-47.976144963767808
 31
0.0
  0
LINE
  8
OUTLINE
  6
CONTINUOUS
 62
     3
 10
291.09883509042481
 20
-47.976144963767808
 30
0.0
 11
291.09689998031172
 21
-47.966565649836411
 31
0.0
  0
LINE
  8
OUTLINE
  6
CONTINUOUS
 62
     3
 10
291.09689998031172
 20
-47.966565649836411
 30
0.0
 11
291.09497089852198
 21
-47.956985351837368
 31
0.0
  0
LINE
  8
OUTLINE
  6
CONTINUOUS
 62
     3
 10
291.09497089852198
 20
-47.956985351837368
 30
0.0
 11
291.09497089852198
 21
-47.956985351837368
 31
0.0
  0
LINE
  8
OUTLINE
  6
CONTINUOUS
 62
     3
 10
291.09497089852198
 20
-47.956985351837368
 30
0.0
 11
291.09305471491848
 21
-47.947403334534499
 31
0.0
  0
LINE
  8
OUTLINE
  6
CONTINUOUS
 62
     3
 10
291.09305471491848
 20
-47.947403334534499
 30
0.0
 11
291.09115829936343
 21
-47.937818862691813
 31
0.0
  0
LINE
  8
OUTLINE
  6
CONTINUOUS
 62
     3
 10
291.09115829936343
 20
-47.937818862691813
 30
0.0
 11
291.09115829936343
 21
-47.937818862691813
 31
0.0
  0
LINE
  8
OUTLINE
  6
CONTINUOUS
 62
     3
 10
291.09115829936343
 20
-47.937818862691813
 30
0.0
 11
291.08928852171971
 21
-47.928231201073288
 31
0.0
  0
LINE
  8
OUTLINE
  6
CONTINUOUS
 62
     3
 10
291.08928852171971
 20
-47.928231201073288
 30
0.0
 11
291.0874522518493
 21
-47.918639614443293
 31
0.0
  0
LINE
  8
OUTLINE
  6
CONTINUOUS
 62
     3
 10
291.0874522518493
 20
-47.918639614443293
 30
0.0
 11
291.0874522518493
 21
-47.918639614443293
 31
0.0
  0
LINE
  8
OUTLINE
  6
CONTINUOUS
 62
     3
 10
291.0874522518493
 20
-47.918639614443293
 30
0.0
 11
291.08565232185202
 21
-47.909043833590488
 31
0.0
  0
LINE
  8
OUTLINE
  6
CONTINUOUS
 62
     3
 10
291.08565232185202
 20
-47.909043833590488
 30
0.0
 11
291.08387541277148
 21
-47.899445453404667
 31
0.0
  0
LINE
  8
OUTLINE
  6
CONTINUOUS
 62
     3
 10
291.08387541277148
 20
-47.899445453404667
 30
0.0
 11
291.08387541277148
 21
-47.899445453404667
 31
0.0
  0
LINE
  8
OUTLINE
  6
CONTINUOUS
 62
     3
 10
291.08387541277148
 20
-47.899445453404667
 30
0.0
 11
291.08210416788921
 21
-47.889846534800263
 31
0.0
  0
LINE
  8
OUTLINE
  6
CONTINUOUS
 62
     3
 10
291.08210416788921
 20
-47.889846534800263
 30
0.0
 11
291.0803212304852
 21
-47.880249138691852
 31
0.0
  0
LINE
  8
OUTLINE
  6
CONTINUOUS
 62
     3
 10
291.0803212304852
 20
-47.880249138691852
 30
0.0
 11
291.0803212304852
 21
-47.880249138691852
 31
0.0
  0
LINE
  8
OUTLINE
  6
CONTINUOUS
 62
     3
 10
291.0803212304852
 20
-47.880249138691852
 30
0.0
 11
291.07850924384081
 21
-47.870655325994157
 31
0.0
  0
LINE
  8
OUTLINE
  6
CONTINUOUS
 62
     3
 10
291.07850924384081
 20
-47.870655325994157
 30
0.0
 11
291.07665085123682
 21
-47.86106715762179
 31
0.0
  0
LINE
  8
OUTLINE
  6
CONTINUOUS
 62
     3
 10
291.07665085123682
 20
-47.86106715762179
 30
0.0
 11
291.07665085123682
 21
-47.86106715762179
 31
0.0
  0
LINE
  8
OUTLINE
  6
CONTINUOUS
 62
     3
 10
291.07665085123682
 20
-47.86106715762179
 30
0.0
 11
291.07472869595392
 21
-47.851486694489211
 31
0.0
  0
LINE
  8
OUTLINE
  6
CONTINUOUS
 62
     3
 10
291.07472869595392
 20
-47.851486694489211
 30
0.0
 11
291.07272542127242
 21
-47.841915997510966
 31
0.0
  0
LINE
  8
OUTLINE
  6
CONTINUOUS
 62
     3
 10
291.07272542127242
 20
-47.841915997510966
 30
0.0
 11
291.07272542127242
 21
-47.841915997510966
 31
0.0
  0
LINE
  8
OUTLINE
  6
CONTINUOUS
 62
     3
 10
291.07272542127242
 20
-47.841915997510966
 30
0.0
 11
291.07062367047371
 21
-47.832357127601711
 31
0.0
  0
LINE
  8
OUTLINE
  6
CONTINUOUS
 62
     3
 10
291.07062367047371
 20
-47.832357127601711
 30
0.0
 11
291.06840608683842
 21
-47.822812145676266
 31
0.0
  0
LINE
  8
OUTLINE
  6
CONTINUOUS
 62
     3
 10
291.06840608683842
 20
-47.822812145676266
 30
0.0
 11
291.06840608683842
 21
-47.822812145676266
 31
0.0
  0
LINE
  8
OUTLINE
  6
CONTINUOUS
 62
     3
 10
291.06840608683842
 20
-47.822812145676266
 30
0.0
 11
291.06606109734179
 21
-47.813282418962437
 31
0.0
  0
LINE
  8
OUTLINE
  6
CONTINUOUS
 62
     3
 10
291.06606109734179
 20
-47.813282418962437
 30
0.0
 11
291.06360026373659
 21
-47.803766539941932
 31
0.0
  0
LINE
  8
OUTLINE
  6
CONTINUOUS
 62
     3
 10
291.06360026373659
 20
-47.803766539941932
 30
0.0
 11
291.06360026373659
 21
-47.803766539941932
 31
0.0
  0
LINE
  8
OUTLINE
  6
CONTINUOUS
 62
     3
 10
291.06360026373659
 20
-47.803766539941932
 30
0.0
 11
291.06104093147093
 21
-47.794262407409242
 31
0.0
  0
LINE
  8
OUTLINE
  6
CONTINUOUS
 62
     3
 10
291.06104093147093
 20
-47.794262407409242
 30
0.0
 11
291.05840044599182
 21
-47.784767920159538
 31
0.0
  0
LINE
  8
OUTLINE
  6
CONTINUOUS
 62
     3
 10
291.05840044599182
 20
-47.784767920159538
 30
0.0
 11
291.05840044599182
 21
-47.784767920159538
 31
0.0
  0
LINE
  8
OUTLINE
  6
CONTINUOUS
 62
     3
 10
291.05840044599182
 20
-47.784767920159538
 30
0.0
 11
291.05569615274737
 21
-47.775280976987972
 31
0.0
  0
LINE
  8
OUTLINE
  6
CONTINUOUS
 62
     3
 10
291.05569615274737
 20
-47.775280976987972
 30
0.0
 11
291.05294539718432
 21
-47.765799476689381
 31
0.0
  0
LINE
  8
OUTLINE
  6
CONTINUOUS
 62
     3
 10
291.05294539718432
 20
-47.765799476689381
 30
0.0
 11
291.05294539718432
 21
-47.765799476689381
 31
0.0
  0
LINE
  8
OUTLINE
  6
CONTINUOUS
 62
     3
 10
291.05294539718432
 20
-47.765799476689381
 30
0.0
 11
291.05016552475081
 21
-47.75632131805861
 31
0.0
  0
LINE
  8
OUTLINE
  6
CONTINUOUS
 62
     3
 10
291.05016552475081
 20
-47.75632131805861
 30
0.0
 11
291.04737388089438
 21
-47.746844399890563
 31
0.0
  0
LINE
  8
OUTLINE
  6
CONTINUOUS
 62
     3
 10
291.04737388089438
 20
-47.746844399890563
 30
0.0
 11
291.04737388089438
 21
-47.746844399890563
 31
0.0
  0
LINE
  8
OUTLINE
  6
CONTINUOUS
 62
     3
 10
291.04737388089438
 20
-47.746844399890563
 30
0.0
 11
291.04458781106268
 21
-47.737366620980083
 31
0.0
  0
LINE
  8
OUTLINE
  6
CONTINUOUS
 62
     3
 10
291.04458781106268
 20
-47.737366620980083
 30
0.0
 11
291.04182466070262
 21
-47.727885880122358
 31
0.0
  0
LINE
  8
OUTLINE
  6
CONTINUOUS
 62
     3
 10
291.04182466070262
 20
-47.727885880122358
 30
0.0
 11
291.04182466070262
 21
-47.727885880122358
 31
0.0
  0
LINE
  8
OUTLINE
  6
CONTINUOUS
 62
     3
 10
291.04182466070262
 20
-47.727885880122358
 30
0.0
 11
291.03909774876979
 21
-47.71840058242725
 31
0.0
  0
LINE
  8
OUTLINE
  6
CONTINUOUS
 62
     3
 10
291.03909774876979
 20
-47.71840058242725
 30
0.0
 11
291.03640428825128
 21
-47.708911158264129
 31
0.0
  0
LINE
  8
OUTLINE
  6
CONTINUOUS
 62
     3
 10
291.03640428825128
 20
-47.708911158264129
 30
0.0
 11
291.03640428825128
 21
-47.708911158264129
 31
0.0
  0
LINE
  8
OUTLINE
  6
CONTINUOUS
 62
     3
 10
291.03640428825128
 20
-47.708911158264129
 30
0.0
 11
291.03373746564131
 21
-47.699418544317268
 31
0.0
  0
LINE
  8
OUTLINE
  6
CONTINUOUS
 62
     3
 10
291.03373746564131
 20
-47.699418544317268
 30
0.0
 11
291.03109046743441
 21
-47.689923677271388
 31
0.0
  0
LINE
  8
OUTLINE
  6
CONTINUOUS
 62
     3
 10
291.03109046743441
 20
-47.689923677271388
 30
0.0
 11
291.03109046743441
 21
-47.689923677271388
 31
0.0
  0
LINE
  8
OUTLINE
  6
CONTINUOUS
 62
     3
 10
291.03109046743441
 20
-47.689923677271388
 30
0.0
 11
291.02845648012521
 21
-47.680427493810903
 31
0.0
  0
LINE
  8
OUTLINE
  6
CONTINUOUS
 62
     3
 10
291.02845648012521
 20
-47.680427493810903
 30
0.0
 11
291.02582869020807
 21
-47.670930930620159
 31
0.0
  0
LINE
  8
OUTLINE
  6
CONTINUOUS
 62
     3
 10
291.02582869020807
 20
-47.670930930620159
 30
0.0
 11
291.02582869020807
 21
-47.670930930620159
 31
0.0
  0
LINE
  8
OUTLINE
  6
CONTINUOUS
 62
     3
 10
291.02582869020807
 20
-47.670930930620159
 30
0.0
 11
291.02320028417722
 21
-47.661434924383506
 31
0.0
  0
LINE
  8
OUTLINE
  6
CONTINUOUS
 62
     3
 10
291.02320028417722
 20
-47.661434924383506
 30
0.0
 11
291.02056444852769
 21
-47.651940411785517
 31
0.0
  0
LINE
  8
OUTLINE
  6
CONTINUOUS
 62
     3
 10
291.02056444852769
 20
-47.651940411785517
 30
0.0
 11
291.02056444852769
 21
-47.651940411785517
 31
0.0
  0
LINE
  8
OUTLINE
  6
CONTINUOUS
 62
     3
 10
291.02056444852769
 20
-47.651940411785517
 30
0.0
 11
291.01791436975373
 21
-47.642448329510437
 31
0.0
  0
LINE
  8
OUTLINE
  6
CONTINUOUS
 62
     3
 10
291.01791436975373
 20
-47.642448329510437
 30
0.0
 11
291.01524323434978
 21
-47.632959614243127
 31
0.0
  0
LINE
  8
OUTLINE
  6
CONTINUOUS
 62
     3
 10
291.01524323434978
 20
-47.632959614243127
 30
0.0
 11
291.01524323434978
 21
-47.632959614243127
 31
0.0
  0
LINE
  8
OUTLINE
  6
CONTINUOUS
 62
     3
 10
291.01524323434978
 20
-47.632959614243127
 30
0.0
 11
291.01254453170168
 21
-47.623475171374537
 31
0.0
  0
LINE
  8
OUTLINE
  6
CONTINUOUS
 62
     3
 10
291.01254453170168
 20
-47.623475171374537
 30
0.0
 11
291.00981296275961
 21
-47.613995781124743
 31
0.0
  0
LINE
  8
OUTLINE
  6
CONTINUOUS
 62
     3
 10
291.00981296275961
 20
-47.613995781124743
 30
0.0
 11
291.00981296275961
 21
-47.613995781124743
 31
0.0
  0
LINE
  8
OUTLINE
  6
CONTINUOUS
 62
     3
 10
291.00981296275961
 20
-47.613995781124743
 30
0.0
 11
291.00704353136479
 21
-47.604522192419843
 31
0.0
  0
LINE
  8
OUTLINE
  6
CONTINUOUS
 62
     3
 10
291.00704353136479
 20
-47.604522192419843
 30
0.0
 11
291.00423124135892
 21
-47.595055154186582
 31
0.0
  0
LINE
  8
OUTLINE
  6
CONTINUOUS
 62
     3
 10
291.00423124135892
 20
-47.595055154186582
 30
0.0
 11
291.00423124135892
 21
-47.595055154186582
 31
0.0
  0
LINE
  8
OUTLINE
  6
CONTINUOUS
 62
     3
 10
291.00423124135892
 20
-47.595055154186582
 30
0.0
 11
291.00137109658272
 21
-47.585595415351627
 31
0.0
  0
LINE
  8
OUTLINE
  6
CONTINUOUS
 62
     3
 10
291.00137109658272
 20
-47.585595415351627
 30
0.0
 11
290.99845810087822
 21
-47.576143724842147
 31
0.0
  0
LINE
  8
OUTLINE
  6
CONTINUOUS
 62
     3
 10
290.99845810087822
 20
-47.576143724842147
 30
0.0
 11
290.99845810087822
 21
-47.576143724842147
 31
0.0
  0
LINE
  8
OUTLINE
  6
CONTINUOUS
 62
     3
 10
290.99845810087822
 20
-47.576143724842147
 30
0.0
 11
290.99548725808688
 21
-47.566700831584797
 31
0.0
  0
LINE
  8
OUTLINE
  6
CONTINUOUS
 62
     3
 10
290.99548725808688
 20
-47.566700831584797
 30
0.0
 11
290.99245357204842
 21
-47.557267484503598
 31
0.0
  0
LINE
  8
OUTLINE
  6
CONTINUOUS
 62
     3
 10
290.99245357204842
 20
-47.557267484503598
 30
0.0
 11
290.99245357204842
 21
-47.557267484503598
 31
0.0
  0
LINE
  8
OUTLINE
  6
CONTINUOUS
 62
     3
 10
290.99245357204842
 20
-47.557267484503598
 30
0.0
 11
290.98935204660438
 21
-47.5478444325243
 31
0.0
  0
LINE
  8
OUTLINE
  6
CONTINUOUS
 62
     3
 10
290.98935204660438
 20
-47.5478444325243
 30
0.0
 11
290.98617768560052
 21
-47.538432424584357
 31
0.0
  0
LINE
  8
OUTLINE
  6
CONTINUOUS
 62
     3
 10
290.98617768560052
 20
-47.538432424584357
 30
0.0
 11
290.98617768560052
 21
-47.538432424584357
 31
0.0
  0
LINE
  8
OUTLINE
  6
CONTINUOUS
 62
     3
 10
290.98617768560052
 20
-47.538432424584357
 30
0.0
 11
290.98292830780662
 21
-47.529031828469442
 31
0.0
  0
LINE
  8
OUTLINE
  6
CONTINUOUS
 62
     3
 10
290.98292830780662
 20
-47.529031828469442
 30
0.0
 11
290.97961299168122
 21
-47.519641487348508
 31
0.0
  0
LINE
  8
OUTLINE
  6
CONTINUOUS
 62
     3
 10
290.97961299168122
 20
-47.519641487348508
 30
0.0
 11
290.97961299168122
 21
-47.519641487348508
 31
0.0
  0
LINE
  8
OUTLINE
  6
CONTINUOUS
 62
     3
 10
290.97961299168122
 20
-47.519641487348508
 30
0.0
 11
290.97624363062198
 21
-47.510259863275962
 31
0.0
  0
LINE
  8
OUTLINE
  6
CONTINUOUS
 62
     3
 10
290.97624363062198
 20
-47.510259863275962
 30
0.0
 11
290.97283211809878
 21
-47.500885418465657
 31
0.0
  0
LINE
  8
OUTLINE
  6
CONTINUOUS
 62
     3
 10
290.97283211809878
 20
-47.500885418465657
 30
0.0
 11
290.97283211809878
 21
-47.500885418465657
 31
0.0
  0
LINE
  8
OUTLINE
  6
CONTINUOUS
 62
     3
 10
290.97283211809878
 20
-47.500885418465657
 30
0.0
 11
290.969390347532
 21
-47.491516615022817
 31
0.0
  0
LINE
  8
OUTLINE
  6
CONTINUOUS
 62
     3
 10
290.969390347532
 20
-47.491516615022817
 30
0.0
 11
290.96593021207877
 21
-47.482151914457567
 31
0.0
  0
LINE
  8
OUTLINE
  6
CONTINUOUS
 62
     3
 10
290.96593021207877
 20
-47.482151914457567
 30
0.0
 11
290.96593021207877
 21
-47.482151914457567
 31
0.0
  0
LINE
  8
OUTLINE
  6
CONTINUOUS
 62
     3
 10
290.96593021207877
 20
-47.482151914457567
 30
0.0
 11
290.96246360507553
 21
-47.472789778686213
 31
0.0
  0
LINE
  8
OUTLINE
  6
CONTINUOUS
 62
     3
 10
290.96246360507553
 20
-47.472789778686213
 30
0.0
 11
290.95900242084559
 21
-47.463428671845072
 31
0.0
  0
LINE
  8
OUTLINE
  6
CONTINUOUS
 62
     3
 10
290.95900242084559
 20
-47.463428671845072
 30
0.0
 11
290.95900242084559
 21
-47.463428671845072
 31
0.0
  0
LINE
  8
OUTLINE
  6
CONTINUOUS
 62
     3
 10
290.95900242084559
 20
-47.463428671845072
 30
0.0
 11
290.95555855303837
 21
-47.454067056554152
 31
0.0
  0
LINE
  8
OUTLINE
  6
CONTINUOUS
 62
     3
 10
290.95555855303837
 20
-47.454067056554152
 30
0.0
 11
290.95214389162442
 21
-47.44470338714973
 31
0.0
  0
LINE
  8
OUTLINE
  6
CONTINUOUS
 62
     3
 10
290.95214389162442
 20
-47.44470338714973
 30
0.0
 11
290.95214389162442
 21
-47.44470338714973
 31
0.0
  0
LINE
  8
OUTLINE
  6
CONTINUOUS
 62
     3
 10
290.95214389162442
 20
-47.44470338714973
 30
0.0
 11
290.94876621885652
 21
-47.435336482264631
 31
0.0
  0
LINE
  8
OUTLINE
  6
CONTINUOUS
 62
     3
 10
290.94876621885652
 20
-47.435336482264631
 30
0.0
 11
290.94541688979388
 21
-47.425966626005561
 31
0.0
  0
LINE
  8
OUTLINE
  6
CONTINUOUS
 62
     3
 10
290.94541688979388
 20
-47.425966626005561
 30
0.0
 11
290.94541688979388
 21
-47.425966626005561
 31
0.0
  0
LINE
  8
OUTLINE
  6
CONTINUOUS
 62
     3
 10
290.94541688979388
 20
-47.425966626005561
 30
0.0
 11
290.94208313988747
 21
-47.416594440001226
 31
0.0
  0
LINE
  8
OUTLINE
  6
CONTINUOUS
 62
     3
 10
290.94208313988747
 20
-47.416594440001226
 30
0.0
 11
290.93875215334822
 21
-47.407220430497432
 31
0.0
  0
LINE
  8
OUTLINE
  6
CONTINUOUS
 62
     3
 10
290.93875215334822
 20
-47.407220430497432
 30
0.0
 11
290.93875215334822
 21
-47.407220430497432
 31
0.0
  0
LINE
  8
OUTLINE
  6
CONTINUOUS
 62
     3
 10
290.93875215334822
 20
-47.407220430497432
 30
0.0
 11
290.93541114938478
 21
-47.397845182547769
 31
0.0
  0
LINE
  8
OUTLINE
  6
CONTINUOUS
 62
     3
 10
290.93541114938478
 20
-47.397845182547769
 30
0.0
 11
290.93204753843702
 21
-47.388469711823568
 31
0.0
  0
LINE
  8
OUTLINE
  6
CONTINUOUS
 62
     3
 10
290.93204753843702
 20
-47.388469711823568
 30
0.0
 11
290.93204753843702
 21
-47.388469711823568
 31
0.0
  0
LINE
  8
OUTLINE
  6
CONTINUOUS
 62
     3
 10
290.93204753843702
 20
-47.388469711823568
 30
0.0
 11
290.92864860033109
 21
-47.379094739878838
 31
0.0
  0
LINE
  8
OUTLINE
  6
CONTINUOUS
 62
     3
 10
290.92864860033109
 20
-47.379094739878838
 30
0.0
 11
290.9252009012082
 21
-47.369719381181483
 31
0.0
  0
LINE
  8
OUTLINE
  6
CONTINUOUS
 62
     3
 10
290.9252009012082
 20
-47.369719381181483
 30
0.0
 11
290.9252009012082
 21
-47.369719381181483
 31
0.0
  0
LINE
  8
OUTLINE
  6
CONTINUOUS
 62
     3
 10
290.9252009012082
 20
-47.369719381181483
 30
0.0
 11
290.92169149466582
 21
-47.360343847859838
 31
0.0
  0
LINE
  8
OUTLINE
  6
CONTINUOUS
 62
     3
 10
290.92169149466582
 20
-47.360343847859838
 30
0.0
 11
290.91811009781122
 21
-47.350974349769388
 31
0.0
  0
LINE
  8
OUTLINE
  6
CONTINUOUS
 62
     3
 10
290.91811009781122
 20
-47.350974349769388
 30
0.0
 11
290.91811009781122
 21
-47.350974349769388
 31
0.0
  0
LINE
  8
OUTLINE
  6
CONTINUOUS
 62
     3
 10
290.91811009781122
 20
-47.350974349769388
 30
0.0
 11
290.91444793495322
 21
-47.341612858194139
 31
0.0
  0
LINE
  8
OUTLINE
  6
CONTINUOUS
 62
     3
 10
290.91444793495322
 20
-47.341612858194139
 30
0.0
 11
290.91069959569973
 21
-47.332238392405493
 31
0.0
  0
LINE
  8
OUTLINE
  6
CONTINUOUS
 62
     3
 10
290.91069959569973
 20
-47.332238392405493
 30
0.0
 11
290.91069959569973
 21
-47.332238392405493
 31
0.0
  0
LINE
  8
OUTLINE
  6
CONTINUOUS
 62
     3
 10
290.91069959569973
 20
-47.332238392405493
 30
0.0
 11
290.90686978545978
 21
-47.322845118062901
 31
0.0
  0
LINE
  8
OUTLINE
  6
CONTINUOUS
 62
     3
 10
290.90686978545978
 20
-47.322845118062901
 30
0.0
 11
290.90300030755202
 21
-47.313510738391358
 31
0.0
  0
LINE
  8
OUTLINE
  6
CONTINUOUS
 62
     3
 10
290.90300030755202
 20
-47.313510738391358
 30
0.0
 11
290.90300030755202
 21
-47.313510738391358
 31
0.0
  0
LINE
  8
OUTLINE
  6
CONTINUOUS
 62
     3
 10
290.90300030755202
 20
-47.313510738391358
 30
0.0
 11
290.89910762695217
 21
-47.304255899397049
 31
0.0
  0
LINE
  8
OUTLINE
  6
CONTINUOUS
 62
     3
 10
290.89910762695217
 20
-47.304255899397049
 30
0.0
 11
290.89506975735122
 21
-47.294789480649293
 31
0.0
  0
LINE
  8
OUTLINE
  6
CONTINUOUS
 62
     3
 10
290.89506975735122
 20
-47.294789480649293
 30
0.0
 11
290.89506975735122
 21
-47.294789480649293
 31
0.0
  0
LINE
  8
OUTLINE
  6
CONTINUOUS
 62
     3
 10
290.89506975735122
 20
-47.294789480649293
 30
0.0
 11
290.89085927642589
 21
-47.285033302153522
 31
0.0
  0
LINE
  8
OUTLINE
  6
CONTINUOUS
 62
     3
 10
290.89085927642589
 20
-47.285033302153522
 30
0.0
 11
290.88696546907983
 21
-47.276072712101268
 31
0.0
  0
LINE
  8
OUTLINE
  6
CONTINUOUS
 62
     3
 10
290.88696546907983
 20
-47.276072712101268
 30
0.0
 11
290.88696546907983
 21
-47.276072712101268
 31
0.0
  0
LINE
  8
OUTLINE
  6
CONTINUOUS
 62
     3
 10
290.88696546907983
 20
-47.276072712101268
 30
0.0
 11
290.88352470261731
 21
-47.268198354154208
 31
0.0
  0
LINE
  8
OUTLINE
  6
CONTINUOUS
 62
     3
 10
290.88352470261731
 20
-47.268198354154208
 30
0.0
 11
290.87874496672202
 21
-47.257358525669531
 31
0.0
  0
LINE
  8
OUTLINE
  6
CONTINUOUS
 62
     3
 10
290.87874496672202
 20
-47.257358525669531
 30
0.0
 11
290.87874496672202
 21
-47.257358525669531
 31
0.0
  0
LINE
  8
OUTLINE
  6
CONTINUOUS
 62
     3
 10
290.87874496672202
 20
-47.257358525669531
 30
0.0
 11
290.87110819258533
 21
-47.240128359727009
 31
0.0
  0
LINE
  8
OUTLINE
  6
CONTINUOUS
 62
     3
 10
290.87110819258533
 20
-47.240128359727009
 30
0.0
 11
290.86212045505641
 21
-47.219932678602788
 31
0.0
  0
LINE
  8
OUTLINE
  6
CONTINUOUS
 62
     3
 10
290.86212045505641
 20
-47.219932678602788
 30
0.0
 11
290.86212045505641
 21
-47.219932678602788
 31
0.0
  0
LINE
  8
OUTLINE
  6
CONTINUOUS
 62
     3
 10
290.86212045505641
 20
-47.219932678602788
 30
0.0
 11
290.85356774967789
 21
-47.200823098435592
 31
0.0
  0
LINE
  8
OUTLINE
  6
CONTINUOUS
 62
     3
 10
290.85356774967789
 20
-47.200823098435592
 30
0.0
 11
290.84533161111477
 21
-47.182508721622639
 31
0.0
  0
LINE
  8
OUTLINE
  6
CONTINUOUS
 62
     3
 10
290.84533161111477
 20
-47.182508721622639
 30
0.0
 11
290.84533161111477
 21
-47.182508721622639
 31
0.0
  0
LINE
  8
OUTLINE
  6
CONTINUOUS
 62
     3
 10
290.84533161111477
 20
-47.182508721622639
 30
0.0
 11
290.83694472766399
 21
-47.163903818469812
 31
0.0
  0
LINE
  8
OUTLINE
  6
CONTINUOUS
 62
     3
 10
290.83694472766399
 20
-47.163903818469812
 30
0.0
 11
290.82844886303519
 21
-47.145085844662333
 31
0.0
  0
LINE
  8
OUTLINE
  6
CONTINUOUS
 62
     3
 10
290.82844886303519
 20
-47.145085844662333
 30
0.0
 11
290.82844886303519
 21
-47.145085844662333
 31
0.0
  0
LINE
  8
OUTLINE
  6
CONTINUOUS
 62
     3
 10
290.82844886303519
 20
-47.145085844662333
 30
0.0
 11
290.81998008959772
 21
-47.1263454952865
 31
0.0
  0
LINE
  8
OUTLINE
  6
CONTINUOUS
 62
     3
 10
290.81998008959772
 20
-47.1263454952865
 30
0.0
 11
290.81154263895542
 21
-47.107663237655061
 31
0.0
  0
LINE
  8
OUTLINE
  6
CONTINUOUS
 62
     3
 10
290.81154263895542
 20
-47.107663237655061
 30
0.0
 11
290.81154263895542
 21
-47.107663237655061
 31
0.0
  0
LINE
  8
OUTLINE
  6
CONTINUOUS
 62
     3
 10
290.81154263895542
 20
-47.107663237655061
 30
0.0
 11
290.8031123544331
 21
-47.088961413566039
 31
0.0
  0
LINE
  8
OUTLINE
  6
CONTINUOUS
 62
     3
 10
290.8031123544331
 20
-47.088961413566039
 30
0.0
 11
290.79468336701439
 21
-47.070240090533787
 31
0.0
  0
LINE
  8
OUTLINE
  6
CONTINUOUS
 62
     3
 10
291.15992292870891
 20
-48.593448940269703
 30
0.0
 11
291.15917584735797
 21
-48.612805902658813
 31
0.0
  0
LINE
  8
OUTLINE
  6
CONTINUOUS
 62
     3
 10
291.15917584735797
 20
-48.612805902658813
 30
0.0
 11
291.15843905874158
 21
-48.632143172524309
 31
0.0
  0
LINE
  8
OUTLINE
  6
CONTINUOUS
 62
     3
 10
291.15843905874158
 20
-48.632143172524309
 30
0.0
 11
291.15843905874158
 21
-48.632143172524309
 31
0.0
  0
LINE
  8
OUTLINE
  6
CONTINUOUS
 62
     3
 10
291.15843905874158
 20
-48.632143172524309
 30
0.0
 11
291.15771813616902
 21
-48.651460954338177
 31
0.0
  0
LINE
  8
OUTLINE
  6
CONTINUOUS
 62
     3
 10
291.15771813616902
 20
-48.651460954338177
 30
0.0
 11
291.15699977525168
 21
-48.670839040555052
 31
0.0
  0
LINE
  8
OUTLINE
  6
CONTINUOUS
 62
     3
 10
291.15699977525168
 20
-48.670839040555052
 30
0.0
 11
291.15699977525168
 21
-48.670839040555052
 31
0.0
  0
LINE
  8
OUTLINE
  6
CONTINUOUS
 62
     3
 10
291.15699977525168
 20
-48.670839040555052
 30
0.0
 11
291.15627089658608
 21
-48.690297021471387
 31
0.0
  0
LINE
  8
OUTLINE
  6
CONTINUOUS
 62
     3
 10
291.15627089658608
 20
-48.690297021471387
 30
0.0
 11
291.15553819841062
 21
-48.709534090767143
 31
0.0
  0
LINE
  8
OUTLINE
  6
CONTINUOUS
 62
     3
 10
291.15553819841062
 20
-48.709534090767143
 30
0.0
 11
291.15553819841062
 21
-48.709534090767143
 31
0.0
  0
LINE
  8
OUTLINE
  6
CONTINUOUS
 62
     3
 10
291.15553819841062
 20
-48.709534090767143
 30
0.0
 11
291.15479826515673
 21
-48.728469842589107
 31
0.0
  0
LINE
  8
OUTLINE
  6
CONTINUOUS
 62
     3
 10
291.15479826515673
 20
-48.728469842589107
 30
0.0
 11
291.15398744838888
 21
-48.748225869565943
 31
0.0
  0
LINE
  8
OUTLINE
  6
CONTINUOUS
 62
     3
 10
291.15398744838888
 20
-48.748225869565943
 30
0.0
 11
291.15398744838888
 21
-48.748225869565943
 31
0.0
  0
LINE
  8
OUTLINE
  6
CONTINUOUS
 62
     3
 10
291.15398744838888
 20
-48.748225869565943
 30
0.0
 11
291.15308232991168
 21
-48.769102364618902
 31
0.0
  0
LINE
  8
OUTLINE
  6
CONTINUOUS
 62
     3
 10
291.15308232991168
 20
-48.769102364618902
 30
0.0
 11
291.15228064535802
 21
-48.786911923356911
 31
0.0
  0
LINE
  8
OUTLINE
  6
CONTINUOUS
 62
     3
 10
291.15228064535802
 20
-48.786911923356911
 30
0.0
 11
291.15228064535802
 21
-48.786911923356911
 31
0.0
  0
LINE
  8
OUTLINE
  6
CONTINUOUS
 62
     3
 10
291.15228064535802
 20
-48.786911923356911
 30
0.0
 11
291.15175296156281
 21
-48.7981150764669
 31
0.0
  0
LINE
  8
OUTLINE
  6
CONTINUOUS
 62
     3
 10
291.15175296156281
 20
-48.7981150764669
 30
0.0
 11
291.15134001634488
 21
-48.806251692260098
 31
0.0
  0
LINE
  8
OUTLINE
  6
CONTINUOUS
 62
     3
 10
291.15134001634488
 20
-48.806251692260098
 30
0.0
 11
291.15134001634488
 21
-48.806251692260098
 31
0.0
  0
LINE
  8
OUTLINE
  6
CONTINUOUS
 62
     3
 10
291.15134001634488
 20
-48.806251692260098
 30
0.0
 11
291.15084971329429
 21
-48.815509338560616
 31
0.0
  0
LINE
  8
OUTLINE
  6
CONTINUOUS
 62
     3
 10
291.15084971329429
 20
-48.815509338560616
 30
0.0
 11
291.1502884481099
 21
-48.825587043617872
 31
0.0
  0
LINE
  8
OUTLINE
  6
CONTINUOUS
 62
     3
 10
291.1502884481099
 20
-48.825587043617872
 30
0.0
 11
291.1502884481099
 21
-48.825587043617872
 31
0.0
  0
LINE
  8
OUTLINE
  6
CONTINUOUS
 62
     3
 10
291.1502884481099
 20
-48.825587043617872
 30
0.0
 11
291.14969894306682
 21
-48.835362375926543
 31
0.0
  0
LINE
  8
OUTLINE
  6
CONTINUOUS
 62
     3
 10
291.14969894306682
 20
-48.835362375926543
 30
0.0
 11
291.14907073464002
 21
-48.844915604535288
 31
0.0
  0
LINE
  8
OUTLINE
  6
CONTINUOUS
 62
     3
 10
291.14907073464002
 20
-48.844915604535288
 30
0.0
 11
291.14907073464002
 21
-48.844915604535288
 31
0.0
  0
LINE
  8
OUTLINE
  6
CONTINUOUS
 62
     3
 10
291.14907073464002
 20
-48.844915604535288
 30
0.0
 11
291.14838362562892
 21
-48.854547107970632
 31
0.0
  0
LINE
  8
OUTLINE
  6
CONTINUOUS
 62
     3
 10
291.14838362562892
 20
-48.854547107970632
 30
0.0
 11
291.14763166992321
 21
-48.864235002117368
 31
0.0
  0
LINE
  8
OUTLINE
  6
CONTINUOUS
 62
     3
 10
291.14763166992321
 20
-48.864235002117368
 30
0.0
 11
291.14763166992321
 21
-48.864235002117368
 31
0.0
  0
LINE
  8
OUTLINE
  6
CONTINUOUS
 62
     3
 10
291.14763166992321
 20
-48.864235002117368
 30
0.0
 11
291.14681152954472
 21
-48.873898424702759
 31
0.0
  0
LINE
  8
OUTLINE
  6
CONTINUOUS
 62
     3
 10
291.14681152954472
 20
-48.873898424702759
 30
0.0
 11
291.14591604794617
 21
-48.883542863469422
 31
0.0
  0
LINE
  8
OUTLINE
  6
CONTINUOUS
 62
     3
 10
291.14591604794617
 20
-48.883542863469422
 30
0.0
 11
291.14591604794617
 21
-48.883542863469422
 31
0.0
  0
LINE
  8
OUTLINE
  6
CONTINUOUS
 62
     3
 10
291.14591604794617
 20
-48.883542863469422
 30
0.0
 11
291.14494057690422
 21
-48.893189755934088
 31
0.0
  0
LINE
  8
OUTLINE
  6
CONTINUOUS
 62
     3
 10
291.14494057690422
 20
-48.893189755934088
 30
0.0
 11
291.14389432006078
 21
-48.902837988698138
 31
0.0
  0
LINE
  8
OUTLINE
  6
CONTINUOUS
 62
     3
 10
291.14389432006078
 20
-48.902837988698138
 30
0.0
 11
291.14389432006078
 21
-48.902837988698138
 31
0.0
  0
LINE
  8
OUTLINE
  6
CONTINUOUS
 62
     3
 10
291.14389432006078
 20
-48.902837988698138
 30
0.0
 11
291.14278987548158
 21
-48.912482360546392
 31
0.0
  0
LINE
  8
OUTLINE
  6
CONTINUOUS
 62
     3
 10
291.14278987548158
 20
-48.912482360546392
 30
0.0
 11
291.14163956707318
 21
-48.922123869916163
 31
0.0
  0
LINE
  8
OUTLINE
  6
CONTINUOUS
 62
     3
 10
291.14163956707318
 20
-48.922123869916163
 30
0.0
 11
291.14163956707318
 21
-48.922123869916163
 31
0.0
  0
LINE
  8
OUTLINE
  6
CONTINUOUS
 62
     3
 10
291.14163956707318
 20
-48.922123869916163
 30
0.0
 11
291.14045566856669
 21
-48.931764649859758
 31
0.0
  0
LINE
  8
OUTLINE
  6
CONTINUOUS
 62
     3
 10
291.14045566856669
 20
-48.931764649859758
 30
0.0
 11
291.13925052715439
 21
-48.941405172237637
 31
0.0
  0
LINE
  8
OUTLINE
  6
CONTINUOUS
 62
     3
 10
291.13925052715439
 20
-48.941405172237637
 30
0.0
 11
291.13925052715439
 21
-48.941405172237637
 31
0.0
  0
LINE
  8
OUTLINE
  6
CONTINUOUS
 62
     3
 10
291.13925052715439
 20
-48.941405172237637
 30
0.0
 11
291.13803650347307
 21
-48.951045604891249
 31
0.0
  0
LINE
  8
OUTLINE
  6
CONTINUOUS
 62
     3
 10
291.13803650347307
 20
-48.951045604891249
 30
0.0
 11
291.13682593847562
 21
-48.960686560776878
 31
0.0
  0
LINE
  8
OUTLINE
  6
CONTINUOUS
 62
     3
 10
291.13682593847562
 20
-48.960686560776878
 30
0.0
 11
291.13682593847562
 21
-48.960686560776878
 31
0.0
  0
LINE
  8
OUTLINE
  6
CONTINUOUS
 62
     3
 10
291.13682593847562
 20
-48.960686560776878
 30
0.0
 11
291.13563116951201
 21
-48.970328734312552
 31
0.0
  0
LINE
  8
OUTLINE
  6
CONTINUOUS
 62
     3
 10
291.13563116951201
 20
-48.970328734312552
 30
0.0
 11
291.13446453920687
 21
-48.979972700648027
 31
0.0
  0
LINE
  8
OUTLINE
  6
CONTINUOUS
 62
     3
 10
291.13446453920687
 20
-48.979972700648027
 30
0.0
 11
291.13446453920687
 21
-48.979972700648027
 31
0.0
  0
LINE
  8
OUTLINE
  6
CONTINUOUS
 62
     3
 10
291.13446453920687
 20
-48.979972700648027
 30
0.0
 11
291.13333434296032
 21
-48.989618777694318
 31
0.0
  0
LINE
  8
OUTLINE
  6
CONTINUOUS
 62
     3
 10
291.13333434296032
 20
-48.989618777694318
 30
0.0
 11
291.13223268199948
 21
-48.999266373674971
 31
0.0
  0
LINE
  8
OUTLINE
  6
CONTINUOUS
 62
     3
 10
291.13223268199948
 20
-48.999266373674971
 30
0.0
 11
291.13223268199948
 21
-48.999266373674971
 31
0.0
  0
LINE
  8
OUTLINE
  6
CONTINUOUS
 62
     3
 10
291.13223268199948
 20
-48.999266373674971
 30
0.0
 11
291.13114760910298
 21
-49.008914667250508
 31
0.0
  0
LINE
  8
OUTLINE
  6
CONTINUOUS
 62
     3
 10
291.13114760910298
 20
-49.008914667250508
 30
0.0
 11
291.13006717742752
 21
-49.018562828519073
 31
0.0
  0
LINE
  8
OUTLINE
  6
CONTINUOUS
 62
     3
 10
291.13006717742752
 20
-49.018562828519073
 30
0.0
 11
291.13006717742752
 21
-49.018562828519073
 31
0.0
  0
LINE
  8
OUTLINE
  6
CONTINUOUS
 62
     3
 10
291.13006717742752
 20
-49.018562828519073
 30
0.0
 11
291.1289794401996
 21
-49.028210026010811
 31
0.0
  0
LINE
  8
OUTLINE
  6
CONTINUOUS
 62
     3
 10
291.1289794401996
 20
-49.028210026010811
 30
0.0
 11
291.12787245054437
 21
-49.037855430551247
 31
0.0
  0
LINE
  8
OUTLINE
  6
CONTINUOUS
 62
     3
 10
291.12787245054437
 20
-49.037855430551247
 30
0.0
 11
291.12787245054437
 21
-49.037855430551247
 31
0.0
  0
LINE
  8
OUTLINE
  6
CONTINUOUS
 62
     3
 10
291.12787245054437
 20
-49.037855430551247
 30
0.0
 11
291.126734261568
 21
-49.047498213385097
 31
0.0
  0
LINE
  8
OUTLINE
  6
CONTINUOUS
 62
     3
 10
291.126734261568
 20
-49.047498213385097
 30
0.0
 11
291.12555292640423
 21
-49.057137545142609
 31
0.0
  0
LINE
  8
OUTLINE
  6
CONTINUOUS
 62
     3
 10
291.12555292640423
 20
-49.057137545142609
 30
0.0
 11
291.12555292640423
 21
-49.057137545142609
 31
0.0
  0
LINE
  8
OUTLINE
  6
CONTINUOUS
 62
     3
 10
291.12555292640423
 20
-49.057137545142609
 30
0.0
 11
291.12431649819132
 21
-49.066772596341309
 31
0.0
  0
LINE
  8
OUTLINE
  6
CONTINUOUS
 62
     3
 10
291.12431649819132
 20
-49.066772596341309
 30
0.0
 11
291.12301303006069
 21
-49.07640253766391
 31
0.0
  0
LINE
  8
OUTLINE
  6
CONTINUOUS
 62
     3
 10
291.12301303006069
 20
-49.07640253766391
 30
0.0
 11
291.12301303006069
 21
-49.07640253766391
 31
0.0
  0
LINE
  8
OUTLINE
  6
CONTINUOUS
 62
     3
 10
291.12301303006069
 20
-49.07640253766391
 30
0.0
 11
291.12163341071721
 21
-49.086026732161997
 31
0.0
  0
LINE
  8
OUTLINE
  6
CONTINUOUS
 62
     3
 10
291.12163341071721
 20
-49.086026732161997
 30
0.0
 11
291.12017987116559
 21
-49.095645312199679
 31
0.0
  0
LINE
  8
OUTLINE
  6
CONTINUOUS
 62
     3
 10
291.12017987116559
 20
-49.095645312199679
 30
0.0
 11
291.12017987116559
 21
-49.095645312199679
 31
0.0
  0
LINE
  8
OUTLINE
  6
CONTINUOUS
 62
     3
 10
291.12017987116559
 20
-49.095645312199679
 30
0.0
 11
291.11865747798691
 21
-49.105258602471963
 31
0.0
  0
LINE
  8
OUTLINE
  6
CONTINUOUS
 62
     3
 10
291.11865747798691
 20
-49.105258602471963
 30
0.0
 11
291.11707129775999
 21
-49.114866927686251
 31
0.0
  0
LINE
  8
OUTLINE
  6
CONTINUOUS
 62
     3
 10
291.11707129775999
 20
-49.114866927686251
 30
0.0
 11
291.11707129775999
 21
-49.114866927686251
 31
0.0
  0
LINE
  8
OUTLINE
  6
CONTINUOUS
 62
     3
 10
291.11707129775999
 20
-49.114866927686251
 30
0.0
 11
291.11542639706488
 21
-49.124470612551647
 31
0.0
  0
LINE
  8
OUTLINE
  6
CONTINUOUS
 62
     3
 10
291.11542639706488
 20
-49.124470612551647
 30
0.0
 11
291.11372784248152
 21
-49.134069981774253
 31
0.0
  0
LINE
  8
OUTLINE
  6
CONTINUOUS
 62
     3
 10
291.11372784248152
 20
-49.134069981774253
 30
0.0
 11
291.11372784248152
 21
-49.134069981774253
 31
0.0
  0
LINE
  8
OUTLINE
  6
CONTINUOUS
 62
     3
 10
291.11372784248152
 20
-49.134069981774253
 30
0.0
 11
291.11198070058958
 21
-49.143665360059288
 31
0.0
  0
LINE
  8
OUTLINE
  6
CONTINUOUS
 62
     3
 10
291.11198070058958
 20
-49.143665360059288
 30
0.0
 11
291.11019003796878
 21
-49.153257072113149
 31
0.0
  0
LINE
  8
OUTLINE
  6
CONTINUOUS
 62
     3
 10
291.11019003796878
 20
-49.153257072113149
 30
0.0
 11
291.11019003796878
 21
-49.153257072113149
 31
0.0
  0
LINE
  8
OUTLINE
  6
CONTINUOUS
 62
     3
 10
291.11019003796878
 20
-49.153257072113149
 30
0.0
 11
291.10836092119922
 21
-49.162845442642258
 31
0.0
  0
LINE
  8
OUTLINE
  6
CONTINUOUS
 62
     3
 10
291.10836092119922
 20
-49.162845442642258
 30
0.0
 11
291.10649841686012
 21
-49.172430796353133
 31
0.0
  0
LINE
  8
OUTLINE
  6
CONTINUOUS
 62
     3
 10
291.10649841686012
 20
-49.172430796353133
 30
0.0
 11
291.10649841686012
 21
-49.172430796353133
 31
0.0
  0
LINE
  8
OUTLINE
  6
CONTINUOUS
 62
     3
 10
291.10649841686012
 20
-49.172430796353133
 30
0.0
 11
291.10460789207912
 21
-49.182013526373339
 31
0.0
  0
LINE
  8
OUTLINE
  6
CONTINUOUS
 62
     3
 10
291.10460789207912
 20
-49.182013526373339
 30
0.0
 11
291.10269591617129
 21
-49.191594299517533
 31
0.0
  0
LINE
  8
OUTLINE
  6
CONTINUOUS
 62
     3
 10
291.10269591617129
 20
-49.191594299517533
 30
0.0
 11
291.10269591617129
 21
-49.191594299517533
 31
0.0
  0
LINE
  8
OUTLINE
  6
CONTINUOUS
 62
     3
 10
291.10269591617129
 20
-49.191594299517533
 30
0.0
 11
291.10076935899878
 21
-49.201173851021281
 31
0.0
  0
LINE
  8
OUTLINE
  6
CONTINUOUS
 62
     3
 10
291.10076935899878
 20
-49.201173851021281
 30
0.0
 11
291.09883509042481
 21
-49.210752916120953
 31
0.0
  0
LINE
  8
OUTLINE
  6
CONTINUOUS
 62
     3
 10
291.09883509042481
 20
-49.210752916120953
 30
0.0
 11
291.09883509042481
 21
-49.210752916120953
 31
0.0
  0
LINE
  8
OUTLINE
  6
CONTINUOUS
 62
     3
 10
291.09883509042481
 20
-49.210752916120953
 30
0.0
 11
291.09689998031172
 21
-49.220332230052293
 31
0.0
  0
LINE
  8
OUTLINE
  6
CONTINUOUS
 62
     3
 10
291.09689998031172
 20
-49.220332230052293
 30
0.0
 11
291.09497089852198
 21
-49.229912528051443
 31
0.0
  0
LINE
  8
OUTLINE
  6
CONTINUOUS
 62
     3
 10
291.09497089852198
 20
-49.229912528051443
 30
0.0
 11
291.09497089852198
 21
-49.229912528051443
 31
0.0
  0
LINE
  8
OUTLINE
  6
CONTINUOUS
 62
     3
 10
291.09497089852198
 20
-49.229912528051443
 30
0.0
 11
291.09305471491848
 21
-49.239494545354262
 31
0.0
  0
LINE
  8
OUTLINE
  6
CONTINUOUS
 62
     3
 10
291.09305471491848
 20
-49.239494545354262
 30
0.0
 11
291.09115829936343
 21
-49.249079017196948
 31
0.0
  0
LINE
  8
OUTLINE
  6
CONTINUOUS
 62
     3
 10
291.09115829936343
 20
-49.249079017196948
 30
0.0
 11
291.09115829936343
 21
-49.249079017196948
 31
0.0
  0
LINE
  8
OUTLINE
  6
CONTINUOUS
 62
     3
 10
291.09115829936343
 20
-49.249079017196948
 30
0.0
 11
291.08928852171971
 21
-49.258666678815189
 31
0.0
  0
LINE
  8
OUTLINE
  6
CONTINUOUS
 62
     3
 10
291.08928852171971
 20
-49.258666678815189
 30
0.0
 11
291.0874522518493
 21
-49.268258265445411
 31
0.0
  0
LINE
  8
OUTLINE
  6
CONTINUOUS
 62
     3
 10
291.0874522518493
 20
-49.268258265445411
 30
0.0
 11
291.0874522518493
 21
-49.268258265445411
 31
0.0
  0
LINE
  8
OUTLINE
  6
CONTINUOUS
 62
     3
 10
291.0874522518493
 20
-49.268258265445411
 30
0.0
 11
291.08565232185202
 21
-49.277854046298273
 31
0.0
  0
LINE
  8
OUTLINE
  6
CONTINUOUS
 62
     3
 10
291.08565232185202
 20
-49.277854046298273
 30
0.0
 11
291.08387541277148
 21
-49.287452426484997
 31
0.0
  0
LINE
  8
OUTLINE
  6
CONTINUOUS
 62
     3
 10
291.08387541277148
 20
-49.287452426484997
 30
0.0
 11
291.08387541277148
 21
-49.287452426484997
 31
0.0
  0
LINE
  8
OUTLINE
  6
CONTINUOUS
 62
     3
 10
291.08387541277148
 20
-49.287452426484997
 30
0.0
 11
291.08210416788921
 21
-49.297051345091347
 31
0.0
  0
LINE
  8
OUTLINE
  6
CONTINUOUS
 62
     3
 10
291.08210416788921
 20
-49.297051345091347
 30
0.0
 11
291.0803212304852
 21
-49.306648741203787
 31
0.0
  0
LINE
  8
OUTLINE
  6
CONTINUOUS
 62
     3
 10
291.0803212304852
 20
-49.306648741203787
 30
0.0
 11
291.0803212304852
 21
-49.306648741203787
 31
0.0
  0
LINE
  8
OUTLINE
  6
CONTINUOUS
 62
     3
 10
291.0803212304852
 20
-49.306648741203787
 30
0.0
 11
291.07850924384081
 21
-49.316242553908182
 31
0.0
  0
LINE
  8
OUTLINE
  6
CONTINUOUS
 62
     3
 10
291.07850924384081
 20
-49.316242553908182
 30
0.0
 11
291.07665085123682
 21
-49.325830722290618
 31
0.0
  0
LINE
  8
OUTLINE
  6
CONTINUOUS
 62
     3
 10
291.07665085123682
 20
-49.325830722290618
 30
0.0
 11
291.07665085123682
 21
-49.325830722290618
 31
0.0
  0
LINE
  8
OUTLINE
  6
CONTINUOUS
 62
     3
 10
291.07665085123682
 20
-49.325830722290618
 30
0.0
 11
291.07472869595392
 21
-49.335411185436897
 31
0.0
  0
LINE
  8
OUTLINE
  6
CONTINUOUS
 62
     3
 10
291.07472869595392
 20
-49.335411185436897
 30
0.0
 11
291.07272542127242
 21
-49.344981882433387
 31
0.0
  0
LINE
  8
OUTLINE
  6
CONTINUOUS
 62
     3
 10
291.07272542127242
 20
-49.344981882433387
 30
0.0
 11
291.07272542127242
 21
-49.344981882433387
 31
0.0
  0
LINE
  8
OUTLINE
  6
CONTINUOUS
 62
     3
 10
291.07272542127242
 20
-49.344981882433387
 30
0.0
 11
291.07062367047371
 21
-49.354540752365843
 31
0.0
  0
LINE
  8
OUTLINE
  6
CONTINUOUS
 62
     3
 10
291.07062367047371
 20
-49.354540752365843
 30
0.0
 11
291.06840608683842
 21
-49.364085734320781
 31
0.0
  0
LINE
  8
OUTLINE
  6
CONTINUOUS
 62
     3
 10
291.06840608683842
 20
-49.364085734320781
 30
0.0
 11
291.06840608683842
 21
-49.364085734320781
 31
0.0
  0
LINE
  8
OUTLINE
  6
CONTINUOUS
 62
     3
 10
291.06840608683842
 20
-49.364085734320781
 30
0.0
 11
291.06606109734179
 21
-49.373615461070187
 31
0.0
  0
LINE
  8
OUTLINE
  6
CONTINUOUS
 62
     3
 10
291.06606109734179
 20
-49.373615461070187
 30
0.0
 11
291.06360026373659
 21
-49.383131340131001
 31
0.0
  0
LINE
  8
OUTLINE
  6
CONTINUOUS
 62
     3
 10
291.06360026373659
 20
-49.383131340131001
 30
0.0
 11
291.06360026373659
 21
-49.383131340131001
 31
0.0
  0
LINE
  8
OUTLINE
  6
CONTINUOUS
 62
     3
 10
291.06360026373659
 20
-49.383131340131001
 30
0.0
 11
291.06104093147093
 21
-49.392635472706161
 31
0.0
  0
LINE
  8
OUTLINE
  6
CONTINUOUS
 62
     3
 10
291.06104093147093
 20
-49.392635472706161
 30
0.0
 11
291.05840044599182
 21
-49.402129959998938
 31
0.0
  0
LINE
  8
OUTLINE
  6
CONTINUOUS
 62
     3
 10
291.05840044599182
 20
-49.402129959998938
 30
0.0
 11
291.05840044599182
 21
-49.402129959998938
 31
0.0
  0
LINE
  8
OUTLINE
  6
CONTINUOUS
 62
     3
 10
291.05840044599182
 20
-49.402129959998938
 30
0.0
 11
291.05569615274737
 21
-49.411616903212462
 31
0.0
  0
LINE
  8
OUTLINE
  6
CONTINUOUS
 62
     3
 10
291.05569615274737
 20
-49.411616903212462
 30
0.0
 11
291.05294539718432
 21
-49.421098403549991
 31
0.0
  0
LINE
  8
OUTLINE
  6
CONTINUOUS
 62
     3
 10
291.05294539718432
 20
-49.421098403549991
 30
0.0
 11
291.05294539718432
 21
-49.421098403549991
 31
0.0
  0
LINE
  8
OUTLINE
  6
CONTINUOUS
 62
     3
 10
291.05294539718432
 20
-49.421098403549991
 30
0.0
 11
291.05016552475081
 21
-49.430576562214299
 31
0.0
  0
LINE
  8
OUTLINE
  6
CONTINUOUS
 62
     3
 10
291.05016552475081
 20
-49.430576562214299
 30
0.0
 11
291.04737388089438
 21
-49.440053480408721
 31
0.0
  0
LINE
  8
OUTLINE
  6
CONTINUOUS
 62
     3
 10
291.04737388089438
 20
-49.440053480408721
 30
0.0
 11
291.04737388089438
 21
-49.440053480408721
 31
0.0
  0
LINE
  8
OUTLINE
  6
CONTINUOUS
 62
     3
 10
291.04737388089438
 20
-49.440053480408721
 30
0.0
 11
291.04458781106268
 21
-49.449531259336197
 31
0.0
  0
LINE
  8
OUTLINE
  6
CONTINUOUS
 62
     3
 10
291.04458781106268
 20
-49.449531259336197
 30
0.0
 11
291.04182466070262
 21
-49.459012000200183
 31
0.0
  0
LINE
  8
OUTLINE
  6
CONTINUOUS
 62
     3
 10
291.04182466070262
 20
-49.459012000200183
 30
0.0
 11
291.04182466070262
 21
-49.459012000200183
 31
0.0
  0
LINE
  8
OUTLINE
  6
CONTINUOUS
 62
     3
 10
291.04182466070262
 20
-49.459012000200183
 30
0.0
 11
291.03909774876979
 21
-49.468497297889201
 31
0.0
  0
LINE
  8
OUTLINE
  6
CONTINUOUS
 62
     3
 10
291.03909774876979
 20
-49.468497297889201
 30
0.0
 11
291.03640428825128
 21
-49.477986722035268
 31
0.0
  0
LINE
  8
OUTLINE
  6
CONTINUOUS
 62
     3
 10
291.03640428825128
 20
-49.477986722035268
 30
0.0
 11
291.03640428825128
 21
-49.477986722035268
 31
0.0
  0
LINE
  8
OUTLINE
  6
CONTINUOUS
 62
     3
 10
291.03640428825128
 20
-49.477986722035268
 30
0.0
 11
291.03373746564131
 21
-49.48747933595547
 31
0.0
  0
LINE
  8
OUTLINE
  6
CONTINUOUS
 62
     3
 10
291.03373746564131
 20
-49.48747933595547
 30
0.0
 11
291.03109046743441
 21
-49.496974202967813
 31
0.0
  0
LINE
  8
OUTLINE
  6
CONTINUOUS
 62
     3
 10
291.03109046743441
 20
-49.496974202967813
 30
0.0
 11
291.03109046743441
 21
-49.496974202967813
 31
0.0
  0
LINE
  8
OUTLINE
  6
CONTINUOUS
 62
     3
 10
291.03109046743441
 20
-49.496974202967813
 30
0.0
 11
291.02845648012521
 21
-49.506470386389587
 31
0.0
  0
LINE
  8
OUTLINE
  6
CONTINUOUS
 62
     3
 10
291.02845648012521
 20
-49.506470386389587
 30
0.0
 11
291.02582869020807
 21
-49.515966949538488
 31
0.0
  0
LINE
  8
OUTLINE
  6
CONTINUOUS
 62
     3
 10
291.02582869020807
 20
-49.515966949538488
 30
0.0
 11
291.02582869020807
 21
-49.515966949538488
 31
0.0
  0
LINE
  8
OUTLINE
  6
CONTINUOUS
 62
     3
 10
291.02582869020807
 20
-49.515966949538488
 30
0.0
 11
291.02320028417722
 21
-49.525462955731832
 31
0.0
  0
LINE
  8
OUTLINE
  6
CONTINUOUS
 62
     3
 10
291.02320028417722
 20
-49.525462955731832
 30
0.0
 11
291.02056444852769
 21
-49.534957468287253
 31
0.0
  0
LINE
  8
OUTLINE
  6
CONTINUOUS
 62
     3
 10
291.02056444852769
 20
-49.534957468287253
 30
0.0
 11
291.02056444852769
 21
-49.534957468287253
 31
0.0
  0
LINE
  8
OUTLINE
  6
CONTINUOUS
 62
     3
 10
291.02056444852769
 20
-49.534957468287253
 30
0.0
 11
291.01791436975373
 21
-49.544449550522017
 31
0.0
  0
LINE
  8
OUTLINE
  6
CONTINUOUS
 62
     3
 10
291.01791436975373
 20
-49.544449550522017
 30
0.0
 11
291.01524323434978
 21
-49.553938265754027
 31
0.0
  0
LINE
  8
OUTLINE
  6
CONTINUOUS
 62
     3
 10
291.01524323434978
 20
-49.553938265754027
 30
0.0
 11
291.01524323434978
 21
-49.553938265754027
 31
0.0
  0
LINE
  8
OUTLINE
  6
CONTINUOUS
 62
     3
 10
291.01524323434978
 20
-49.553938265754027
 30
0.0
 11
291.01254453170168
 21
-49.56342270859335
 31
0.0
  0
LINE
  8
OUTLINE
  6
CONTINUOUS
 62
     3
 10
291.01254453170168
 20
-49.56342270859335
 30
0.0
 11
291.00981296275961
 21
-49.572902098819903
 31
0.0
  0
LINE
  8
OUTLINE
  6
CONTINUOUS
 62
     3
 10
291.00981296275961
 20
-49.572902098819903
 30
0.0
 11
291.00981296275961
 21
-49.572902098819903
 31
0.0
  0
LINE
  8
OUTLINE
  6
CONTINUOUS
 62
     3
 10
291.00981296275961
 20
-49.572902098819903
 30
0.0
 11
291.00704353136479
 21
-49.582375687506158
 31
0.0
  0
LINE
  8
OUTLINE
  6
CONTINUOUS
 62
     3
 10
291.00704353136479
 20
-49.582375687506158
 30
0.0
 11
291.00423124135892
 21
-49.591842725725478
 31
0.0
  0
LINE
  8
OUTLINE
  6
CONTINUOUS
 62
     3
 10
291.00423124135892
 20
-49.591842725725478
 30
0.0
 11
291.00423124135892
 21
-49.591842725725478
 31
0.0
  0
LINE
  8
OUTLINE
  6
CONTINUOUS
 62
     3
 10
291.00423124135892
 20
-49.591842725725478
 30
0.0
 11
291.00137109658272
 21
-49.601302464550599
 31
0.0
  0
LINE
  8
OUTLINE
  6
CONTINUOUS
 62
     3
 10
291.00137109658272
 20
-49.601302464550599
 30
0.0
 11
290.99845810087822
 21
-49.610754155053769
 31
0.0
  0
LINE
  8
OUTLINE
  6
CONTINUOUS
 62
     3
 10
290.99845810087822
 20
-49.610754155053769
 30
0.0
 11
290.99845810087822
 21
-49.610754155053769
 31
0.0
  0
LINE
  8
OUTLINE
  6
CONTINUOUS
 62
     3
 10
290.99845810087822
 20
-49.610754155053769
 30
0.0
 11
290.99548725808688
 21
-49.620197048307027
 31
0.0
  0
LINE
  8
OUTLINE
  6
CONTINUOUS
 62
     3
 10
290.99548725808688
 20
-49.620197048307027
 30
0.0
 11
290.99245357204842
 21
-49.62963039538613
 31
0.0
  0
LINE
  8
OUTLINE
  6
CONTINUOUS
 62
     3
 10
290.99245357204842
 20
-49.62963039538613
 30
0.0
 11
290.99245357204842
 21
-49.62963039538613
 31
0.0
  0
LINE
  8
OUTLINE
  6
CONTINUOUS
 62
     3
 10
290.99245357204842
 20
-49.62963039538613
 30
0.0
 11
290.98935204660438
 21
-49.639053447364461
 31
0.0
  0
LINE
  8
OUTLINE
  6
CONTINUOUS
 62
     3
 10
290.98935204660438
 20
-49.639053447364461
 30
0.0
 11
290.98617768560052
 21
-49.648465455304397
 31
0.0
  0
LINE
  8
OUTLINE
  6
CONTINUOUS
 62
     3
 10
290.98617768560052
 20
-49.648465455304397
 30
0.0
 11
290.98617768560052
 21
-49.648465455304397
 31
0.0
  0
LINE
  8
OUTLINE
  6
CONTINUOUS
 62
     3
 10
290.98617768560052
 20
-49.648465455304397
 30
0.0
 11
290.98292830780662
 21
-49.657866051419489
 31
0.0
  0
LINE
  8
OUTLINE
  6
CONTINUOUS
 62
     3
 10
290.98292830780662
 20
-49.657866051419489
 30
0.0
 11
290.97961299168122
 21
-49.667256392540537
 31
0.0
  0
LINE
  8
OUTLINE
  6
CONTINUOUS
 62
     3
 10
290.97961299168122
 20
-49.667256392540537
 30
0.0
 11
290.97961299168122
 21
-49.667256392540537
 31
0.0
  0
LINE
  8
OUTLINE
  6
CONTINUOUS
 62
     3
 10
290.97961299168122
 20
-49.667256392540537
 30
0.0
 11
290.97624363062198
 21
-49.676638016612912
 31
0.0
  0
LINE
  8
OUTLINE
  6
CONTINUOUS
 62
     3
 10
290.97624363062198
 20
-49.676638016612912
 30
0.0
 11
290.97283211809878
 21
-49.686012461423097
 31
0.0
  0
LINE
  8
OUTLINE
  6
CONTINUOUS
 62
     3
 10
290.97283211809878
 20
-49.686012461423097
 30
0.0
 11
290.97283211809878
 21
-49.686012461423097
 31
0.0
  0
LINE
  8
OUTLINE
  6
CONTINUOUS
 62
     3
 10
290.97283211809878
 20
-49.686012461423097
 30
0.0
 11
290.969390347532
 21
-49.695381264865937
 31
0.0
  0
LINE
  8
OUTLINE
  6
CONTINUOUS
 62
     3
 10
290.969390347532
 20
-49.695381264865937
 30
0.0
 11
290.96593021207877
 21
-49.704745965431407
 31
0.0
  0
LINE
  8
OUTLINE
  6
CONTINUOUS
 62
     3
 10
290.96593021207877
 20
-49.704745965431407
 30
0.0
 11
290.96593021207877
 21
-49.704745965431407
 31
0.0
  0
LINE
  8
OUTLINE
  6
CONTINUOUS
 62
     3
 10
290.96593021207877
 20
-49.704745965431407
 30
0.0
 11
290.96246360507553
 21
-49.714108101202612
 31
0.0
  0
LINE
  8
OUTLINE
  6
CONTINUOUS
 62
     3
 10
290.96246360507553
 20
-49.714108101202612
 30
0.0
 11
290.95900242084559
 21
-49.723469208043703
 31
0.0
  0
LINE
  8
OUTLINE
  6
CONTINUOUS
 62
     3
 10
290.95900242084559
 20
-49.723469208043703
 30
0.0
 11
290.95900242084559
 21
-49.723469208043703
 31
0.0
  0
LINE
  8
OUTLINE
  6
CONTINUOUS
 62
     3
 10
290.95900242084559
 20
-49.723469208043703
 30
0.0
 11
290.95555855303837
 21
-49.732830823334382
 31
0.0
  0
LINE
  8
OUTLINE
  6
CONTINUOUS
 62
     3
 10
290.95555855303837
 20
-49.732830823334382
 30
0.0
 11
290.95214389162442
 21
-49.742194492739088
 31
0.0
  0
LINE
  8
OUTLINE
  6
CONTINUOUS
 62
     3
 10
290.95214389162442
 20
-49.742194492739088
 30
0.0
 11
290.95214389162442
 21
-49.742194492739088
 31
0.0
  0
LINE
  8
OUTLINE
  6
CONTINUOUS
 62
     3
 10
290.95214389162442
 20
-49.742194492739088
 30
0.0
 11
290.94876621885652
 21
-49.75156139762413
 31
0.0
  0
LINE
  8
OUTLINE
  6
CONTINUOUS
 62
     3
 10
290.94876621885652
 20
-49.75156139762413
 30
0.0
 11
290.94541688979388
 21
-49.760931253883307
 31
0.0
  0
LINE
  8
OUTLINE
  6
CONTINUOUS
 62
     3
 10
290.94541688979388
 20
-49.760931253883307
 30
0.0
 11
290.94541688979388
 21
-49.760931253883307
 31
0.0
  0
LINE
  8
OUTLINE
  6
CONTINUOUS
 62
     3
 10
290.94541688979388
 20
-49.760931253883307
 30
0.0
 11
290.94208313988747
 21
-49.770303439887471
 31
0.0
  0
LINE
  8
OUTLINE
  6
CONTINUOUS
 62
     3
 10
290.94208313988747
 20
-49.770303439887471
 30
0.0
 11
290.93875215334822
 21
-49.779677449391393
 31
0.0
  0
LINE
  8
OUTLINE
  6
CONTINUOUS
 62
     3
 10
290.93875215334822
 20
-49.779677449391393
 30
0.0
 11
290.93875215334822
 21
-49.779677449391393
 31
0.0
  0
LINE
  8
OUTLINE
  6
CONTINUOUS
 62
     3
 10
290.93875215334822
 20
-49.779677449391393
 30
0.0
 11
290.93541114938478
 21
-49.789052697341049
 31
0.0
  0
LINE
  8
OUTLINE
  6
CONTINUOUS
 62
     3
 10
290.93541114938478
 20
-49.789052697341049
 30
0.0
 11
290.93204753843702
 21
-49.7984281680653
 31
0.0
  0
LINE
  8
OUTLINE
  6
CONTINUOUS
 62
     3
 10
290.93204753843702
 20
-49.7984281680653
 30
0.0
 11
290.93204753843702
 21
-49.7984281680653
 31
0.0
  0
LINE
  8
OUTLINE
  6
CONTINUOUS
 62
     3
 10
290.93204753843702
 20
-49.7984281680653
 30
0.0
 11
290.92864860033109
 21
-49.80780314000998
 31
0.0
  0
LINE
  8
OUTLINE
  6
CONTINUOUS
 62
     3
 10
290.92864860033109
 20
-49.80780314000998
 30
0.0
 11
290.9252009012082
 21
-49.817178498707221
 31
0.0
  0
LINE
  8
OUTLINE
  6
CONTINUOUS
 62
     3
 10
290.9252009012082
 20
-49.817178498707221
 30
0.0
 11
290.9252009012082
 21
-49.817178498707221
 31
0.0
  0
LINE
  8
OUTLINE
  6
CONTINUOUS
 62
     3
 10
290.9252009012082
 20
-49.817178498707221
 30
0.0
 11
290.92169149466582
 21
-49.826554032028923
 31
0.0
  0
LINE
  8
OUTLINE
  6
CONTINUOUS
 62
     3
 10
290.92169149466582
 20
-49.826554032028923
 30
0.0
 11
290.91811009781122
 21
-49.835923530119487
 31
0.0
  0
LINE
  8
OUTLINE
  6
CONTINUOUS
 62
     3
 10
290.91811009781122
 20
-49.835923530119487
 30
0.0
 11
290.91811009781122
 21
-49.835923530119487
 31
0.0
  0
LINE
  8
OUTLINE
  6
CONTINUOUS
 62
     3
 10
290.91811009781122
 20
-49.835923530119487
 30
0.0
 11
290.91444793495322
 21
-49.845285021694792
 31
0.0
  0
LINE
  8
OUTLINE
  6
CONTINUOUS
 62
     3
 10
290.91444793495322
 20
-49.845285021694792
 30
0.0
 11
290.91069959569973
 21
-49.854659487483332
 31
0.0
  0
LINE
  8
OUTLINE
  6
CONTINUOUS
 62
     3
 10
290.91069959569973
 20
-49.854659487483332
 30
0.0
 11
290.91069959569973
 21
-49.854659487483332
 31
0.0
  0
LINE
  8
OUTLINE
  6
CONTINUOUS
 62
     3
 10
290.91069959569973
 20
-49.854659487483332
 30
0.0
 11
290.90686978545978
 21
-49.864052761825747
 31
0.0
  0
LINE
  8
OUTLINE
  6
CONTINUOUS
 62
     3
 10
290.90686978545978
 20
-49.864052761825747
 30
0.0
 11
290.90300030755202
 21
-49.87338714149746
 31
0.0
  0
LINE
  8
OUTLINE
  6
CONTINUOUS
 62
     3
 10
290.90300030755202
 20
-49.87338714149746
 30
0.0
 11
290.90300030755202
 21
-49.87338714149746
 31
0.0
  0
LINE
  8
OUTLINE
  6
CONTINUOUS
 62
     3
 10
290.90300030755202
 20
-49.87338714149746
 30
0.0
 11
290.89910762695217
 21
-49.882641980491663
 31
0.0
  0
LINE
  8
OUTLINE
  6
CONTINUOUS
 62
     3
 10
290.89910762695217
 20
-49.882641980491663
 30
0.0
 11
290.89506975735122
 21
-49.892108399239589
 31
0.0
  0
LINE
  8
OUTLINE
  6
CONTINUOUS
 62
     3
 10
290.89506975735122
 20
-49.892108399239589
 30
0.0
 11
290.89506975735122
 21
-49.892108399239589
 31
0.0
  0
LINE
  8
OUTLINE
  6
CONTINUOUS
 62
     3
 10
290.89506975735122
 20
-49.892108399239589
 30
0.0
 11
290.89085927642589
 21
-49.901864577735182
 31
0.0
  0
LINE
  8
OUTLINE
  6
CONTINUOUS
 62
     3
 10
290.89085927642589
 20
-49.901864577735182
 30
0.0
 11
290.88696546907983
 21
-49.910825167787443
 31
0.0
  0
LINE
  8
OUTLINE
  6
CONTINUOUS
 62
     3
 10
290.88696546907983
 20
-49.910825167787443
 30
0.0
 11
290.88696546907983
 21
-49.910825167787443
 31
0.0
  0
LINE
  8
OUTLINE
  6
CONTINUOUS
 62
     3
 10
290.88696546907983
 20
-49.910825167787443
 30
0.0
 11
290.88352470261731
 21
-49.918699525734503
 31
0.0
  0
LINE
  8
OUTLINE
  6
CONTINUOUS
 62
     3
 10
290.88352470261731
 20
-49.918699525734503
 30
0.0
 11
290.87874496672202
 21
-49.929539354219337
 31
0.0
  0
LINE
  8
OUTLINE
  6
CONTINUOUS
 62
     3
 10
290.87874496672202
 20
-49.929539354219337
 30
0.0
 11
290.87874496672202
 21
-49.929539354219337
 31
0.0
  0
LINE
  8
OUTLINE
  6
CONTINUOUS
 62
     3
 10
290.87874496672202
 20
-49.929539354219337
 30
0.0
 11
290.87110819258533
 21
-49.946769520161688
 31
0.0
  0
LINE
  8
OUTLINE
  6
CONTINUOUS
 62
     3
 10
290.87110819258533
 20
-49.946769520161688
 30
0.0
 11
290.86212045505641
 21
-49.966965201286087
 31
0.0
  0
LINE
  8
OUTLINE
  6
CONTINUOUS
 62
     3
 10
290.86212045505641
 20
-49.966965201286087
 30
0.0
 11
290.86212045505641
 21
-49.966965201286087
 31
0.0
  0
LINE
  8
OUTLINE
  6
CONTINUOUS
 62
     3
 10
290.86212045505641
 20
-49.966965201286087
 30
0.0
 11
290.85356774967789
 21
-49.986074781453112
 31
0.0
  0
LINE
  8
OUTLINE
  6
CONTINUOUS
 62
     3
 10
290.85356774967789
 20
-49.986074781453112
 30
0.0
 11
290.84533161111477
 21
-50.004389158266179
 31
0.0
  0
LINE
  8
OUTLINE
  6
CONTINUOUS
 62
     3
 10
290.84533161111477
 20
-50.004389158266179
 30
0.0
 11
290.84533161111477
 21
-50.004389158266179
 31
0.0
  0
LINE
  8
OUTLINE
  6
CONTINUOUS
 62
     3
 10
290.84533161111477
 20
-50.004389158266179
 30
0.0
 11
290.83694472766399
 21
-50.022994061418963
 31
0.0
  0
LINE
  8
OUTLINE
  6
CONTINUOUS
 62
     3
 10
290.83694472766399
 20
-50.022994061418963
 30
0.0
 11
290.82844886303519
 21
-50.041812035226492
 31
0.0
  0
LINE
  8
OUTLINE
  6
CONTINUOUS
 62
     3
 10
290.82844886303519
 20
-50.041812035226492
 30
0.0
 11
290.82844886303519
 21
-50.041812035226492
 31
0.0
  0
LINE
  8
OUTLINE
  6
CONTINUOUS
 62
     3
 10
290.82844886303519
 20
-50.041812035226492
 30
0.0
 11
290.81998008959772
 21
-50.060552384602197
 31
0.0
  0
LINE
  8
OUTLINE
  6
CONTINUOUS
 62
     3
 10
290.81998008959772
 20
-50.060552384602197
 30
0.0
 11
290.81154263895542
 21
-50.079234642233757
 31
0.0
  0
LINE
  8
OUTLINE
  6
CONTINUOUS
 62
     3
 10
290.81154263895542
 20
-50.079234642233757
 30
0.0
 11
290.81154263895542
 21
-50.079234642233757
 31
0.0
  0
LINE
  8
OUTLINE
  6
CONTINUOUS
 62
     3
 10
290.81154263895542
 20
-50.079234642233757
 30
0.0
 11
290.8031123544331
 21
-50.097936466322778
 31
0.0
  0
LINE
  8
OUTLINE
  6
CONTINUOUS
 62
     3
 10
290.8031123544331
 20
-50.097936466322778
 30
0.0
 11
290.79468336701439
 21
-50.116657789355138
 31
0.0
  0
LINE
  8
OUTLINE
  6
CONTINUOUS
 62
     3
 10
273.32080412061111
 20
-65.325863692765722
 30
0.0
 11
272.98632913852981
 21
-65.978226761225244
 31
0.0
  0
LINE
  8
OUTLINE
  6
CONTINUOUS
 62
     3
 10
272.98632913852981
 20
-65.978226761225244
 30
0.0
 11
272.64510239929552
 21
-66.624964825570828
 31
0.0
  0
LINE
  8
OUTLINE
  6
CONTINUOUS
 62
     3
 10
272.64510239929552
 20
-66.624964825570828
 30
0.0
 11
272.64510239929552
 21
-66.624964825570828
 31
0.0
  0
LINE
  8
OUTLINE
  6
CONTINUOUS
 62
     3
 10
272.64510239929552
 20
-66.624964825570828
 30
0.0
 11
272.2918298795804
 21
-67.261941255321346
 31
0.0
  0
LINE
  8
OUTLINE
  6
CONTINUOUS
 62
     3
 10
272.2918298795804
 20
-67.261941255321346
 30
0.0
 11
271.92704849135782
 21
-67.890972914528049
 31
0.0
  0
LINE
  8
OUTLINE
  6
CONTINUOUS
 62
     3
 10
271.92704849135782
 20
-67.890972914528049
 30
0.0
 11
271.92704849135782
 21
-67.890972914528049
 31
0.0
  0
LINE
  8
OUTLINE
  6
CONTINUOUS
 62
     3
 10
271.92704849135782
 20
-67.890972914528049
 30
0.0
 11
271.55313906567892
 21
-68.513862231550377
 31
0.0
  0
LINE
  8
OUTLINE
  6
CONTINUOUS
 62
     3
 10
271.55313906567892
 20
-68.513862231550377
 30
0.0
 11
271.17402717460612
 21
-69.126400397446957
 31
0.0
  0
LINE
  8
OUTLINE
  6
CONTINUOUS
 62
     3
 10
271.17402717460612
 20
-69.126400397446957
 30
0.0
 11
271.17402717460612
 21
-69.126400397446957
 31
0.0
  0
LINE
  8
OUTLINE
  6
CONTINUOUS
 62
     3
 10
271.17402717460612
 20
-69.126400397446957
 30
0.0
 11
270.79102210061802
 21
-69.727398657619062
 31
0.0
  0
LINE
  8
OUTLINE
  6
CONTINUOUS
 62
     3
 10
270.79102210061802
 20
-69.727398657619062
 30
0.0
 11
270.39342322684593
 21
-70.33375971213718
 31
0.0
  0
LINE
  8
OUTLINE
  6
CONTINUOUS
 62
     3
 10
270.39342322684593
 20
-70.33375971213718
 30
0.0
 11
270.39342322684593
 21
-70.33375971213718
 31
0.0
  0
LINE
  8
OUTLINE
  6
CONTINUOUS
 62
     3
 10
270.39342322684593
 20
-70.33375971213718
 30
0.0
 11
269.97915117567902
 21
-70.950320479394804
 31
0.0
  0
LINE
  8
OUTLINE
  6
CONTINUOUS
 62
     3
 10
269.97915117567902
 20
-70.950320479394804
 30
0.0
 11
269.59262142588432
 21
-71.515563296408345
 31
0.0
  0
LINE
  8
OUTLINE
  6
CONTINUOUS
 62
     3
 10
269.59262142588432
 20
-71.515563296408345
 30
0.0
 11
269.59262142588432
 21
-71.515563296408345
 31
0.0
  0
LINE
  8
OUTLINE
  6
CONTINUOUS
 62
     3
 10
269.59262142588432
 20
-71.515563296408345
 30
0.0
 11
269.271543637582
 21
-71.977736839970248
 31
0.0
  0
LINE
  8
OUTLINE
  6
CONTINUOUS
 62
     3
 10
269.271543637582
 20
-71.977736839970248
 30
0.0
 11
268.98030933992561
 21
-72.390509727354868
 31
0.0
  0
LINE
  8
OUTLINE
  6
CONTINUOUS
 62
     3
 10
268.98030933992561
 20
-72.390509727354868
 30
0.0
 11
268.98030933992561
 21
-72.390509727354868
 31
0.0
  0
LINE
  8
OUTLINE
  6
CONTINUOUS
 62
     3
 10
268.98030933992561
 20
-72.390509727354868
 30
0.0
 11
268.67645209512591
 21
-72.816997663394034
 31
0.0
  0
LINE
  8
OUTLINE
  6
CONTINUOUS
 62
     3
 10
268.67645209512591
 20
-72.816997663394034
 30
0.0
 11
268.36339172858879
 21
-73.252684762667855
 31
0.0
  0
LINE
  8
OUTLINE
  6
CONTINUOUS
 62
     3
 10
268.36339172858879
 20
-73.252684762667855
 30
0.0
 11
268.36339172858879
 21
-73.252684762667855
 31
0.0
  0
LINE
  8
OUTLINE
  6
CONTINUOUS
 62
     3
 10
268.36339172858879
 20
-73.252684762667855
 30
0.0
 11
268.05293334655221
 21
-73.680701882686662
 31
0.0
  0
LINE
  8
OUTLINE
  6
CONTINUOUS
 62
     3
 10
268.05293334655221
 20
-73.680701882686662
 30
0.0
 11
267.74453691539333
 21
-74.102398442932554
 31
0.0
  0
LINE
  8
OUTLINE
  6
CONTINUOUS
 62
     3
 10
267.74453691539333
 20
-74.102398442932554
 30
0.0
 11
267.74453691539333
 21
-74.102398442932554
 31
0.0
  0
LINE
  8
OUTLINE
  6
CONTINUOUS
 62
     3
 10
267.74453691539333
 20
-74.102398442932554
 30
0.0
 11
267.43544969058632
 21
-74.522367838971547
 31
0.0
  0
LINE
  8
OUTLINE
  6
CONTINUOUS
 62
     3
 10
267.43544969058632
 20
-74.522367838971547
 30
0.0
 11
267.12641322385838
 21
-74.939960808734213
 31
0.0
  0
LINE
  8
OUTLINE
  6
CONTINUOUS
 62
     3
 10
267.12641322385838
 20
-74.939960808734213
 30
0.0
 11
267.12641322385838
 21
-74.939960808734213
 31
0.0
  0
LINE
  8
OUTLINE
  6
CONTINUOUS
 62
     3
 10
267.12641322385838
 20
-74.939960808734213
 30
0.0
 11
266.81863462971398
 21
-75.353905442884809
 31
0.0
  0
LINE
  8
OUTLINE
  6
CONTINUOUS
 62
     3
 10
266.81863462971398
 20
-75.353905442884809
 30
0.0
 11
266.51168897750392
 21
-75.76568190065808
 31
0.0
  0
LINE
  8
OUTLINE
  6
CONTINUOUS
 62
     3
 10
99.59152215799574
 20
238.3333333333334
 30
0.0
 11
99.59152215799574
 21
206.53232368060461
 31
0.0
  0
LINE
  8
OUTLINE
  6
CONTINUOUS
 62
     3
 10
99.59152215799574
 20
-206.532323679954
 30
0.0
 11
99.59152215799574
 21
-238.27157755338689
 31
0.0
  0
ARC
  8
OUTLINE
  6
CONTINUOUS
 62
     3
 10
64.524084778419677
 20
-238.33333333333329
 30
0.0
 40
34.466281310212089
 50
25.687636672503089
 51
67.343108345792913
  0
ARC
  8
OUTLINE
  6
CONTINUOUS
 62
     3
 10
49.495183044315553
 20
-233.32369942196519
 30
0.0
 40
29.456647398843948
 50
114.5393411449005
 51
169.4316843390036
  0
ARC
  8
OUTLINE
  6
CONTINUOUS
 62
     3
 10
64.524084778419677
 20
238.3333333333334
 30
0.0
 40
34.466281310212032
 50
292.65689165420707
 51
334.31236332749688
  0
ARC
  8
OUTLINE
  6
CONTINUOUS
 62
     3
 10
49.495183044315553
 20
233.32369942196539
 30
0.0
 40
29.45664739884371
 50
181.04407617350259
 51
245.4606588550995
  0
LINE
  8
DETAIL
  6
CONTINUOUS
 62
     5
 10
6.4123314065506918
 20
-256.99421965317907
 30
0.0
 11
3.005780346820274
 21
-256.99421965317907
 31
0.0
  0
LINE
  8
DETAIL
  6
CONTINUOUS
 62
     5
 10
3.005780346820274
 20
-253.8226442482796
 30
0.0
 11
5.1098265895950314
 21
-253.8226442482796
 31
0.0
  0
LINE
  8
DETAIL
  6
CONTINUOUS
 62
     5
 10
16.431599229286551
 20
-246.97495183044319
 30
0.0
 11
13.89435725220798
 21
-246.97495183044319
 31
0.0
  0
LINE
  8
DETAIL
  6
CONTINUOUS
 62
     5
 10
20.03853564547191
 20
-241.96531791907509
 30
0.0
 11
20.539499036608699
 21
-241.96531791907509
 31
0.0
  0
LINE
  8
DETAIL
  6
CONTINUOUS
 62
     5
 10
20.03853564547191
 20
-211.9075144508671
 30
0.0
 11
20.539499036608699
 21
-211.9075144508671
 31
0.0
  0
LINE
  8
DETAIL
  6
CONTINUOUS
 62
     5
 10
75.394990366088422
 20
-210.91932258058699
 30
0.0
 11
78.901734104045971
 21
-210.91932258058699
 31
0.0
  0
LINE
  8
DETAIL
  6
CONTINUOUS
 62
     5
 10
160.30828516377619
 20
-206.532323679954
 30
0.0
 11
14.52793834296696
 21
-206.532323679954
 31
0.0
  0
LINE
  8
DETAIL
  6
CONTINUOUS
 62
     5
 10
5.1098265895950314
 20
-204.22979870900579
 30
0.0
 11
3.005780346820274
 21
-204.22979870900579
 31
0.0
  0
LINE
  8
DETAIL
  6
CONTINUOUS
 62
     5
 10
14.52793834296696
 20
-203.34421218136771
 30
0.0
 11
160.30828516377619
 21
-203.34421218136771
 31
0.0
  0
LINE
  8
DETAIL
  6
CONTINUOUS
 62
     5
 10
3.005780346820274
 20
-192.89429115666991
 30
0.0
 11
6.4123314065506918
 21
-192.89429115666991
 31
0.0
  0
LINE
  8
DETAIL
  6
CONTINUOUS
 62
     5
 10
14.52793834296696
 20
-185.926472135225
 30
0.0
 11
18.088203018791969
 21
-185.926472135225
 31
0.0
  0
LINE
  8
DETAIL
  6
CONTINUOUS
 62
     5
 10
14.52793834296696
 20
-183.03415864779919
 30
0.0
 11
18.088203018791969
 21
-183.03415864779919
 31
0.0
  0
LINE
  8
DETAIL
  6
CONTINUOUS
 62
     5
 10
160.30828516377619
 20
-180.67319707734649
 30
0.0
 11
18.535645472061081
 21
-180.67319707734649
 31
0.0
  0
LINE
  8
DETAIL
  6
CONTINUOUS
 62
     5
 10
14.52793834296696
 20
-177.24953167359811
 30
0.0
 11
18.088203018791969
 21
-177.24953167359811
 31
0.0
  0
LINE
  8
DETAIL
  6
CONTINUOUS
 62
     5
 10
14.52793834296696
 20
-174.35721818617219
 30
0.0
 11
18.088203018791969
 21
-174.35721818617219
 31
0.0
  0
LINE
  8
DETAIL
  6
CONTINUOUS
 62
     5
 10
18.088203018791969
 20
-174.35721818617219
 30
0.0
 11
18.535645472061081
 21
-175.13221124965591
 31
0.0
  0
LINE
  8
DETAIL
  6
CONTINUOUS
 62
     5
 10
-0.0000000000000284
 20
258.49710982658968
 30
0.0
 11
-0.0000000000000284
 21
-258.49710982658962
 31
0.0
  0
LINE
  8
DETAIL
  6
CONTINUOUS
 62
     5
 10
3.005780346820274
 20
258.49710982658968
 30
0.0
 11
3.005780346820274
 21
-258.49710982658962
 31
0.0
  0
LINE
  8
DETAIL
  6
CONTINUOUS
 62
     5
 10
5.1098265895950314
 20
253.82264424893029
 30
0.0
 11
5.1098265895950314
 21
203.82636743612849
 31
0.0
  0
LINE
  8
DETAIL
  6
CONTINUOUS
 62
     5
 10
5.1098265895950314
 20
-253.8226442482796
 30
0.0
 11
5.1098265895950314
 21
-203.82636743547781
 31
0.0
  0
LINE
  8
DETAIL
  6
CONTINUOUS
 62
     5
 10
14.52793834296696
 20
-163.1385838328454
 30
0.0
 11
10.019267822735831
 21
-163.1385838328454
 31
0.0
  0
LINE
  8
DETAIL
  6
CONTINUOUS
 62
     5
 10
13.025048169556809
 20
-151.09460705852899
 30
0.0
 11
16.431599229286551
 21
-151.09460705852899
 31
0.0
  0
LINE
  8
DETAIL
  6
CONTINUOUS
 62
     5
 10
10.019267822735831
 20
253.38728323699419
 30
0.0
 11
10.019267822735831
 21
250.1758680125115
 31
0.0
  0
LINE
  8
DETAIL
  6
CONTINUOUS
 62
     5
 10
10.019267822735831
 20
189.2873547411356
 30
0.0
 11
10.019267822735831
 21
-189.28735474048489
 31
0.0
  0
LINE
  8
DETAIL
  6
CONTINUOUS
 62
     5
 10
10.019267822735831
 20
-189.28735474048489
 30
0.0
 11
10.019267822735831
 21
-194.90771509396191
 31
0.0
  0
LINE
  8
DETAIL
  6
CONTINUOUS
 62
     5
 10
10.019267822735831
 20
-250.17586801186101
 30
0.0
 11
10.019267822735831
 21
-253.38728323699419
 31
0.0
  0
LINE
  8
DETAIL
  6
CONTINUOUS
 62
     5
 10
10.019267822735831
 20
189.2873547411356
 30
0.0
 11
10.019267822735831
 21
194.90771509461231
 31
0.0
  0
LINE
  8
DETAIL
  6
CONTINUOUS
 62
     5
 10
14.52793834296696
 20
244.5005606345369
 30
0.0
 11
14.52793834296696
 21
203.34421218201831
 31
0.0
  0
LINE
  8
DETAIL
  6
CONTINUOUS
 62
     5
 10
14.52793834296696
 20
200.20483555303659
 30
0.0
 11
14.52793834296696
 21
163.138583833496
 31
0.0
  0
LINE
  8
DETAIL
  6
CONTINUOUS
 62
     5
 10
14.52793834296696
 20
-163.1385838328454
 30
0.0
 11
14.52793834296696
 21
-200.2048355523859
 31
0.0
  0
LINE
  8
DETAIL
  6
CONTINUOUS
 62
     5
 10
14.52793834296696
 20
-200.2048355523859
 30
0.0
 11
14.52793834296696
 21
-203.34421218136771
 31
0.0
  0
LINE
  8
DETAIL
  6
CONTINUOUS
 62
     5
 10
14.52793834296696
 20
-203.34421218136771
 30
0.0
 11
14.52793834296696
 21
-244.50056063388629
 31
0.0
  0
LINE
  8
DETAIL
  6
CONTINUOUS
 62
     5
 10
14.52793834296696
 20
200.20483555303659
 30
0.0
 11
14.52793834296696
 21
203.34421218201831
 31
0.0
  0
LINE
  8
DETAIL
  6
CONTINUOUS
 62
     5
 10
18.535645472061081
 20
216.32412484082769
 30
0.0
 11
18.535645472061081
 21
206.53232368060461
 31
0.0
  0
LINE
  8
DETAIL
  6
CONTINUOUS
 62
     5
 10
18.535645472061081
 20
-175.13221124965591
 30
0.0
 11
18.535645472061081
 21
-185.15147907239199
 31
0.0
  0
LINE
  8
DETAIL
  6
CONTINUOUS
 62
     5
 10
20.03853564547191
 20
243.36801541425811
 30
0.0
 11
20.03853564547191
 21
206.53232368060461
 31
0.0
  0
LINE
  8
DETAIL
  6
CONTINUOUS
 62
     5
 10
20.03853564547191
 20
180.6731970779972
 30
0.0
 11
20.03853564547191
 21
-180.67319707734649
 31
0.0
  0
LINE
  8
DETAIL
  6
CONTINUOUS
 62
     5
 10
20.03853564547191
 20
-206.532323679954
 30
0.0
 11
20.03853564547191
 21
-243.3680154142582
 31
0.0
  0
LINE
  8
DETAIL
  6
CONTINUOUS
 62
     5
 10
20.539499036608699
 20
-211.9075226952931
 30
0.0
 11
20.539499036608699
 21
-241.96531791907509
 31
0.0
  0
LINE
  8
DETAIL
  6
CONTINUOUS
 62
     5
 10
184.4331400850285
 20
65.325626204239029
 30
0.0
 11
185.8214505589668
 21
66.127167630057897
 31
0.0
  0
LINE
  8
DETAIL
  6
CONTINUOUS
 62
     5
 10
265.51059730250438
 20
-95.18304431599222
 30
0.0
 11
262.50481695568362
 21
-95.18304431599222
 31
0.0
  0
LINE
  8
DETAIL
  6
CONTINUOUS
 62
     5
 10
262.50481695568362
 20
-94.682080924855427
 30
0.0
 11
266.51252408477808
 21
-94.682080924855427
 31
0.0
  0
LINE
  8
DETAIL
  6
CONTINUOUS
 62
     5
 10
75.394990366088422
 20
-206.532323679954
 30
0.0
 11
75.394990366088422
 21
-210.9165728445812
 31
0.0
  0
LINE
  8
DETAIL
  6
CONTINUOUS
 62
     5
 10
78.901734104045971
 20
-207.01572659314871
 30
0.0
 11
78.901734104045971
 21
-210.9165728445812
 31
0.0
  0
LINE
  8
DETAIL
  6
CONTINUOUS
 62
     5
 10
95.583815028901398
 20
-238.27157755338689
 30
0.0
 11
95.583815028901398
 21
-206.532323679954
 31
0.0
  0
LINE
  8
DETAIL
  6
CONTINUOUS
 62
     5
 10
95.583815028901398
 20
-180.67319707734649
 30
0.0
 11
95.583815028901398
 21
180.6731970779972
 31
0.0
  0
LINE
  8
DETAIL
  6
CONTINUOUS
 62
     5
 10
95.583815028901398
 20
206.53232368060461
 30
0.0
 11
95.583815028901398
 21
238.3333333333334
 31
0.0
  0
LINE
  8
DETAIL
  6
CONTINUOUS
 62
     5
 10
110.1839954938314
 20
23.251913407051688
 30
0.0
 11
102.39691714836199
 21
2.7106940536996258
 31
0.0
  0
LINE
  8
DETAIL
  6
CONTINUOUS
 62
     5
 10
219.42196531791879
 20
-66.127167630057841
 30
0.0
 11
185.8214505589668
 21
-66.127167630057841
 31
0.0
  0
LINE
  8
DETAIL
  6
CONTINUOUS
 62
     5
 10
281.24084778420018
 20
-65.325626204238915
 30
0.0
 11
266.51252408477808
 21
-65.325626204238915
 31
0.0
  0
LINE
  8
DETAIL
  6
CONTINUOUS
 62
     5
 10
184.4331400850285
 20
-65.325626204238915
 30
0.0
 11
155.89980732177241
 21
-65.325626204238915
 31
0.0
  0
LINE
  8
DETAIL
  6
CONTINUOUS
 62
     5
 10
221.42581888246599
 20
-62.072145160573477
 30
0.0
 11
215.49496998758841
 21
-62.072145160573477
 31
0.0
  0
LINE
  8
DETAIL
  6
CONTINUOUS
 62
     5
 10
221.42581888246599
 20
-58.312137626854792
 30
0.0
 11
215.49496998758841
 21
-58.312137626854792
 31
0.0
  0
LINE
  8
DETAIL
  6
CONTINUOUS
 62
     5
 10
211.70712909441201
 20
-57.808392136175939
 30
0.0
 11
214.91329479768751
 21
-57.808392136175939
 31
0.0
  0
LINE
  8
DETAIL
  6
CONTINUOUS
 62
     5
 10
99.59152215799574
 20
-238.33333333333329
 30
0.0
 11
99.59152215799574
 21
-206.532323679954
 31
0.0
  0
LINE
  8
DETAIL
  6
CONTINUOUS
 62
     5
 10
99.59152215799574
 20
-180.67319707734649
 30
0.0
 11
99.59152215799574
 21
180.6731970779972
 31
0.0
  0
LINE
  8
DETAIL
  6
CONTINUOUS
 62
     5
 10
99.59152215799574
 20
206.53232368060461
 30
0.0
 11
99.59152215799574
 21
238.3333333333334
 31
0.0
  0
LINE
  8
DETAIL
  6
CONTINUOUS
 62
     5
 10
102.39691714836199
 20
2.7106940536996258
 30
0.0
 11
102.39691714837041
 21
-44.67672299839171
 31
0.0
  0
LINE
  8
DETAIL
  6
CONTINUOUS
 62
     5
 10
110.41233140655071
 20
-23.044306123314069
 30
0.0
 11
110.41233140655071
 21
23.044306123964699
 31
0.0
  0
LINE
  8
DETAIL
  6
CONTINUOUS
 62
     5
 10
116.4238920917348
 20
19.03660886319847
 30
0.0
 11
116.4238920917348
 21
-19.03660886254784
 31
0.0
  0
LINE
  8
DETAIL
  6
CONTINUOUS
 62
     5
 10
117.4258188824658
 20
18.0344711258914
 30
0.0
 11
117.4258188824658
 21
-18.034471125240771
 31
0.0
  0
LINE
  8
DETAIL
  6
CONTINUOUS
 62
     5
 10
119.9306358381502
 20
-14.02697495183031
 30
0.0
 11
119.9306358381502
 21
14.026974951830541
 31
0.0
  0
LINE
  8
DETAIL
  6
CONTINUOUS
 62
     5
 10
18.088203018791969
 20
-185.926472135225
 30
0.0
 11
18.535645472061081
 21
-185.15147907239199
 31
0.0
  0
LINE
  8
DETAIL
  6
CONTINUOUS
 62
     5
 10
117.4258227080047
 20
-18.034685881090009
 30
0.0
 11
116.4238961124538
 21
-19.03661290083312
 31
0.0
  0
LINE
  8
DETAIL
  6
CONTINUOUS
 62
     5
 10
289.15606936416162
 20
-53.302504816955597
 30
0.0
 11
288.65510597302477
 21
-53.302504816955597
 31
0.0
  0
LINE
  8
DETAIL
  6
CONTINUOUS
 62
     5
 10
211.70712909441201
 20
-51.29586805139752
 30
0.0
 11
214.91329479768751
 21
-51.29586805139752
 31
0.0
  0
LINE
  8
DETAIL
  6
CONTINUOUS
 62
     5
 10
221.42581888246599
 20
-50.792122560068087
 30
0.0
 11
215.49496998758841
 21
-50.792122560068087
 31
0.0
  0
LINE
  8
DETAIL
  6
CONTINUOUS
 62
     5
 10
221.42581888246599
 20
-47.032115026349352
 30
0.0
 11
215.49496998758841
 21
-47.032115026349352
 31
0.0
  0
LINE
  8
DETAIL
  6
CONTINUOUS
 62
     5
 10
289.15606936416162
 20
-43.884393063583794
 30
0.0
 11
288.65510597302477
 21
-43.884393063583794
 31
0.0
  0
LINE
  8
DETAIL
  6
CONTINUOUS
 62
     5
 10
130.15028901734081
 20
-15.028901734104011
 30
0.0
 11
130.64420609814081
 21
-20.674399799464481
 31
0.0
  0
LINE
  8
DETAIL
  6
CONTINUOUS
 62
     5
 10
121.93448940269739
 20
10.53396593458945
 30
0.0
 11
121.93448940269739
 21
-13.87152051332475
 31
0.0
  0
LINE
  8
DETAIL
  6
CONTINUOUS
 62
     5
 10
130.15028901734081
 20
15.028901734104011
 30
0.0
 11
130.15028901734081
 21
-15.028901734104011
 31
0.0
  0
LINE
  8
DETAIL
  6
CONTINUOUS
 62
     5
 10
130.15028901734081
 20
15.028901734104011
 30
0.0
 11
130.64420609814081
 21
20.674399800115111
 31
0.0
  0
LINE
  8
DETAIL
  6
CONTINUOUS
 62
     5
 10
147.94003997622781
 20
-10.51310727437874
 30
0.0
 11
145.59702468408261
 21
-12.85609965102719
 31
0.0
  0
LINE
  8
DETAIL
  6
CONTINUOUS
 62
     5
 10
110.41233140655071
 20
-23.044315992292809
 30
0.0
 11
102.39691714836199
 21
-23.044315992292809
 31
0.0
  0
LINE
  8
DETAIL
  6
CONTINUOUS
 62
     5
 10
116.42389207481919
 20
-19.03660886319847
 30
0.0
 11
112.41618497109791
 21
-19.03660886319847
 31
0.0
  0
LINE
  8
DETAIL
  6
CONTINUOUS
 62
     5
 10
119.9306358381502
 20
-14.02697495183031
 30
0.0
 11
117.4258188824658
 21
-14.02697495183031
 31
0.0
  0
LINE
  8
DETAIL
  6
CONTINUOUS
 62
     5
 10
119.9306358381502
 20
-13.87147800235209
 30
0.0
 11
121.93448940269739
 21
-13.87147800235209
 31
0.0
  0
LINE
  8
DETAIL
  6
CONTINUOUS
 62
     5
 10
130.15028901734081
 20
-8.5163776493255909
 30
0.0
 11
121.93448940269739
 21
-8.5163776493255909
 31
0.0
  0
LINE
  8
DETAIL
  6
CONTINUOUS
 62
     5
 10
144.67822736030831
 20
-26.057750733778789
 30
0.0
 11
135.19815847548961
 21
-25.22835217681347
 31
0.0
  0
LINE
  8
DETAIL
  6
CONTINUOUS
 62
     5
 10
184.4331400850285
 20
-65.325626204238915
 30
0.0
 11
185.8214505589668
 21
-66.127167630057841
 31
0.0
  0
LINE
  8
DETAIL
  6
CONTINUOUS
 62
     5
 10
144.67822736030831
 20
11.27160305387474
 30
0.0
 11
144.67822736030831
 21
-26.057750733778789
 31
0.0
  0
LINE
  8
DETAIL
  6
CONTINUOUS
 62
     5
 10
147.9845857418108
 20
-13.02504816955684
 30
0.0
 11
147.9845857418108
 21
2.6436282446262571
 31
0.0
  0
LINE
  8
DETAIL
  6
CONTINUOUS
 62
     5
 10
148.48554913294771
 20
-57.911368015414268
 30
0.0
 11
148.48554913294771
 21
1.462403794860279
 31
0.0
  0
LINE
  8
DETAIL
  6
CONTINUOUS
 62
     5
 10
215.49496998758841
 20
62.072145161224057
 30
0.0
 11
214.91329479768751
 21
61.064654179215843
 31
0.0
  0
LINE
  8
DETAIL
  6
CONTINUOUS
 62
     5
 10
130.15028901734081
 20
8.5163776493255909
 30
0.0
 11
121.93448940269739
 21
8.5163776493255909
 31
0.0
  0
LINE
  8
DETAIL
  6
CONTINUOUS
 62
     5
 10
121.93448940269739
 20
10.438773107174139
 30
0.0
 11
119.9306358381502
 21
10.438773107174139
 31
0.0
  0
LINE
  8
DETAIL
  6
CONTINUOUS
 62
     5
 10
119.9306358381502
 20
10.53462579380937
 30
0.0
 11
121.93448940269739
 21
10.53462579380937
 31
0.0
  0
LINE
  8
DETAIL
  6
CONTINUOUS
 62
     5
 10
119.9306358381502
 20
14.026974951830541
 30
0.0
 11
117.4258188824658
 21
14.026974951830541
 31
0.0
  0
LINE
  8
DETAIL
  6
CONTINUOUS
 62
     5
 10
117.4258227080047
 20
18.034685881740529
 30
0.0
 11
116.4238961124538
 21
19.03661290148386
 31
0.0
  0
LINE
  8
DETAIL
  6
CONTINUOUS
 62
     5
 10
18.088203018791969
 20
217.0991179036611
 30
0.0
 11
18.535645472061081
 21
216.32412484082769
 31
0.0
  0
LINE
  8
DETAIL
  6
CONTINUOUS
 62
     5
 10
184.4331400850285
 20
-65.325626204238915
 30
0.0
 11
184.4331400850285
 21
-39.148759404999623
 31
0.0
  0
LINE
  8
DETAIL
  6
CONTINUOUS
 62
     5
 10
184.4331400850285
 20
-27.411271084803388
 30
0.0
 11
184.4331400850285
 21
65.325626204239029
 31
0.0
  0
LINE
  8
DETAIL
  6
CONTINUOUS
 62
     5
 10
185.8214505589668
 20
-66.127167630057841
 30
0.0
 11
185.8214505589668
 21
-38.629403934739628
 31
0.0
  0
LINE
  8
DETAIL
  6
CONTINUOUS
 62
     5
 10
185.8214505589668
 20
-31.859728287465881
 30
0.0
 11
185.8214505589668
 21
66.127167630057897
 31
0.0
  0
LINE
  8
DETAIL
  6
CONTINUOUS
 62
     5
 10
116.42389207481919
 20
19.03660886319847
 30
0.0
 11
112.41618497109791
 21
19.03660886319847
 31
0.0
  0
LINE
  8
DETAIL
  6
CONTINUOUS
 62
     5
 10
215.49496998758841
 20
-62.072145160573477
 30
0.0
 11
214.91329479768751
 21
-61.064654178565149
 31
0.0
  0
LINE
  8
DETAIL
  6
CONTINUOUS
 62
     5
 10
211.70712909441201
 20
57.808392136826569
 30
0.0
 11
211.70712909441201
 21
51.295868052048149
 31
0.0
  0
LINE
  8
DETAIL
  6
CONTINUOUS
 62
     5
 10
211.70712909441201
 20
-51.29586805139752
 30
0.0
 11
211.70712909441201
 21
-57.808392136175939
 31
0.0
  0
LINE
  8
DETAIL
  6
CONTINUOUS
 62
     5
 10
215.49496998758841
 20
-47.032115026349352
 30
0.0
 11
214.91329479768751
 21
-48.03960600900831
 31
0.0
  0
LINE
  8
DETAIL
  6
CONTINUOUS
 62
     5
 10
221.42581888246599
 20
47.032115027000032
 30
0.0
 11
215.49496998758841
 21
47.032115027000032
 31
0.0
  0
LINE
  8
DETAIL
  6
CONTINUOUS
 62
     5
 10
221.42581888246599
 20
50.792122560718667
 30
0.0
 11
215.49496998758841
 21
50.792122560718667
 31
0.0
  0
LINE
  8
DETAIL
  6
CONTINUOUS
 62
     5
 10
211.70712909441201
 20
51.295868052048149
 30
0.0
 11
214.91329479768751
 21
51.295868052048149
 31
0.0
  0
LINE
  8
DETAIL
  6
CONTINUOUS
 62
     5
 10
211.70712909441201
 20
57.808392136826569
 30
0.0
 11
214.91329479768751
 21
57.808392136826569
 31
0.0
  0
LINE
  8
DETAIL
  6
CONTINUOUS
 62
     5
 10
221.42581888246599
 20
58.312137627505543
 30
0.0
 11
215.49496998758841
 21
58.312137627505543
 31
0.0
  0
LINE
  8
DETAIL
  6
CONTINUOUS
 62
     5
 10
214.91329479768751
 20
-61.064654178565149
 30
0.0
 11
214.91329479768751
 21
-48.03960600900831
 31
0.0
  0
LINE
  8
DETAIL
  6
CONTINUOUS
 62
     5
 10
214.91329479768751
 20
48.039606009659003
 30
0.0
 11
214.91329479768751
 21
61.064654179215843
 31
0.0
  0
LINE
  8
DETAIL
  6
CONTINUOUS
 62
     5
 10
221.42581888246599
 20
-85.664658086830286
 30
0.0
 11
221.42581888246599
 21
85.6646580868304
 31
0.0
  0
LINE
  8
DETAIL
  6
CONTINUOUS
 62
     5
 10
225.4335260115605
 20
-88.670520231213857
 30
0.0
 11
225.4335260115605
 21
88.670520231213914
 31
0.0
  0
LINE
  8
DETAIL
  6
CONTINUOUS
 62
     5
 10
230.4431599229284
 20
-131.0803515374221
 30
0.0
 11
230.4431599229284
 21
131.0803515380727
 31
0.0
  0
LINE
  8
DETAIL
  6
CONTINUOUS
 62
     5
 10
221.42581888246599
 20
62.072145161224057
 30
0.0
 11
215.49496998758841
 21
62.072145161224057
 31
0.0
  0
LINE
  8
DETAIL
  6
CONTINUOUS
 62
     5
 10
281.24084778420018
 20
65.325626204239029
 30
0.0
 11
266.51252408477808
 21
65.325626204239029
 31
0.0
  0
LINE
  8
DETAIL
  6
CONTINUOUS
 62
     5
 10
184.4331400850285
 20
65.325626204239029
 30
0.0
 11
155.89980732177241
 21
65.325626204239029
 31
0.0
  0
LINE
  8
DETAIL
  6
CONTINUOUS
 62
     5
 10
219.42196531791879
 20
66.127167630057897
 30
0.0
 11
185.8214505589668
 21
66.127167630057897
 31
0.0
  0
LINE
  8
DETAIL
  6
CONTINUOUS
 62
     5
 10
262.50481695568362
 20
94.682080924855541
 30
0.0
 11
266.51252408477808
 21
94.682080924855541
 31
0.0
  0
LINE
  8
DETAIL
  6
CONTINUOUS
 62
     5
 10
215.49496998758841
 20
47.032115027000032
 30
0.0
 11
214.91329479768751
 21
48.039606009659003
 31
0.0
  0
LINE
  8
DETAIL
  6
CONTINUOUS
 62
     5
 10
262.50481695568362
 20
-131.0803515374221
 30
0.0
 11
262.50481695568362
 21
131.0803515380727
 31
0.0
  0
LINE
  8
DETAIL
  6
CONTINUOUS
 62
     5
 10
265.51059730250438
 20
-95.18304431599222
 30
0.0
 11
265.51059730250438
 21
-94.682080924855427
 31
0.0
  0
LINE
  8
DETAIL
  6
CONTINUOUS
 62
     5
 10
266.51252408477808
 20
94.682080924855541
 30
0.0
 11
266.51252408477808
 21
-94.682066275905186
 31
0.0
  0
LINE
  8
DETAIL
  6
CONTINUOUS
 62
     5
 10
288.65510597302477
 20
57.911368015414268
 30
0.0
 11
288.65510597302477
 21
-57.911368015414268
 31
0.0
  0
LINE
  8
DETAIL
  6
CONTINUOUS
 62
     5
 10
289.15606936416162
 20
-43.884393063583794
 30
0.0
 11
289.15606936416162
 21
-53.302504816955597
 31
0.0
  0
LINE
  8
DETAIL
  6
CONTINUOUS
 62
     5
 10
16.431599229286551
 20
151.09460705917979
 30
0.0
 11
13.025048169556809
 21
151.09460705917979
 31
0.0
  0
LINE
  8
DETAIL
  6
CONTINUOUS
 62
     5
 10
14.52793834296696
 20
163.138583833496
 30
0.0
 11
10.019267822735831
 21
163.138583833496
 31
0.0
  0
LINE
  8
DETAIL
  6
CONTINUOUS
 62
     5
 10
14.52793834296696
 20
180.6731970779972
 30
0.0
 11
160.30828516377619
 21
180.6731970779972
 31
0.0
  0
LINE
  8
DETAIL
  6
CONTINUOUS
 62
     5
 10
6.4123314065506918
 20
192.89429115732051
 30
0.0
 11
3.005780346820274
 21
192.89429115732051
 31
0.0
  0
LINE
  8
DETAIL
  6
CONTINUOUS
 62
     5
 10
160.30828516377619
 20
203.34421218201831
 30
0.0
 11
14.52793834296696
 21
203.34421218201831
 31
0.0
  0
LINE
  8
DETAIL
  6
CONTINUOUS
 62
     5
 10
5.1098265895950314
 20
204.22979870900591
 30
0.0
 11
3.005780346820274
 21
204.22979870900591
 31
0.0
  0
LINE
  8
DETAIL
  6
CONTINUOUS
 62
     5
 10
14.52793834296696
 20
206.53232368060461
 30
0.0
 11
160.30828516377619
 21
206.53232368060461
 31
0.0
  0
LINE
  8
DETAIL
  6
CONTINUOUS
 62
     5
 10
14.52793834296696
 20
208.4221774420339
 30
0.0
 11
18.088203018791969
 21
208.4221774420339
 31
0.0
  0
LINE
  8
DETAIL
  6
CONTINUOUS
 62
     5
 10
14.52793834296696
 20
214.2068044168856
 30
0.0
 11
18.088203018791969
 21
214.2068044168856
 31
0.0
  0
LINE
  8
DETAIL
  6
CONTINUOUS
 62
     5
 10
14.52793834296696
 20
217.0991179036611
 30
0.0
 11
18.088203018791969
 21
217.0991179036611
 31
0.0
  0
LINE
  8
DETAIL
  6
CONTINUOUS
 62
     5
 10
13.89435725220798
 20
246.97495183044299
 30
0.0
 11
16.431599229286551
 21
246.97495183044299
 31
0.0
  0
LINE
  8
DETAIL
  6
CONTINUOUS
 62
     5
 10
5.1098265895950314
 20
253.82264424893029
 30
0.0
 11
3.005780346820274
 21
253.82264424893029
 31
0.0
  0
LINE
  8
DETAIL
  6
CONTINUOUS
 62
     5
 10
3.005780346820274
 20
256.99421965317941
 30
0.0
 11
6.4123314065506918
 21
256.99421965317941
 31
0.0
  0
ARC
  8
DETAIL
  6
CONTINUOUS
 62
     5
 10
155.89980732177241
 20
-57.911368015414268
 30
0.0
 40
7.4142581888246468
 50
180.0
 51
270.0
  0
ARC
  8
DETAIL
  6
CONTINUOUS
 62
     5
 10
135.63477684047729
 20
-20.237781435127431
 30
0.0
 40
5.0096339113679234
 50
184.9999999999998
 51
265.00000000000023
  0
ARC
  8
DETAIL
  6
CONTINUOUS
 62
     5
 10
6.4123314065506918
 20
-189.28735474048489
 30
0.0
 40
3.6069364161849791
 50
270.0
 51
0.0
  0
ARC
  8
DETAIL
  6
CONTINUOUS
 62
     5
 10
16.431599229286551
 20
-147.48767064234411
 30
0.0
 40
3.6069364161849768
 50
270.0
 51
0.0
  0
ARC
  8
DETAIL
  6
CONTINUOUS
 62
     5
 10
16.431599229286551
 20
-243.3680154142582
 30
0.0
 40
3.6069364161849791
 50
270.0
 51
0.0
  0
ARC
  8
DETAIL
  6
CONTINUOUS
 62
     5
 10
6.4123314065506918
 20
-253.38728323699419
 30
0.0
 40
3.6069364161849791
 50
270.0
 51
0.0
  0
ARC
  8
DETAIL
  6
CONTINUOUS
 62
     5
 10
13.025048169556809
 20
-154.10038740534989
 30
0.0
 40
3.0057803468208308
 50
90.0
 51
180.0
  0
ARC
  8
DETAIL
  6
CONTINUOUS
 62
     5
 10
112.41618497109791
 20
-21.040462427745521
 30
0.0
 40
2.0038535645472431
 50
90.0
 51
179.9999996245981
  0
ARC
  8
DETAIL
  6
CONTINUOUS
 62
     5
 10
97.587668593448797
 20
-238.33333333333329
 30
0.0
 40
2.0038535645472848
 50
180.0
 51
0.0
  0
ARC
  8
DETAIL
  6
CONTINUOUS
 62
     5
 10
1.502890173410123
 20
-258.49710982658962
 30
0.0
 40
1.5028901734103779
 50
180.0
 51
0.0
  0
ARC
  8
DETAIL
  6
CONTINUOUS
 62
     5
 10
155.89980732177241
 20
57.911368015414268
 30
0.0
 40
7.4142581888246752
 50
90.0
 51
154.8695210452002
  0
ARC
  8
DETAIL
  6
CONTINUOUS
 62
     5
 10
135.63477684047729
 20
20.237781435778061
 30
0.0
 40
5.0096339113679313
 50
119.5282765745922
 51
175.0000000000002
  0
ARC
  8
DETAIL
  6
CONTINUOUS
 62
     5
 10
151.591522157996
 20
-13.02504816955684
 30
0.0
 40
3.6069364161851341
 50
180.0
 51
210.50644052310111
  0
ARC
  8
DETAIL
  6
CONTINUOUS
 62
     5
 10
6.4123314065506918
 20
189.2873547411356
 30
0.0
 40
3.6069364161851341
 50
0.0
 51
90.0
  0
ARC
  8
DETAIL
  6
CONTINUOUS
 62
     5
 10
16.431599229286551
 20
147.4876706429948
 30
0.0
 40
3.6069364161851341
 50
0.0
 51
90.0
  0
ARC
  8
DETAIL
  6
CONTINUOUS
 62
     5
 10
16.431599229286551
 20
243.36801541425811
 30
0.0
 40
3.6069364161851341
 50
0.0
 51
90.0
  0
ARC
  8
DETAIL
  6
CONTINUOUS
 62
     5
 10
6.4123314065506918
 20
253.38728323699419
 30
0.0
 40
3.6069364161851341
 50
0.0
 51
90.0
  0
ARC
  8
DETAIL
  6
CONTINUOUS
 62
     5
 10
13.025048169556809
 20
154.10038740600061
 30
0.0
 40
3.0057803468207571
 50
180.0
 51
270.0
  0
ARC
  8
DETAIL
  6
CONTINUOUS
 62
     5
 10
112.41618497109791
 20
21.040462427745641
 30
0.0
 40
2.0038535645471711
 50
180.00000037540201
 51
270.0
  0
ARC
  8
DETAIL
  6
CONTINUOUS
 62
     5
 10
97.587668593448797
 20
238.3333333333334
 30
0.0
 40
2.0038535645472848
 50
0.0
 51
180.0
  0
ARC
  8
DETAIL
  6
CONTINUOUS
 62
     5
 10
144.46347947191111
 20
-11.72254335260118
 30
0.0
 40
1.603082851637802
 50
277.70070112460388
 51
314.9997198089103
  0
ARC
  8
DETAIL
  6
CONTINUOUS
 62
     5
 10
1.502890173410123
 20
258.49710982658968
 30
0.0
 40
1.502890173410151
 50
0.0
 51
180.0
  0
ARC
  8
DETAIL
  6
CONTINUOUS
 62
     5
 10
148.64850573375341
 20
-11.22157996146427
 30
0.0
 40
1.00192678227362
 50
131.60912293940129
 51
134.99971980841289
  0
ARC
  8
DETAIL
  6
CONTINUOUS
 62
     5
 10
281.24084778420018
 20
-57.911368015414268
 30
0.0
 40
7.414258188824661
 50
270.0
 51
0.0
  0
ARC
  8
DETAIL
  6
CONTINUOUS
 62
     5
 10
284.6248554913293
 20
-48.593448940269703
 30
0.0
 40
6.5350674373796558
 50
313.89739816709238
 51
46.102601832907602
  0
ARC
  8
DETAIL
  6
CONTINUOUS
 62
     5
 10
231.4450867052021
 20
-88.670520231213857
 30
0.0
 40
6.0115606936416279
 50
180.0
 51
260.40009674770522
  0
ARC
  8
DETAIL
  6
CONTINUOUS
 62
     5
 10
219.42196531791879
 20
-68.131021194605012
 30
0.0
 40
2.0038535645472848
 50
0.0000000036998248
 51
90.0
  0
ARC
  8
DETAIL
  6
CONTINUOUS
 62
     5
 10
411.30367810134339
 20
-15.951402373145131
 30
0.0
 40
185.87015347036009
 50
179.64153550500021
 51
179.99301579749741
  0
ARC
  8
DETAIL
  6
CONTINUOUS
 62
     5
 10
411.30367810134339
 20
15.95140237379576
 30
0.0
 40
185.87015347036009
 50
180.00698420249611
 51
180.35846449499979
  0
ARC
  8
DETAIL
  6
CONTINUOUS
 62
     5
 10
281.24084778420018
 20
57.911368015414268
 30
0.0
 40
7.4142581888246468
 50
0.0
 51
90.0
  0
ARC
  8
DETAIL
  6
CONTINUOUS
 62
     5
 10
231.4450867052021
 20
88.670520231213914
 30
0.0
 40
6.0115606936416004
 50
99.599903252294808
 51
180.0
  0
ARC
  8
DETAIL
  6
CONTINUOUS
 62
     5
 10
219.42196531791879
 20
68.131021194605069
 30
0.0
 40
2.003853564547228
 50
270.0
 51
0.0
  0
ARC
  8
DETAIL
  6
CONTINUOUS
 62
     5
 10
225.62351500618041
 20
-14.75154120821753
 30
0.0
 40
0.18998903886095
 50
180.0392889046874
 51
191.22797272030579
  0
ARC
  8
DETAIL
  6
CONTINUOUS
 62
     5
 10
225.62351500618041
 20
14.75154120886828
 30
0.0
 40
0.189989038860964
 50
168.7720272797074
 51
179.9607110953061
  0
LINE
  8
DETAIL
  6
CONTINUOUS
 62
     5
 10
291.15992292870868
 20
-48.593448940269703
 30
0.0
 11
291.15917584735797
 21
-48.574091977711419
 31
0.0
  0
LINE
  8
DETAIL
  6
CONTINUOUS
 62
     5
 10
291.15917584735797
 20
-48.574091977711419
 30
0.0
 11
291.15843905874158
 21
-48.554754707697548
 31
0.0
  0
LINE
  8
DETAIL
  6
CONTINUOUS
 62
     5
 10
291.15843905874158
 20
-48.554754707697548
 30
0.0
 11
291.15843905874158
 21
-48.554754707697548
 31
0.0
  0
LINE
  8
DETAIL
  6
CONTINUOUS
 62
     5
 10
291.15843905874158
 20
-48.554754707697548
 30
0.0
 11
291.15771813616931
 21
-48.535436925771819
 31
0.0
  0
LINE
  8
DETAIL
  6
CONTINUOUS
 62
     5
 10
291.15771813616931
 20
-48.535436925771819
 30
0.0
 11
291.15699977525168
 21
-48.516058839474233
 31
0.0
  0
LINE
  8
DETAIL
  6
CONTINUOUS
 62
     5
 10
291.15699977525168
 20
-48.516058839474233
 30
0.0
 11
291.15699977525168
 21
-48.516058839474233
 31
0.0
  0
LINE
  8
DETAIL
  6
CONTINUOUS
 62
     5
 10
291.15699977525168
 20
-48.516058839474233
 30
0.0
 11
291.15627089658602
 21
-48.496600858499278
 31
0.0
  0
LINE
  8
DETAIL
  6
CONTINUOUS
 62
     5
 10
291.15627089658602
 20
-48.496600858499278
 30
0.0
 11
291.15553819841062
 21
-48.477363789163228
 31
0.0
  0
LINE
  8
DETAIL
  6
CONTINUOUS
 62
     5
 10
291.15553819841062
 20
-48.477363789163228
 30
0.0
 11
291.15553819841062
 21
-48.477363789163228
 31
0.0
  0
LINE
  8
DETAIL
  6
CONTINUOUS
 62
     5
 10
291.15553819841062
 20
-48.477363789163228
 30
0.0
 11
291.15479826515661
 21
-48.458428037317219
 31
0.0
  0
LINE
  8
DETAIL
  6
CONTINUOUS
 62
     5
 10
291.15479826515661
 20
-48.458428037317219
 30
0.0
 11
291.15398744838899
 21
-48.438672010328162
 31
0.0
  0
LINE
  8
DETAIL
  6
CONTINUOUS
 62
     5
 10
291.15398744838899
 20
-48.438672010328162
 30
0.0
 11
291.15398744838899
 21
-48.438672010328162
 31
0.0
  0
LINE
  8
DETAIL
  6
CONTINUOUS
 62
     5
 10
291.15398744838899
 20
-48.438672010328162
 30
0.0
 11
291.15308232991168
 21
-48.417795515270711
 31
0.0
  0
LINE
  8
DETAIL
  6
CONTINUOUS
 62
     5
 10
291.15308232991168
 20
-48.417795515270711
 30
0.0
 11
291.15228064535791
 21
-48.399985956532021
 31
0.0
  0
LINE
  8
DETAIL
  6
CONTINUOUS
 62
     5
 10
291.15228064535791
 20
-48.399985956532021
 30
0.0
 11
291.15228064535791
 21
-48.399985956532021
 31
0.0
  0
LINE
  8
DETAIL
  6
CONTINUOUS
 62
     5
 10
291.15228064535791
 20
-48.399985956532021
 30
0.0
 11
291.15175296156281
 21
-48.388782803421982
 31
0.0
  0
LINE
  8
DETAIL
  6
CONTINUOUS
 62
     5
 10
291.15175296156281
 20
-48.388782803421982
 30
0.0
 11
291.15134001634488
 21
-48.38064618762877
 31
0.0
  0
LINE
  8
DETAIL
  6
CONTINUOUS
 62
     5
 10
291.15134001634488
 20
-48.38064618762877
 30
0.0
 11
291.15134001634488
 21
-48.38064618762877
 31
0.0
  0
LINE
  8
DETAIL
  6
CONTINUOUS
 62
     5
 10
291.15134001634488
 20
-48.38064618762877
 30
0.0
 11
291.15084971329429
 21
-48.371388541328372
 31
0.0
  0
LINE
  8
DETAIL
  6
CONTINUOUS
 62
     5
 10
291.15084971329429
 20
-48.371388541328372
 30
0.0
 11
291.1502884481099
 21
-48.361310836271059
 31
0.0
  0
LINE
  8
DETAIL
  6
CONTINUOUS
 62
     5
 10
291.1502884481099
 20
-48.361310836271059
 30
0.0
 11
291.1502884481099
 21
-48.361310836271059
 31
0.0
  0
LINE
  8
DETAIL
  6
CONTINUOUS
 62
     5
 10
291.1502884481099
 20
-48.361310836271059
 30
0.0
 11
291.14969894306682
 21
-48.351535503962339
 31
0.0
  0
LINE
  8
DETAIL
  6
CONTINUOUS
 62
     5
 10
291.14969894306682
 20
-48.351535503962339
 30
0.0
 11
291.14907073464002
 21
-48.341982275353637
 31
0.0
  0
LINE
  8
DETAIL
  6
CONTINUOUS
 62
     5
 10
291.14907073464002
 20
-48.341982275353637
 30
0.0
 11
291.14907073464002
 21
-48.341982275353637
 31
0.0
  0
LINE
  8
DETAIL
  6
CONTINUOUS
 62
     5
 10
291.14907073464002
 20
-48.341982275353637
 30
0.0
 11
291.14838362562853
 21
-48.332350771918023
 31
0.0
  0
LINE
  8
DETAIL
  6
CONTINUOUS
 62
     5
 10
291.14838362562853
 20
-48.332350771918023
 30
0.0
 11
291.14763166992321
 21
-48.322662877771279
 31
0.0
  0
LINE
  8
DETAIL
  6
CONTINUOUS
 62
     5
 10
291.14763166992321
 20
-48.322662877771279
 30
0.0
 11
291.14763166992321
 21
-48.322662877771279
 31
0.0
  0
LINE
  8
DETAIL
  6
CONTINUOUS
 62
     5
 10
291.14763166992321
 20
-48.322662877771279
 30
0.0
 11
291.14681152954449
 21
-48.312999455185832
 31
0.0
  0
LINE
  8
DETAIL
  6
CONTINUOUS
 62
     5
 10
291.14681152954449
 20
-48.312999455185832
 30
0.0
 11
291.14591604794617
 21
-48.303355016419182
 31
0.0
  0
LINE
  8
DETAIL
  6
CONTINUOUS
 62
     5
 10
291.14591604794617
 20
-48.303355016419182
 30
0.0
 11
291.14591604794617
 21
-48.303355016419182
 31
0.0
  0
LINE
  8
DETAIL
  6
CONTINUOUS
 62
     5
 10
291.14591604794617
 20
-48.303355016419182
 30
0.0
 11
291.14494057690422
 21
-48.293708123954502
 31
0.0
  0
LINE
  8
DETAIL
  6
CONTINUOUS
 62
     5
 10
291.14494057690422
 20
-48.293708123954502
 30
0.0
 11
291.14389432006078
 21
-48.284059891190573
 31
0.0
  0
LINE
  8
DETAIL
  6
CONTINUOUS
 62
     5
 10
291.14389432006078
 20
-48.284059891190573
 30
0.0
 11
291.14389432006078
 21
-48.284059891190573
 31
0.0
  0
LINE
  8
DETAIL
  6
CONTINUOUS
 62
     5
 10
291.14389432006078
 20
-48.284059891190573
 30
0.0
 11
291.14278987548158
 21
-48.274415519342483
 31
0.0
  0
LINE
  8
DETAIL
  6
CONTINUOUS
 62
     5
 10
291.14278987548158
 20
-48.274415519342483
 30
0.0
 11
291.14163956707318
 21
-48.264774009972712
 31
0.0
  0
LINE
  8
DETAIL
  6
CONTINUOUS
 62
     5
 10
291.14163956707318
 20
-48.264774009972712
 30
0.0
 11
291.14163956707318
 21
-48.264774009972712
 31
0.0
  0
LINE
  8
DETAIL
  6
CONTINUOUS
 62
     5
 10
291.14163956707318
 20
-48.264774009972712
 30
0.0
 11
291.1404556685668
 21
-48.255133230029116
 31
0.0
  0
LINE
  8
DETAIL
  6
CONTINUOUS
 62
     5
 10
291.1404556685668
 20
-48.255133230029116
 30
0.0
 11
291.13925052715439
 21
-48.245492707651117
 31
0.0
  0
LINE
  8
DETAIL
  6
CONTINUOUS
 62
     5
 10
291.13925052715439
 20
-48.245492707651117
 30
0.0
 11
291.13925052715439
 21
-48.245492707651117
 31
0.0
  0
LINE
  8
DETAIL
  6
CONTINUOUS
 62
     5
 10
291.13925052715439
 20
-48.245492707651117
 30
0.0
 11
291.13803650347307
 21
-48.235852274997512
 31
0.0
  0
LINE
  8
DETAIL
  6
CONTINUOUS
 62
     5
 10
291.13803650347307
 20
-48.235852274997512
 30
0.0
 11
291.13682593847562
 21
-48.226211319112053
 31
0.0
  0
LINE
  8
DETAIL
  6
CONTINUOUS
 62
     5
 10
291.13682593847562
 20
-48.226211319112053
 30
0.0
 11
291.13682593847562
 21
-48.226211319112053
 31
0.0
  0
LINE
  8
DETAIL
  6
CONTINUOUS
 62
     5
 10
291.13682593847562
 20
-48.226211319112053
 30
0.0
 11
291.13563116951201
 21
-48.216569145576273
 31
0.0
  0
LINE
  8
DETAIL
  6
CONTINUOUS
 62
     5
 10
291.13563116951201
 20
-48.216569145576273
 30
0.0
 11
291.13446453920687
 21
-48.206925179240727
 31
0.0
  0
LINE
  8
DETAIL
  6
CONTINUOUS
 62
     5
 10
291.13446453920687
 20
-48.206925179240727
 30
0.0
 11
291.13446453920687
 21
-48.206925179240727
 31
0.0
  0
LINE
  8
DETAIL
  6
CONTINUOUS
 62
     5
 10
291.13446453920687
 20
-48.206925179240727
 30
0.0
 11
291.13333434296032
 21
-48.197279102194443
 31
0.0
  0
LINE
  8
DETAIL
  6
CONTINUOUS
 62
     5
 10
291.13333434296032
 20
-48.197279102194443
 30
0.0
 11
291.13223268199948
 21
-48.187631506213897
 31
0.0
  0
LINE
  8
DETAIL
  6
CONTINUOUS
 62
     5
 10
291.13223268199948
 20
-48.187631506213897
 30
0.0
 11
291.13223268199948
 21
-48.187631506213897
 31
0.0
  0
LINE
  8
DETAIL
  6
CONTINUOUS
 62
     5
 10
291.13223268199948
 20
-48.187631506213897
 30
0.0
 11
291.13114760910298
 21
-48.177983212638253
 31
0.0
  0
LINE
  8
DETAIL
  6
CONTINUOUS
 62
     5
 10
291.13114760910298
 20
-48.177983212638253
 30
0.0
 11
291.13006717742752
 21
-48.168335051369752
 31
0.0
  0
LINE
  8
DETAIL
  6
CONTINUOUS
 62
     5
 10
291.13006717742752
 20
-48.168335051369752
 30
0.0
 11
291.13006717742752
 21
-48.168335051369752
 31
0.0
  0
LINE
  8
DETAIL
  6
CONTINUOUS
 62
     5
 10
291.13006717742752
 20
-48.168335051369752
 30
0.0
 11
291.1289794401996
 21
-48.158687853877893
 31
0.0
  0
LINE
  8
DETAIL
  6
CONTINUOUS
 62
     5
 10
291.1289794401996
 20
-48.158687853877893
 30
0.0
 11
291.12787245054437
 21
-48.149042449337628
 31
0.0
  0
LINE
  8
DETAIL
  6
CONTINUOUS
 62
     5
 10
291.12787245054437
 20
-48.149042449337628
 30
0.0
 11
291.12787245054437
 21
-48.149042449337628
 31
0.0
  0
LINE
  8
DETAIL
  6
CONTINUOUS
 62
     5
 10
291.12787245054437
 20
-48.149042449337628
 30
0.0
 11
291.12673426156812
 21
-48.139399666503827
 31
0.0
  0
LINE
  8
DETAIL
  6
CONTINUOUS
 62
     5
 10
291.12673426156812
 20
-48.139399666503827
 30
0.0
 11
291.12555292640423
 21
-48.129760334746322
 31
0.0
  0
LINE
  8
DETAIL
  6
CONTINUOUS
 62
     5
 10
291.12555292640423
 20
-48.129760334746322
 30
0.0
 11
291.12555292640423
 21
-48.129760334746322
 31
0.0
  0
LINE
  8
DETAIL
  6
CONTINUOUS
 62
     5
 10
291.12555292640423
 20
-48.129760334746322
 30
0.0
 11
291.12431649819132
 21
-48.120125283547452
 31
0.0
  0
LINE
  8
DETAIL
  6
CONTINUOUS
 62
     5
 10
291.12431649819132
 20
-48.120125283547452
 30
0.0
 11
291.12301303006069
 21
-48.110495342224851
 31
0.0
  0
LINE
  8
DETAIL
  6
CONTINUOUS
 62
     5
 10
291.12301303006069
 20
-48.110495342224851
 30
0.0
 11
291.12301303006069
 21
-48.110495342224851
 31
0.0
  0
LINE
  8
DETAIL
  6
CONTINUOUS
 62
     5
 10
291.12301303006069
 20
-48.110495342224851
 30
0.0
 11
291.12163341071732
 21
-48.100871147726821
 31
0.0
  0
LINE
  8
DETAIL
  6
CONTINUOUS
 62
     5
 10
291.12163341071732
 20
-48.100871147726821
 30
0.0
 11
291.12017987116559
 21
-48.091252567689253
 31
0.0
  0
LINE
  8
DETAIL
  6
CONTINUOUS
 62
     5
 10
291.12017987116559
 20
-48.091252567689253
 30
0.0
 11
291.12017987116559
 21
-48.091252567689253
 31
0.0
  0
LINE
  8
DETAIL
  6
CONTINUOUS
 62
     5
 10
291.12017987116559
 20
-48.091252567689253
 30
0.0
 11
291.11865747798709
 21
-48.081639277416798
 31
0.0
  0
LINE
  8
DETAIL
  6
CONTINUOUS
 62
     5
 10
291.11865747798709
 20
-48.081639277416798
 30
0.0
 11
291.11707129775999
 21
-48.072030952202567
 31
0.0
  0
LINE
  8
DETAIL
  6
CONTINUOUS
 62
     5
 10
291.11707129775999
 20
-48.072030952202567
 30
0.0
 11
291.11707129775999
 21
-48.072030952202567
 31
0.0
  0
LINE
  8
DETAIL
  6
CONTINUOUS
 62
     5
 10
291.11707129775999
 20
-48.072030952202567
 30
0.0
 11
291.11542639706499
 21
-48.062427267337227
 31
0.0
  0
LINE
  8
DETAIL
  6
CONTINUOUS
 62
     5
 10
291.11542639706499
 20
-48.062427267337227
 30
0.0
 11
291.11372784248152
 21
-48.052827898114799
 31
0.0
  0
LINE
  8
DETAIL
  6
CONTINUOUS
 62
     5
 10
291.11372784248152
 20
-48.052827898114799
 30
0.0
 11
291.11372784248152
 21
-48.052827898114799
 31
0.0
  0
LINE
  8
DETAIL
  6
CONTINUOUS
 62
     5
 10
291.11372784248152
 20
-48.052827898114799
 30
0.0
 11
291.11198070058958
 21
-48.043232519829758
 31
0.0
  0
LINE
  8
DETAIL
  6
CONTINUOUS
 62
     5
 10
291.11198070058958
 20
-48.043232519829758
 30
0.0
 11
291.11019003796878
 21
-48.033640807775782
 31
0.0
  0
LINE
  8
DETAIL
  6
CONTINUOUS
 62
     5
 10
291.11019003796878
 20
-48.033640807775782
 30
0.0
 11
291.11019003796878
 21
-48.033640807775782
 31
0.0
  0
LINE
  8
DETAIL
  6
CONTINUOUS
 62
     5
 10
291.11019003796878
 20
-48.033640807775782
 30
0.0
 11
291.10836092119888
 21
-48.024052437246439
 31
0.0
  0
LINE
  8
DETAIL
  6
CONTINUOUS
 62
     5
 10
291.10836092119888
 20
-48.024052437246439
 30
0.0
 11
291.10649841685989
 21
-48.014467083535521
 31
0.0
  0
LINE
  8
DETAIL
  6
CONTINUOUS
 62
     5
 10
291.10649841685989
 20
-48.014467083535521
 30
0.0
 11
291.10649841685989
 21
-48.014467083535521
 31
0.0
  0
LINE
  8
DETAIL
  6
CONTINUOUS
 62
     5
 10
291.10649841685989
 20
-48.014467083535521
 30
0.0
 11
291.10460789207917
 21
-48.004884353515308
 31
0.0
  0
LINE
  8
DETAIL
  6
CONTINUOUS
 62
     5
 10
291.10460789207917
 20
-48.004884353515308
 30
0.0
 11
291.10269591617111
 21
-47.995303580371292
 31
0.0
  0
LINE
  8
DETAIL
  6
CONTINUOUS
 62
     5
 10
291.10269591617111
 20
-47.995303580371292
 30
0.0
 11
291.10269591617111
 21
-47.995303580371292
 31
0.0
  0
LINE
  8
DETAIL
  6
CONTINUOUS
 62
     5
 10
291.10269591617111
 20
-47.995303580371292
 30
0.0
 11
291.10076935899878
 21
-47.985724028867367
 31
0.0
  0
LINE
  8
DETAIL
  6
CONTINUOUS
 62
     5
 10
291.10076935899878
 20
-47.985724028867367
 30
0.0
 11
291.0988350904247
 21
-47.976144963767808
 31
0.0
  0
LINE
  8
DETAIL
  6
CONTINUOUS
 62
     5
 10
291.0988350904247
 20
-47.976144963767808
 30
0.0
 11
291.0988350904247
 21
-47.976144963767808
 31
0.0
  0
LINE
  8
DETAIL
  6
CONTINUOUS
 62
     5
 10
291.0988350904247
 20
-47.976144963767808
 30
0.0
 11
291.09689998031189
 21
-47.966565649836411
 31
0.0
  0
LINE
  8
DETAIL
  6
CONTINUOUS
 62
     5
 10
291.09689998031189
 20
-47.966565649836411
 30
0.0
 11
291.09497089852198
 21
-47.956985351837368
 31
0.0
  0
LINE
  8
DETAIL
  6
CONTINUOUS
 62
     5
 10
291.09497089852198
 20
-47.956985351837368
 30
0.0
 11
291.09497089852198
 21
-47.956985351837368
 31
0.0
  0
LINE
  8
DETAIL
  6
CONTINUOUS
 62
     5
 10
291.09497089852198
 20
-47.956985351837368
 30
0.0
 11
291.09305471491848
 21
-47.947403334534499
 31
0.0
  0
LINE
  8
DETAIL
  6
CONTINUOUS
 62
     5
 10
291.09305471491848
 20
-47.947403334534499
 30
0.0
 11
291.09115829936331
 21
-47.937818862691813
 31
0.0
  0
LINE
  8
DETAIL
  6
CONTINUOUS
 62
     5
 10
291.09115829936331
 20
-47.937818862691813
 30
0.0
 11
291.09115829936331
 21
-47.937818862691813
 31
0.0
  0
LINE
  8
DETAIL
  6
CONTINUOUS
 62
     5
 10
291.09115829936331
 20
-47.937818862691813
 30
0.0
 11
291.08928852171971
 21
-47.928231201073288
 31
0.0
  0
LINE
  8
DETAIL
  6
CONTINUOUS
 62
     5
 10
291.08928852171971
 20
-47.928231201073288
 30
0.0
 11
291.0874522518493
 21
-47.918639614443293
 31
0.0
  0
LINE
  8
DETAIL
  6
CONTINUOUS
 62
     5
 10
291.0874522518493
 20
-47.918639614443293
 30
0.0
 11
291.0874522518493
 21
-47.918639614443293
 31
0.0
  0
LINE
  8
DETAIL
  6
CONTINUOUS
 62
     5
 10
291.0874522518493
 20
-47.918639614443293
 30
0.0
 11
291.08565232185202
 21
-47.909043833590488
 31
0.0
  0
LINE
  8
DETAIL
  6
CONTINUOUS
 62
     5
 10
291.08565232185202
 20
-47.909043833590488
 30
0.0
 11
291.08387541277148
 21
-47.899445453404667
 31
0.0
  0
LINE
  8
DETAIL
  6
CONTINUOUS
 62
     5
 10
291.08387541277148
 20
-47.899445453404667
 30
0.0
 11
291.08387541277148
 21
-47.899445453404667
 31
0.0
  0
LINE
  8
DETAIL
  6
CONTINUOUS
 62
     5
 10
291.08387541277148
 20
-47.899445453404667
 30
0.0
 11
291.08210416788921
 21
-47.889846534800263
 31
0.0
  0
LINE
  8
DETAIL
  6
CONTINUOUS
 62
     5
 10
291.08210416788921
 20
-47.889846534800263
 30
0.0
 11
291.0803212304852
 21
-47.880249138691852
 31
0.0
  0
LINE
  8
DETAIL
  6
CONTINUOUS
 62
     5
 10
291.0803212304852
 20
-47.880249138691852
 30
0.0
 11
291.0803212304852
 21
-47.880249138691852
 31
0.0
  0
LINE
  8
DETAIL
  6
CONTINUOUS
 62
     5
 10
291.0803212304852
 20
-47.880249138691852
 30
0.0
 11
291.0785092438407
 21
-47.870655325994157
 31
0.0
  0
LINE
  8
DETAIL
  6
CONTINUOUS
 62
     5
 10
291.0785092438407
 20
-47.870655325994157
 30
0.0
 11
291.07665085123682
 21
-47.86106715762179
 31
0.0
  0
LINE
  8
DETAIL
  6
CONTINUOUS
 62
     5
 10
291.07665085123682
 20
-47.86106715762179
 30
0.0
 11
291.07665085123682
 21
-47.86106715762179
 31
0.0
  0
LINE
  8
DETAIL
  6
CONTINUOUS
 62
     5
 10
291.07665085123682
 20
-47.86106715762179
 30
0.0
 11
291.07472869595381
 21
-47.851486694489211
 31
0.0
  0
LINE
  8
DETAIL
  6
CONTINUOUS
 62
     5
 10
291.07472869595381
 20
-47.851486694489211
 30
0.0
 11
291.07272542127231
 21
-47.841915997510966
 31
0.0
  0
LINE
  8
DETAIL
  6
CONTINUOUS
 62
     5
 10
291.07272542127231
 20
-47.841915997510966
 30
0.0
 11
291.07272542127231
 21
-47.841915997510966
 31
0.0
  0
LINE
  8
DETAIL
  6
CONTINUOUS
 62
     5
 10
291.07272542127231
 20
-47.841915997510966
 30
0.0
 11
291.07062367047371
 21
-47.832357127601711
 31
0.0
  0
LINE
  8
DETAIL
  6
CONTINUOUS
 62
     5
 10
291.07062367047371
 20
-47.832357127601711
 30
0.0
 11
291.06840608683842
 21
-47.822812145676266
 31
0.0
  0
LINE
  8
DETAIL
  6
CONTINUOUS
 62
     5
 10
291.06840608683842
 20
-47.822812145676266
 30
0.0
 11
291.06840608683842
 21
-47.822812145676266
 31
0.0
  0
LINE
  8
DETAIL
  6
CONTINUOUS
 62
     5
 10
291.06840608683842
 20
-47.822812145676266
 30
0.0
 11
291.06606109734179
 21
-47.813282418962437
 31
0.0
  0
LINE
  8
DETAIL
  6
CONTINUOUS
 62
     5
 10
291.06606109734179
 20
-47.813282418962437
 30
0.0
 11
291.06360026373659
 21
-47.803766539941932
 31
0.0
  0
LINE
  8
DETAIL
  6
CONTINUOUS
 62
     5
 10
291.06360026373659
 20
-47.803766539941932
 30
0.0
 11
291.06360026373659
 21
-47.803766539941932
 31
0.0
  0
LINE
  8
DETAIL
  6
CONTINUOUS
 62
     5
 10
291.06360026373659
 20
-47.803766539941932
 30
0.0
 11
291.06104093147093
 21
-47.794262407409242
 31
0.0
  0
LINE
  8
DETAIL
  6
CONTINUOUS
 62
     5
 10
291.06104093147093
 20
-47.794262407409242
 30
0.0
 11
291.05840044599182
 21
-47.784767920159538
 31
0.0
  0
LINE
  8
DETAIL
  6
CONTINUOUS
 62
     5
 10
291.05840044599182
 20
-47.784767920159538
 30
0.0
 11
291.05840044599182
 21
-47.784767920159538
 31
0.0
  0
LINE
  8
DETAIL
  6
CONTINUOUS
 62
     5
 10
291.05840044599182
 20
-47.784767920159538
 30
0.0
 11
291.05569615274749
 21
-47.775280976987972
 31
0.0
  0
LINE
  8
DETAIL
  6
CONTINUOUS
 62
     5
 10
291.05569615274749
 20
-47.775280976987972
 30
0.0
 11
291.0529453971842
 21
-47.765799476689381
 31
0.0
  0
LINE
  8
DETAIL
  6
CONTINUOUS
 62
     5
 10
291.0529453971842
 20
-47.765799476689381
 30
0.0
 11
291.0529453971842
 21
-47.765799476689381
 31
0.0
  0
LINE
  8
DETAIL
  6
CONTINUOUS
 62
     5
 10
291.0529453971842
 20
-47.765799476689381
 30
0.0
 11
291.05016552475081
 21
-47.75632131805861
 31
0.0
  0
LINE
  8
DETAIL
  6
CONTINUOUS
 62
     5
 10
291.05016552475081
 20
-47.75632131805861
 30
0.0
 11
291.04737388089438
 21
-47.746844399890563
 31
0.0
  0
LINE
  8
DETAIL
  6
CONTINUOUS
 62
     5
 10
291.04737388089438
 20
-47.746844399890563
 30
0.0
 11
291.04737388089438
 21
-47.746844399890563
 31
0.0
  0
LINE
  8
DETAIL
  6
CONTINUOUS
 62
     5
 10
291.04737388089438
 20
-47.746844399890563
 30
0.0
 11
291.04458781106251
 21
-47.737366620980083
 31
0.0
  0
LINE
  8
DETAIL
  6
CONTINUOUS
 62
     5
 10
291.04458781106251
 20
-47.737366620980083
 30
0.0
 11
291.04182466070262
 21
-47.727885880122358
 31
0.0
  0
LINE
  8
DETAIL
  6
CONTINUOUS
 62
     5
 10
291.04182466070262
 20
-47.727885880122358
 30
0.0
 11
291.04182466070262
 21
-47.727885880122358
 31
0.0
  0
LINE
  8
DETAIL
  6
CONTINUOUS
 62
     5
 10
291.04182466070262
 20
-47.727885880122358
 30
0.0
 11
291.03909774876979
 21
-47.71840058242725
 31
0.0
  0
LINE
  8
DETAIL
  6
CONTINUOUS
 62
     5
 10
291.03909774876979
 20
-47.71840058242725
 30
0.0
 11
291.03640428825128
 21
-47.708911158264129
 31
0.0
  0
LINE
  8
DETAIL
  6
CONTINUOUS
 62
     5
 10
291.03640428825128
 20
-47.708911158264129
 30
0.0
 11
291.03640428825128
 21
-47.708911158264129
 31
0.0
  0
LINE
  8
DETAIL
  6
CONTINUOUS
 62
     5
 10
291.03640428825128
 20
-47.708911158264129
 30
0.0
 11
291.03373746564131
 21
-47.699418544317268
 31
0.0
  0
LINE
  8
DETAIL
  6
CONTINUOUS
 62
     5
 10
291.03373746564131
 20
-47.699418544317268
 30
0.0
 11
291.03109046743452
 21
-47.689923677271388
 31
0.0
  0
LINE
  8
DETAIL
  6
CONTINUOUS
 62
     5
 10
291.03109046743452
 20
-47.689923677271388
 30
0.0
 11
291.03109046743452
 21
-47.689923677271388
 31
0.0
  0
LINE
  8
DETAIL
  6
CONTINUOUS
 62
     5
 10
291.03109046743452
 20
-47.689923677271388
 30
0.0
 11
291.02845648012521
 21
-47.680427493810903
 31
0.0
  0
LINE
  8
DETAIL
  6
CONTINUOUS
 62
     5
 10
291.02845648012521
 20
-47.680427493810903
 30
0.0
 11
291.02582869020807
 21
-47.670930930620159
 31
0.0
  0
LINE
  8
DETAIL
  6
CONTINUOUS
 62
     5
 10
291.02582869020807
 20
-47.670930930620159
 30
0.0
 11
291.02582869020807
 21
-47.670930930620159
 31
0.0
  0
LINE
  8
DETAIL
  6
CONTINUOUS
 62
     5
 10
291.02582869020807
 20
-47.670930930620159
 30
0.0
 11
291.02320028417739
 21
-47.661434924383506
 31
0.0
  0
LINE
  8
DETAIL
  6
CONTINUOUS
 62
     5
 10
291.02320028417739
 20
-47.661434924383506
 30
0.0
 11
291.02056444852752
 21
-47.651940411785517
 31
0.0
  0
LINE
  8
DETAIL
  6
CONTINUOUS
 62
     5
 10
291.02056444852752
 20
-47.651940411785517
 30
0.0
 11
291.02056444852752
 21
-47.651940411785517
 31
0.0
  0
LINE
  8
DETAIL
  6
CONTINUOUS
 62
     5
 10
291.02056444852752
 20
-47.651940411785517
 30
0.0
 11
291.01791436975401
 21
-47.642448329510437
 31
0.0
  0
LINE
  8
DETAIL
  6
CONTINUOUS
 62
     5
 10
291.01791436975401
 20
-47.642448329510437
 30
0.0
 11
291.01524323434978
 21
-47.632959614243127
 31
0.0
  0
LINE
  8
DETAIL
  6
CONTINUOUS
 62
     5
 10
291.01524323434978
 20
-47.632959614243127
 30
0.0
 11
291.01524323434978
 21
-47.632959614243127
 31
0.0
  0
LINE
  8
DETAIL
  6
CONTINUOUS
 62
     5
 10
291.01524323434978
 20
-47.632959614243127
 30
0.0
 11
291.01254453170168
 21
-47.623475171374537
 31
0.0
  0
LINE
  8
DETAIL
  6
CONTINUOUS
 62
     5
 10
291.01254453170168
 20
-47.623475171374537
 30
0.0
 11
291.00981296275972
 21
-47.613995781124743
 31
0.0
  0
LINE
  8
DETAIL
  6
CONTINUOUS
 62
     5
 10
291.00981296275972
 20
-47.613995781124743
 30
0.0
 11
291.00981296275972
 21
-47.613995781124743
 31
0.0
  0
LINE
  8
DETAIL
  6
CONTINUOUS
 62
     5
 10
291.00981296275972
 20
-47.613995781124743
 30
0.0
 11
291.00704353136479
 21
-47.604522192419843
 31
0.0
  0
LINE
  8
DETAIL
  6
CONTINUOUS
 62
     5
 10
291.00704353136479
 20
-47.604522192419843
 30
0.0
 11
291.00423124135909
 21
-47.595055154186582
 31
0.0
  0
LINE
  8
DETAIL
  6
CONTINUOUS
 62
     5
 10
291.00423124135909
 20
-47.595055154186582
 30
0.0
 11
291.00423124135909
 21
-47.595055154186582
 31
0.0
  0
LINE
  8
DETAIL
  6
CONTINUOUS
 62
     5
 10
291.00423124135909
 20
-47.595055154186582
 30
0.0
 11
291.00137109658289
 21
-47.585595415351627
 31
0.0
  0
LINE
  8
DETAIL
  6
CONTINUOUS
 62
     5
 10
291.00137109658289
 20
-47.585595415351627
 30
0.0
 11
290.99845810087822
 21
-47.576143724842147
 31
0.0
  0
LINE
  8
DETAIL
  6
CONTINUOUS
 62
     5
 10
290.99845810087822
 20
-47.576143724842147
 30
0.0
 11
290.99845810087822
 21
-47.576143724842147
 31
0.0
  0
LINE
  8
DETAIL
  6
CONTINUOUS
 62
     5
 10
290.99845810087822
 20
-47.576143724842147
 30
0.0
 11
290.99548725808683
 21
-47.566700831584797
 31
0.0
  0
LINE
  8
DETAIL
  6
CONTINUOUS
 62
     5
 10
290.99548725808683
 20
-47.566700831584797
 30
0.0
 11
290.99245357204842
 21
-47.557267484503598
 31
0.0
  0
LINE
  8
DETAIL
  6
CONTINUOUS
 62
     5
 10
290.99245357204842
 20
-47.557267484503598
 30
0.0
 11
290.99245357204842
 21
-47.557267484503598
 31
0.0
  0
LINE
  8
DETAIL
  6
CONTINUOUS
 62
     5
 10
290.99245357204842
 20
-47.557267484503598
 30
0.0
 11
290.98935204660438
 21
-47.5478444325243
 31
0.0
  0
LINE
  8
DETAIL
  6
CONTINUOUS
 62
     5
 10
290.98935204660438
 20
-47.5478444325243
 30
0.0
 11
290.98617768560081
 21
-47.538432424584357
 31
0.0
  0
LINE
  8
DETAIL
  6
CONTINUOUS
 62
     5
 10
290.98617768560081
 20
-47.538432424584357
 30
0.0
 11
290.98617768560081
 21
-47.538432424584357
 31
0.0
  0
LINE
  8
DETAIL
  6
CONTINUOUS
 62
     5
 10
290.98617768560081
 20
-47.538432424584357
 30
0.0
 11
290.98292830780662
 21
-47.529031828469442
 31
0.0
  0
LINE
  8
DETAIL
  6
CONTINUOUS
 62
     5
 10
290.98292830780662
 20
-47.529031828469442
 30
0.0
 11
290.97961299168122
 21
-47.519641487348508
 31
0.0
  0
LINE
  8
DETAIL
  6
CONTINUOUS
 62
     5
 10
290.97961299168122
 20
-47.519641487348508
 30
0.0
 11
290.97961299168122
 21
-47.519641487348508
 31
0.0
  0
LINE
  8
DETAIL
  6
CONTINUOUS
 62
     5
 10
290.97961299168122
 20
-47.519641487348508
 30
0.0
 11
290.97624363062209
 21
-47.510259863275962
 31
0.0
  0
LINE
  8
DETAIL
  6
CONTINUOUS
 62
     5
 10
290.97624363062209
 20
-47.510259863275962
 30
0.0
 11
290.97283211809889
 21
-47.500885418465657
 31
0.0
  0
LINE
  8
DETAIL
  6
CONTINUOUS
 62
     5
 10
290.97283211809889
 20
-47.500885418465657
 30
0.0
 11
290.97283211809889
 21
-47.500885418465657
 31
0.0
  0
LINE
  8
DETAIL
  6
CONTINUOUS
 62
     5
 10
290.97283211809889
 20
-47.500885418465657
 30
0.0
 11
290.969390347532
 21
-47.491516615022817
 31
0.0
  0
LINE
  8
DETAIL
  6
CONTINUOUS
 62
     5
 10
290.969390347532
 20
-47.491516615022817
 30
0.0
 11
290.96593021207877
 21
-47.482151914457567
 31
0.0
  0
LINE
  8
DETAIL
  6
CONTINUOUS
 62
     5
 10
290.96593021207877
 20
-47.482151914457567
 30
0.0
 11
290.96593021207877
 21
-47.482151914457567
 31
0.0
  0
LINE
  8
DETAIL
  6
CONTINUOUS
 62
     5
 10
290.96593021207877
 20
-47.482151914457567
 30
0.0
 11
290.96246360507553
 21
-47.472789778686213
 31
0.0
  0
LINE
  8
DETAIL
  6
CONTINUOUS
 62
     5
 10
290.96246360507553
 20
-47.472789778686213
 30
0.0
 11
290.95900242084582
 21
-47.463428671845072
 31
0.0
  0
LINE
  8
DETAIL
  6
CONTINUOUS
 62
     5
 10
290.95900242084582
 20
-47.463428671845072
 30
0.0
 11
290.95900242084582
 21
-47.463428671845072
 31
0.0
  0
LINE
  8
DETAIL
  6
CONTINUOUS
 62
     5
 10
290.95900242084582
 20
-47.463428671845072
 30
0.0
 11
290.95555855303837
 21
-47.454067056554152
 31
0.0
  0
LINE
  8
DETAIL
  6
CONTINUOUS
 62
     5
 10
290.95555855303837
 20
-47.454067056554152
 30
0.0
 11
290.95214389162419
 21
-47.44470338714973
 31
0.0
  0
LINE
  8
DETAIL
  6
CONTINUOUS
 62
     5
 10
290.95214389162419
 20
-47.44470338714973
 30
0.0
 11
290.95214389162419
 21
-47.44470338714973
 31
0.0
  0
LINE
  8
DETAIL
  6
CONTINUOUS
 62
     5
 10
290.95214389162419
 20
-47.44470338714973
 30
0.0
 11
290.94876621885652
 21
-47.435336482264631
 31
0.0
  0
LINE
  8
DETAIL
  6
CONTINUOUS
 62
     5
 10
290.94876621885652
 20
-47.435336482264631
 30
0.0
 11
290.94541688979388
 21
-47.425966626005561
 31
0.0
  0
LINE
  8
DETAIL
  6
CONTINUOUS
 62
     5
 10
290.94541688979388
 20
-47.425966626005561
 30
0.0
 11
290.94541688979388
 21
-47.425966626005561
 31
0.0
  0
LINE
  8
DETAIL
  6
CONTINUOUS
 62
     5
 10
290.94541688979388
 20
-47.425966626005561
 30
0.0
 11
290.94208313988747
 21
-47.416594440001226
 31
0.0
  0
LINE
  8
DETAIL
  6
CONTINUOUS
 62
     5
 10
290.94208313988747
 20
-47.416594440001226
 30
0.0
 11
290.93875215334822
 21
-47.407220430497432
 31
0.0
  0
LINE
  8
DETAIL
  6
CONTINUOUS
 62
     5
 10
290.93875215334822
 20
-47.407220430497432
 30
0.0
 11
290.93875215334822
 21
-47.407220430497432
 31
0.0
  0
LINE
  8
DETAIL
  6
CONTINUOUS
 62
     5
 10
290.93875215334822
 20
-47.407220430497432
 30
0.0
 11
290.93541114938478
 21
-47.397845182547769
 31
0.0
  0
LINE
  8
DETAIL
  6
CONTINUOUS
 62
     5
 10
290.93541114938478
 20
-47.397845182547769
 30
0.0
 11
290.93204753843719
 21
-47.388469711823568
 31
0.0
  0
LINE
  8
DETAIL
  6
CONTINUOUS
 62
     5
 10
290.93204753843719
 20
-47.388469711823568
 30
0.0
 11
290.93204753843719
 21
-47.388469711823568
 31
0.0
  0
LINE
  8
DETAIL
  6
CONTINUOUS
 62
     5
 10
290.93204753843719
 20
-47.388469711823568
 30
0.0
 11
290.92864860033109
 21
-47.379094739878838
 31
0.0
  0
LINE
  8
DETAIL
  6
CONTINUOUS
 62
     5
 10
290.92864860033109
 20
-47.379094739878838
 30
0.0
 11
290.9252009012082
 21
-47.369719381181483
 31
0.0
  0
LINE
  8
DETAIL
  6
CONTINUOUS
 62
     5
 10
290.9252009012082
 20
-47.369719381181483
 30
0.0
 11
290.9252009012082
 21
-47.369719381181483
 31
0.0
  0
LINE
  8
DETAIL
  6
CONTINUOUS
 62
     5
 10
290.9252009012082
 20
-47.369719381181483
 30
0.0
 11
290.92169149466582
 21
-47.360343847859838
 31
0.0
  0
LINE
  8
DETAIL
  6
CONTINUOUS
 62
     5
 10
290.92169149466582
 20
-47.360343847859838
 30
0.0
 11
290.91811009781122
 21
-47.350974349769388
 31
0.0
  0
LINE
  8
DETAIL
  6
CONTINUOUS
 62
     5
 10
290.91811009781122
 20
-47.350974349769388
 30
0.0
 11
290.91811009781122
 21
-47.350974349769388
 31
0.0
  0
LINE
  8
DETAIL
  6
CONTINUOUS
 62
     5
 10
290.91811009781122
 20
-47.350974349769388
 30
0.0
 11
290.91444793495322
 21
-47.341612858194139
 31
0.0
  0
LINE
  8
DETAIL
  6
CONTINUOUS
 62
     5
 10
290.91444793495322
 20
-47.341612858194139
 30
0.0
 11
290.91069959569973
 21
-47.332238392405493
 31
0.0
  0
LINE
  8
DETAIL
  6
CONTINUOUS
 62
     5
 10
290.91069959569973
 20
-47.332238392405493
 30
0.0
 11
290.91069959569973
 21
-47.332238392405493
 31
0.0
  0
LINE
  8
DETAIL
  6
CONTINUOUS
 62
     5
 10
290.91069959569973
 20
-47.332238392405493
 30
0.0
 11
290.90686978545978
 21
-47.322845118062901
 31
0.0
  0
LINE
  8
DETAIL
  6
CONTINUOUS
 62
     5
 10
290.90686978545978
 20
-47.322845118062901
 30
0.0
 11
290.90300030755202
 21
-47.313510738391358
 31
0.0
  0
LINE
  8
DETAIL
  6
CONTINUOUS
 62
     5
 10
290.90300030755202
 20
-47.313510738391358
 30
0.0
 11
290.90300030755202
 21
-47.313510738391358
 31
0.0
  0
LINE
  8
DETAIL
  6
CONTINUOUS
 62
     5
 10
290.90300030755202
 20
-47.313510738391358
 30
0.0
 11
290.89910762695217
 21
-47.304255899397049
 31
0.0
  0
LINE
  8
DETAIL
  6
CONTINUOUS
 62
     5
 10
290.89910762695217
 20
-47.304255899397049
 30
0.0
 11
290.89506975735122
 21
-47.294789480649293
 31
0.0
  0
LINE
  8
DETAIL
  6
CONTINUOUS
 62
     5
 10
290.89506975735122
 20
-47.294789480649293
 30
0.0
 11
290.89506975735122
 21
-47.294789480649293
 31
0.0
  0
LINE
  8
DETAIL
  6
CONTINUOUS
 62
     5
 10
290.89506975735122
 20
-47.294789480649293
 30
0.0
 11
290.89085927642577
 21
-47.285033302153522
 31
0.0
  0
LINE
  8
DETAIL
  6
CONTINUOUS
 62
     5
 10
290.89085927642577
 20
-47.285033302153522
 30
0.0
 11
290.88696546907983
 21
-47.276072712101268
 31
0.0
  0
LINE
  8
DETAIL
  6
CONTINUOUS
 62
     5
 10
290.88696546907983
 20
-47.276072712101268
 30
0.0
 11
290.88696546907983
 21
-47.276072712101268
 31
0.0
  0
LINE
  8
DETAIL
  6
CONTINUOUS
 62
     5
 10
290.88696546907983
 20
-47.276072712101268
 30
0.0
 11
290.88352470261731
 21
-47.268198354154208
 31
0.0
  0
LINE
  8
DETAIL
  6
CONTINUOUS
 62
     5
 10
290.88352470261731
 20
-47.268198354154208
 30
0.0
 11
290.8787449667218
 21
-47.257358525669531
 31
0.0
  0
LINE
  8
DETAIL
  6
CONTINUOUS
 62
     5
 10
290.8787449667218
 20
-47.257358525669531
 30
0.0
 11
290.8787449667218
 21
-47.257358525669531
 31
0.0
  0
LINE
  8
DETAIL
  6
CONTINUOUS
 62
     5
 10
290.8787449667218
 20
-47.257358525669531
 30
0.0
 11
290.87110819258533
 21
-47.240128359727009
 31
0.0
  0
LINE
  8
DETAIL
  6
CONTINUOUS
 62
     5
 10
290.87110819258533
 20
-47.240128359727009
 30
0.0
 11
290.86212045505641
 21
-47.219932678602788
 31
0.0
  0
LINE
  8
DETAIL
  6
CONTINUOUS
 62
     5
 10
290.86212045505641
 20
-47.219932678602788
 30
0.0
 11
290.86212045505641
 21
-47.219932678602788
 31
0.0
  0
LINE
  8
DETAIL
  6
CONTINUOUS
 62
     5
 10
290.86212045505641
 20
-47.219932678602788
 30
0.0
 11
290.85356774967789
 21
-47.200823098435592
 31
0.0
  0
LINE
  8
DETAIL
  6
CONTINUOUS
 62
     5
 10
290.85356774967789
 20
-47.200823098435592
 30
0.0
 11
290.84533161111472
 21
-47.182508721622639
 31
0.0
  0
LINE
  8
DETAIL
  6
CONTINUOUS
 62
     5
 10
290.84533161111472
 20
-47.182508721622639
 30
0.0
 11
290.84533161111472
 21
-47.182508721622639
 31
0.0
  0
LINE
  8
DETAIL
  6
CONTINUOUS
 62
     5
 10
290.84533161111472
 20
-47.182508721622639
 30
0.0
 11
290.83694472766388
 21
-47.163903818469812
 31
0.0
  0
LINE
  8
DETAIL
  6
CONTINUOUS
 62
     5
 10
290.83694472766388
 20
-47.163903818469812
 30
0.0
 11
290.82844886303519
 21
-47.145085844662333
 31
0.0
  0
LINE
  8
DETAIL
  6
CONTINUOUS
 62
     5
 10
290.82844886303519
 20
-47.145085844662333
 30
0.0
 11
290.82844886303519
 21
-47.145085844662333
 31
0.0
  0
LINE
  8
DETAIL
  6
CONTINUOUS
 62
     5
 10
290.82844886303519
 20
-47.145085844662333
 30
0.0
 11
290.81998008959772
 21
-47.1263454952865
 31
0.0
  0
LINE
  8
DETAIL
  6
CONTINUOUS
 62
     5
 10
290.81998008959772
 20
-47.1263454952865
 30
0.0
 11
290.81154263895542
 21
-47.107663237655061
 31
0.0
  0
LINE
  8
DETAIL
  6
CONTINUOUS
 62
     5
 10
290.81154263895542
 20
-47.107663237655061
 30
0.0
 11
290.81154263895542
 21
-47.107663237655061
 31
0.0
  0
LINE
  8
DETAIL
  6
CONTINUOUS
 62
     5
 10
290.81154263895542
 20
-47.107663237655061
 30
0.0
 11
290.8031123544331
 21
-47.088961413566039
 31
0.0
  0
LINE
  8
DETAIL
  6
CONTINUOUS
 62
     5
 10
290.8031123544331
 20
-47.088961413566039
 30
0.0
 11
290.79468336701439
 21
-47.070240090533787
 31
0.0
  0
LINE
  8
DETAIL
  6
CONTINUOUS
 62
     5
 10
291.15992292870868
 20
-48.593448940269703
 30
0.0
 11
291.15917584735797
 21
-48.612805902658813
 31
0.0
  0
LINE
  8
DETAIL
  6
CONTINUOUS
 62
     5
 10
291.15917584735797
 20
-48.612805902658813
 30
0.0
 11
291.15843905874158
 21
-48.632143172524309
 31
0.0
  0
LINE
  8
DETAIL
  6
CONTINUOUS
 62
     5
 10
291.15843905874158
 20
-48.632143172524309
 30
0.0
 11
291.15843905874158
 21
-48.632143172524309
 31
0.0
  0
LINE
  8
DETAIL
  6
CONTINUOUS
 62
     5
 10
291.15843905874158
 20
-48.632143172524309
 30
0.0
 11
291.15771813616931
 21
-48.651460954338177
 31
0.0
  0
LINE
  8
DETAIL
  6
CONTINUOUS
 62
     5
 10
291.15771813616931
 20
-48.651460954338177
 30
0.0
 11
291.15699977525168
 21
-48.670839040555052
 31
0.0
  0
LINE
  8
DETAIL
  6
CONTINUOUS
 62
     5
 10
291.15699977525168
 20
-48.670839040555052
 30
0.0
 11
291.15699977525168
 21
-48.670839040555052
 31
0.0
  0
LINE
  8
DETAIL
  6
CONTINUOUS
 62
     5
 10
291.15699977525168
 20
-48.670839040555052
 30
0.0
 11
291.15627089658602
 21
-48.690297021471387
 31
0.0
  0
LINE
  8
DETAIL
  6
CONTINUOUS
 62
     5
 10
291.15627089658602
 20
-48.690297021471387
 30
0.0
 11
291.15553819841062
 21
-48.709534090767143
 31
0.0
  0
LINE
  8
DETAIL
  6
CONTINUOUS
 62
     5
 10
291.15553819841062
 20
-48.709534090767143
 30
0.0
 11
291.15553819841062
 21
-48.709534090767143
 31
0.0
  0
LINE
  8
DETAIL
  6
CONTINUOUS
 62
     5
 10
291.15553819841062
 20
-48.709534090767143
 30
0.0
 11
291.15479826515661
 21
-48.728469842589107
 31
0.0
  0
LINE
  8
DETAIL
  6
CONTINUOUS
 62
     5
 10
291.15479826515661
 20
-48.728469842589107
 30
0.0
 11
291.15398744838899
 21
-48.748225869565943
 31
0.0
  0
LINE
  8
DETAIL
  6
CONTINUOUS
 62
     5
 10
291.15398744838899
 20
-48.748225869565943
 30
0.0
 11
291.15398744838899
 21
-48.748225869565943
 31
0.0
  0
LINE
  8
DETAIL
  6
CONTINUOUS
 62
     5
 10
291.15398744838899
 20
-48.748225869565943
 30
0.0
 11
291.15308232991168
 21
-48.769102364618902
 31
0.0
  0
LINE
  8
DETAIL
  6
CONTINUOUS
 62
     5
 10
291.15308232991168
 20
-48.769102364618902
 30
0.0
 11
291.15228064535791
 21
-48.786911923356911
 31
0.0
  0
LINE
  8
DETAIL
  6
CONTINUOUS
 62
     5
 10
291.15228064535791
 20
-48.786911923356911
 30
0.0
 11
291.15228064535791
 21
-48.786911923356911
 31
0.0
  0
LINE
  8
DETAIL
  6
CONTINUOUS
 62
     5
 10
291.15228064535791
 20
-48.786911923356911
 30
0.0
 11
291.15175296156281
 21
-48.7981150764669
 31
0.0
  0
LINE
  8
DETAIL
  6
CONTINUOUS
 62
     5
 10
291.15175296156281
 20
-48.7981150764669
 30
0.0
 11
291.15134001634488
 21
-48.806251692260098
 31
0.0
  0
LINE
  8
DETAIL
  6
CONTINUOUS
 62
     5
 10
291.15134001634488
 20
-48.806251692260098
 30
0.0
 11
291.15134001634488
 21
-48.806251692260098
 31
0.0
  0
LINE
  8
DETAIL
  6
CONTINUOUS
 62
     5
 10
291.15134001634488
 20
-48.806251692260098
 30
0.0
 11
291.15084971329429
 21
-48.815509338560616
 31
0.0
  0
LINE
  8
DETAIL
  6
CONTINUOUS
 62
     5
 10
291.15084971329429
 20
-48.815509338560616
 30
0.0
 11
291.1502884481099
 21
-48.825587043617872
 31
0.0
  0
LINE
  8
DETAIL
  6
CONTINUOUS
 62
     5
 10
291.1502884481099
 20
-48.825587043617872
 30
0.0
 11
291.1502884481099
 21
-48.825587043617872
 31
0.0
  0
LINE
  8
DETAIL
  6
CONTINUOUS
 62
     5
 10
291.1502884481099
 20
-48.825587043617872
 30
0.0
 11
291.14969894306682
 21
-48.835362375926543
 31
0.0
  0
LINE
  8
DETAIL
  6
CONTINUOUS
 62
     5
 10
291.14969894306682
 20
-48.835362375926543
 30
0.0
 11
291.14907073464002
 21
-48.844915604535288
 31
0.0
  0
LINE
  8
DETAIL
  6
CONTINUOUS
 62
     5
 10
291.14907073464002
 20
-48.844915604535288
 30
0.0
 11
291.14907073464002
 21
-48.844915604535288
 31
0.0
  0
LINE
  8
DETAIL
  6
CONTINUOUS
 62
     5
 10
291.14907073464002
 20
-48.844915604535288
 30
0.0
 11
291.14838362562853
 21
-48.854547107970632
 31
0.0
  0
LINE
  8
DETAIL
  6
CONTINUOUS
 62
     5
 10
291.14838362562853
 20
-48.854547107970632
 30
0.0
 11
291.14763166992321
 21
-48.864235002117368
 31
0.0
  0
LINE
  8
DETAIL
  6
CONTINUOUS
 62
     5
 10
291.14763166992321
 20
-48.864235002117368
 30
0.0
 11
291.14763166992321
 21
-48.864235002117368
 31
0.0
  0
LINE
  8
DETAIL
  6
CONTINUOUS
 62
     5
 10
291.14763166992321
 20
-48.864235002117368
 30
0.0
 11
291.14681152954449
 21
-48.873898424702759
 31
0.0
  0
LINE
  8
DETAIL
  6
CONTINUOUS
 62
     5
 10
291.14681152954449
 20
-48.873898424702759
 30
0.0
 11
291.14591604794617
 21
-48.883542863469422
 31
0.0
  0
LINE
  8
DETAIL
  6
CONTINUOUS
 62
     5
 10
291.14591604794617
 20
-48.883542863469422
 30
0.0
 11
291.14591604794617
 21
-48.883542863469422
 31
0.0
  0
LINE
  8
DETAIL
  6
CONTINUOUS
 62
     5
 10
291.14591604794617
 20
-48.883542863469422
 30
0.0
 11
291.14494057690422
 21
-48.893189755934088
 31
0.0
  0
LINE
  8
DETAIL
  6
CONTINUOUS
 62
     5
 10
291.14494057690422
 20
-48.893189755934088
 30
0.0
 11
291.14389432006078
 21
-48.902837988698138
 31
0.0
  0
LINE
  8
DETAIL
  6
CONTINUOUS
 62
     5
 10
291.14389432006078
 20
-48.902837988698138
 30
0.0
 11
291.14389432006078
 21
-48.902837988698138
 31
0.0
  0
LINE
  8
DETAIL
  6
CONTINUOUS
 62
     5
 10
291.14389432006078
 20
-48.902837988698138
 30
0.0
 11
291.14278987548158
 21
-48.912482360546392
 31
0.0
  0
LINE
  8
DETAIL
  6
CONTINUOUS
 62
     5
 10
291.14278987548158
 20
-48.912482360546392
 30
0.0
 11
291.14163956707318
 21
-48.922123869916163
 31
0.0
  0
LINE
  8
DETAIL
  6
CONTINUOUS
 62
     5
 10
291.14163956707318
 20
-48.922123869916163
 30
0.0
 11
291.14163956707318
 21
-48.922123869916163
 31
0.0
  0
LINE
  8
DETAIL
  6
CONTINUOUS
 62
     5
 10
291.14163956707318
 20
-48.922123869916163
 30
0.0
 11
291.1404556685668
 21
-48.931764649859758
 31
0.0
  0
LINE
  8
DETAIL
  6
CONTINUOUS
 62
     5
 10
291.1404556685668
 20
-48.931764649859758
 30
0.0
 11
291.13925052715439
 21
-48.941405172237637
 31
0.0
  0
LINE
  8
DETAIL
  6
CONTINUOUS
 62
     5
 10
291.13925052715439
 20
-48.941405172237637
 30
0.0
 11
291.13925052715439
 21
-48.941405172237637
 31
0.0
  0
LINE
  8
DETAIL
  6
CONTINUOUS
 62
     5
 10
291.13925052715439
 20
-48.941405172237637
 30
0.0
 11
291.13803650347307
 21
-48.951045604891249
 31
0.0
  0
LINE
  8
DETAIL
  6
CONTINUOUS
 62
     5
 10
291.13803650347307
 20
-48.951045604891249
 30
0.0
 11
291.13682593847562
 21
-48.960686560776878
 31
0.0
  0
LINE
  8
DETAIL
  6
CONTINUOUS
 62
     5
 10
291.13682593847562
 20
-48.960686560776878
 30
0.0
 11
291.13682593847562
 21
-48.960686560776878
 31
0.0
  0
LINE
  8
DETAIL
  6
CONTINUOUS
 62
     5
 10
291.13682593847562
 20
-48.960686560776878
 30
0.0
 11
291.13563116951201
 21
-48.970328734312552
 31
0.0
  0
LINE
  8
DETAIL
  6
CONTINUOUS
 62
     5
 10
291.13563116951201
 20
-48.970328734312552
 30
0.0
 11
291.13446453920687
 21
-48.979972700648027
 31
0.0
  0
LINE
  8
DETAIL
  6
CONTINUOUS
 62
     5
 10
291.13446453920687
 20
-48.979972700648027
 30
0.0
 11
291.13446453920687
 21
-48.979972700648027
 31
0.0
  0
LINE
  8
DETAIL
  6
CONTINUOUS
 62
     5
 10
291.13446453920687
 20
-48.979972700648027
 30
0.0
 11
291.13333434296032
 21
-48.989618777694318
 31
0.0
  0
LINE
  8
DETAIL
  6
CONTINUOUS
 62
     5
 10
291.13333434296032
 20
-48.989618777694318
 30
0.0
 11
291.13223268199948
 21
-48.999266373674971
 31
0.0
  0
LINE
  8
DETAIL
  6
CONTINUOUS
 62
     5
 10
291.13223268199948
 20
-48.999266373674971
 30
0.0
 11
291.13223268199948
 21
-48.999266373674971
 31
0.0
  0
LINE
  8
DETAIL
  6
CONTINUOUS
 62
     5
 10
291.13223268199948
 20
-48.999266373674971
 30
0.0
 11
291.13114760910298
 21
-49.008914667250508
 31
0.0
  0
LINE
  8
DETAIL
  6
CONTINUOUS
 62
     5
 10
291.13114760910298
 20
-49.008914667250508
 30
0.0
 11
291.13006717742752
 21
-49.018562828519073
 31
0.0
  0
LINE
  8
DETAIL
  6
CONTINUOUS
 62
     5
 10
291.13006717742752
 20
-49.018562828519073
 30
0.0
 11
291.13006717742752
 21
-49.018562828519073
 31
0.0
  0
LINE
  8
DETAIL
  6
CONTINUOUS
 62
     5
 10
291.13006717742752
 20
-49.018562828519073
 30
0.0
 11
291.1289794401996
 21
-49.028210026010811
 31
0.0
  0
LINE
  8
DETAIL
  6
CONTINUOUS
 62
     5
 10
291.1289794401996
 20
-49.028210026010811
 30
0.0
 11
291.12787245054437
 21
-49.037855430551247
 31
0.0
  0
LINE
  8
DETAIL
  6
CONTINUOUS
 62
     5
 10
291.12787245054437
 20
-49.037855430551247
 30
0.0
 11
291.12787245054437
 21
-49.037855430551247
 31
0.0
  0
LINE
  8
DETAIL
  6
CONTINUOUS
 62
     5
 10
291.12787245054437
 20
-49.037855430551247
 30
0.0
 11
291.12673426156812
 21
-49.047498213385097
 31
0.0
  0
LINE
  8
DETAIL
  6
CONTINUOUS
 62
     5
 10
291.12673426156812
 20
-49.047498213385097
 30
0.0
 11
291.12555292640423
 21
-49.057137545142609
 31
0.0
  0
LINE
  8
DETAIL
  6
CONTINUOUS
 62
     5
 10
291.12555292640423
 20
-49.057137545142609
 30
0.0
 11
291.12555292640423
 21
-49.057137545142609
 31
0.0
  0
LINE
  8
DETAIL
  6
CONTINUOUS
 62
     5
 10
291.12555292640423
 20
-49.057137545142609
 30
0.0
 11
291.12431649819132
 21
-49.066772596341309
 31
0.0
  0
LINE
  8
DETAIL
  6
CONTINUOUS
 62
     5
 10
291.12431649819132
 20
-49.066772596341309
 30
0.0
 11
291.12301303006069
 21
-49.07640253766391
 31
0.0
  0
LINE
  8
DETAIL
  6
CONTINUOUS
 62
     5
 10
291.12301303006069
 20
-49.07640253766391
 30
0.0
 11
291.12301303006069
 21
-49.07640253766391
 31
0.0
  0
LINE
  8
DETAIL
  6
CONTINUOUS
 62
     5
 10
291.12301303006069
 20
-49.07640253766391
 30
0.0
 11
291.12163341071732
 21
-49.086026732161997
 31
0.0
  0
LINE
  8
DETAIL
  6
CONTINUOUS
 62
     5
 10
291.12163341071732
 20
-49.086026732161997
 30
0.0
 11
291.12017987116559
 21
-49.095645312199679
 31
0.0
  0
LINE
  8
DETAIL
  6
CONTINUOUS
 62
     5
 10
291.12017987116559
 20
-49.095645312199679
 30
0.0
 11
291.12017987116559
 21
-49.095645312199679
 31
0.0
  0
LINE
  8
DETAIL
  6
CONTINUOUS
 62
     5
 10
291.12017987116559
 20
-49.095645312199679
 30
0.0
 11
291.11865747798709
 21
-49.105258602471963
 31
0.0
  0
LINE
  8
DETAIL
  6
CONTINUOUS
 62
     5
 10
291.11865747798709
 20
-49.105258602471963
 30
0.0
 11
291.11707129775999
 21
-49.114866927686251
 31
0.0
  0
LINE
  8
DETAIL
  6
CONTINUOUS
 62
     5
 10
291.11707129775999
 20
-49.114866927686251
 30
0.0
 11
291.11707129775999
 21
-49.114866927686251
 31
0.0
  0
LINE
  8
DETAIL
  6
CONTINUOUS
 62
     5
 10
291.11707129775999
 20
-49.114866927686251
 30
0.0
 11
291.11542639706499
 21
-49.124470612551647
 31
0.0
  0
LINE
  8
DETAIL
  6
CONTINUOUS
 62
     5
 10
291.11542639706499
 20
-49.124470612551647
 30
0.0
 11
291.11372784248152
 21
-49.134069981774253
 31
0.0
  0
LINE
  8
DETAIL
  6
CONTINUOUS
 62
     5
 10
291.11372784248152
 20
-49.134069981774253
 30
0.0
 11
291.11372784248152
 21
-49.134069981774253
 31
0.0
  0
LINE
  8
DETAIL
  6
CONTINUOUS
 62
     5
 10
291.11372784248152
 20
-49.134069981774253
 30
0.0
 11
291.11198070058958
 21
-49.143665360059288
 31
0.0
  0
LINE
  8
DETAIL
  6
CONTINUOUS
 62
     5
 10
291.11198070058958
 20
-49.143665360059288
 30
0.0
 11
291.11019003796878
 21
-49.153257072113149
 31
0.0
  0
LINE
  8
DETAIL
  6
CONTINUOUS
 62
     5
 10
291.11019003796878
 20
-49.153257072113149
 30
0.0
 11
291.11019003796878
 21
-49.153257072113149
 31
0.0
  0
LINE
  8
DETAIL
  6
CONTINUOUS
 62
     5
 10
291.11019003796878
 20
-49.153257072113149
 30
0.0
 11
291.10836092119888
 21
-49.162845442642258
 31
0.0
  0
LINE
  8
DETAIL
  6
CONTINUOUS
 62
     5
 10
291.10836092119888
 20
-49.162845442642258
 30
0.0
 11
291.10649841685989
 21
-49.172430796353133
 31
0.0
  0
LINE
  8
DETAIL
  6
CONTINUOUS
 62
     5
 10
291.10649841685989
 20
-49.172430796353133
 30
0.0
 11
291.10649841685989
 21
-49.172430796353133
 31
0.0
  0
LINE
  8
DETAIL
  6
CONTINUOUS
 62
     5
 10
291.10649841685989
 20
-49.172430796353133
 30
0.0
 11
291.10460789207917
 21
-49.182013526373339
 31
0.0
  0
LINE
  8
DETAIL
  6
CONTINUOUS
 62
     5
 10
291.10460789207917
 20
-49.182013526373339
 30
0.0
 11
291.10269591617111
 21
-49.191594299517533
 31
0.0
  0
LINE
  8
DETAIL
  6
CONTINUOUS
 62
     5
 10
291.10269591617111
 20
-49.191594299517533
 30
0.0
 11
291.10269591617111
 21
-49.191594299517533
 31
0.0
  0
LINE
  8
DETAIL
  6
CONTINUOUS
 62
     5
 10
291.10269591617111
 20
-49.191594299517533
 30
0.0
 11
291.10076935899878
 21
-49.201173851021281
 31
0.0
  0
LINE
  8
DETAIL
  6
CONTINUOUS
 62
     5
 10
291.10076935899878
 20
-49.201173851021281
 30
0.0
 11
291.0988350904247
 21
-49.210752916120953
 31
0.0
  0
LINE
  8
DETAIL
  6
CONTINUOUS
 62
     5
 10
291.0988350904247
 20
-49.210752916120953
 30
0.0
 11
291.0988350904247
 21
-49.210752916120953
 31
0.0
  0
LINE
  8
DETAIL
  6
CONTINUOUS
 62
     5
 10
291.0988350904247
 20
-49.210752916120953
 30
0.0
 11
291.09689998031189
 21
-49.220332230052293
 31
0.0
  0
LINE
  8
DETAIL
  6
CONTINUOUS
 62
     5
 10
291.09689998031189
 20
-49.220332230052293
 30
0.0
 11
291.09497089852198
 21
-49.229912528051443
 31
0.0
  0
LINE
  8
DETAIL
  6
CONTINUOUS
 62
     5
 10
291.09497089852198
 20
-49.229912528051443
 30
0.0
 11
291.09497089852198
 21
-49.229912528051443
 31
0.0
  0
LINE
  8
DETAIL
  6
CONTINUOUS
 62
     5
 10
291.09497089852198
 20
-49.229912528051443
 30
0.0
 11
291.09305471491848
 21
-49.239494545354262
 31
0.0
  0
LINE
  8
DETAIL
  6
CONTINUOUS
 62
     5
 10
291.09305471491848
 20
-49.239494545354262
 30
0.0
 11
291.09115829936331
 21
-49.249079017196948
 31
0.0
  0
LINE
  8
DETAIL
  6
CONTINUOUS
 62
     5
 10
291.09115829936331
 20
-49.249079017196948
 30
0.0
 11
291.09115829936331
 21
-49.249079017196948
 31
0.0
  0
LINE
  8
DETAIL
  6
CONTINUOUS
 62
     5
 10
291.09115829936331
 20
-49.249079017196948
 30
0.0
 11
291.08928852171971
 21
-49.258666678815189
 31
0.0
  0
LINE
  8
DETAIL
  6
CONTINUOUS
 62
     5
 10
291.08928852171971
 20
-49.258666678815189
 30
0.0
 11
291.0874522518493
 21
-49.268258265445411
 31
0.0
  0
LINE
  8
DETAIL
  6
CONTINUOUS
 62
     5
 10
291.0874522518493
 20
-49.268258265445411
 30
0.0
 11
291.0874522518493
 21
-49.268258265445411
 31
0.0
  0
LINE
  8
DETAIL
  6
CONTINUOUS
 62
     5
 10
291.0874522518493
 20
-49.268258265445411
 30
0.0
 11
291.08565232185202
 21
-49.277854046298273
 31
0.0
  0
LINE
  8
DETAIL
  6
CONTINUOUS
 62
     5
 10
291.08565232185202
 20
-49.277854046298273
 30
0.0
 11
291.08387541277148
 21
-49.287452426484997
 31
0.0
  0
LINE
  8
DETAIL
  6
CONTINUOUS
 62
     5
 10
291.08387541277148
 20
-49.287452426484997
 30
0.0
 11
291.08387541277148
 21
-49.287452426484997
 31
0.0
  0
LINE
  8
DETAIL
  6
CONTINUOUS
 62
     5
 10
291.08387541277148
 20
-49.287452426484997
 30
0.0
 11
291.08210416788921
 21
-49.297051345091347
 31
0.0
  0
LINE
  8
DETAIL
  6
CONTINUOUS
 62
     5
 10
291.08210416788921
 20
-49.297051345091347
 30
0.0
 11
291.0803212304852
 21
-49.306648741203787
 31
0.0
  0
LINE
  8
DETAIL
  6
CONTINUOUS
 62
     5
 10
291.0803212304852
 20
-49.306648741203787
 30
0.0
 11
291.0803212304852
 21
-49.306648741203787
 31
0.0
  0
LINE
  8
DETAIL
  6
CONTINUOUS
 62
     5
 10
291.0803212304852
 20
-49.306648741203787
 30
0.0
 11
291.0785092438407
 21
-49.316242553908182
 31
0.0
  0
LINE
  8
DETAIL
  6
CONTINUOUS
 62
     5
 10
291.0785092438407
 20
-49.316242553908182
 30
0.0
 11
291.07665085123682
 21
-49.325830722290618
 31
0.0
  0
LINE
  8
DETAIL
  6
CONTINUOUS
 62
     5
 10
291.07665085123682
 20
-49.325830722290618
 30
0.0
 11
291.07665085123682
 21
-49.325830722290618
 31
0.0
  0
LINE
  8
DETAIL
  6
CONTINUOUS
 62
     5
 10
291.07665085123682
 20
-49.325830722290618
 30
0.0
 11
291.07472869595381
 21
-49.335411185436897
 31
0.0
  0
LINE
  8
DETAIL
  6
CONTINUOUS
 62
     5
 10
291.07472869595381
 20
-49.335411185436897
 30
0.0
 11
291.07272542127231
 21
-49.344981882433387
 31
0.0
  0
LINE
  8
DETAIL
  6
CONTINUOUS
 62
     5
 10
291.07272542127231
 20
-49.344981882433387
 30
0.0
 11
291.07272542127231
 21
-49.344981882433387
 31
0.0
  0
LINE
  8
DETAIL
  6
CONTINUOUS
 62
     5
 10
291.07272542127231
 20
-49.344981882433387
 30
0.0
 11
291.07062367047371
 21
-49.354540752365843
 31
0.0
  0
LINE
  8
DETAIL
  6
CONTINUOUS
 62
     5
 10
291.07062367047371
 20
-49.354540752365843
 30
0.0
 11
291.06840608683842
 21
-49.364085734320781
 31
0.0
  0
LINE
  8
DETAIL
  6
CONTINUOUS
 62
     5
 10
291.06840608683842
 20
-49.364085734320781
 30
0.0
 11
291.06840608683842
 21
-49.364085734320781
 31
0.0
  0
LINE
  8
DETAIL
  6
CONTINUOUS
 62
     5
 10
291.06840608683842
 20
-49.364085734320781
 30
0.0
 11
291.06606109734179
 21
-49.373615461070187
 31
0.0
  0
LINE
  8
DETAIL
  6
CONTINUOUS
 62
     5
 10
291.06606109734179
 20
-49.373615461070187
 30
0.0
 11
291.06360026373659
 21
-49.383131340131001
 31
0.0
  0
LINE
  8
DETAIL
  6
CONTINUOUS
 62
     5
 10
291.06360026373659
 20
-49.383131340131001
 30
0.0
 11
291.06360026373659
 21
-49.383131340131001
 31
0.0
  0
LINE
  8
DETAIL
  6
CONTINUOUS
 62
     5
 10
291.06360026373659
 20
-49.383131340131001
 30
0.0
 11
291.06104093147093
 21
-49.392635472706161
 31
0.0
  0
LINE
  8
DETAIL
  6
CONTINUOUS
 62
     5
 10
291.06104093147093
 20
-49.392635472706161
 30
0.0
 11
291.05840044599182
 21
-49.402129959998938
 31
0.0
  0
LINE
  8
DETAIL
  6
CONTINUOUS
 62
     5
 10
291.05840044599182
 20
-49.402129959998938
 30
0.0
 11
291.05840044599182
 21
-49.402129959998938
 31
0.0
  0
LINE
  8
DETAIL
  6
CONTINUOUS
 62
     5
 10
291.05840044599182
 20
-49.402129959998938
 30
0.0
 11
291.05569615274749
 21
-49.411616903212462
 31
0.0
  0
LINE
  8
DETAIL
  6
CONTINUOUS
 62
     5
 10
291.05569615274749
 20
-49.411616903212462
 30
0.0
 11
291.0529453971842
 21
-49.421098403549991
 31
0.0
  0
LINE
  8
DETAIL
  6
CONTINUOUS
 62
     5
 10
291.0529453971842
 20
-49.421098403549991
 30
0.0
 11
291.0529453971842
 21
-49.421098403549991
 31
0.0
  0
LINE
  8
DETAIL
  6
CONTINUOUS
 62
     5
 10
291.0529453971842
 20
-49.421098403549991
 30
0.0
 11
291.05016552475081
 21
-49.430576562214299
 31
0.0
  0
LINE
  8
DETAIL
  6
CONTINUOUS
 62
     5
 10
291.05016552475081
 20
-49.430576562214299
 30
0.0
 11
291.04737388089438
 21
-49.440053480408721
 31
0.0
  0
LINE
  8
DETAIL
  6
CONTINUOUS
 62
     5
 10
291.04737388089438
 20
-49.440053480408721
 30
0.0
 11
291.04737388089438
 21
-49.440053480408721
 31
0.0
  0
LINE
  8
DETAIL
  6
CONTINUOUS
 62
     5
 10
291.04737388089438
 20
-49.440053480408721
 30
0.0
 11
291.04458781106251
 21
-49.449531259336197
 31
0.0
  0
LINE
  8
DETAIL
  6
CONTINUOUS
 62
     5
 10
291.04458781106251
 20
-49.449531259336197
 30
0.0
 11
291.04182466070262
 21
-49.459012000200183
 31
0.0
  0
LINE
  8
DETAIL
  6
CONTINUOUS
 62
     5
 10
291.04182466070262
 20
-49.459012000200183
 30
0.0
 11
291.04182466070262
 21
-49.459012000200183
 31
0.0
  0
LINE
  8
DETAIL
  6
CONTINUOUS
 62
     5
 10
291.04182466070262
 20
-49.459012000200183
 30
0.0
 11
291.03909774876979
 21
-49.468497297889201
 31
0.0
  0
LINE
  8
DETAIL
  6
CONTINUOUS
 62
     5
 10
291.03909774876979
 20
-49.468497297889201
 30
0.0
 11
291.03640428825128
 21
-49.477986722035268
 31
0.0
  0
LINE
  8
DETAIL
  6
CONTINUOUS
 62
     5
 10
291.03640428825128
 20
-49.477986722035268
 30
0.0
 11
291.03640428825128
 21
-49.477986722035268
 31
0.0
  0
LINE
  8
DETAIL
  6
CONTINUOUS
 62
     5
 10
291.03640428825128
 20
-49.477986722035268
 30
0.0
 11
291.03373746564131
 21
-49.48747933595547
 31
0.0
  0
LINE
  8
DETAIL
  6
CONTINUOUS
 62
     5
 10
291.03373746564131
 20
-49.48747933595547
 30
0.0
 11
291.03109046743452
 21
-49.496974202967813
 31
0.0
  0
LINE
  8
DETAIL
  6
CONTINUOUS
 62
     5
 10
291.03109046743452
 20
-49.496974202967813
 30
0.0
 11
291.03109046743452
 21
-49.496974202967813
 31
0.0
  0
LINE
  8
DETAIL
  6
CONTINUOUS
 62
     5
 10
291.03109046743452
 20
-49.496974202967813
 30
0.0
 11
291.02845648012521
 21
-49.506470386389587
 31
0.0
  0
LINE
  8
DETAIL
  6
CONTINUOUS
 62
     5
 10
291.02845648012521
 20
-49.506470386389587
 30
0.0
 11
291.02582869020807
 21
-49.515966949538488
 31
0.0
  0
LINE
  8
DETAIL
  6
CONTINUOUS
 62
     5
 10
291.02582869020807
 20
-49.515966949538488
 30
0.0
 11
291.02582869020807
 21
-49.515966949538488
 31
0.0
  0
LINE
  8
DETAIL
  6
CONTINUOUS
 62
     5
 10
291.02582869020807
 20
-49.515966949538488
 30
0.0
 11
291.02320028417739
 21
-49.525462955731832
 31
0.0
  0
LINE
  8
DETAIL
  6
CONTINUOUS
 62
     5
 10
291.02320028417739
 20
-49.525462955731832
 30
0.0
 11
291.02056444852752
 21
-49.534957468287253
 31
0.0
  0
LINE
  8
DETAIL
  6
CONTINUOUS
 62
     5
 10
291.02056444852752
 20
-49.534957468287253
 30
0.0
 11
291.02056444852752
 21
-49.534957468287253
 31
0.0
  0
LINE
  8
DETAIL
  6
CONTINUOUS
 62
     5
 10
291.02056444852752
 20
-49.534957468287253
 30
0.0
 11
291.01791436975401
 21
-49.544449550522017
 31
0.0
  0
LINE
  8
DETAIL
  6
CONTINUOUS
 62
     5
 10
291.01791436975401
 20
-49.544449550522017
 30
0.0
 11
291.01524323434978
 21
-49.553938265754027
 31
0.0
  0
LINE
  8
DETAIL
  6
CONTINUOUS
 62
     5
 10
291.01524323434978
 20
-49.553938265754027
 30
0.0
 11
291.01524323434978
 21
-49.553938265754027
 31
0.0
  0
LINE
  8
DETAIL
  6
CONTINUOUS
 62
     5
 10
291.01524323434978
 20
-49.553938265754027
 30
0.0
 11
291.01254453170168
 21
-49.56342270859335
 31
0.0
  0
LINE
  8
DETAIL
  6
CONTINUOUS
 62
     5
 10
291.01254453170168
 20
-49.56342270859335
 30
0.0
 11
291.00981296275972
 21
-49.572902098819903
 31
0.0
  0
LINE
  8
DETAIL
  6
CONTINUOUS
 62
     5
 10
291.00981296275972
 20
-49.572902098819903
 30
0.0
 11
291.00981296275972
 21
-49.572902098819903
 31
0.0
  0
LINE
  8
DETAIL
  6
CONTINUOUS
 62
     5
 10
291.00981296275972
 20
-49.572902098819903
 30
0.0
 11
291.00704353136479
 21
-49.582375687506158
 31
0.0
  0
LINE
  8
DETAIL
  6
CONTINUOUS
 62
     5
 10
291.00704353136479
 20
-49.582375687506158
 30
0.0
 11
291.00423124135909
 21
-49.591842725725478
 31
0.0
  0
LINE
  8
DETAIL
  6
CONTINUOUS
 62
     5
 10
291.00423124135909
 20
-49.591842725725478
 30
0.0
 11
291.00423124135909
 21
-49.591842725725478
 31
0.0
  0
LINE
  8
DETAIL
  6
CONTINUOUS
 62
     5
 10
291.00423124135909
 20
-49.591842725725478
 30
0.0
 11
291.00137109658289
 21
-49.601302464550599
 31
0.0
  0
LINE
  8
DETAIL
  6
CONTINUOUS
 62
     5
 10
291.00137109658289
 20
-49.601302464550599
 30
0.0
 11
290.99845810087822
 21
-49.610754155053769
 31
0.0
  0
LINE
  8
DETAIL
  6
CONTINUOUS
 62
     5
 10
290.99845810087822
 20
-49.610754155053769
 30
0.0
 11
290.99845810087822
 21
-49.610754155053769
 31
0.0
  0
LINE
  8
DETAIL
  6
CONTINUOUS
 62
     5
 10
290.99845810087822
 20
-49.610754155053769
 30
0.0
 11
290.99548725808683
 21
-49.620197048307027
 31
0.0
  0
LINE
  8
DETAIL
  6
CONTINUOUS
 62
     5
 10
290.99548725808683
 20
-49.620197048307027
 30
0.0
 11
290.99245357204842
 21
-49.62963039538613
 31
0.0
  0
LINE
  8
DETAIL
  6
CONTINUOUS
 62
     5
 10
290.99245357204842
 20
-49.62963039538613
 30
0.0
 11
290.99245357204842
 21
-49.62963039538613
 31
0.0
  0
LINE
  8
DETAIL
  6
CONTINUOUS
 62
     5
 10
290.99245357204842
 20
-49.62963039538613
 30
0.0
 11
290.98935204660438
 21
-49.639053447364461
 31
0.0
  0
LINE
  8
DETAIL
  6
CONTINUOUS
 62
     5
 10
290.98935204660438
 20
-49.639053447364461
 30
0.0
 11
290.98617768560081
 21
-49.648465455304397
 31
0.0
  0
LINE
  8
DETAIL
  6
CONTINUOUS
 62
     5
 10
290.98617768560081
 20
-49.648465455304397
 30
0.0
 11
290.98617768560081
 21
-49.648465455304397
 31
0.0
  0
LINE
  8
DETAIL
  6
CONTINUOUS
 62
     5
 10
290.98617768560081
 20
-49.648465455304397
 30
0.0
 11
290.98292830780662
 21
-49.657866051419489
 31
0.0
  0
LINE
  8
DETAIL
  6
CONTINUOUS
 62
     5
 10
290.98292830780662
 20
-49.657866051419489
 30
0.0
 11
290.97961299168122
 21
-49.667256392540537
 31
0.0
  0
LINE
  8
DETAIL
  6
CONTINUOUS
 62
     5
 10
290.97961299168122
 20
-49.667256392540537
 30
0.0
 11
290.97961299168122
 21
-49.667256392540537
 31
0.0
  0
LINE
  8
DETAIL
  6
CONTINUOUS
 62
     5
 10
290.97961299168122
 20
-49.667256392540537
 30
0.0
 11
290.97624363062209
 21
-49.676638016612912
 31
0.0
  0
LINE
  8
DETAIL
  6
CONTINUOUS
 62
     5
 10
290.97624363062209
 20
-49.676638016612912
 30
0.0
 11
290.97283211809889
 21
-49.686012461423097
 31
0.0
  0
LINE
  8
DETAIL
  6
CONTINUOUS
 62
     5
 10
290.97283211809889
 20
-49.686012461423097
 30
0.0
 11
290.97283211809889
 21
-49.686012461423097
 31
0.0
  0
LINE
  8
DETAIL
  6
CONTINUOUS
 62
     5
 10
290.97283211809889
 20
-49.686012461423097
 30
0.0
 11
290.969390347532
 21
-49.695381264865937
 31
0.0
  0
LINE
  8
DETAIL
  6
CONTINUOUS
 62
     5
 10
290.969390347532
 20
-49.695381264865937
 30
0.0
 11
290.96593021207877
 21
-49.704745965431407
 31
0.0
  0
LINE
  8
DETAIL
  6
CONTINUOUS
 62
     5
 10
290.96593021207877
 20
-49.704745965431407
 30
0.0
 11
290.96593021207877
 21
-49.704745965431407
 31
0.0
  0
LINE
  8
DETAIL
  6
CONTINUOUS
 62
     5
 10
290.96593021207877
 20
-49.704745965431407
 30
0.0
 11
290.96246360507553
 21
-49.714108101202612
 31
0.0
  0
LINE
  8
DETAIL
  6
CONTINUOUS
 62
     5
 10
290.96246360507553
 20
-49.714108101202612
 30
0.0
 11
290.95900242084582
 21
-49.723469208043703
 31
0.0
  0
LINE
  8
DETAIL
  6
CONTINUOUS
 62
     5
 10
290.95900242084582
 20
-49.723469208043703
 30
0.0
 11
290.95900242084582
 21
-49.723469208043703
 31
0.0
  0
LINE
  8
DETAIL
  6
CONTINUOUS
 62
     5
 10
290.95900242084582
 20
-49.723469208043703
 30
0.0
 11
290.95555855303837
 21
-49.732830823334382
 31
0.0
  0
LINE
  8
DETAIL
  6
CONTINUOUS
 62
     5
 10
290.95555855303837
 20
-49.732830823334382
 30
0.0
 11
290.95214389162419
 21
-49.742194492739088
 31
0.0
  0
LINE
  8
DETAIL
  6
CONTINUOUS
 62
     5
 10
290.95214389162419
 20
-49.742194492739088
 30
0.0
 11
290.95214389162419
 21
-49.742194492739088
 31
0.0
  0
LINE
  8
DETAIL
  6
CONTINUOUS
 62
     5
 10
290.95214389162419
 20
-49.742194492739088
 30
0.0
 11
290.94876621885652
 21
-49.75156139762413
 31
0.0
  0
LINE
  8
DETAIL
  6
CONTINUOUS
 62
     5
 10
290.94876621885652
 20
-49.75156139762413
 30
0.0
 11
290.94541688979388
 21
-49.760931253883307
 31
0.0
  0
LINE
  8
DETAIL
  6
CONTINUOUS
 62
     5
 10
290.94541688979388
 20
-49.760931253883307
 30
0.0
 11
290.94541688979388
 21
-49.760931253883307
 31
0.0
  0
LINE
  8
DETAIL
  6
CONTINUOUS
 62
     5
 10
290.94541688979388
 20
-49.760931253883307
 30
0.0
 11
290.94208313988747
 21
-49.770303439887471
 31
0.0
  0
LINE
  8
DETAIL
  6
CONTINUOUS
 62
     5
 10
290.94208313988747
 20
-49.770303439887471
 30
0.0
 11
290.93875215334822
 21
-49.779677449391393
 31
0.0
  0
LINE
  8
DETAIL
  6
CONTINUOUS
 62
     5
 10
290.93875215334822
 20
-49.779677449391393
 30
0.0
 11
290.93875215334822
 21
-49.779677449391393
 31
0.0
  0
LINE
  8
DETAIL
  6
CONTINUOUS
 62
     5
 10
290.93875215334822
 20
-49.779677449391393
 30
0.0
 11
290.93541114938478
 21
-49.789052697341049
 31
0.0
  0
LINE
  8
DETAIL
  6
CONTINUOUS
 62
     5
 10
290.93541114938478
 20
-49.789052697341049
 30
0.0
 11
290.93204753843719
 21
-49.7984281680653
 31
0.0
  0
LINE
  8
DETAIL
  6
CONTINUOUS
 62
     5
 10
290.93204753843719
 20
-49.7984281680653
 30
0.0
 11
290.93204753843719
 21
-49.7984281680653
 31
0.0
  0
LINE
  8
DETAIL
  6
CONTINUOUS
 62
     5
 10
290.93204753843719
 20
-49.7984281680653
 30
0.0
 11
290.92864860033109
 21
-49.80780314000998
 31
0.0
  0
LINE
  8
DETAIL
  6
CONTINUOUS
 62
     5
 10
290.92864860033109
 20
-49.80780314000998
 30
0.0
 11
290.9252009012082
 21
-49.817178498707221
 31
0.0
  0
LINE
  8
DETAIL
  6
CONTINUOUS
 62
     5
 10
290.9252009012082
 20
-49.817178498707221
 30
0.0
 11
290.9252009012082
 21
-49.817178498707221
 31
0.0
  0
LINE
  8
DETAIL
  6
CONTINUOUS
 62
     5
 10
290.9252009012082
 20
-49.817178498707221
 30
0.0
 11
290.92169149466582
 21
-49.826554032028923
 31
0.0
  0
LINE
  8
DETAIL
  6
CONTINUOUS
 62
     5
 10
290.92169149466582
 20
-49.826554032028923
 30
0.0
 11
290.91811009781122
 21
-49.835923530119487
 31
0.0
  0
LINE
  8
DETAIL
  6
CONTINUOUS
 62
     5
 10
290.91811009781122
 20
-49.835923530119487
 30
0.0
 11
290.91811009781122
 21
-49.835923530119487
 31
0.0
  0
LINE
  8
DETAIL
  6
CONTINUOUS
 62
     5
 10
290.91811009781122
 20
-49.835923530119487
 30
0.0
 11
290.91444793495322
 21
-49.845285021694792
 31
0.0
  0
LINE
  8
DETAIL
  6
CONTINUOUS
 62
     5
 10
290.91444793495322
 20
-49.845285021694792
 30
0.0
 11
290.91069959569973
 21
-49.854659487483332
 31
0.0
  0
LINE
  8
DETAIL
  6
CONTINUOUS
 62
     5
 10
290.91069959569973
 20
-49.854659487483332
 30
0.0
 11
290.91069959569973
 21
-49.854659487483332
 31
0.0
  0
LINE
  8
DETAIL
  6
CONTINUOUS
 62
     5
 10
290.91069959569973
 20
-49.854659487483332
 30
0.0
 11
290.90686978545978
 21
-49.864052761825747
 31
0.0
  0
LINE
  8
DETAIL
  6
CONTINUOUS
 62
     5
 10
290.90686978545978
 20
-49.864052761825747
 30
0.0
 11
290.90300030755202
 21
-49.87338714149746
 31
0.0
  0
LINE
  8
DETAIL
  6
CONTINUOUS
 62
     5
 10
290.90300030755202
 20
-49.87338714149746
 30
0.0
 11
290.90300030755202
 21
-49.87338714149746
 31
0.0
  0
LINE
  8
DETAIL
  6
CONTINUOUS
 62
     5
 10
290.90300030755202
 20
-49.87338714149746
 30
0.0
 11
290.89910762695217
 21
-49.882641980491663
 31
0.0
  0
LINE
  8
DETAIL
  6
CONTINUOUS
 62
     5
 10
290.89910762695217
 20
-49.882641980491663
 30
0.0
 11
290.89506975735122
 21
-49.892108399239589
 31
0.0
  0
LINE
  8
DETAIL
  6
CONTINUOUS
 62
     5
 10
290.89506975735122
 20
-49.892108399239589
 30
0.0
 11
290.89506975735122
 21
-49.892108399239589
 31
0.0
  0
LINE
  8
DETAIL
  6
CONTINUOUS
 62
     5
 10
290.89506975735122
 20
-49.892108399239589
 30
0.0
 11
290.89085927642577
 21
-49.901864577735182
 31
0.0
  0
LINE
  8
DETAIL
  6
CONTINUOUS
 62
     5
 10
290.89085927642577
 20
-49.901864577735182
 30
0.0
 11
290.88696546907983
 21
-49.910825167787443
 31
0.0
  0
LINE
  8
DETAIL
  6
CONTINUOUS
 62
     5
 10
290.88696546907983
 20
-49.910825167787443
 30
0.0
 11
290.88696546907983
 21
-49.910825167787443
 31
0.0
  0
LINE
  8
DETAIL
  6
CONTINUOUS
 62
     5
 10
290.88696546907983
 20
-49.910825167787443
 30
0.0
 11
290.88352470261731
 21
-49.918699525734503
 31
0.0
  0
LINE
  8
DETAIL
  6
CONTINUOUS
 62
     5
 10
290.88352470261731
 20
-49.918699525734503
 30
0.0
 11
290.8787449667218
 21
-49.929539354219337
 31
0.0
  0
LINE
  8
DETAIL
  6
CONTINUOUS
 62
     5
 10
290.8787449667218
 20
-49.929539354219337
 30
0.0
 11
290.8787449667218
 21
-49.929539354219337
 31
0.0
  0
LINE
  8
DETAIL
  6
CONTINUOUS
 62
     5
 10
290.8787449667218
 20
-49.929539354219337
 30
0.0
 11
290.87110819258533
 21
-49.946769520161688
 31
0.0
  0
LINE
  8
DETAIL
  6
CONTINUOUS
 62
     5
 10
290.87110819258533
 20
-49.946769520161688
 30
0.0
 11
290.86212045505641
 21
-49.966965201286087
 31
0.0
  0
LINE
  8
DETAIL
  6
CONTINUOUS
 62
     5
 10
290.86212045505641
 20
-49.966965201286087
 30
0.0
 11
290.86212045505641
 21
-49.966965201286087
 31
0.0
  0
LINE
  8
DETAIL
  6
CONTINUOUS
 62
     5
 10
290.86212045505641
 20
-49.966965201286087
 30
0.0
 11
290.85356774967789
 21
-49.986074781453112
 31
0.0
  0
LINE
  8
DETAIL
  6
CONTINUOUS
 62
     5
 10
290.85356774967789
 20
-49.986074781453112
 30
0.0
 11
290.84533161111472
 21
-50.004389158266179
 31
0.0
  0
LINE
  8
DETAIL
  6
CONTINUOUS
 62
     5
 10
290.84533161111472
 20
-50.004389158266179
 30
0.0
 11
290.84533161111472
 21
-50.004389158266179
 31
0.0
  0
LINE
  8
DETAIL
  6
CONTINUOUS
 62
     5
 10
290.84533161111472
 20
-50.004389158266179
 30
0.0
 11
290.83694472766388
 21
-50.022994061418963
 31
0.0
  0
LINE
  8
DETAIL
  6
CONTINUOUS
 62
     5
 10
290.83694472766388
 20
-50.022994061418963
 30
0.0
 11
290.82844886303519
 21
-50.041812035226492
 31
0.0
  0
LINE
  8
DETAIL
  6
CONTINUOUS
 62
     5
 10
290.82844886303519
 20
-50.041812035226492
 30
0.0
 11
290.82844886303519
 21
-50.041812035226492
 31
0.0
  0
LINE
  8
DETAIL
  6
CONTINUOUS
 62
     5
 10
290.82844886303519
 20
-50.041812035226492
 30
0.0
 11
290.81998008959772
 21
-50.060552384602197
 31
0.0
  0
LINE
  8
DETAIL
  6
CONTINUOUS
 62
     5
 10
290.81998008959772
 20
-50.060552384602197
 30
0.0
 11
290.81154263895542
 21
-50.079234642233757
 31
0.0
  0
LINE
  8
DETAIL
  6
CONTINUOUS
 62
     5
 10
290.81154263895542
 20
-50.079234642233757
 30
0.0
 11
290.81154263895542
 21
-50.079234642233757
 31
0.0
  0
LINE
  8
DETAIL
  6
CONTINUOUS
 62
     5
 10
290.81154263895542
 20
-50.079234642233757
 30
0.0
 11
290.8031123544331
 21
-50.097936466322778
 31
0.0
  0
LINE
  8
DETAIL
  6
CONTINUOUS
 62
     5
 10
290.8031123544331
 20
-50.097936466322778
 30
0.0
 11
290.79468336701439
 21
-50.116657789355138
 31
0.0
  0
LINE
  8
DETAIL
  6
CONTINUOUS
 62
     5
 10
273.32080412061151
 20
-65.325863692765722
 30
0.0
 11
272.98632913852981
 21
-65.978226761225244
 31
0.0
  0
LINE
  8
DETAIL
  6
CONTINUOUS
 62
     5
 10
272.98632913852981
 20
-65.978226761225244
 30
0.0
 11
272.64510239929552
 21
-66.624964825570828
 31
0.0
  0
LINE
  8
DETAIL
  6
CONTINUOUS
 62
     5
 10
272.64510239929552
 20
-66.624964825570828
 30
0.0
 11
272.64510239929552
 21
-66.624964825570828
 31
0.0
  0
LINE
  8
DETAIL
  6
CONTINUOUS
 62
     5
 10
272.64510239929552
 20
-66.624964825570828
 30
0.0
 11
272.2918298795804
 21
-67.261941255321346
 31
0.0
  0
LINE
  8
DETAIL
  6
CONTINUOUS
 62
     5
 10
272.2918298795804
 20
-67.261941255321346
 30
0.0
 11
271.92704849135782
 21
-67.890972914528049
 31
0.0
  0
LINE
  8
DETAIL
  6
CONTINUOUS
 62
     5
 10
271.92704849135782
 20
-67.890972914528049
 30
0.0
 11
271.92704849135782
 21
-67.890972914528049
 31
0.0
  0
LINE
  8
DETAIL
  6
CONTINUOUS
 62
     5
 10
271.92704849135782
 20
-67.890972914528049
 30
0.0
 11
271.55313906567892
 21
-68.513862231550377
 31
0.0
  0
LINE
  8
DETAIL
  6
CONTINUOUS
 62
     5
 10
271.55313906567892
 20
-68.513862231550377
 30
0.0
 11
271.17402717460601
 21
-69.126400397446957
 31
0.0
  0
LINE
  8
DETAIL
  6
CONTINUOUS
 62
     5
 10
271.17402717460601
 20
-69.126400397446957
 30
0.0
 11
271.17402717460601
 21
-69.126400397446957
 31
0.0
  0
LINE
  8
DETAIL
  6
CONTINUOUS
 62
     5
 10
271.17402717460601
 20
-69.126400397446957
 30
0.0
 11
270.79102210061802
 21
-69.727398657619062
 31
0.0
  0
LINE
  8
DETAIL
  6
CONTINUOUS
 62
     5
 10
270.79102210061802
 20
-69.727398657619062
 30
0.0
 11
270.39342322684593
 21
-70.33375971213718
 31
0.0
  0
LINE
  8
DETAIL
  6
CONTINUOUS
 62
     5
 10
270.39342322684593
 20
-70.33375971213718
 30
0.0
 11
270.39342322684593
 21
-70.33375971213718
 31
0.0
  0
LINE
  8
DETAIL
  6
CONTINUOUS
 62
     5
 10
270.39342322684593
 20
-70.33375971213718
 30
0.0
 11
269.97915117567902
 21
-70.950320479394804
 31
0.0
  0
LINE
  8
DETAIL
  6
CONTINUOUS
 62
     5
 10
269.97915117567902
 20
-70.950320479394804
 30
0.0
 11
269.59262142588432
 21
-71.515563296408345
 31
0.0
  0
LINE
  8
DETAIL
  6
CONTINUOUS
 62
     5
 10
269.59262142588432
 20
-71.515563296408345
 30
0.0
 11
269.59262142588432
 21
-71.515563296408345
 31
0.0
  0
LINE
  8
DETAIL
  6
CONTINUOUS
 62
     5
 10
269.59262142588432
 20
-71.515563296408345
 30
0.0
 11
269.271543637582
 21
-71.977736839970248
 31
0.0
  0
LINE
  8
DETAIL
  6
CONTINUOUS
 62
     5
 10
269.271543637582
 20
-71.977736839970248
 30
0.0
 11
268.98030933992561
 21
-72.390509727354868
 31
0.0
  0
LINE
  8
DETAIL
  6
CONTINUOUS
 62
     5
 10
268.98030933992561
 20
-72.390509727354868
 30
0.0
 11
268.98030933992561
 21
-72.390509727354868
 31
0.0
  0
LINE
  8
DETAIL
  6
CONTINUOUS
 62
     5
 10
268.98030933992561
 20
-72.390509727354868
 30
0.0
 11
268.6764520951258
 21
-72.816997663394034
 31
0.0
  0
LINE
  8
DETAIL
  6
CONTINUOUS
 62
     5
 10
268.6764520951258
 20
-72.816997663394034
 30
0.0
 11
268.36339172858879
 21
-73.252684762667855
 31
0.0
  0
LINE
  8
DETAIL
  6
CONTINUOUS
 62
     5
 10
268.36339172858879
 20
-73.252684762667855
 30
0.0
 11
268.36339172858879
 21
-73.252684762667855
 31
0.0
  0
LINE
  8
DETAIL
  6
CONTINUOUS
 62
     5
 10
268.36339172858879
 20
-73.252684762667855
 30
0.0
 11
268.05293334655221
 21
-73.680701882686662
 31
0.0
  0
LINE
  8
DETAIL
  6
CONTINUOUS
 62
     5
 10
268.05293334655221
 20
-73.680701882686662
 30
0.0
 11
267.74453691539321
 21
-74.102398442932554
 31
0.0
  0
LINE
  8
DETAIL
  6
CONTINUOUS
 62
     5
 10
267.74453691539321
 20
-74.102398442932554
 30
0.0
 11
267.74453691539321
 21
-74.102398442932554
 31
0.0
  0
LINE
  8
DETAIL
  6
CONTINUOUS
 62
     5
 10
267.74453691539321
 20
-74.102398442932554
 30
0.0
 11
267.43544969058632
 21
-74.522367838971547
 31
0.0
  0
LINE
  8
DETAIL
  6
CONTINUOUS
 62
     5
 10
267.43544969058632
 20
-74.522367838971547
 30
0.0
 11
267.12641322385872
 21
-74.939960808734213
 31
0.0
  0
LINE
  8
DETAIL
  6
CONTINUOUS
 62
     5
 10
267.12641322385872
 20
-74.939960808734213
 30
0.0
 11
267.12641322385872
 21
-74.939960808734213
 31
0.0
  0
LINE
  8
DETAIL
  6
CONTINUOUS
 62
     5
 10
267.12641322385872
 20
-74.939960808734213
 30
0.0
 11
266.81863462971347
 21
-75.353905442884809
 31
0.0
  0
LINE
  8
DETAIL
  6
CONTINUOUS
 62
     5
 10
266.81863462971347
 20
-75.353905442884809
 30
0.0
 11
266.51168897750392
 21
-75.76568190065808
 31
0.0
  0
LINE
  8
DETAIL
  6
CONTINUOUS
 62
     5
 10
225.4335260115605
 20
-85.664739884393043
 30
0.0
 11
221.42581888246599
 21
-85.664739884393043
 31
0.0
  0
LINE
  8
DETAIL
  6
CONTINUOUS
 62
     5
 10
213.41040462427731
 20
-79.653179190751416
 30
0.0
 11
221.42581888246599
 21
-79.653179190751416
 31
0.0
  0
LINE
  8
DETAIL
  6
CONTINUOUS
 62
     5
 10
213.41040462427731
 20
-74.643545279383432
 30
0.0
 11
221.42581888246599
 21
-74.643545279383432
 31
0.0
  0
LINE
  8
DETAIL
  6
CONTINUOUS
 62
     5
 10
225.4335260115605
 20
-63.56947113424917
 30
0.0
 11
221.42581888246599
 21
-63.56947113424917
 31
0.0
  0
LINE
  8
DETAIL
  6
CONTINUOUS
 62
     5
 10
99.59152215799574
 20
238.3333333333334
 30
0.0
 11
99.59152215799574
 21
206.53232368060461
 31
0.0
  0
LINE
  8
DETAIL
  6
CONTINUOUS
 62
     5
 10
99.59152215799574
 20
180.6731970779972
 30
0.0
 11
99.59152215799574
 21
-180.67319707734649
 31
0.0
  0
LINE
  8
DETAIL
  6
CONTINUOUS
 62
     5
 10
99.59152215799574
 20
-206.532323679954
 30
0.0
 11
99.59152215799574
 21
-238.27157755338689
 31
0.0
  0
LINE
  8
DETAIL
  6
CONTINUOUS
 62
     5
 10
213.41040462427731
 20
79.65317919075153
 30
0.0
 11
213.41040462427731
 21
74.643545279383488
 31
0.0
  0
LINE
  8
DETAIL
  6
CONTINUOUS
 62
     5
 10
213.41040462427731
 20
-74.643545279383432
 30
0.0
 11
213.41040462427731
 21
-79.653179190751416
 31
0.0
  0
LINE
  8
DETAIL
  6
CONTINUOUS
 62
     5
 10
225.4335260115605
 20
63.5694711348998
 30
0.0
 11
221.42581888246599
 21
63.5694711348998
 31
0.0
  0
LINE
  8
DETAIL
  6
CONTINUOUS
 62
     5
 10
213.41040462427731
 20
74.643545279383488
 30
0.0
 11
221.42581888246599
 21
74.643545279383488
 31
0.0
  0
LINE
  8
DETAIL
  6
CONTINUOUS
 62
     5
 10
213.41040462427731
 20
79.65317919075153
 30
0.0
 11
221.42581888246599
 21
79.65317919075153
 31
0.0
  0
ARC
  8
DETAIL
  6
CONTINUOUS
 62
     5
 10
64.524084778419564
 20
-238.33333333333329
 30
0.0
 40
34.466281310212089
 50
25.687636672503089
 51
67.343108345792913
  0
ARC
  8
DETAIL
  6
CONTINUOUS
 62
     5
 10
49.495183044315553
 20
-233.32369942196519
 30
0.0
 40
29.456647398843948
 50
114.5393411449005
 51
169.4316843390036
  0
ARC
  8
DETAIL
  6
CONTINUOUS
 62
     5
 10
64.524084778419564
 20
238.3333333333334
 30
0.0
 40
34.466281310212032
 50
292.65689165420707
 51
334.31236332749688
  0
ARC
  8
DETAIL
  6
CONTINUOUS
 62
     5
 10
49.495183044315553
 20
233.32369942196539
 30
0.0
 40
29.45664739884371
 50
181.04407617350259
 51
245.4606588550995
  0
LINE
  8
DETAIL
  6
CONTINUOUS
 62
     5
 10
225.4335260115605
 20
85.664739884393043
 30
0.0
 11
221.42581888246599
 21
85.664739884393043
 31
0.0
  0
LINE
  8
NOTE
  6
CONTINUOUS
 62
     4
 10
37.922958649051203
 20
-230.44315992292849
 30
0.0
 11
-16.370577453975809
 21
-230.44315992292849
 31
0.0
  0
LINE
  8
BASIS
  6
DASHDOT
 62
     6
 10
312.58437658200478
 20
0.0000000000001137
 30
0.0
 11
-73.839016436339563
 21
0.0000000000001137
 31
0.0
  0
LINE
  8
OUTLINE
  6
CONTINUOUS
 62
     3
 10
262.50481695568402
 20
94.682080924855541
 30
0.0
 11
262.50481695568402
 21
131.0803515380727
 31
0.0
  0
LINE
  8
OUTLINE
  6
CONTINUOUS
 62
     3
 10
266.51252408477808
 20
-65.325626204238915
 30
0.0
 11
266.51252408477808
 21
-94.682066275905186
 31
0.0
  0
LINE
  8
OUTLINE
  6
CONTINUOUS
 62
     3
 10
3.005780346820274
 20
-256.99421965317907
 30
0.0
 11
3.005780346820274
 21
-258.49710982658962
 31
0.0
  0
ARC
  8
DETAIL
  6
CONTINUOUS
 62
     5
 10
161.8196779678571
 20
108.4213443328355
 30
0.0
 40
72.26764233881363
 50
18.272859376092391
 51
91.198361258344107
  0
ARC
  8
DETAIL
  6
CONTINUOUS
 62
     5
 10
162.9785313811924
 20
98.724702994926247
 30
0.0
 40
104.653563896807
 50
18.009154384219009
 51
91.462066250166842
  0
ARC
  8
DETAIL
  6
CONTINUOUS
 62
     5
 10
162.37559337594101
 20
102.3959451615486
 30
0.0
 40
104.15687989476621
 50
15.98561550114422
 51
91.13728266431167
  0
ARC
  8
DETAIL
  6
CONTINUOUS
 62
     5
 10
7.4648792413099443
 20
194.7306147194312
 30
0.0
 40
2.570335510201581
 50
6.3856637105421097
 51
76.559496010519211
  0
ARC
  8
DETAIL
  6
CONTINUOUS
 62
     5
 10
11.313411534227241
 20
212.39656888531289
 30
0.0
 40
15.510565590852719
 50
237.0350093556568
 51
257.90078379401871
  0
ARC
  8
DETAIL
  6
CONTINUOUS
 62
     5
 10
8.1788489589925746
 20
194.50713182671339
 30
0.0
 40
6.3617138382839844
 50
3.6101788556003118
 51
74.706048693827739
  0
ARC
  8
DETAIL
  6
CONTINUOUS
 62
     5
 10
9.8781322618687852
 20
205.60659681385329
 30
0.0
 40
4.963095002691956
 50
196.1055168704456
 51
269.75472445339642
  0
ARC
  8
DETAIL
  6
CONTINUOUS
 62
     5
 10
8.2323180309785755
 20
244.12767054787921
 30
0.0
 40
6.3066537981287443
 50
3.3896733457445958
 51
73.540138887628885
  0
ARC
  8
DETAIL
  6
CONTINUOUS
 62
     5
 10
10.622008453939969
 20
256.52504240762079
 30
0.0
 40
6.3777199505788804
 50
210.24918742928389
 51
264.57704156907721
  0
ARC
  8
DETAIL
  6
CONTINUOUS
 62
     5
 10
-185.89336576564349
 20
-103.3283526412141
 30
0.0
 40
373.20398669036018
 50
25.15375970977912
 51
30.61484685882596
  0
ARC
  8
DETAIL
  6
CONTINUOUS
 62
     5
 10
1198.500487153651
 20
-554.30559399831043
 30
0.0
 40
1255.129654190303
 50
144.2787462876822
 51
148.57726824693259
  0
ARC
  8
DETAIL
  6
CONTINUOUS
 62
     5
 10
-97.15235579998992
 20
-36.98815398596679
 30
0.0
 40
263.31692604372512
 50
28.024526345561231
 51
41.65331656605116
  0
ARC
  8
DETAIL
  6
CONTINUOUS
 62
     5
 10
164.5094852221134
 20
-112.22533950529341
 30
0.0
 40
68.5766838339879
 50
266.48770043031118
 51
344.04107893529152
  0
ARC
  8
DETAIL
  6
CONTINUOUS
 62
     5
 10
165.70593711734159
 20
-102.58187044931
 30
0.0
 40
100.90682588691659
 50
266.93370247522267
 51
343.59507688956751
  0
ARC
  8
DETAIL
  6
CONTINUOUS
 62
     5
 10
165.02702099784511
 20
-105.98722594613351
 30
0.0
 40
100.65578220703701
 50
267.31299314345392
 51
345.56410869026399
  0
ARC
  8
DETAIL
  6
CONTINUOUS
 62
     5
 10
7.4648792413099443
 20
-194.73061471943089
 30
0.0
 40
2.570335510201581
 50
283.44050398948082
 51
353.61433628945792
  0
ARC
  8
DETAIL
  6
CONTINUOUS
 62
     5
 10
11.313411534227241
 20
-212.39656888531229
 30
0.0
 40
15.510565590852719
 50
102.09921620598131
 51
122.9649906443432
  0
ARC
  8
DETAIL
  6
CONTINUOUS
 62
     5
 10
8.1788489589925746
 20
-194.50713182671311
 30
0.0
 40
6.3617138382839844
 50
285.29395130617218
 51
356.38982114439972
  0
ARC
  8
DETAIL
  6
CONTINUOUS
 62
     5
 10
9.8781322618687852
 20
-205.60659681385309
 30
0.0
 40
4.963095002691956
 50
90.245275546603565
 51
163.89448312955429
  0
ARC
  8
DETAIL
  6
CONTINUOUS
 62
     5
 10
8.2323180309785755
 20
-244.12767054787881
 30
0.0
 40
6.3066537981287443
 50
286.45986111237107
 51
356.6103266542554
  0
ARC
  8
DETAIL
  6
CONTINUOUS
 62
     5
 10
10.622008453939969
 20
-256.52504240762028
 30
0.0
 40
6.3777199505788804
 50
95.422958430922861
 51
149.75081257071571
  0
ARC
  8
DETAIL
  6
CONTINUOUS
 62
     5
 10
383.75663489568882
 20
18.43328795644015
 30
0.0
 40
257.68273583791353
 50
141.74433643059629
 51
164.63029075009379
  0
ARC
  8
DETAIL
  6
CONTINUOUS
 62
     5
 10
-76.143354498068248
 20
-85.977635246831255
 30
0.0
 40
241.2322136903
 50
20.69582653997416
 51
25.587245077027791
  0
ARC
  8
DETAIL
  6
CONTINUOUS
 62
     5
 10
136.7969943163034
 20
14.94472888216194
 30
0.0
 40
5.6722541487842619
 50
36.166737945219033
 51
82.136405286310719
  0
ARC
  8
DETAIL
  6
CONTINUOUS
 62
     5
 10
137.38172265459431
 20
23.20568344893093
 30
0.0
 40
2.6493442286484989
 50
208.9913214347512
 51
272.9531556563486
  0
ARC
  8
DETAIL
  6
CONTINUOUS
 62
     5
 10
83.680502422420403
 20
-8.8132088727778637
 30
0.0
 40
59.874282147655173
 50
30.88539382683242
 51
44.249717455333787
  0
ARC
  8
DETAIL
  6
CONTINUOUS
 62
     5
 10
492.48415226365978
 20
-108.62030636227
 30
0.0
 40
392.41464800211128
 50
158.8425304927799
 51
159.74009989668721
  0
ARC
  8
DETAIL
  6
CONTINUOUS
 62
     5
 10
120.13520529868759
 20
29.028764786867331
 30
0.0
 40
4.558993987604449
 50
263.26829674384481
 51
336.28869623112632
  0
ARC
  8
DETAIL
  6
CONTINUOUS
 62
     5
 10
97.229919530877822
 20
-82.2488814349515
 30
0.0
 40
109.0689520049752
 50
78.164197625561457
 51
81.30756084935696
  0
ARC
  8
DETAIL
  6
CONTINUOUS
 62
     5
 10
113.7547876852823
 20
26.602293429447059
 30
0.0
 40
1.035035647603088
 50
192.7076954816304
 51
270.0
  0
ARC
  8
DETAIL
  6
CONTINUOUS
 62
     5
 10
65.236009349947352
 20
9.2489695027347807
 30
0.0
 40
50.497289971663101
 50
19.777061285933701
 51
22.297270855532702
  0
ARC
  8
DETAIL
  6
CONTINUOUS
 62
     5
 10
-1822.994188894922
 20
694.68574189743515
 30
0.0
 40
2046.451502786502
 50
340.84055811148983
 51
340.9994654883634
  0
ARC
  8
DETAIL
  6
CONTINUOUS
 62
     5
 10
-151.43164884165799
 20
-162.69046726614701
 30
0.0
 40
279.92174754500468
 50
19.79600331789084
 51
24.93535802487914
  0
ARC
  8
DETAIL
  6
CONTINUOUS
 62
     5
 10
112.9457901727656
 20
-71.155980249795448
 30
0.0
 40
3.4162276092875592
 50
66.941712204839504
 51
106.9829553777068
  0
ARC
  8
DETAIL
  6
CONTINUOUS
 62
     5
 10
73.343974838854564
 20
-101.6655343727129
 30
0.0
 40
52.996082299172542
 50
8.3035394018068818
 51
39.420455251617277
  0
ARC
  8
DETAIL
  6
CONTINUOUS
 62
     5
 10
145.55631601937691
 20
-91.825986338283712
 30
0.0
 40
19.899404596095199
 50
186.0687735667079
 51
226.2815278668007
  0
ARC
  8
DETAIL
  6
CONTINUOUS
 62
     5
 10
120.35904685859531
 20
-121.0837833966234
 30
0.0
 40
18.753864195132781
 50
10.73638471127496
 51
51.994155028306658
  0
ARC
  8
DETAIL
  6
CONTINUOUS
 62
     5
 10
151.51752799998391
 20
-115.0176650464492
 30
0.0
 40
13.00469449610552
 50
190.83555668485801
 51
245.63779196105989
  0
ARC
  8
DETAIL
  6
CONTINUOUS
 62
     5
 10
148.3171670329493
 20
-133.72300017097629
 30
0.0
 40
7.1899489495037638
 50
42.489195550872928
 51
107.43686147349111
  0
ARC
  8
DETAIL
  6
CONTINUOUS
 62
     5
 10
174.41864239346609
 20
-121.50743824492331
 30
0.0
 40
22.063060289829611
 50
199.4843022765109
 51
264.06468980725901
  0
ARC
  8
DETAIL
  6
CONTINUOUS
 62
     5
 10
178.83550772259241
 20
-159.20259755088841
 30
0.0
 40
17.11553606058154
 50
71.945472975078999
 51
113.0390458309469
  0
ARC
  8
DETAIL
  6
CONTINUOUS
 62
     5
 10
178.1161281006552
 20
-149.09150781502331
 30
0.0
 40
8.6170516188890254
 50
348.75199102944259
 51
45.648141860773663
  0
ARC
  8
DETAIL
  6
CONTINUOUS
 62
     5
 10
81.934152765207699
 20
-105.21449299118861
 30
0.0
 40
114.1213697203453
 50
318.63582783495838
 51
336.47150970378198
  0
ARC
  8
DETAIL
  6
CONTINUOUS
 62
     5
 10
-357.2205642470235
 20
-192.005953044802
 30
0.0
 40
566.02582062289889
 50
16.036017535103269
 51
25.90876310996607
  0
ARC
  8
DETAIL
  6
CONTINUOUS
 62
     5
 10
157.32136686804461
 20
1.8584680661057289
 30
0.0
 40
8.2158818991889415
 50
198.32421693055531
 51
259.14223982650941
  0
ARC
  8
DETAIL
  6
CONTINUOUS
 62
     5
 10
146.62586121421819
 20
-23.538723577028691
 30
0.0
 40
19.59481170421974
 50
41.305488919961718
 51
62.16988383703157
  0
ARC
  8
DETAIL
  6
CONTINUOUS
 62
     5
 10
119.6835949738861
 20
-54.533914432280262
 30
0.0
 40
60.535995139255057
 50
28.942703381841611
 51
46.399320683199747
  0
ARC
  8
DETAIL
  6
CONTINUOUS
 62
     5
 10
184.36667993423359
 20
-36.524980570423168
 30
0.0
 40
2.5685578710644701
 50
253.8895383643069
 51
20.00932063610761
  0
ARC
  8
DETAIL
  6
CONTINUOUS
 62
     5
 10
221.8722402807125
 20
2.8305989631645621
 30
0.0
 40
56.655315702222651
 50
209.6984570523006
 51
227.57877618854761
  0
LINE
  8
DETAIL
  6
CONTINUOUS
 62
     5
 10
31.625461631856268
 20
-301.1523142125497
 30
0.0
 11
31.560693641618141
 21
-330.63583815028898
 31
0.0
  0
LINE
  8
DETAIL
  6
CONTINUOUS
 62
     5
 10
28.554913294797391
 20
-301.1675167065535
 30
0.0
 11
28.562951744111469
 21
-330.63583815028881
 31
0.0
  0
LINE
  8
DETAIL
  6
CONTINUOUS
 62
     5
 10
34.671988351204249
 20
-301.1548911413476
 30
0.0
 11
25.448940269748871
 21
-301.1675167065618
 31
0.0
  0
LINE
  8
DETAIL
  6
CONTINUOUS
 62
     5
 10
31.560693641618141
 20
-330.63583815028898
 30
0.0
 11
28.554913294797391
 21
-330.63583815028898
 31
0.0
  0
ARC
  8
DETAIL
  6
CONTINUOUS
 62
     5
 10
102.2760231250442
 20
-264.68091647231353
 30
0.0
 40
72.346415252166778
 50
126.51007698674999
 51
168.15056544986771
  0
ARC
  8
DETAIL
  6
CONTINUOUS
 62
     5
 10
93.1990120545004
 20
-258.74159347190931
 30
0.0
 40
52.617767440278392
 50
109.77854169722281
 51
167.44265300722131
  0
ARC
  8
DETAIL
  6
CONTINUOUS
 62
     5
 10
223.89971251316899
 20
-298.42100429899142
 30
0.0
 40
198.46977687903649
 50
165.82690712168491
 51
180.7929096048108
  0
ARC
  8
DETAIL
  6
CONTINUOUS
 62
     5
 10
214.3676356497354
 20
-297.66891549816211
 30
0.0
 40
179.72945691851081
 50
163.7254977206141
 51
181.11136048766221
  0
ARC
  8
DETAIL
  6
CONTINUOUS
 62
     5
 10
-64.698302871543746
 20
-300.28177475027388
 30
0.0
 40
93.288401342594582
 50
341.26559767941438
 51
358.93048145420352
  0
ARC
  8
DETAIL
  6
CONTINUOUS
 62
     5
 10
-83.243660941294053
 20
-290.68190558656522
 30
0.0
 40
116.70384386545371
 50
339.71577709401572
 51
343.32908134471859
  0
ARC
  8
DETAIL
  6
CONTINUOUS
 62
     5
 10
26.223586497475448
 20
-326.42927275239168
 30
0.0
 40
4.6809476812193793
 50
236.22958818170059
 51
270.0
  0
ARC
  8
OUTLINE
  6
CONTINUOUS
 62
     3
 10
162.37559337596491
 20
102.3959617978858
 30
0.0
 40
104.15687989476621
 50
15.98561550114422
 51
91.13728266431167
  0
ARC
  8
OUTLINE
  6
CONTINUOUS
 62
     3
 10
8.2323180310025634
 20
244.1276871842164
 30
0.0
 40
6.3066537981287443
 50
3.3896733457445958
 51
73.540138887628885
  0
ARC
  8
OUTLINE
  6
CONTINUOUS
 62
     3
 10
165.02702099786899
 20
-105.9872093097964
 30
0.0
 40
100.65578220703701
 50
267.31299314345392
 51
345.56410869026399
  0
ARC
  8
OUTLINE
  6
CONTINUOUS
 62
     3
 10
8.2323180310025634
 20
-244.1276539115417
 30
0.0
 40
6.3066537981287443
 50
286.45986111237107
 51
356.6103266542554
  0
TEXT
  8
ETC
  6
CONTINUOUS
 62
    61
 10
392.15785383116918
 20
277.91384156305111
 30
0.0
 40
40.0
  1
EWF-40ETA2
 41
0.9
  0
TEXT
  8
ETC
  6
CONTINUOUS
 62
    61
 10
392.15785383116918
 20
211.91384156305111
 30
0.0
 40
40.0
  1
EWF-40ETA2-PR
 41
0.9
  0
ENDSEC
  0
EOF
