  0
SECTION
  2
HEADER
  9
$ACADVER
  1
AC1009
  9
$DWGCODEPAGE
  3
dos932
  9
$INSBASE
 10
0.0
 20
0.0
 30
0.0
  9
$EXTMIN
 10
-584.60996874446391
 20
-463.02794241698939
 30
-0.0015257624927045
  9
$EXTMAX
 10
1236.7447017537711
 20
558.83789860973775
 30
0.0022888765696933
  9
$LIMMIN
 10
-2970.0
 20
-2100.0
  9
$LIMMAX
 10
2970.0
 20
2100.0
  9
$ORTHOMODE
 70
     1
  9
$REGENMODE
 70
     1
  9
$FILLMODE
 70
     1
  9
$QTEXTMODE
 70
     0
  9
$MIRRTEXT
 70
     0
  9
$LTSCALE
 40
20.0
  9
$ATTMODE
 70
     1
  9
$TEXTSIZE
 40
64.0
  9
$TRACEWID
 40
0.05
  9
$TEXTSTYLE
  7
STANDARD
  9
$CLAYER
  8
SIZE
  9
$CELTYPE
  6
CONTINUOUS
  9
$CECOLOR
 62
     7
  9
$DIMSCALE
 40
1.0
  9
$DIMASZ
 40
12.0
  9
$DIMEXO
 40
20.0
  9
$DIMDLI
 40
200.0
  9
$DIMRND
 40
0.0
  9
$DIMDLE
 40
0.0
  9
$DIMEXE
 40
20.0
  9
$DIMTP
 40
0.0
  9
$DIMTM
 40
0.0
  9
$DIMTXT
 40
64.0
  9
$DIMCEN
 40
0.09
  9
$DIMTSZ
 40
0.0
  9
$DIMTOL
 70
     0
  9
$DIMLIM
 70
     0
  9
$DIMTIH
 70
     0
  9
$DIMTOH
 70
     0
  9
$DIMSE1
 70
     0
  9
$DIMSE2
 70
     0
  9
$DIMTAD
 70
     1
  9
$DIMZIN
 70
     8
  9
$DIMBLK
  1

  9
$DIMASO
 70
     1
  9
$DIMSHO
 70
     0
  9
$DIMPOST
  1

  9
$DIMAPOST
  1

  9
$DIMALT
 70
     0
  9
$DIMALTD
 70
     2
  9
$DIMALTF
 40
25.399999999999999
  9
$DIMLFAC
 40
1.0
  9
$DIMTOFL
 70
     1
  9
$DIMTVP
 40
0.0
  9
$DIMTIX
 70
     1
  9
$DIMSOXD
 70
     0
  9
$DIMSAH
 70
     0
  9
$DIMBLK1
  1

  9
$DIMBLK2
  1

  9
$DIMSTYLE
  2
STANDARD
  9
$DIMCLRD
 70
     7
  9
$DIMCLRE
 70
     7
  9
$DIMCLRT
 70
     7
  9
$DIMTFAC
 40
1.0
  9
$DIMGAP
 40
25.0
  9
$LUNITS
 70
     2
  9
$LUPREC
 70
     4
  9
$SKETCHINC
 40
0.1
  9
$FILLETRAD
 40
3.0
  9
$AUNITS
 70
     1
  9
$AUPREC
 70
     3
  9
$MENU
  1
ACAD
  9
$ELEVATION
 40
0.0
  9
$PELEVATION
 40
0.0
  9
$THICKNESS
 40
50.0
  9
$LIMCHECK
 70
     0
  9
$CHAMFERA
 40
0.0
  9
$CHAMFERB
 40
0.0
  9
$SKPOLY
 70
     0
  9
$TDCREATE
 40
2453019.62301037
  9
$TDUPDATE
 40
2458949.444572315
  9
$TDINDWG
 40
1.7124928356
  9
$TDUSRTIMER
 40
1.7124928356
  9
$USRTIMER
 70
     1
  9
$ANGBASE
 50
0.0
  9
$ANGDIR
 70
     0
  9
$PDMODE
 70
     3
  9
$PDSIZE
 40
-2.0
  9
$PLINEWID
 40
0.0
  9
$SPLFRAME
 70
     0
  9
$SPLINETYPE
 70
     6
  9
$SPLINESEGS
 70
     8
  9
$SURFTAB1
 70
     6
  9
$SURFTAB2
 70
     6
  9
$SURFTYPE
 70
     6
  9
$SURFU
 70
     6
  9
$SURFV
 70
     6
  9
$UCSNAME
  2

  9
$UCSORG
 10
0.0
 20
0.0
 30
0.0
  9
$UCSXDIR
 10
1.0
 20
0.0
 30
0.0
  9
$UCSYDIR
 10
0.0
 20
1.0
 30
0.0
  9
$PUCSNAME
  2

  9
$PUCSORG
 10
0.0
 20
0.0
 30
0.0
  9
$PUCSXDIR
 10
1.0
 20
0.0
 30
0.0
  9
$PUCSYDIR
 10
0.0
 20
1.0
 30
0.0
  9
$USERI1
 70
     0
  9
$USERI2
 70
     0
  9
$USERI3
 70
     0
  9
$USERI4
 70
     0
  9
$USERI5
 70
     0
  9
$USERR1
 40
20.0
  9
$USERR2
 40
0.0
  9
$USERR3
 40
0.0
  9
$USERR4
 40
0.0
  9
$USERR5
 40
0.0
  9
$WORLDVIEW
 70
     1
  9
$SHADEDGE
 70
     3
  9
$SHADEDIF
 70
    70
  9
$TILEMODE
 70
     1
  9
$MAXACTVP
 70
    48
  9
$PINSBASE
 10
0.0
 20
0.0
 30
0.0
  9
$PLIMCHECK
 70
     0
  9
$PEXTMIN
 10
-100000000000000000000.0
 20
-100000000000000000000.0
 30
-100000000000000000000.0
  9
$PEXTMAX
 10
100000000000000000000.0
 20
100000000000000000000.0
 30
100000000000000000000.0
  9
$PLIMMIN
 10
0.0
 20
0.0
  9
$PLIMMAX
 10
12.0
 20
9.0
  9
$UNITMODE
 70
     0
  9
$VISRETAIN
 70
     0
  9
$PLINEGEN
 70
     0
  9
$PSLTSCALE
 70
     0
  9
$TREEDEPTH
 70
  3020
  9
$ATTDIA
 70
     0
  9
$ATTREQ
 70
     1
  9
$BLIPMODE
 70
     1
  9
$COORDS
 70
     1
  9
$DRAGMODE
 70
     2
  9
$OSMODE
 70
     0
  9
$HANDLING
 70
     0
  9
$HANDSEED
  5
F6E3
  0
ENDSEC
  0
SECTION
  2
TABLES
  0
TABLE
  2
LTYPE
 70
     2
  0
LTYPE
  2
CONTINUOUS
 70
     0
  3
実線
 72
    65
 73
     0
 40
0.0
  0
LTYPE
  2
DASHDOT
 70
     0
  3
____ _ ____ _ ____ _ ____ _ ____ _ ____ _ ____
 72
    65
 73
     4
 40
5.5
 49
4.0
 49
-0.6
 49
0.3
 49
-0.6
  0
ENDTAB
  0
TABLE
  2
LAYER
 70
    12
  0
LAYER
  2
0
 70
     0
 62
     7
  6
CONTINUOUS
  0
LAYER
  2
BASIS
 70
     0
 62
     6
  6
DASHDOT
  0
LAYER
  2
OUTLINE
 70
     0
 62
     3
  6
CONTINUOUS
  0
LAYER
  2
DETAIL
 70
     0
 62
     5
  6
CONTINUOUS
  0
LAYER
  2
SIZE
 70
     0
 62
    30
  6
CONTINUOUS
  0
LAYER
  2
ARRANGE
 70
     0
 62
     1
  6
CONTINUOUS
  0
LAYER
  2
DEFPOINTS
 70
     0
 62
     7
  6
CONTINUOUS
  0
LAYER
  2
ETC
 70
     0
 62
    61
  6
CONTINUOUS
  0
LAYER
  2
FIX
 70
     0
 62
    11
  6
CONTINUOUS
  0
LAYER
  2
NOTE
 70
     0
 62
     4
  6
CONTINUOUS
  0
LAYER
  2
SERVICESPACE
 70
    64
 62
     2
  6
DASHDOT
  0
LAYER
  2
SYMBOLLINE
 70
    64
 62
    15
  6
CONTINUOUS
  0
ENDTAB
  0
TABLE
  2
STYLE
 70
     1
  0
STYLE
  2
STANDARD
 70
     0
 40
64.0
 41
0.9
 50
0.0
 71
     0
 42
64.0
  3
SIMPLEX.shx
  4
BIGFONT.shx
  0
ENDTAB
  0
TABLE
  2
APPID
 70
    19
  0
APPID
  2
ACAD
 70
     0
  0
APPID
  2
AUTOCAD_POSTSCRIPT_FIGURE
 70
     0
  0
APPID
  2
ACAD_EXEMPT_FROM_CAD_STANDARDS
 70
     0
  0
APPID
  2
ACAD_PSEXT
 70
     0
  0
APPID
  2
ACAUTHENVIRON
 70
     0
  0
APPID
  2
GENIUS_GENOENT_13
 70
     0
  0
APPID
  2
GENIUS_GENCFG_13
 70
     0
  0
APPID
  2
GENIUS_GENCFG0_13
 70
     0
  0
APPID
  2
GENIUS_GENCFG1_13
 70
     0
  0
APPID
  2
GENIUS_GENCFG2_13
 70
     0
  0
APPID
  2
GENIUS_GENCFG3_13
 70
     0
  0
APPID
  2
GENIUS_GENCFG4_13
 70
     0
  0
APPID
  2
GENIUS_GEVCFG0_13
 70
     0
  0
APPID
  2
CONTENTBLOCKICON
 70
     0
  0
APPID
  2
CONTENTBLOCKDESCRIPTION
 70
     0
  0
APPID
  2
ACAD_NAV_VCDISPLAY
 70
     0
  0
APPID
  2
ACAD_MLEADERVER
 70
     0
  0
APPID
  2
ACDBDYNAMICBLOCKTRUENAME
 70
     0
  0
APPID
  2
ACDBDYNAMICBLOCKGUID
 70
     0
  0
ENDTAB
  0
TABLE
  2
DIMSTYLE
 70
     1
  0
DIMSTYLE
  2
STANDARD
 70
     0
  3

  4

  5
_ORIGIN
  6

  7

 40
1.0
 41
12.0
 42
20.0
 43
200.0
 44
20.0
 45
0.0
 46
0.0
 47
0.0
 48
0.0
140
64.0
141
0.09
142
0.0
143
25.399999999999999
144
1.0
145
0.0
146
1.0
147
25.0
 71
     0
 72
     0
 73
     0
 74
     0
 75
     0
 76
     0
 77
     1
 78
     8
170
     0
171
     2
172
     1
173
     0
174
     1
175
     0
176
     7
177
     7
178
     7
  0
ENDTAB
  0
TABLE
  2
VIEW
 70
     1
  0
VIEW
  2
ALL
 70
     0
 40
4282.6198079999986
 10
0.0
 20
41.309904000000003
 41
5940.0
 11
0.0
 21
0.0
 31
1.0
 12
0.0
 22
0.0
 32
0.0
 42
50.0
 43
0.0
 44
0.0
 50
0.0
 71
     0
  0
ENDTAB
  0
TABLE
  2
UCS
 70
     0
  0
ENDTAB
  0
TABLE
  2
VPORT
 70
     1
  0
VPORT
  2
*ACTIVE
 70
     0
 10
0.0
 20
0.0
 11
1.0
 21
1.0
 12
326.06736650465342
 22
47.904978096374123
 13
0.0
 23
0.0
 14
1.0
 24
1.0
 15
0.0
 25
0.0
 16
0.0
 26
0.0
 36
1.0
 17
0.0
 27
0.0
 37
0.0
 40
1046.0444698950801
 41
1.747787610619469
 42
50.0
 43
0.0
 44
0.0
 50
0.0
 51
0.0
 71
     0
 72
  1000
 73
     1
 74
     3
 75
     0
 76
     0
 77
     0
 78
     0
  0
ENDTAB
  0
ENDSEC
  0
SECTION
  2
BLOCKS
  0
BLOCK
  8
0
  2
_ORIGIN
 70
     0
 10
0.0
 20
0.0
 30
0.0
  3
_ORIGIN
  1
_ORIGIN
  0
CIRCLE
  8
0
  6
CONTINUOUS
 62
     7
 10
0.0
 20
0.0
 30
0.0
 40
0.5
  0
LINE
  8
0
  6
CONTINUOUS
 62
     7
 10
0.0
 20
0.0
 30
0.0
 11
-1.0
 21
0.0
 31
0.0
  0
ENDBLK
  8
0
  0
ENDSEC
  0
SECTION
  2
ENTITIES
  0
TEXT
  8
ETC
  6
CONTINUOUS
 62
    61
 10
344.87539504366401
 20
494.56101113953292
 30
0.0
 40
64.0
  1
EWF-40ETA40A2-Q_1
 41
0.9
  0
TEXT
  8
ETC
  6
CONTINUOUS
 62
    61
 10
340.68940104366362
 20
376.60570112470168
 30
0.0
 40
64.0
  1
産業扇
 41
0.9
  0
CIRCLE
  8
ARRANGE
  6
CONTINUOUS
 62
     1
 10
0.0
 20
0.0
 30
0.0
 40
40.0
  0
POINT
  8
ARRANGE
  6
CONTINUOUS
 62
     1
 10
0.0
 20
0.0
 30
0.0
  0
TEXT
  8
ETC
  6
CONTINUOUS
 62
    61
 10
391.39079929221953
 20
268.45692823847639
 30
0.0
 40
40.0
  1
EWF-40ETA40A2-Q
 41
0.9
  0
LINE
  8
SIZE
  6
CONTINUOUS
 62
    30
 10
-259.99999722098443
 20
18.5
 30
0.0
 11
-259.99999722098443
 21
264.96668498765212
 31
0.0
  0
LINE
  8
SIZE
  6
CONTINUOUS
 62
    30
 10
259.9912425583293
 20
18.65911678100144
 30
0.0
 11
259.9912425583293
 21
264.96668498765212
 31
0.0
  0
LINE
  8
SIZE
  6
CONTINUOUS
 62
    30
 10
-247.9999972209844
 20
244.96668498765209
 30
0.0
 11
247.9912425583293
 21
244.96668498765209
 31
0.0
  0
CIRCLE
  8
SIZE
  6
CONTINUOUS
 62
    30
 10
-259.99999722098443
 20
244.96668498765209
 30
0.0
 40
6.0
  0
LINE
  8
SIZE
  6
CONTINUOUS
 62
    30
 10
-259.99999722098443
 20
244.96668498765209
 30
0.0
 11
-247.9999972209844
 21
244.96668498765209
 31
0.0
  0
CIRCLE
  8
SIZE
  6
CONTINUOUS
 62
    30
 10
259.9912425583293
 20
244.96668498765209
 30
0.0
 40
6.0
  0
LINE
  8
SIZE
  6
CONTINUOUS
 62
    30
 10
259.9912425583293
 20
244.96668498765209
 30
0.0
 11
247.9912425583293
 21
244.96668498765209
 31
0.0
  0
TEXT
  8
SIZE
  6
CONTINUOUS
 62
    30
 10
-74.057142857371588
 20
269.96668498765212
 30
0.0
 40
64.0
  1
520
 41
0.9
 72
     1
 11
-0.0000000002287379
 21
269.96668498765212
 31
0.0
  0
POINT
  8
DEFPOINTS
  6
CONTINUOUS
 62
    30
 10
-259.99999722098443
 20
-1.5
 30
0.0
  0
POINT
  8
DEFPOINTS
  6
CONTINUOUS
 62
    30
 10
259.9912425583293
 20
-1.3408832189986699
 30
0.0
  0
POINT
  8
DEFPOINTS
  6
CONTINUOUS
 62
    30
 10
259.9912425583293
 20
244.96668498765209
 30
0.0
  0
LINE
  8
SIZE
  6
CONTINUOUS
 62
    30
 10
-230.4431599229288
 20
34.486821293642492
 30
0.0
 11
-230.4431599229288
 21
151.39419561661629
 31
0.0
  0
LINE
  8
SIZE
  6
CONTINUOUS
 62
    30
 10
230.4431599229288
 20
34.486821293642492
 30
0.0
 11
230.4431599229288
 21
151.39419561661629
 31
0.0
  0
LINE
  8
SIZE
  6
CONTINUOUS
 62
    30
 10
-218.4431599229288
 20
131.39419561661629
 30
0.0
 11
218.4431599229288
 21
131.39419561661629
 31
0.0
  0
CIRCLE
  8
SIZE
  6
CONTINUOUS
 62
    30
 10
-230.4431599229288
 20
131.39419561661629
 30
0.0
 40
6.0
  0
LINE
  8
SIZE
  6
CONTINUOUS
 62
    30
 10
-230.4431599229288
 20
131.39419561661629
 30
0.0
 11
-218.4431599229288
 21
131.39419561661629
 31
0.0
  0
CIRCLE
  8
SIZE
  6
CONTINUOUS
 62
    30
 10
230.4431599229288
 20
131.39419561661629
 30
0.0
 40
6.0
  0
LINE
  8
SIZE
  6
CONTINUOUS
 62
    30
 10
230.4431599229288
 20
131.39419561661629
 30
0.0
 11
218.4431599229288
 21
131.39419561661629
 31
0.0
  0
TEXT
  8
SIZE
  6
CONTINUOUS
 62
    30
 10
-74.05714285714285
 20
156.39419561661629
 30
0.0
 40
64.0
  1
460
 41
0.9
 72
     1
 11
0.0
 21
156.39419561661629
 31
0.0
  0
POINT
  8
DEFPOINTS
  6
CONTINUOUS
 62
    30
 10
-230.4431599229288
 20
14.486821293642491
 30
0.0
  0
POINT
  8
DEFPOINTS
  6
CONTINUOUS
 62
    30
 10
230.4431599229288
 20
14.486821293642491
 30
0.0
  0
POINT
  8
DEFPOINTS
  6
CONTINUOUS
 62
    30
 10
230.4431599229288
 20
131.39419561661629
 30
0.0
  0
CIRCLE
  8
FIX
  6
CONTINUOUS
 62
    11
 10
-230.4431599229288
 20
0.247200003400053
 30
0.0
 40
7.0
  0
CIRCLE
  8
FIX
  6
CONTINUOUS
 62
    11
 10
230.4431599229288
 20
0.0
 30
0.0
 40
7.0
  0
LINE
  8
SIZE
  6
CONTINUOUS
 62
    30
 10
278.49710982658962
 20
0.0
 30
0.0
 11
404.81452190754771
 21
0.0
 31
0.0
  0
LINE
  8
SIZE
  6
CONTINUOUS
 62
    30
 10
273.38728323699428
 20
-10.019267822735969
 30
0.0
 11
404.81452190754771
 21
-10.019267822736079
 31
0.0
  0
LINE
  8
SIZE
  6
CONTINUOUS
 62
    30
 10
384.81452190754771
 20
-22.019267822736079
 30
0.0
 11
384.81452190754771
 21
-34.019267822735969
 31
0.0
  0
LINE
  8
SIZE
  6
CONTINUOUS
 62
    30
 10
384.81452190754771
 20
11.99999999999989
 30
0.0
 11
384.81452190754771
 21
156.28571428571419
 31
0.0
  0
LINE
  8
SIZE
  6
CONTINUOUS
 62
    30
 10
384.81452190754771
 20
-10.019267822736079
 30
0.0
 11
384.81452190754771
 21
0.0
 31
0.0
  0
CIRCLE
  8
SIZE
  6
CONTINUOUS
 62
    30
 10
384.81452190754771
 20
-10.019267822736079
 30
0.0
 40
6.0
  0
LINE
  8
SIZE
  6
CONTINUOUS
 62
    30
 10
384.81452190754771
 20
-10.019267822736079
 30
0.0
 11
384.81452190754771
 21
-22.019267822736079
 31
0.0
  0
CIRCLE
  8
SIZE
  6
CONTINUOUS
 62
    30
 10
384.81452190754771
 20
0.0
 30
0.0
 40
6.0
  0
LINE
  8
SIZE
  6
CONTINUOUS
 62
    30
 10
384.81452190754771
 20
0.0
 30
0.0
 11
384.81452190754771
 21
11.99999999999989
 31
0.0
  0
TEXT
  8
SIZE
  6
CONTINUOUS
 62
    30
 10
359.81452190754771
 20
49.000000000000092
 30
0.0
 40
64.0
  1
10
 50
90.0
 41
0.9
 72
     1
 11
359.81452190754771
 21
90.142857142857224
 31
0.0
  0
POINT
  8
DEFPOINTS
  6
CONTINUOUS
 62
    30
 10
258.49710982658962
 20
0.0
 30
0.0
  0
POINT
  8
DEFPOINTS
  6
CONTINUOUS
 62
    30
 10
253.38728323699431
 20
-10.019267822735969
 30
0.0
  0
POINT
  8
DEFPOINTS
  6
CONTINUOUS
 62
    30
 10
384.81452190754771
 20
-10.019267822736079
 30
0.0
  0
LINE
  8
SIZE
  6
CONTINUOUS
 62
    30
 10
273.38728323699428
 20
-10.019267822735969
 30
0.0
 11
404.81452190754771
 21
-10.019267822736079
 31
0.0
  0
LINE
  8
SIZE
  6
CONTINUOUS
 62
    30
 10
263.36801541425802
 20
-20.038535645471939
 30
0.0
 11
404.81452190754771
 21
-20.038535645472049
 31
0.0
  0
LINE
  8
SIZE
  6
CONTINUOUS
 62
    30
 10
384.81452190754771
 20
1.9807321772640309
 30
0.0
 11
384.81452190754771
 21
13.980732177263921
 31
0.0
  0
LINE
  8
SIZE
  6
CONTINUOUS
 62
    30
 10
384.81452190754771
 20
-32.038535645472052
 30
0.0
 11
384.81452190754771
 21
-257.26694449511137
 31
0.0
  0
LINE
  8
SIZE
  6
CONTINUOUS
 62
    30
 10
384.81452190754771
 20
-10.019267822736079
 30
0.0
 11
384.81452190754771
 21
-20.038535645472049
 31
0.0
  0
CIRCLE
  8
SIZE
  6
CONTINUOUS
 62
    30
 10
384.81452190754771
 20
-10.019267822736079
 30
0.0
 40
6.0
  0
LINE
  8
SIZE
  6
CONTINUOUS
 62
    30
 10
384.81452190754771
 20
-10.019267822736079
 30
0.0
 11
384.81452190754771
 21
1.9807321772640309
 31
0.0
  0
CIRCLE
  8
SIZE
  6
CONTINUOUS
 62
    30
 10
384.81452190754771
 20
-20.038535645472049
 30
0.0
 40
6.0
  0
LINE
  8
SIZE
  6
CONTINUOUS
 62
    30
 10
384.81452190754771
 20
-20.038535645472049
 30
0.0
 11
384.81452190754771
 21
-32.038535645472052
 31
0.0
  0
TEXT
  8
SIZE
  6
CONTINUOUS
 62
    30
 10
359.81452190754771
 20
-232.2669444951112
 30
0.0
 40
64.0
  1
10
 50
90.0
 41
0.9
 72
     1
 11
359.81452190754771
 21
-191.12408735225401
 31
0.0
  0
POINT
  8
DEFPOINTS
  6
CONTINUOUS
 62
    30
 10
253.38728323699431
 20
-10.019267822735969
 30
0.0
  0
POINT
  8
DEFPOINTS
  6
CONTINUOUS
 62
    30
 10
243.368015414258
 20
-20.038535645471939
 30
0.0
  0
POINT
  8
DEFPOINTS
  6
CONTINUOUS
 62
    30
 10
384.81452190754771
 20
-20.038535645472049
 30
0.0
  0
LINE
  8
SIZE
  6
CONTINUOUS
 62
    30
 10
278.49710982658962
 20
0.0
 30
0.0
 11
531.55286783170322
 21
0.0
 31
0.0
  0
LINE
  8
SIZE
  6
CONTINUOUS
 62
    30
 10
200.14184516102389
 20
-135.26011560693661
 30
0.0
 11
531.55286783170322
 21
-135.26011560693669
 31
0.0
  0
LINE
  8
SIZE
  6
CONTINUOUS
 62
    30
 10
511.55286783170322
 20
-12.00000000000011
 30
0.0
 11
511.55286783170322
 21
-123.26011560693669
 31
0.0
  0
LINE
  8
SIZE
  6
CONTINUOUS
 62
    30
 10
511.55286783170322
 20
-135.26011560693669
 30
0.0
 11
511.55286783170322
 21
-334.40297274979372
 31
0.0
  0
CIRCLE
  8
SIZE
  6
CONTINUOUS
 62
    30
 10
511.55286783170322
 20
0.0
 30
0.0
 40
6.0
  0
LINE
  8
SIZE
  6
CONTINUOUS
 62
    30
 10
511.55286783170322
 20
0.0
 30
0.0
 11
511.55286783170322
 21
-12.00000000000011
 31
0.0
  0
CIRCLE
  8
SIZE
  6
CONTINUOUS
 62
    30
 10
511.55286783170322
 20
-135.26011560693669
 30
0.0
 40
6.0
  0
LINE
  8
SIZE
  6
CONTINUOUS
 62
    30
 10
511.55286783170322
 20
-135.26011560693669
 30
0.0
 11
511.55286783170322
 21
-123.26011560693669
 31
0.0
  0
TEXT
  8
SIZE
  6
CONTINUOUS
 62
    30
 10
486.55286783170322
 20
-309.40297274979372
 30
0.0
 40
64.0
  1
135
 50
90.0
 41
0.9
 72
     1
 11
486.55286783170322
 21
-240.83154417836511
 31
0.0
  0
POINT
  8
DEFPOINTS
  6
CONTINUOUS
 62
    30
 10
258.49710982658962
 20
0.0
 30
0.0
  0
POINT
  8
DEFPOINTS
  6
CONTINUOUS
 62
    30
 10
180.14184516102389
 20
-135.26011560693661
 30
0.0
  0
POINT
  8
DEFPOINTS
  6
CONTINUOUS
 62
    30
 10
511.55286783170322
 20
-135.26011560693669
 30
0.0
  0
TEXT
  8
NOTE
  6
CONTINUOUS
 62
     4
 10
-577.23322031510793
 20
89.813382410918052
 30
0.0
 40
64.0
  1
4-φ14
 41
0.9
  0
LINE
  8
SIZE
  6
CONTINUOUS
 62
    30
 10
-278.49710982658962
 20
0.0
 30
0.0
 11
-383.81931770129682
 21
0.0
 31
0.0
  0
LINE
  8
SIZE
  6
CONTINUOUS
 62
    30
 10
-19.917622206577111
 20
-308.19585759631519
 30
0.0
 11
-383.81931770129682
 21
-308.19585759631519
 31
0.0
  0
LINE
  8
SIZE
  6
CONTINUOUS
 62
    30
 10
-363.81931770129682
 20
-12.0
 30
0.0
 11
-363.81931770129682
 21
-296.19585759631519
 31
0.0
  0
CIRCLE
  8
SIZE
  6
CONTINUOUS
 62
    30
 10
-363.81931770129682
 20
0.0
 30
0.0
 40
6.0
  0
LINE
  8
SIZE
  6
CONTINUOUS
 62
    30
 10
-363.81931770129682
 20
0.0
 30
0.0
 11
-363.81931770129682
 21
-12.0
 31
0.0
  0
CIRCLE
  8
SIZE
  6
CONTINUOUS
 62
    30
 10
-363.81931770129682
 20
-308.19585759631519
 30
0.0
 40
6.0
  0
LINE
  8
SIZE
  6
CONTINUOUS
 62
    30
 10
-363.81931770129682
 20
-308.19585759631519
 30
0.0
 11
-363.81931770129682
 21
-296.19585759631519
 31
0.0
  0
TEXT
  8
SIZE
  6
CONTINUOUS
 62
    30
 10
-388.81931770129682
 20
-228.1550716553005
 30
0.0
 40
64.0
  1
308
 50
90.0
 41
0.9
 72
     1
 11
-388.81931770129682
 21
-154.09792879815771
 31
0.0
  0
POINT
  8
DEFPOINTS
  6
CONTINUOUS
 62
    30
 10
-258.49710982658962
 20
0.0
 30
0.0
  0
POINT
  8
DEFPOINTS
  6
CONTINUOUS
 62
    30
 10
0.0823777934228929
 20
-308.19585759631519
 30
0.0
  0
POINT
  8
DEFPOINTS
  6
CONTINUOUS
 62
    30
 10
-363.81931770129682
 20
-308.19585759631519
 30
0.0
  0
LINE
  8
NOTE
  6
CONTINUOUS
 62
     4
 10
-233.1479144340901
 20
5.7438390598275646
 30
0.0
 11
-230.38451579445791
 21
0.1807169823895265
 31
0.0
  0
LINE
  8
NOTE
  6
CONTINUOUS
 62
     4
 10
-230.38451579445791
 20
0.1807169823895265
 30
0.0
 11
-235.55925543389409
 21
3.6168149079512659
 31
0.0
  0
LINE
  8
NOTE
  6
CONTINUOUS
 62
     4
 10
-230.38451579445791
 20
0.1807169823895265
 30
0.0
 11
-238.32265407352631
 21
9.179936985389304
 31
0.0
  0
LINE
  8
NOTE
  6
CONTINUOUS
 62
     4
 10
-238.32265407352611
 20
9.179936985389304
 30
0.0
 11
-286.48810867395952
 21
63.783611960005032
 31
0.0
  0
LINE
  8
NOTE
  6
CONTINUOUS
 62
     4
 10
-286.48810867395952
 20
63.783611960005032
 30
0.0
 11
-584.35667091899359
 21
63.945066809185391
 31
0.0
  0
LINE
  8
NOTE
  6
CONTINUOUS
 62
     4
 10
-230.4431599229288
 20
-34.681212037984778
 30
0.0
 11
-230.4431599229288
 21
14.486821293642491
 31
0.0
  0
LINE
  8
NOTE
  6
CONTINUOUS
 62
     4
 10
230.4431599229288
 20
-34.681212037984778
 30
0.0
 11
230.4431599229288
 21
14.486821293642491
 31
0.0
  0
LINE
  8
SIZE
  6
CONTINUOUS
 62
    30
 10
-65.325626204239143
 20
-318.27360308285188
 30
0.0
 11
-65.325626204239143
 21
-462.88094283804162
 31
0.0
  0
LINE
  8
SIZE
  6
CONTINUOUS
 62
    30
 10
65.325626204238915
 20
-318.27360308285188
 30
0.0
 11
65.325626204238915
 21
-462.88094283804162
 31
0.0
  0
LINE
  8
SIZE
  6
CONTINUOUS
 62
    30
 10
-53.325626204239143
 20
-442.88094283804162
 30
0.0
 11
53.325626204238922
 21
-442.88094283804162
 31
0.0
  0
LINE
  8
SIZE
  6
CONTINUOUS
 62
    30
 10
65.325626204238915
 20
-442.88094283804162
 30
0.0
 11
300.12562620423893
 21
-442.88094283804162
 31
0.0
  0
CIRCLE
  8
SIZE
  6
CONTINUOUS
 62
    30
 10
-65.325626204239143
 20
-442.88094283804162
 30
0.0
 40
6.0
  0
LINE
  8
SIZE
  6
CONTINUOUS
 62
    30
 10
-65.325626204239143
 20
-442.88094283804162
 30
0.0
 11
-53.325626204239143
 21
-442.88094283804162
 31
0.0
  0
CIRCLE
  8
SIZE
  6
CONTINUOUS
 62
    30
 10
65.325626204238915
 20
-442.88094283804162
 30
0.0
 40
6.0
  0
LINE
  8
SIZE
  6
CONTINUOUS
 62
    30
 10
65.325626204238915
 20
-442.88094283804162
 30
0.0
 11
53.325626204238922
 21
-442.88094283804162
 31
0.0
  0
TEXT
  8
SIZE
  6
CONTINUOUS
 62
    30
 10
92.177054775667358
 20
-407.21427617137522
 30
0.0
 40
64.0
  1
φ131
 41
0.9
 72
     1
 11
188.72562620423881
 21
-407.21427617137522
 31
0.0
  0
POINT
  8
DEFPOINTS
  6
CONTINUOUS
 62
    30
 10
-65.325626204239143
 20
-298.27360308285188
 30
0.0
  0
POINT
  8
DEFPOINTS
  6
CONTINUOUS
 62
    30
 10
65.325626204238915
 20
-298.27360308285188
 30
0.0
  0
POINT
  8
DEFPOINTS
  6
CONTINUOUS
 62
    30
 10
65.325626204238915
 20
-442.88094283804162
 30
0.0
  0
LINE
  8
OUTLINE
  6
CONTINUOUS
 62
     3
 10
-89.672447013487272
 20
-283.54527938342972
 30
0.0
 11
-89.672447013487272
 21
-279.53757225433537
 31
0.0
  0
LINE
  8
OUTLINE
  6
CONTINUOUS
 62
     3
 10
89.672447013487272
 20
-283.54527938342972
 30
0.0
 11
89.672447013487272
 21
-279.53757225433537
 31
0.0
  0
ARC
  8
OUTLINE
  6
CONTINUOUS
 62
     3
 10
258.49710982658962
 20
-1.5028901734103779
 30
0.0
 40
1.502890173410377
 50
270.0
 51
90.0
  0
LINE
  8
OUTLINE
  6
CONTINUOUS
 62
     3
 10
258.49710982658962
 20
0.0
 30
0.0
 11
-258.49710982658962
 21
0.0
 31
0.0
  0
ARC
  8
OUTLINE
  6
CONTINUOUS
 62
     3
 10
-258.49710982658962
 20
-1.5028901734103779
 30
0.0
 40
1.502890173410377
 50
90.0
 51
270.0
  0
LINE
  8
OUTLINE
  6
CONTINUOUS
 62
     3
 10
-250.1758680125117
 20
-10.01926782273677
 30
0.0
 11
-253.38728323699479
 21
-10.01926782273677
 31
0.0
  0
ARC
  8
OUTLINE
  6
CONTINUOUS
 62
     3
 10
-253.38728323699479
 20
-6.4123314065516297
 30
0.0
 40
3.606936416184908
 50
180.0
 51
270.0
  0
LINE
  8
OUTLINE
  6
CONTINUOUS
 62
     3
 10
-256.99421965317919
 20
-6.4123314065516297
 30
0.0
 11
-256.99421965317919
 21
-3.005780346821211
 31
0.0
  0
LINE
  8
OUTLINE
  6
CONTINUOUS
 62
     3
 10
-246.97495183044339
 20
-16.431599229287261
 30
0.0
 11
-246.97495183044339
 21
-13.89435725155772
 31
0.0
  0
ARC
  8
OUTLINE
  6
CONTINUOUS
 62
     3
 10
-243.36801541425891
 20
-16.431599229287261
 30
0.0
 40
3.606936416184908
 50
180.0
 51
270.0
  0
LINE
  8
OUTLINE
  6
CONTINUOUS
 62
     3
 10
-256.99421965317919
 20
-3.005780346821211
 30
0.0
 11
-258.49710982658962
 21
-3.005780346821211
 31
0.0
  0
LINE
  8
OUTLINE
  6
CONTINUOUS
 62
     3
 10
-233.3487475914267
 20
-20.03853564547239
 30
0.0
 11
-243.36801541425891
 21
-20.03853564547239
 31
0.0
  0
LINE
  8
OUTLINE
  6
CONTINUOUS
 62
     3
 10
-209.80344137987689
 20
-135.26011560693681
 30
0.0
 11
-207.0636755969276
 21
-135.26011560693681
 31
0.0
  0
ARC
  8
OUTLINE
  6
CONTINUOUS
 62
     3
 10
-209.80346820809291
 20
-133.25626204238961
 30
0.0
 40
2.0038535645471711
 50
90.0
 51
270.0
  0
LINE
  8
OUTLINE
  6
CONTINUOUS
 62
     3
 10
-209.74581109070911
 20
-131.25240847784241
 30
0.0
 11
-207.0636755969276
 21
-131.25240847784241
 31
0.0
  0
LINE
  8
OUTLINE
  6
CONTINUOUS
 62
     3
 10
-207.0636755969276
 20
-177.3410404624282
 30
0.0
 11
-207.0636755969276
 21
-135.26011560693681
 31
0.0
  0
LINE
  8
OUTLINE
  6
CONTINUOUS
 62
     3
 10
-207.0636755969276
 20
-131.25240847784241
 30
0.0
 11
-207.0636755969276
 21
-52.750232901184518
 31
0.0
  0
ARC
  8
OUTLINE
  6
CONTINUOUS
 62
     3
 10
-57.911368015415057
 20
-298.27360308285228
 30
0.0
 40
7.4142581888245314
 50
180.0
 51
270.0
  0
LINE
  8
OUTLINE
  6
CONTINUOUS
 62
     3
 10
57.91136801541461
 20
-305.68786127167641
 30
0.0
 11
-57.911368015415057
 21
-305.68786127167641
 31
0.0
  0
ARC
  8
OUTLINE
  6
CONTINUOUS
 62
     3
 10
57.91136801541461
 20
-298.27360308285228
 30
0.0
 40
7.4142581888245314
 50
270.0
 51
0.0
  0
LINE
  8
OUTLINE
  6
CONTINUOUS
 62
     3
 10
89.672447013487272
 20
-279.53757225433537
 30
0.0
 11
134.79981495294939
 21
-279.53757225434549
 31
0.0
  0
LINE
  8
OUTLINE
  6
CONTINUOUS
 62
     3
 10
65.325626204239143
 20
-298.27360308285228
 30
0.0
 11
65.325626204239143
 21
-283.54527938342972
 31
0.0
  0
LINE
  8
OUTLINE
  6
CONTINUOUS
 62
     3
 10
89.672447013487272
 20
-283.54527938342972
 30
0.0
 11
65.325626204239143
 21
-283.54527938342972
 31
0.0
  0
LINE
  8
OUTLINE
  6
CONTINUOUS
 62
     3
 10
-134.79981495363219
 20
-279.53757225433537
 30
0.0
 11
-89.672447013487272
 21
-279.53757225433537
 31
0.0
  0
LINE
  8
OUTLINE
  6
CONTINUOUS
 62
     3
 10
-65.325626204239143
 20
-283.54527938342972
 30
0.0
 11
-89.672447013487272
 21
-283.54527938342972
 31
0.0
  0
LINE
  8
OUTLINE
  6
CONTINUOUS
 62
     3
 10
-65.325626204239143
 20
-298.27360308285228
 30
0.0
 11
-65.325626204239143
 21
-283.54527938342972
 31
0.0
  0
LINE
  8
OUTLINE
  6
CONTINUOUS
 62
     3
 10
207.06367559692671
 20
-135.26011560693681
 30
0.0
 11
209.803468208092
 21
-135.26011560693681
 31
0.0
  0
ARC
  8
OUTLINE
  6
CONTINUOUS
 62
     3
 10
209.803468208092
 20
-133.25626204238961
 30
0.0
 40
2.0038535645471711
 50
270.0
 51
90.0
  0
LINE
  8
OUTLINE
  6
CONTINUOUS
 62
     3
 10
207.06367559692671
 20
-131.25240847784241
 30
0.0
 11
209.803468208092
 21
-131.25240847784241
 31
0.0
  0
LINE
  8
OUTLINE
  6
CONTINUOUS
 62
     3
 10
207.06367559692671
 20
-135.26011560693681
 30
0.0
 11
207.06367559692671
 21
-177.3410404624282
 31
0.0
  0
LINE
  8
OUTLINE
  6
CONTINUOUS
 62
     3
 10
246.9749518304429
 20
-13.89435725155772
 30
0.0
 11
246.9749518304429
 21
-16.431599229287261
 31
0.0
  0
ARC
  8
OUTLINE
  6
CONTINUOUS
 62
     3
 10
243.3680154142576
 20
-16.431599229287261
 30
0.0
 40
3.606936416184908
 50
270.0
 51
0.0
  0
LINE
  8
OUTLINE
  6
CONTINUOUS
 62
     3
 10
253.38728323699391
 20
-10.01926782273677
 30
0.0
 11
250.1758680125113
 21
-10.01926782273677
 31
0.0
  0
ARC
  8
OUTLINE
  6
CONTINUOUS
 62
     3
 10
253.38728323699391
 20
-6.4123314065516297
 30
0.0
 40
3.606936416184908
 50
270.0
 51
0.0
  0
LINE
  8
OUTLINE
  6
CONTINUOUS
 62
     3
 10
258.49710982658871
 20
-3.005780346821211
 30
0.0
 11
256.99421965317828
 21
-3.005780346821211
 31
0.0
  0
LINE
  8
OUTLINE
  6
CONTINUOUS
 62
     3
 10
256.99421965317828
 20
-3.005780346821211
 30
0.0
 11
256.99421965317828
 21
-6.4123314065516297
 31
0.0
  0
LINE
  8
OUTLINE
  6
CONTINUOUS
 62
     3
 10
243.3680154142576
 20
-20.03853564547239
 30
0.0
 11
233.34874759149221
 21
-20.03853564547239
 31
0.0
  0
LINE
  8
OUTLINE
  6
CONTINUOUS
 62
     3
 10
207.06367559692671
 20
-52.750232903762942
 30
0.0
 11
207.06367559692671
 21
-131.25240847784241
 31
0.0
  0
LINE
  8
DETAIL
  6
CONTINUOUS
 62
     5
 10
-256.99421965317953
 20
-6.4123314065514023
 30
0.0
 11
-256.99421965317953
 21
-3.005780346821211
 31
0.0
  0
LINE
  8
DETAIL
  6
CONTINUOUS
 62
     5
 10
-253.8226442489304
 20
-3.005780346821211
 30
0.0
 11
-253.8226442489304
 21
-5.1098265895957411
 31
0.0
  0
LINE
  8
DETAIL
  6
CONTINUOUS
 62
     5
 10
-246.97495183044319
 20
-16.431599229287261
 30
0.0
 11
-246.97495183044319
 21
-13.89435725155772
 31
0.0
  0
LINE
  8
DETAIL
  6
CONTINUOUS
 62
     5
 10
-207.0636755969272
 20
-177.3410404624282
 30
0.0
 11
-207.0636755969272
 21
-14.527938342967451
 31
0.0
  0
LINE
  8
DETAIL
  6
CONTINUOUS
 62
     5
 10
-204.22979870900599
 20
-5.1098265895957411
 30
0.0
 11
-204.22979870900599
 21
-3.005780346821211
 31
0.0
  0
LINE
  8
DETAIL
  6
CONTINUOUS
 62
     5
 10
-202.8128602650454
 20
-14.527938342967451
 30
0.0
 11
-202.8128602650454
 21
-177.3410404624282
 31
0.0
  0
LINE
  8
DETAIL
  6
CONTINUOUS
 62
     5
 10
-192.8942911573204
 20
-3.005780346821211
 30
0.0
 11
-192.8942911573204
 21
-6.4123314065514023
 31
0.0
  0
LINE
  8
DETAIL
  6
CONTINUOUS
 62
     5
 10
-185.15147907239199
 20
-14.527938342967451
 30
0.0
 11
-185.15147907239199
 21
-18.535645472061791
 31
0.0
  0
LINE
  8
DETAIL
  6
CONTINUOUS
 62
     5
 10
-180.14184516102389
 20
-14.527938342967451
 30
0.0
 11
-180.14184516102389
 21
-18.08820301814194
 31
0.0
  0
LINE
  8
DETAIL
  6
CONTINUOUS
 62
     5
 10
-180.14184516102389
 20
-18.535645472061791
 30
0.0
 11
-180.14184516102389
 21
-177.3410404624282
 31
0.0
  0
LINE
  8
DETAIL
  6
CONTINUOUS
 62
     5
 10
-175.13221124965591
 20
-18.535645472061791
 30
0.0
 11
-175.13221124965591
 21
-14.527938342967451
 31
0.0
  0
LINE
  8
DETAIL
  6
CONTINUOUS
 62
     5
 10
-163.13858383349589
 20
-14.527938342967451
 30
0.0
 11
-163.13858383349589
 21
-10.01926782273631
 31
0.0
  0
LINE
  8
DETAIL
  6
CONTINUOUS
 62
     5
 10
-151.09460705917991
 20
-13.025048169557071
 30
0.0
 11
-151.09460705917991
 21
-16.431599229287261
 31
0.0
  0
LINE
  8
DETAIL
  6
CONTINUOUS
 62
     5
 10
-4.7090558766860804
 20
-306.1888246628132
 30
0.0
 11
4.7090558766858521
 21
-306.1888246628132
 31
0.0
  0
LINE
  8
DETAIL
  6
CONTINUOUS
 62
     5
 10
57.911368015414148
 20
-305.68786127167641
 30
0.0
 11
-57.911368015414148
 21
-305.68786127167641
 31
0.0
  0
LINE
  8
DETAIL
  6
CONTINUOUS
 62
     5
 10
89.672447013487272
 20
-283.54527938342972
 30
0.0
 11
-89.672447013487499
 21
-283.54527938342972
 31
0.0
  0
LINE
  8
DETAIL
  6
CONTINUOUS
 62
     5
 10
-134.79981495363219
 20
-279.53757225433537
 30
0.0
 11
-89.672447013487499
 21
-279.53757225433537
 31
0.0
  0
LINE
  8
DETAIL
  6
CONTINUOUS
 62
     5
 10
89.672447013487272
 20
-279.53757225433537
 30
0.0
 11
134.79981495298151
 21
-279.53757225433537
 31
0.0
  0
LINE
  8
DETAIL
  6
CONTINUOUS
 62
     5
 10
-0.6705511643269801
 20
-257.41657089763038
 30
0.0
 11
0.6705030750945298
 21
-257.41657089763038
 31
0.0
  0
LINE
  8
DETAIL
  6
CONTINUOUS
 62
     5
 10
-2.5793238251383168
 20
-256.02826042369202
 30
0.0
 11
2.5793139581112432
 21
-256.02826042369202
 31
0.0
  0
LINE
  8
DETAIL
  6
CONTINUOUS
 62
     5
 10
-89.672447013487499
 20
-283.54527938342972
 30
0.0
 11
-89.672447013487499
 21
-247.47591522158021
 31
0.0
  0
LINE
  8
DETAIL
  6
CONTINUOUS
 62
     5
 10
-130.54899962109991
 20
-247.47591522158021
 30
0.0
 11
-89.672447013487499
 21
-247.47591522158021
 31
0.0
  0
LINE
  8
DETAIL
  6
CONTINUOUS
 62
     5
 10
89.672447013487272
 20
-247.47591522158021
 30
0.0
 11
130.54899962109951
 21
-247.47591522158021
 31
0.0
  0
LINE
  8
DETAIL
  6
CONTINUOUS
 62
     5
 10
83.660886319845758
 20
-242.46628131021239
 30
0.0
 11
-83.660886319845758
 21
-242.46628131021239
 31
0.0
  0
LINE
  8
DETAIL
  6
CONTINUOUS
 62
     5
 10
-86.16570327552995
 20
-242.46628131021239
 30
0.0
 11
-83.869947366163842
 21
-242.46628131021239
 31
0.0
  0
LINE
  8
DETAIL
  6
CONTINUOUS
 62
     5
 10
83.869947366163615
 20
-242.46628131021239
 30
0.0
 11
86.165703275529722
 21
-242.46628131021239
 31
0.0
  0
LINE
  8
DETAIL
  6
CONTINUOUS
 62
     5
 10
-86.16570327552995
 20
-238.45857418111771
 30
0.0
 11
86.165703275529722
 21
-238.45857418111771
 31
0.0
  0
LINE
  8
DETAIL
  6
CONTINUOUS
 62
     5
 10
-66.127167630057784
 20
-236.45472061657031
 30
0.0
 11
-66.127167630057784
 21
-202.85420585696781
 31
0.0
  0
LINE
  8
DETAIL
  6
CONTINUOUS
 62
     5
 10
-65.325626204239143
 20
-298.27360308285188
 30
0.0
 11
-65.325626204239143
 21
-283.54527938342972
 31
0.0
  0
LINE
  8
DETAIL
  6
CONTINUOUS
 62
     5
 10
-65.325626204239143
 20
-201.46589538302939
 30
0.0
 11
-65.325626204239143
 21
-172.93256262042411
 31
0.0
  0
LINE
  8
DETAIL
  6
CONTINUOUS
 62
     5
 10
-61.064654178565213
 20
-238.45857418111771
 30
0.0
 11
-61.064654178565213
 21
-231.94605009568841
 31
0.0
  0
LINE
  8
DETAIL
  6
CONTINUOUS
 62
     5
 10
-57.808392136176053
 20
-228.7398843930637
 30
0.0
 11
-57.808392136176053
 21
-231.94605009633909
 31
0.0
  0
LINE
  8
DETAIL
  6
CONTINUOUS
 62
     5
 10
-54.552130093786673
 20
-238.45857418111771
 30
0.0
 11
-54.552130093786673
 21
-232.52772528558941
 31
0.0
  0
LINE
  8
DETAIL
  6
CONTINUOUS
 62
     5
 10
-51.29586805139752
 20
-228.7398843930637
 30
0.0
 11
-51.29586805139752
 21
-231.94605009633909
 31
0.0
  0
LINE
  8
DETAIL
  6
CONTINUOUS
 62
     5
 10
-61.064654178565213
 20
-231.94605009633909
 30
0.0
 11
-48.039606009008367
 21
-231.94605009633909
 31
0.0
  0
LINE
  8
DETAIL
  6
CONTINUOUS
 62
     5
 10
48.039606009008367
 20
-231.94605009633909
 30
0.0
 11
61.064654178564979
 21
-231.94605009633909
 31
0.0
  0
LINE
  8
DETAIL
  6
CONTINUOUS
 62
     5
 10
57.808392136175833
 20
-228.7398843930637
 30
0.0
 11
51.29586805139752
 21
-228.7398843930637
 31
0.0
  0
LINE
  8
DETAIL
  6
CONTINUOUS
 62
     5
 10
-51.29586805139752
 20
-228.7398843930637
 30
0.0
 11
-57.808392136176053
 21
-228.7398843930637
 31
0.0
  0
LINE
  8
DETAIL
  6
CONTINUOUS
 62
     5
 10
-48.039606009008367
 20
-238.45857418111771
 30
0.0
 11
-48.039606009008367
 21
-231.94605009568841
 31
0.0
  0
LINE
  8
DETAIL
  6
CONTINUOUS
 62
     5
 10
-65.325626204239143
 20
-201.46589538302939
 30
0.0
 11
-66.127167630057784
 21
-202.85420585696781
 31
0.0
  0
LINE
  8
DETAIL
  6
CONTINUOUS
 62
     5
 10
-66.127167630057784
 20
-202.85420585696781
 30
0.0
 11
66.127167630057784
 21
-202.85420585696781
 31
0.0
  0
LINE
  8
DETAIL
  6
CONTINUOUS
 62
     5
 10
-65.325626204239143
 20
-201.46589538302939
 30
0.0
 11
65.325626204238915
 21
-201.46589538302939
 31
0.0
  0
LINE
  8
DETAIL
  6
CONTINUOUS
 62
     5
 10
-13.325626204239139
 20
-161.49623477056301
 30
0.0
 11
-13.325626204239139
 21
-160.30828516377659
 31
0.0
  0
LINE
  8
DETAIL
  6
CONTINUOUS
 62
     5
 10
-26.057750734429419
 20
-160.30828516377659
 30
0.0
 11
-25.2283521774641
 21
-150.82821627765719
 31
0.0
  0
LINE
  8
DETAIL
  6
CONTINUOUS
 62
     5
 10
-10.513107275029601
 20
-164.9727952742287
 30
0.0
 11
-12.85609965102708
 21
-162.62977998208359
 31
0.0
  0
LINE
  8
DETAIL
  6
CONTINUOUS
 62
     5
 10
-8.5163776493257046
 20
-145.7803468208094
 30
0.0
 11
-8.5163776493257046
 21
-135.26011560693661
 31
0.0
  0
LINE
  8
DETAIL
  6
CONTINUOUS
 62
     5
 10
-4.7090558766860804
 20
-306.1888246628132
 30
0.0
 11
-4.7090558766860804
 21
-305.68786127167641
 31
0.0
  0
LINE
  8
DETAIL
  6
CONTINUOUS
 62
     5
 10
4.7090558766858521
 20
-306.1888246628132
 30
0.0
 11
4.7090558766858521
 21
-305.68786127167641
 31
0.0
  0
LINE
  8
DETAIL
  6
CONTINUOUS
 62
     5
 10
8.5163776493254773
 20
-145.7803468208094
 30
0.0
 11
8.5163776493254773
 21
-135.26011560693661
 31
0.0
  0
LINE
  8
DETAIL
  6
CONTINUOUS
 62
     5
 10
-57.911368015414148
 20
-165.51830443159909
 30
0.0
 11
57.911368015414148
 21
-165.51830443159909
 31
0.0
  0
LINE
  8
DETAIL
  6
CONTINUOUS
 62
     5
 10
-13.02500367880293
 20
-165.0173410404627
 30
0.0
 11
13.025048169557071
 21
-165.0173410404627
 31
0.0
  0
LINE
  8
DETAIL
  6
CONTINUOUS
 62
     5
 10
11.503405819983531
 20
-160.30828516377659
 30
0.0
 11
-26.057750734429419
 21
-160.30828516377659
 31
0.0
  0
LINE
  8
DETAIL
  6
CONTINUOUS
 62
     5
 10
10.51310727502937
 20
-164.9727952742287
 30
0.0
 11
11.842134611115171
 21
-163.64375493911891
 31
0.0
  0
LINE
  8
DETAIL
  6
CONTINUOUS
 62
     5
 10
-15.028901734104011
 20
-145.7803468208094
 30
0.0
 11
-20.674399794259902
 21
-146.2742639009584
 31
0.0
  0
LINE
  8
DETAIL
  6
CONTINUOUS
 62
     5
 10
15.028901734104011
 20
-145.7803468208094
 30
0.0
 11
-15.028901734104011
 21
-145.7803468208094
 31
0.0
  0
LINE
  8
DETAIL
  6
CONTINUOUS
 62
     5
 10
-209.80346820809271
 20
-135.26011560693661
 30
0.0
 11
-207.0636755969272
 21
-135.26011560693661
 31
0.0
  0
LINE
  8
DETAIL
  6
CONTINUOUS
 62
     5
 10
-180.14184516102389
 20
-135.26011560693661
 30
0.0
 11
180.14184516102389
 21
-135.26011560693661
 31
0.0
  0
LINE
  8
DETAIL
  6
CONTINUOUS
 62
     5
 10
207.0636755969272
 20
-135.26011560693661
 30
0.0
 11
209.80346820809251
 21
-135.26011560693661
 31
0.0
  0
LINE
  8
DETAIL
  6
CONTINUOUS
 62
     5
 10
-209.80346820809271
 20
-131.25240847784241
 30
0.0
 11
-207.0636755969272
 21
-131.25240847784241
 31
0.0
  0
LINE
  8
DETAIL
  6
CONTINUOUS
 62
     5
 10
-180.14184516102389
 20
-131.25240847784241
 30
0.0
 11
180.14184516102389
 21
-131.25240847784241
 31
0.0
  0
LINE
  8
DETAIL
  6
CONTINUOUS
 62
     5
 10
207.0636755969272
 20
-131.25240847784241
 30
0.0
 11
209.80346820809251
 21
-131.25240847784241
 31
0.0
  0
LINE
  8
DETAIL
  6
CONTINUOUS
 62
     5
 10
15.028901734104011
 20
-145.7803468208094
 30
0.0
 11
20.559578027325191
 21
-146.2642182980758
 31
0.0
  0
LINE
  8
DETAIL
  6
CONTINUOUS
 62
     5
 10
48.039606009008367
 20
-238.45857418111771
 30
0.0
 11
48.039606009008367
 21
-231.94605009568841
 31
0.0
  0
LINE
  8
DETAIL
  6
CONTINUOUS
 62
     5
 10
51.29586805139752
 20
-228.7398843930637
 30
0.0
 11
51.29586805139752
 21
-231.94605009633909
 31
0.0
  0
LINE
  8
DETAIL
  6
CONTINUOUS
 62
     5
 10
65.325626204238915
 20
-201.46589538302939
 30
0.0
 11
66.127167630057784
 21
-202.85420585696781
 31
0.0
  0
LINE
  8
DETAIL
  6
CONTINUOUS
 62
     5
 10
54.552130093786673
 20
-238.45857418111771
 30
0.0
 11
54.552130093786673
 21
-232.52772528558941
 31
0.0
  0
LINE
  8
DETAIL
  6
CONTINUOUS
 62
     5
 10
57.808392136175833
 20
-228.7398843930637
 30
0.0
 11
57.808392136175833
 21
-231.94605009633909
 31
0.0
  0
LINE
  8
DETAIL
  6
CONTINUOUS
 62
     5
 10
61.064654178564979
 20
-238.45857418111771
 30
0.0
 11
61.064654178564979
 21
-231.94605009568841
 31
0.0
  0
LINE
  8
DETAIL
  6
CONTINUOUS
 62
     5
 10
63.56947113424917
 20
-242.46628131021239
 30
0.0
 11
63.56947113424917
 21
-238.45857418111771
 31
0.0
  0
LINE
  8
DETAIL
  6
CONTINUOUS
 62
     5
 10
65.325626204238915
 20
-298.27360308285188
 30
0.0
 11
65.325626204238915
 21
-283.54527938342972
 31
0.0
  0
LINE
  8
DETAIL
  6
CONTINUOUS
 62
     5
 10
65.325626204238915
 20
-201.46589538302939
 30
0.0
 11
65.325626204238915
 21
-172.93256262042411
 31
0.0
  0
LINE
  8
DETAIL
  6
CONTINUOUS
 62
     5
 10
66.127167630057784
 20
-236.45472061657031
 30
0.0
 11
66.127167630057784
 21
-202.85420585696781
 31
0.0
  0
LINE
  8
DETAIL
  6
CONTINUOUS
 62
     5
 10
86.165703275529722
 20
-242.46628131021239
 30
0.0
 11
86.165703275529722
 21
-238.45857418111771
 31
0.0
  0
LINE
  8
DETAIL
  6
CONTINUOUS
 62
     5
 10
89.672447013487272
 20
-283.54527938342972
 30
0.0
 11
89.672447013487272
 21
-247.47591522158021
 31
0.0
  0
LINE
  8
DETAIL
  6
CONTINUOUS
 62
     5
 10
208.4292378853938
 20
-78.901734104046454
 30
0.0
 11
207.0636755969272
 21
-78.901734104046454
 31
0.0
  0
LINE
  8
DETAIL
  6
CONTINUOUS
 62
     5
 10
208.4292378853938
 20
-75.394990366088678
 30
0.0
 11
207.0636755969272
 21
-75.394990366088678
 31
0.0
  0
LINE
  8
DETAIL
  6
CONTINUOUS
 62
     5
 10
151.09460705917971
 20
-16.431599229287261
 30
0.0
 11
151.09460705917971
 21
-13.025048169557071
 31
0.0
  0
LINE
  8
DETAIL
  6
CONTINUOUS
 62
     5
 10
243.368015414258
 20
-20.03853564547239
 30
0.0
 11
207.0636755969272
 21
-20.03853564547239
 31
0.0
  0
LINE
  8
DETAIL
  6
CONTINUOUS
 62
     5
 10
180.14184516102389
 20
-20.03853564547239
 30
0.0
 11
-180.14184516102389
 21
-20.03853564547239
 31
0.0
  0
LINE
  8
DETAIL
  6
CONTINUOUS
 62
     5
 10
-207.0636755969272
 20
-20.03853564547239
 30
0.0
 11
-243.36801541425831
 21
-20.03853564547239
 31
0.0
  0
LINE
  8
DETAIL
  6
CONTINUOUS
 62
     5
 10
216.32412484017729
 20
-18.535645472061791
 30
0.0
 11
207.0636755969272
 21
-18.535645472061791
 31
0.0
  0
LINE
  8
DETAIL
  6
CONTINUOUS
 62
     5
 10
-175.13221124965591
 20
-18.535645472061791
 30
0.0
 11
-185.15147907239199
 21
-18.535645472061791
 31
0.0
  0
LINE
  8
DETAIL
  6
CONTINUOUS
 62
     5
 10
244.50056063388641
 20
-14.527938342967451
 30
0.0
 11
163.1385838328454
 21
-14.527938342967451
 31
0.0
  0
LINE
  8
DETAIL
  6
CONTINUOUS
 62
     5
 10
-163.13858383349589
 20
-14.527938342967451
 30
0.0
 11
-244.50056063453709
 21
-14.527938342967451
 31
0.0
  0
LINE
  8
DETAIL
  6
CONTINUOUS
 62
     5
 10
253.38728323699431
 20
-10.01926782273631
 30
0.0
 11
250.1758680125113
 21
-10.01926782273631
 31
0.0
  0
LINE
  8
DETAIL
  6
CONTINUOUS
 62
     5
 10
189.28735474048489
 20
-10.01926782273631
 30
0.0
 11
-189.28735474113591
 21
-10.01926782273631
 31
0.0
  0
LINE
  8
DETAIL
  6
CONTINUOUS
 62
     5
 10
-189.28735474113591
 20
-10.01926782273631
 30
0.0
 11
-194.90771509461231
 21
-10.01926782273631
 31
0.0
  0
LINE
  8
DETAIL
  6
CONTINUOUS
 62
     5
 10
-250.1758680125115
 20
-10.01926782273631
 30
0.0
 11
-253.38728323699431
 21
-10.01926782273631
 31
0.0
  0
LINE
  8
DETAIL
  6
CONTINUOUS
 62
     5
 10
189.28735474048489
 20
-10.01926782273631
 30
0.0
 11
194.90771509461231
 21
-10.01926782273631
 31
0.0
  0
LINE
  8
DETAIL
  6
CONTINUOUS
 62
     5
 10
163.1385838328454
 20
-14.527938342967451
 30
0.0
 11
163.1385838328454
 21
-10.01926782273631
 31
0.0
  0
LINE
  8
DETAIL
  6
CONTINUOUS
 62
     5
 10
253.8226442489304
 20
-5.1098265895957411
 30
0.0
 11
203.82636743547761
 21
-5.1098265895957411
 31
0.0
  0
LINE
  8
DETAIL
  6
CONTINUOUS
 62
     5
 10
-253.8226442489304
 20
-5.1098265895957411
 30
0.0
 11
-203.82636743612849
 21
-5.1098265895957411
 31
0.0
  0
LINE
  8
DETAIL
  6
CONTINUOUS
 62
     5
 10
258.49710982658962
 20
-3.005780346821211
 30
0.0
 11
-258.49710982658962
 21
-3.005780346821211
 31
0.0
  0
LINE
  8
DETAIL
  6
CONTINUOUS
 62
     5
 10
258.49710982658962
 20
0.0
 30
0.0
 11
-258.49710982658962
 21
0.0
 31
0.0
  0
LINE
  8
DETAIL
  6
CONTINUOUS
 62
     5
 10
180.14184516102389
 20
-177.3410404624282
 30
0.0
 11
180.14184516102389
 21
-14.527938342967451
 31
0.0
  0
LINE
  8
DETAIL
  6
CONTINUOUS
 62
     5
 10
192.89429115666991
 20
-6.4123314065514023
 30
0.0
 11
192.89429115666991
 21
-3.005780346821211
 31
0.0
  0
LINE
  8
DETAIL
  6
CONTINUOUS
 62
     5
 10
202.81286026504489
 20
-177.3410404624282
 30
0.0
 11
202.81286026504489
 21
-14.527938342967451
 31
0.0
  0
LINE
  8
DETAIL
  6
CONTINUOUS
 62
     5
 10
204.22979870900599
 20
-5.1098265895957411
 30
0.0
 11
204.22979870900599
 21
-3.005780346821211
 31
0.0
  0
LINE
  8
DETAIL
  6
CONTINUOUS
 62
     5
 10
207.0636755969272
 20
-14.527938342967451
 30
0.0
 11
207.0636755969272
 21
-177.3410404624282
 31
0.0
  0
LINE
  8
DETAIL
  6
CONTINUOUS
 62
     5
 10
208.4292526104646
 20
-75.394990366088678
 30
0.0
 11
208.4292526104646
 21
-78.901734104046454
 31
0.0
  0
LINE
  8
DETAIL
  6
CONTINUOUS
 62
     5
 10
211.31449092880939
 20
-14.527938342967451
 30
0.0
 11
211.31449092880939
 21
-18.08820301814194
 31
0.0
  0
LINE
  8
DETAIL
  6
CONTINUOUS
 62
     5
 10
216.32412484017729
 20
-18.535645472061791
 30
0.0
 11
216.32412484017729
 21
-14.527938342967451
 31
0.0
  0
LINE
  8
DETAIL
  6
CONTINUOUS
 62
     5
 10
246.97495183044339
 20
-13.89435725155772
 30
0.0
 11
246.97495183044339
 21
-16.431599229287261
 31
0.0
  0
LINE
  8
DETAIL
  6
CONTINUOUS
 62
     5
 10
253.8226442489304
 20
-5.1098265895957411
 30
0.0
 11
253.8226442489304
 21
-3.005780346821211
 31
0.0
  0
LINE
  8
DETAIL
  6
CONTINUOUS
 62
     5
 10
256.99421965317919
 20
-3.005780346821211
 30
0.0
 11
256.99421965317919
 21
-6.4123314065514023
 31
0.0
  0
ARC
  8
DETAIL
  6
CONTINUOUS
 62
     5
 10
-57.911368015414148
 20
-298.27360308285188
 30
0.0
 40
7.4142581888247037
 50
180.0
 51
270.0
  0
ARC
  8
DETAIL
  6
CONTINUOUS
 62
     5
 10
-57.911368015414148
 20
-172.93256262042411
 30
0.0
 40
7.4142581888246468
 50
90.0
 51
180.0
  0
ARC
  8
DETAIL
  6
CONTINUOUS
 62
     5
 10
-83.660886319845758
 20
-248.47784200385379
 30
0.0
 40
6.0115606936416279
 50
90.0
 51
180.0
  0
ARC
  8
DETAIL
  6
CONTINUOUS
 62
     5
 10
-20.237781435778292
 20
-151.26483464329479
 30
0.0
 40
5.0096339113679198
 50
94.999999935999412
 51
174.99999998889709
  0
ARC
  8
DETAIL
  6
CONTINUOUS
 62
     5
 10
-13.02504816955684
 20
-168.6242774566476
 30
0.0
 40
3.606936416184908
 50
90.0
 51
120.5064405230938
  0
ARC
  8
DETAIL
  6
CONTINUOUS
 62
     5
 10
-68.131021194605182
 20
-236.45472061657031
 30
0.0
 40
2.0038535645471711
 50
270.0
 51
0.0
  0
ARC
  8
DETAIL
  6
CONTINUOUS
 62
     5
 10
-11.72254335260118
 20
-161.49623477056301
 30
0.0
 40
1.603082851637736
 50
180.0
 51
224.99971980700349
  0
ARC
  8
DETAIL
  6
CONTINUOUS
 62
     5
 10
-11.221579961464389
 20
-165.6812610317543
 30
0.0
 40
1.0019267822736391
 50
41.609122939305493
 51
44.999719806987351
  0
ARC
  8
DETAIL
  6
CONTINUOUS
 62
     5
 10
-189.28735474113591
 20
-6.4123314065514023
 30
0.0
 40
3.606936416184908
 50
180.0
 51
270.0
  0
ARC
  8
DETAIL
  6
CONTINUOUS
 62
     5
 10
-147.487670642995
 20
-16.431599229287261
 30
0.0
 40
3.606936416184908
 50
180.0
 51
270.0
  0
ARC
  8
DETAIL
  6
CONTINUOUS
 62
     5
 10
-243.36801541425831
 20
-16.431599229287261
 30
0.0
 40
3.606936416184908
 50
180.0
 51
270.0
  0
ARC
  8
DETAIL
  6
CONTINUOUS
 62
     5
 10
-253.38728323699431
 20
-6.4123314065514023
 30
0.0
 40
3.606936416185023
 50
180.0
 51
270.0
  0
ARC
  8
DETAIL
  6
CONTINUOUS
 62
     5
 10
-154.10038740600069
 20
-13.025048169557071
 30
0.0
 40
3.005780346820869
 50
0.0
 51
86.250004622391728
  0
ARC
  8
DETAIL
  6
CONTINUOUS
 62
     5
 10
-209.80346820809271
 20
-133.25626204238921
 30
0.0
 40
2.0038535645470561
 50
90.0
 51
270.0
  0
ARC
  8
DETAIL
  6
CONTINUOUS
 62
     5
 10
-258.49710982658962
 20
-1.5028901734103779
 30
0.0
 40
1.502890173410377
 50
90.0
 51
270.0
  0
ARC
  8
DETAIL
  6
CONTINUOUS
 62
     5
 10
57.911368015414148
 20
-298.27360308285188
 30
0.0
 40
7.4142581888246468
 50
270.0
 51
0.0
  0
ARC
  8
DETAIL
  6
CONTINUOUS
 62
     5
 10
57.911368015414148
 20
-172.93256262042411
 30
0.0
 40
7.4142581888247037
 50
0.0
 51
90.0
  0
ARC
  8
DETAIL
  6
CONTINUOUS
 62
     5
 10
0.0
 20
-301.65761078998088
 30
0.0
 40
6.5350674373795883
 50
223.8973981670913
 51
316.10260183290859
  0
ARC
  8
DETAIL
  6
CONTINUOUS
 62
     5
 10
83.660886319845758
 20
-248.47784200385379
 30
0.0
 40
6.0115606936416279
 50
0.0
 51
90.0
  0
ARC
  8
DETAIL
  6
CONTINUOUS
 62
     5
 10
13.025048169557071
 20
-168.6242774566476
 30
0.0
 40
3.606936416185043
 50
59.493559476906192
 51
90.0
  0
ARC
  8
DETAIL
  6
CONTINUOUS
 62
     5
 10
68.131021194604955
 20
-236.45472061657031
 30
0.0
 40
2.0038535645472271
 50
180.0
 51
270.0
  0
ARC
  8
DETAIL
  6
CONTINUOUS
 62
     5
 10
189.28735474048489
 20
-6.4123314065514023
 30
0.0
 40
3.606936416184908
 50
270.0
 51
0.0
  0
ARC
  8
DETAIL
  6
CONTINUOUS
 62
     5
 10
147.4876706429948
 20
-16.431599229287261
 30
0.0
 40
3.606936416184908
 50
270.0
 51
0.0
  0
ARC
  8
DETAIL
  6
CONTINUOUS
 62
     5
 10
243.368015414258
 20
-16.431599229287261
 30
0.0
 40
3.606936416184908
 50
270.0
 51
0.0
  0
ARC
  8
DETAIL
  6
CONTINUOUS
 62
     5
 10
253.38728323699431
 20
-6.4123314065514023
 30
0.0
 40
3.606936416184908
 50
270.0
 51
0.0
  0
ARC
  8
DETAIL
  6
CONTINUOUS
 62
     5
 10
154.10038740600069
 20
-13.025048169557071
 30
0.0
 40
3.0057803468206421
 50
90.0
 51
180.0
  0
ARC
  8
DETAIL
  6
CONTINUOUS
 62
     5
 10
209.80346820809251
 20
-133.25626204238921
 30
0.0
 40
2.0038535645471711
 50
270.0
 51
90.0
  0
ARC
  8
DETAIL
  6
CONTINUOUS
 62
     5
 10
258.49710982658962
 20
-1.5028901734103779
 30
0.0
 40
1.502890173410377
 50
270.0
 51
90.0
  0
LINE
  8
DETAIL
  6
CONTINUOUS
 62
     5
 10
1.5232088269649471
 20
-307.82743867607542
 30
0.0
 11
1.504759577886716
 21
-307.83575688071971
 31
0.0
  0
LINE
  8
DETAIL
  6
CONTINUOUS
 62
     5
 10
1.504759577886716
 20
-307.83575688071971
 30
0.0
 11
1.4863313197843131
 21
-307.84407562290107
 31
0.0
  0
LINE
  8
DETAIL
  6
CONTINUOUS
 62
     5
 10
1.4863313197843131
 20
-307.84407562290107
 30
0.0
 11
1.4863313197843131
 21
-307.84407562290107
 31
0.0
  0
LINE
  8
DETAIL
  6
CONTINUOUS
 62
     5
 10
1.4863313197843131
 20
-307.84407562290107
 30
0.0
 11
1.4679251586503601
 21
-307.85240025976879
 31
0.0
  0
LINE
  8
DETAIL
  6
CONTINUOUS
 62
     5
 10
1.4679251586503601
 20
-307.85240025976879
 30
0.0
 11
1.44946266054535
 21
-307.86075542692561
 31
0.0
  0
LINE
  8
DETAIL
  6
CONTINUOUS
 62
     5
 10
1.44946266054535
 20
-307.86075542692561
 30
0.0
 11
1.44946266054535
 21
-307.86075542692561
 31
0.0
  0
LINE
  8
DETAIL
  6
CONTINUOUS
 62
     5
 10
1.44946266054535
 20
-307.86075542692561
 30
0.0
 11
1.43092228147998
 21
-307.86913790826111
 31
0.0
  0
LINE
  8
DETAIL
  6
CONTINUOUS
 62
     5
 10
1.43092228147998
 20
-307.86913790826111
 30
0.0
 11
1.4125895771969681
 21
-307.87741380236821
 31
0.0
  0
LINE
  8
DETAIL
  6
CONTINUOUS
 62
     5
 10
1.4125895771969681
 20
-307.87741380236821
 30
0.0
 11
1.4125895771969681
 21
-307.87741380236821
 31
0.0
  0
LINE
  8
DETAIL
  6
CONTINUOUS
 62
     5
 10
1.4125895771969681
 20
-307.87741380236821
 30
0.0
 11
1.394539663622254
 21
-307.88554240219878
 31
0.0
  0
LINE
  8
DETAIL
  6
CONTINUOUS
 62
     5
 10
1.394539663622254
 20
-307.88554240219878
 30
0.0
 11
1.375698797687392
 21
-307.89398646344807
 31
0.0
  0
LINE
  8
DETAIL
  6
CONTINUOUS
 62
     5
 10
1.375698797687392
 20
-307.89398646344807
 30
0.0
 11
1.375698797687392
 21
-307.89398646344807
 31
0.0
  0
LINE
  8
DETAIL
  6
CONTINUOUS
 62
     5
 10
1.375698797687392
 20
-307.89398646344807
 30
0.0
 11
1.355778105637
 21
-307.90286381607888
 31
0.0
  0
LINE
  8
DETAIL
  6
CONTINUOUS
 62
     5
 10
1.355778105637
 20
-307.90286381607888
 30
0.0
 11
1.3387770499655289
 21
-307.91040912438461
 31
0.0
  0
LINE
  8
DETAIL
  6
CONTINUOUS
 62
     5
 10
1.3387770499655289
 20
-307.91040912438461
 30
0.0
 11
1.3387770499655289
 21
-307.91040912438461
 31
0.0
  0
LINE
  8
DETAIL
  6
CONTINUOUS
 62
     5
 10
1.3387770499655289
 20
-307.91040912438461
 30
0.0
 11
1.328077038081346
 21
-307.91513344675877
 31
0.0
  0
LINE
  8
DETAIL
  6
CONTINUOUS
 62
     5
 10
1.328077038081346
 20
-307.91513344675877
 30
0.0
 11
1.3202989207998139
 21
-307.91853658365318
 31
0.0
  0
LINE
  8
DETAIL
  6
CONTINUOUS
 62
     5
 10
1.3202989207998139
 20
-307.91853658365318
 30
0.0
 11
1.3202989207998139
 21
-307.91853658365318
 31
0.0
  0
LINE
  8
DETAIL
  6
CONTINUOUS
 62
     5
 10
1.3202989207998139
 20
-307.91853658365318
 30
0.0
 11
1.3114443957372259
 21
-307.92238927101329
 31
0.0
  0
LINE
  8
DETAIL
  6
CONTINUOUS
 62
     5
 10
1.3114443957372259
 20
-307.92238927101329
 30
0.0
 11
1.301799104305928
 21
-307.92655724468341
 31
0.0
  0
LINE
  8
DETAIL
  6
CONTINUOUS
 62
     5
 10
1.301799104305928
 20
-307.92655724468341
 30
0.0
 11
1.301799104305928
 21
-307.92655724468341
 31
0.0
  0
LINE
  8
DETAIL
  6
CONTINUOUS
 62
     5
 10
1.301799104305928
 20
-307.92655724468341
 30
0.0
 11
1.292432704047314
 21
-307.93055760129442
 31
0.0
  0
LINE
  8
DETAIL
  6
CONTINUOUS
 62
     5
 10
1.292432704047314
 20
-307.93055760129442
 30
0.0
 11
1.2832669732219979
 21
-307.9344178807155
 31
0.0
  0
LINE
  8
DETAIL
  6
CONTINUOUS
 62
     5
 10
1.2832669732219979
 20
-307.9344178807155
 30
0.0
 11
1.2832669732219979
 21
-307.9344178807155
 31
0.0
  0
LINE
  8
DETAIL
  6
CONTINUOUS
 62
     5
 10
1.2832669732219979
 20
-307.9344178807155
 30
0.0
 11
1.2740136136019371
 21
-307.93825904041068
 31
0.0
  0
LINE
  8
DETAIL
  6
CONTINUOUS
 62
     5
 10
1.2740136136019371
 20
-307.93825904041068
 30
0.0
 11
1.26469190028547
 21
-307.94206526499158
 31
0.0
  0
LINE
  8
DETAIL
  6
CONTINUOUS
 62
     5
 10
1.26469190028547
 20
-307.94206526499158
 30
0.0
 11
1.26469190028547
 21
-307.94206526499158
 31
0.0
  0
LINE
  8
DETAIL
  6
CONTINUOUS
 62
     5
 10
1.26469190028547
 20
-307.94206526499158
 30
0.0
 11
1.255377398196742
 21
-307.94579570790017
 31
0.0
  0
LINE
  8
DETAIL
  6
CONTINUOUS
 62
     5
 10
1.255377398196742
 20
-307.94579570790017
 30
0.0
 11
1.2460632582346991
 21
-307.94944617075367
 31
0.0
  0
LINE
  8
DETAIL
  6
CONTINUOUS
 62
     5
 10
1.2460632582346991
 20
-307.94944617075367
 30
0.0
 11
1.2460632582346991
 21
-307.94944617075367
 31
0.0
  0
LINE
  8
DETAIL
  6
CONTINUOUS
 62
     5
 10
1.2460632582346991
 20
-307.94944617075367
 30
0.0
 11
1.236728157589823
 21
-307.95302225852828
 31
0.0
  0
LINE
  8
DETAIL
  6
CONTINUOUS
 62
     5
 10
1.236728157589823
 20
-307.95302225852828
 30
0.0
 11
1.227375292638953
 21
-307.95653214145477
 31
0.0
  0
LINE
  8
DETAIL
  6
CONTINUOUS
 62
     5
 10
1.227375292638953
 20
-307.95653214145477
 30
0.0
 11
1.227375292638953
 21
-307.95653214145477
 31
0.0
  0
LINE
  8
DETAIL
  6
CONTINUOUS
 62
     5
 10
1.227375292638953
 20
-307.95653214145477
 30
0.0
 11
1.2180125102911461
 21
-307.95998528888572
 31
0.0
  0
LINE
  8
DETAIL
  6
CONTINUOUS
 62
     5
 10
1.2180125102911461
 20
-307.95998528888572
 30
0.0
 11
1.2086417403945691
 21
-307.9633938013917
 31
0.0
  0
LINE
  8
DETAIL
  6
CONTINUOUS
 62
     5
 10
1.2086417403945691
 20
-307.9633938013917
 30
0.0
 11
1.2086417403945691
 21
-307.9633938013917
 31
0.0
  0
LINE
  8
DETAIL
  6
CONTINUOUS
 62
     5
 10
1.2086417403945691
 20
-307.9633938013917
 30
0.0
 11
1.1992638299000189
 21
-307.96677026109228
 31
0.0
  0
LINE
  8
DETAIL
  6
CONTINUOUS
 62
     5
 10
1.1992638299000189
 20
-307.96677026109228
 30
0.0
 11
1.1898812112299311
 21
-307.97012654507228
 31
0.0
  0
LINE
  8
DETAIL
  6
CONTINUOUS
 62
     5
 10
1.1898812112299311
 20
-307.97012654507228
 30
0.0
 11
1.1898812112299311
 21
-307.97012654507228
 31
0.0
  0
LINE
  8
DETAIL
  6
CONTINUOUS
 62
     5
 10
1.1898812112299311
 20
-307.97012654507228
 30
0.0
 11
1.1804966069685181
 21
-307.97347440138651
 31
0.0
  0
LINE
  8
DETAIL
  6
CONTINUOUS
 62
     5
 10
1.1804966069685181
 20
-307.97347440138651
 30
0.0
 11
1.1711123148734259
 21
-307.97682576700453
 31
0.0
  0
LINE
  8
DETAIL
  6
CONTINUOUS
 62
     5
 10
1.1711123148734259
 20
-307.97682576700453
 30
0.0
 11
1.1711123148734259
 21
-307.97682576700453
 31
0.0
  0
LINE
  8
DETAIL
  6
CONTINUOUS
 62
     5
 10
1.1711123148734259
 20
-307.97682576700453
 30
0.0
 11
1.1617305549543739
 21
-307.9801926134669
 31
0.0
  0
LINE
  8
DETAIL
  6
CONTINUOUS
 62
     5
 10
1.1617305549543739
 20
-307.9801926134669
 30
0.0
 11
1.1523536610532119
 21
-307.98358686169718
 31
0.0
  0
LINE
  8
DETAIL
  6
CONTINUOUS
 62
     5
 10
1.1523536610532119
 20
-307.98358686169718
 30
0.0
 11
1.1523536610532119
 21
-307.98358686169718
 31
0.0
  0
LINE
  8
DETAIL
  6
CONTINUOUS
 62
     5
 10
1.1523536610532119
 20
-307.98358686169718
 30
0.0
 11
1.142983266536248
 21
-307.98701649167219
 31
0.0
  0
LINE
  8
DETAIL
  6
CONTINUOUS
 62
     5
 10
1.142983266536248
 20
-307.98701649167219
 30
0.0
 11
1.133618089042784
 21
-307.99047377020719
 31
0.0
  0
LINE
  8
DETAIL
  6
CONTINUOUS
 62
     5
 10
1.133618089042784
 20
-307.99047377020719
 30
0.0
 11
1.133618089042784
 21
-307.99047377020719
 31
0.0
  0
LINE
  8
DETAIL
  6
CONTINUOUS
 62
     5
 10
1.133618089042784
 20
-307.99047377020719
 30
0.0
 11
1.124256119323263
 21
-307.99394703491959
 31
0.0
  0
LINE
  8
DETAIL
  6
CONTINUOUS
 62
     5
 10
1.124256119323263
 20
-307.99394703491959
 30
0.0
 11
1.1148953563001669
 21
-307.99742461979048
 31
0.0
  0
LINE
  8
DETAIL
  6
CONTINUOUS
 62
     5
 10
1.1148953563001669
 20
-307.99742461979048
 30
0.0
 11
1.1148953563001669
 21
-307.99742461979048
 31
0.0
  0
LINE
  8
DETAIL
  6
CONTINUOUS
 62
     5
 10
1.1148953563001669
 20
-307.99742461979048
 30
0.0
 11
1.1055338003920949
 21
-308.00089485813692
 31
0.0
  0
LINE
  8
DETAIL
  6
CONTINUOUS
 62
     5
 10
1.1055338003920949
 20
-308.00089485813692
 30
0.0
 11
1.096169449828267
 21
-308.00434608425053
 31
0.0
  0
LINE
  8
DETAIL
  6
CONTINUOUS
 62
     5
 10
1.096169449828267
 20
-308.00434608425053
 30
0.0
 11
1.096169449828267
 21
-308.00434608425053
 31
0.0
  0
LINE
  8
DETAIL
  6
CONTINUOUS
 62
     5
 10
1.096169449828267
 20
-308.00434608425053
 30
0.0
 11
1.0868003024356769
 21
-308.00776663259978
 31
0.0
  0
LINE
  8
DETAIL
  6
CONTINUOUS
 62
     5
 10
1.0868003024356769
 20
-308.00776663259978
 30
0.0
 11
1.077424356629763
 21
-308.01114483739218
 31
0.0
  0
LINE
  8
DETAIL
  6
CONTINUOUS
 62
     5
 10
1.077424356629763
 20
-308.01114483739218
 30
0.0
 11
1.077424356629763
 21
-308.01114483739218
 31
0.0
  0
LINE
  8
DETAIL
  6
CONTINUOUS
 62
     5
 10
1.077424356629763
 20
-308.01114483739218
 30
0.0
 11
1.068039610932829
 21
-308.01446903278912
 31
0.0
  0
LINE
  8
DETAIL
  6
CONTINUOUS
 62
     5
 10
1.068039610932829
 20
-308.01446903278912
 30
0.0
 11
1.0586440637089249
 21
-308.01772755301999
 31
0.0
  0
LINE
  8
DETAIL
  6
CONTINUOUS
 62
     5
 10
1.0586440637089249
 20
-308.01772755301999
 30
0.0
 11
1.0586440637089249
 21
-308.01772755301999
 31
0.0
  0
LINE
  8
DETAIL
  6
CONTINUOUS
 62
     5
 10
1.0586440637089249
 20
-308.01772755301999
 30
0.0
 11
1.0492361926271769
 21
-308.02091149908728
 31
0.0
  0
LINE
  8
DETAIL
  6
CONTINUOUS
 62
     5
 10
1.0492361926271769
 20
-308.02091149908728
 30
0.0
 11
1.0398163927279711
 21
-308.02402303901232
 31
0.0
  0
LINE
  8
DETAIL
  6
CONTINUOUS
 62
     5
 10
1.0398163927279711
 20
-308.02402303901232
 30
0.0
 11
1.0398163927279711
 21
-308.02402303901232
 31
0.0
  0
LINE
  8
DETAIL
  6
CONTINUOUS
 62
     5
 10
1.0398163927279711
 20
-308.02402303901232
 30
0.0
 11
1.0303855383929199
 21
-308.02706710756962
 31
0.0
  0
LINE
  8
DETAIL
  6
CONTINUOUS
 62
     5
 10
1.0303855383929199
 20
-308.02706710756962
 30
0.0
 11
1.020944503991132
 21
-308.03004863954169
 31
0.0
  0
LINE
  8
DETAIL
  6
CONTINUOUS
 62
     5
 10
1.020944503991132
 20
-308.03004863954169
 30
0.0
 11
1.020944503991132
 21
-308.03004863954169
 31
0.0
  0
LINE
  8
DETAIL
  6
CONTINUOUS
 62
     5
 10
1.020944503991132
 20
-308.03004863954169
 30
0.0
 11
1.011494163890347
 21
-308.03297256970973
 31
0.0
  0
LINE
  8
DETAIL
  6
CONTINUOUS
 62
     5
 10
1.011494163890347
 20
-308.03297256970973
 30
0.0
 11
1.002035392461494
 21
-308.03584383285602
 31
0.0
  0
LINE
  8
DETAIL
  6
CONTINUOUS
 62
     5
 10
1.002035392461494
 20
-308.03584383285602
 30
0.0
 11
1.002035392461494
 21
-308.03584383285602
 31
0.0
  0
LINE
  8
DETAIL
  6
CONTINUOUS
 62
     5
 10
1.002035392461494
 20
-308.03584383285602
 30
0.0
 11
0.9925690640752691
 21
-308.03866736375949
 31
0.0
  0
LINE
  8
DETAIL
  6
CONTINUOUS
 62
     5
 10
0.9925690640752691
 20
-308.03866736375949
 30
0.0
 11
0.9830960531025994
 21
-308.04144809720202
 31
0.0
  0
LINE
  8
DETAIL
  6
CONTINUOUS
 62
     5
 10
0.9830960531025994
 20
-308.04144809720202
 30
0.0
 11
0.9830960531025994
 21
-308.04144809720202
 31
0.0
  0
LINE
  8
DETAIL
  6
CONTINUOUS
 62
     5
 10
0.9830960531025994
 20
-308.04144809720202
 30
0.0
 11
0.9736172339132736
 21
-308.04419096796352
 31
0.0
  0
LINE
  8
DETAIL
  6
CONTINUOUS
 62
     5
 10
0.9736172339132736
 20
-308.04419096796352
 30
0.0
 11
0.9641334808779902
 21
-308.04690091082608
 31
0.0
  0
LINE
  8
DETAIL
  6
CONTINUOUS
 62
     5
 10
0.9641334808779902
 20
-308.04690091082608
 30
0.0
 11
0.9641334808779902
 21
-308.04690091082608
 31
0.0
  0
LINE
  8
DETAIL
  6
CONTINUOUS
 62
     5
 10
0.9641334808779902
 20
-308.04690091082608
 30
0.0
 11
0.9546456738223696
 21
-308.04958317621492
 31
0.0
  0
LINE
  8
DETAIL
  6
CONTINUOUS
 62
     5
 10
0.9546456738223696
 20
-308.04958317621492
 30
0.0
 11
0.9451547143912649
 21
-308.05224427713938
 31
0.0
  0
LINE
  8
DETAIL
  6
CONTINUOUS
 62
     5
 10
0.9451547143912649
 20
-308.05224427713938
 30
0.0
 11
0.9451547143912649
 21
-308.05224427713938
 31
0.0
  0
LINE
  8
DETAIL
  6
CONTINUOUS
 62
     5
 10
0.9451547143912649
 20
-308.05224427713938
 30
0.0
 11
0.9356615096853602
 21
-308.05489104225131
 31
0.0
  0
LINE
  8
DETAIL
  6
CONTINUOUS
 62
     5
 10
0.9356615096853602
 20
-308.05489104225131
 30
0.0
 11
0.9261669668048853
 21
-308.05753030020509
 31
0.0
  0
LINE
  8
DETAIL
  6
CONTINUOUS
 62
     5
 10
0.9261669668048853
 20
-308.05753030020509
 30
0.0
 11
0.9261669668048853
 21
-308.05753030020509
 31
0.0
  0
LINE
  8
DETAIL
  6
CONTINUOUS
 62
     5
 10
0.9261669668048853
 20
-308.05753030020509
 30
0.0
 11
0.916671992849615
 21
-308.06016887965438
 31
0.0
  0
LINE
  8
DETAIL
  6
CONTINUOUS
 62
     5
 10
0.916671992849615
 20
-308.06016887965438
 30
0.0
 11
0.9071774949202336
 21
-308.06281360925249
 31
0.0
  0
LINE
  8
DETAIL
  6
CONTINUOUS
 62
     5
 10
0.9071774949202336
 20
-308.06281360925249
 30
0.0
 11
0.9071774949202336
 21
-308.06281360925249
 31
0.0
  0
LINE
  8
DETAIL
  6
CONTINUOUS
 62
     5
 10
0.9071774949202336
 20
-308.06281360925249
 30
0.0
 11
0.8976843801169707
 21
-308.06547131765223
 31
0.0
  0
LINE
  8
DETAIL
  6
CONTINUOUS
 62
     5
 10
0.8976843801169707
 20
-308.06547131765223
 30
0.0
 11
0.888193555540056
 21
-308.06814883350739
 31
0.0
  0
LINE
  8
DETAIL
  6
CONTINUOUS
 62
     5
 10
0.888193555540056
 20
-308.06814883350739
 30
0.0
 11
0.888193555540056
 21
-308.06814883350739
 31
0.0
  0
LINE
  8
DETAIL
  6
CONTINUOUS
 62
     5
 10
0.888193555540056
 20
-308.06814883350739
 30
0.0
 11
0.8787059282899463
 21
-308.07085298547167
 31
0.0
  0
LINE
  8
DETAIL
  6
CONTINUOUS
 62
     5
 10
0.8787059282899463
 20
-308.07085298547167
 30
0.0
 11
0.869222405466644
 21
-308.07359060219869
 31
0.0
  0
LINE
  8
DETAIL
  6
CONTINUOUS
 62
     5
 10
0.869222405466644
 20
-308.07359060219869
 30
0.0
 11
0.869222405466644
 21
-308.07359060219869
 31
0.0
  0
LINE
  8
DETAIL
  6
CONTINUOUS
 62
     5
 10
0.869222405466644
 20
-308.07359060219869
 30
0.0
 11
0.8597433930181069
 21
-308.07636448300008
 31
0.0
  0
LINE
  8
DETAIL
  6
CONTINUOUS
 62
     5
 10
0.8597433930181069
 20
-308.07636448300008
 30
0.0
 11
0.8502672922825241
 21
-308.07916130982358
 31
0.0
  0
LINE
  8
DETAIL
  6
CONTINUOUS
 62
     5
 10
0.8502672922825241
 20
-308.07916130982358
 30
0.0
 11
0.8502672922825241
 21
-308.07916130982358
 31
0.0
  0
LINE
  8
DETAIL
  6
CONTINUOUS
 62
     5
 10
0.8502672922825241
 20
-308.07916130982358
 30
0.0
 11
0.8407920034462677
 21
-308.08196373527448
 31
0.0
  0
LINE
  8
DETAIL
  6
CONTINUOUS
 62
     5
 10
0.8407920034462677
 20
-308.08196373527448
 30
0.0
 11
0.831315426694573
 21
-308.08475441195878
 31
0.0
  0
LINE
  8
DETAIL
  6
CONTINUOUS
 62
     5
 10
0.831315426694573
 20
-308.08475441195878
 30
0.0
 11
0.831315426694573
 21
-308.08475441195878
 31
0.0
  0
LINE
  8
DETAIL
  6
CONTINUOUS
 62
     5
 10
0.831315426694573
 20
-308.08475441195878
 30
0.0
 11
0.8218354622140396
 21
-308.08751599248262
 31
0.0
  0
LINE
  8
DETAIL
  6
CONTINUOUS
 62
     5
 10
0.8218354622140396
 20
-308.08751599248262
 30
0.0
 11
0.8123500101899026
 21
-308.09023112945169
 31
0.0
  0
LINE
  8
DETAIL
  6
CONTINUOUS
 62
     5
 10
0.8123500101899026
 20
-308.09023112945169
 30
0.0
 11
0.8123500101899026
 21
-308.09023112945169
 31
0.0
  0
LINE
  8
DETAIL
  6
CONTINUOUS
 62
     5
 10
0.8123500101899026
 20
-308.09023112945169
 30
0.0
 11
0.8028569708087616
 21
-308.09288247547198
 31
0.0
  0
LINE
  8
DETAIL
  6
CONTINUOUS
 62
     5
 10
0.8028569708087616
 20
-308.09288247547198
 30
0.0
 11
0.7933542442560793
 21
-308.09545268314901
 31
0.0
  0
LINE
  8
DETAIL
  6
CONTINUOUS
 62
     5
 10
0.7933542442560793
 20
-308.09545268314901
 30
0.0
 11
0.7933542442560793
 21
-308.09545268314901
 31
0.0
  0
LINE
  8
DETAIL
  6
CONTINUOUS
 62
     5
 10
0.7933542442560793
 20
-308.09545268314901
 30
0.0
 11
0.7838397307182277
 21
-308.09792440508858
 31
0.0
  0
LINE
  8
DETAIL
  6
CONTINUOUS
 62
     5
 10
0.7838397307182277
 20
-308.09792440508858
 30
0.0
 11
0.7743113303804421
 21
-308.10028029389701
 31
0.0
  0
LINE
  8
DETAIL
  6
CONTINUOUS
 62
     5
 10
0.7743113303804421
 20
-308.10028029389701
 30
0.0
 11
0.7743113303804421
 21
-308.10028029389701
 31
0.0
  0
LINE
  8
DETAIL
  6
CONTINUOUS
 62
     5
 10
0.7743113303804421
 20
-308.10028029389701
 30
0.0
 11
0.7647676365897951
 21
-308.10250878600118
 31
0.0
  0
LINE
  8
DETAIL
  6
CONTINUOUS
 62
     5
 10
0.7647676365897951
 20
-308.10250878600118
 30
0.0
 11
0.7552100153343417
 21
-308.10462145311431
 31
0.0
  0
LINE
  8
DETAIL
  6
CONTINUOUS
 62
     5
 10
0.7552100153343417
 20
-308.10462145311431
 30
0.0
 11
0.7552100153343417
 21
-308.10462145311431
 31
0.0
  0
LINE
  8
DETAIL
  6
CONTINUOUS
 62
     5
 10
0.7552100153343417
 20
-308.10462145311431
 30
0.0
 11
0.7456405257630649
 21
-308.10663565076862
 31
0.0
  0
LINE
  8
DETAIL
  6
CONTINUOUS
 62
     5
 10
0.7456405257630649
 20
-308.10663565076862
 30
0.0
 11
0.7360612270244928
 21
-308.10856873449939
 31
0.0
  0
LINE
  8
DETAIL
  6
CONTINUOUS
 62
     5
 10
0.7360612270244928
 20
-308.10856873449939
 30
0.0
 11
0.7360612270244928
 21
-308.10856873449939
 31
0.0
  0
LINE
  8
DETAIL
  6
CONTINUOUS
 62
     5
 10
0.7360612270244928
 20
-308.10856873449939
 30
0.0
 11
0.726474178268063
 21
-308.11043805983991
 31
0.0
  0
LINE
  8
DETAIL
  6
CONTINUOUS
 62
     5
 10
0.726474178268063
 20
-308.11043805983991
 30
0.0
 11
0.7168814386420763
 21
-308.11226098232419
 31
0.0
  0
LINE
  8
DETAIL
  6
CONTINUOUS
 62
     5
 10
0.7168814386420763
 20
-308.11226098232419
 30
0.0
 11
0.7168814386420763
 21
-308.11226098232419
 31
0.0
  0
LINE
  8
DETAIL
  6
CONTINUOUS
 62
     5
 10
0.7168814386420763
 20
-308.11226098232419
 30
0.0
 11
0.7072850672957429
 21
-308.11405485748543
 31
0.0
  0
LINE
  8
DETAIL
  6
CONTINUOUS
 62
     5
 10
0.7072850672957429
 20
-308.11405485748543
 30
0.0
 11
0.6976871233778184
 21
-308.1158370408582
 31
0.0
  0
LINE
  8
DETAIL
  6
CONTINUOUS
 62
     5
 10
0.6976871233778184
 20
-308.1158370408582
 30
0.0
 11
0.6976871233778184
 21
-308.1158370408582
 31
0.0
  0
LINE
  8
DETAIL
  6
CONTINUOUS
 62
     5
 10
0.6976871233778184
 20
-308.1158370408582
 30
0.0
 11
0.6880896660372855
 21
-308.11762488797598
 31
0.0
  0
LINE
  8
DETAIL
  6
CONTINUOUS
 62
     5
 10
0.6880896660372855
 20
-308.11762488797598
 30
0.0
 11
0.6784947544228999
 21
-308.11943575437277
 31
0.0
  0
LINE
  8
DETAIL
  6
CONTINUOUS
 62
     5
 10
0.6784947544228999
 20
-308.11943575437277
 30
0.0
 11
0.6784947544228999
 21
-308.11943575437277
 31
0.0
  0
LINE
  8
DETAIL
  6
CONTINUOUS
 62
     5
 10
0.6784947544228999
 20
-308.11943575437277
 30
0.0
 11
0.6689039871957903
 21
-308.12128295810089
 31
0.0
  0
LINE
  8
DETAIL
  6
CONTINUOUS
 62
     5
 10
0.6689039871957903
 20
-308.12128295810089
 30
0.0
 11
0.6593171210683977
 21
-308.12316366728822
 31
0.0
  0
LINE
  8
DETAIL
  6
CONTINUOUS
 62
     5
 10
0.6593171210683977
 20
-308.12316366728822
 30
0.0
 11
0.6593171210683977
 21
-308.12316366728822
 31
0.0
  0
LINE
  8
DETAIL
  6
CONTINUOUS
 62
     5
 10
0.6593171210683977
 20
-308.12316366728822
 30
0.0
 11
0.6497334522653091
 21
-308.12507101258012
 31
0.0
  0
LINE
  8
DETAIL
  6
CONTINUOUS
 62
     5
 10
0.6497334522653091
 20
-308.12507101258012
 30
0.0
 11
0.6401522770106567
 21
-308.1269981246237
 31
0.0
  0
LINE
  8
DETAIL
  6
CONTINUOUS
 62
     5
 10
0.6401522770106567
 20
-308.1269981246237
 30
0.0
 11
0.6401522770106567
 21
-308.1269981246237
 31
0.0
  0
LINE
  8
DETAIL
  6
CONTINUOUS
 62
     5
 10
0.6401522770106567
 20
-308.1269981246237
 30
0.0
 11
0.6305728915290274
 21
-308.12893813406481
 31
0.0
  0
LINE
  8
DETAIL
  6
CONTINUOUS
 62
     5
 10
0.6305728915290274
 20
-308.12893813406481
 30
0.0
 11
0.6209945920445534
 21
-308.1308841715495
 31
0.0
  0
LINE
  8
DETAIL
  6
CONTINUOUS
 62
     5
 10
0.6209945920445534
 20
-308.1308841715495
 30
0.0
 11
0.6209945920445534
 21
-308.1308841715495
 31
0.0
  0
LINE
  8
DETAIL
  6
CONTINUOUS
 62
     5
 10
0.6209945920445534
 20
-308.1308841715495
 30
0.0
 11
0.6114166747825038
 21
-308.13282936772367
 31
0.0
  0
LINE
  8
DETAIL
  6
CONTINUOUS
 62
     5
 10
0.6114166747825038
 20
-308.13282936772367
 30
0.0
 11
0.6018384359667834
 21
-308.13476685323423
 31
0.0
  0
LINE
  8
DETAIL
  6
CONTINUOUS
 62
     5
 10
0.6018384359667834
 20
-308.13476685323423
 30
0.0
 11
0.6018384359667834
 21
-308.13476685323423
 31
0.0
  0
LINE
  8
DETAIL
  6
CONTINUOUS
 62
     5
 10
0.6018384359667834
 20
-308.13476685323423
 30
0.0
 11
0.5922591718226613
 21
-308.13668975872707
 31
0.0
  0
LINE
  8
DETAIL
  6
CONTINUOUS
 62
     5
 10
0.5922591718226613
 20
-308.13668975872707
 30
0.0
 11
0.5826781785735875
 21
-308.13859121484847
 31
0.0
  0
LINE
  8
DETAIL
  6
CONTINUOUS
 62
     5
 10
0.5826781785735875
 20
-308.13859121484847
 30
0.0
 11
0.5826781785735875
 21
-308.13859121484847
 31
0.0
  0
LINE
  8
DETAIL
  6
CONTINUOUS
 62
     5
 10
0.5826781785735875
 20
-308.13859121484847
 30
0.0
 11
0.5730947934996493
 21
-308.14046465279517
 31
0.0
  0
LINE
  8
DETAIL
  6
CONTINUOUS
 62
     5
 10
0.5730947934996493
 20
-308.14046465279517
 30
0.0
 11
0.5635085180997521
 21
-308.14230470596578
 31
0.0
  0
LINE
  8
DETAIL
  6
CONTINUOUS
 62
     5
 10
0.5635085180997521
 20
-308.14230470596578
 30
0.0
 11
0.5635085180997521
 21
-308.14230470596578
 31
0.0
  0
LINE
  8
DETAIL
  6
CONTINUOUS
 62
     5
 10
0.5635085180997521
 20
-308.14230470596578
 30
0.0
 11
0.5539188949283016
 21
-308.14410630830918
 31
0.0
  0
LINE
  8
DETAIL
  6
CONTINUOUS
 62
     5
 10
0.5539188949283016
 20
-308.14410630830918
 30
0.0
 11
0.5443254665390214
 21
-308.1458643937749
 31
0.0
  0
LINE
  8
DETAIL
  6
CONTINUOUS
 62
     5
 10
0.5443254665390214
 20
-308.1458643937749
 30
0.0
 11
0.5443254665390214
 21
-308.1458643937749
 31
0.0
  0
LINE
  8
DETAIL
  6
CONTINUOUS
 62
     5
 10
0.5443254665390214
 20
-308.1458643937749
 30
0.0
 11
0.5347277754858624
 21
-308.14757389631131
 31
0.0
  0
LINE
  8
DETAIL
  6
CONTINUOUS
 62
     5
 10
0.5347277754858624
 20
-308.14757389631131
 30
0.0
 11
0.5251253643234577
 21
-308.14922974986888
 31
0.0
  0
LINE
  8
DETAIL
  6
CONTINUOUS
 62
     5
 10
0.5251253643234577
 20
-308.14922974986888
 30
0.0
 11
0.5251253643234577
 21
-308.14922974986888
 31
0.0
  0
LINE
  8
DETAIL
  6
CONTINUOUS
 62
     5
 10
0.5251253643234577
 20
-308.14922974986888
 30
0.0
 11
0.5155177756064404
 21
-308.15082688839539
 31
0.0
  0
LINE
  8
DETAIL
  6
CONTINUOUS
 62
     5
 10
0.5155177756064404
 20
-308.15082688839539
 30
0.0
 11
0.5059045518858056
 21
-308.15236024584101
 31
0.0
  0
LINE
  8
DETAIL
  6
CONTINUOUS
 62
     5
 10
0.5059045518858056
 20
-308.15236024584101
 30
0.0
 11
0.5059045518858056
 21
-308.15236024584101
 31
0.0
  0
LINE
  8
DETAIL
  6
CONTINUOUS
 62
     5
 10
0.5059045518858056
 20
-308.15236024584101
 30
0.0
 11
0.4962852357148222
 21
-308.15382475615479
 31
0.0
  0
LINE
  8
DETAIL
  6
CONTINUOUS
 62
     5
 10
0.4962852357148222
 20
-308.15382475615479
 30
0.0
 11
0.4866593696585824
 21
-308.1552153532852
 31
0.0
  0
LINE
  8
DETAIL
  6
CONTINUOUS
 62
     5
 10
0.4866593696585824
 20
-308.1552153532852
 30
0.0
 11
0.4866593696585824
 21
-308.1552153532852
 31
0.0
  0
LINE
  8
DETAIL
  6
CONTINUOUS
 62
     5
 10
0.4866593696585824
 20
-308.1552153532852
 30
0.0
 11
0.4770267925421194
 21
-308.15652980646018
 31
0.0
  0
LINE
  8
DETAIL
  6
CONTINUOUS
 62
     5
 10
0.4770267925421194
 20
-308.15652980646018
 30
0.0
 11
0.4673885282172705
 21
-308.15777722602519
 31
0.0
  0
LINE
  8
DETAIL
  6
CONTINUOUS
 62
     5
 10
0.4673885282172705
 20
-308.15777722602519
 30
0.0
 11
0.4673885282172705
 21
-308.15777722602519
 31
0.0
  0
LINE
  8
DETAIL
  6
CONTINUOUS
 62
     5
 10
0.4673885282172705
 20
-308.15777722602519
 30
0.0
 11
0.4577458968344672
 21
-308.15896955760257
 31
0.0
  0
LINE
  8
DETAIL
  6
CONTINUOUS
 62
     5
 10
0.4577458968344672
 20
-308.15896955760257
 30
0.0
 11
0.4481002187110334
 21
-308.16011874680822
 31
0.0
  0
LINE
  8
DETAIL
  6
CONTINUOUS
 62
     5
 10
0.4481002187110334
 20
-308.16011874680822
 30
0.0
 11
0.4481002187110334
 21
-308.16011874680822
 31
0.0
  0
LINE
  8
DETAIL
  6
CONTINUOUS
 62
     5
 10
0.4481002187110334
 20
-308.16011874680822
 30
0.0
 11
0.4384528140499242
 21
-308.16123673926268
 31
0.0
  0
LINE
  8
DETAIL
  6
CONTINUOUS
 62
     5
 10
0.4384528140499242
 20
-308.16123673926268
 30
0.0
 11
0.4288050024313179
 21
-308.16233548061467
 31
0.0
  0
LINE
  8
DETAIL
  6
CONTINUOUS
 62
     5
 10
0.4288050024313179
 20
-308.16233548061467
 30
0.0
 11
0.4288050024313179
 21
-308.16233548061467
 31
0.0
  0
LINE
  8
DETAIL
  6
CONTINUOUS
 62
     5
 10
0.4288050024313179
 20
-308.16233548061467
 30
0.0
 11
0.419158103861264
 21
-308.1634269164922
 31
0.0
  0
LINE
  8
DETAIL
  6
CONTINUOUS
 62
     5
 10
0.419158103861264
 20
-308.1634269164922
 30
0.0
 11
0.4095134406709349
 21
-308.16452299242161
 31
0.0
  0
LINE
  8
DETAIL
  6
CONTINUOUS
 62
     5
 10
0.4095134406709349
 20
-308.16452299242161
 30
0.0
 11
0.4095134406709349
 21
-308.16452299242161
 31
0.0
  0
LINE
  8
DETAIL
  6
CONTINUOUS
 62
     5
 10
0.4095134406709349
 20
-308.16452299242161
 30
0.0
 11
0.399872333602616
 21
-308.16563565399838
 31
0.0
  0
LINE
  8
DETAIL
  6
CONTINUOUS
 62
     5
 10
0.399872333602616
 20
-308.16563565399838
 30
0.0
 11
0.3902360947208763
 21
-308.16677684720838
 31
0.0
  0
LINE
  8
DETAIL
  6
CONTINUOUS
 62
     5
 10
0.3902360947208763
 20
-308.16677684720838
 30
0.0
 11
0.3902360947208763
 21
-308.16677684720838
 31
0.0
  0
LINE
  8
DETAIL
  6
CONTINUOUS
 62
     5
 10
0.3902360947208763
 20
-308.16677684720838
 30
0.0
 11
0.3806054225904063
 21
-308.16795447007189
 31
0.0
  0
LINE
  8
DETAIL
  6
CONTINUOUS
 62
     5
 10
0.3806054225904063
 20
-308.16795447007189
 30
0.0
 11
0.3709785704550086
 21
-308.16916022836648
 31
0.0
  0
LINE
  8
DETAIL
  6
CONTINUOUS
 62
     5
 10
0.3709785704550086
 20
-308.16916022836648
 30
0.0
 11
0.3709785704550086
 21
-308.16916022836648
 31
0.0
  0
LINE
  8
DETAIL
  6
CONTINUOUS
 62
     5
 10
0.3709785704550086
 20
-308.16916022836648
 30
0.0
 11
0.3613531500097906
 21
-308.17038178115968
 31
0.0
  0
LINE
  8
DETAIL
  6
CONTINUOUS
 62
     5
 10
0.3613531500097906
 20
-308.17038178115968
 30
0.0
 11
0.3517266520709654
 21
-308.17160679293221
 31
0.0
  0
LINE
  8
DETAIL
  6
CONTINUOUS
 62
     5
 10
0.3517266520709654
 20
-308.17160679293221
 30
0.0
 11
0.3517266520709654
 21
-308.17160679293221
 31
0.0
  0
LINE
  8
DETAIL
  6
CONTINUOUS
 62
     5
 10
0.3517266520709654
 20
-308.17160679293221
 30
0.0
 11
0.3420966500166287
 21
-308.17282292446731
 31
0.0
  0
LINE
  8
DETAIL
  6
CONTINUOUS
 62
     5
 10
0.3420966500166287
 20
-308.17282292446731
 30
0.0
 11
0.3324611683476633
 21
-308.17401781635482
 31
0.0
  0
LINE
  8
DETAIL
  6
CONTINUOUS
 62
     5
 10
0.3324611683476633
 20
-308.17401781635482
 30
0.0
 11
0.3324611683476633
 21
-308.17401781635482
 31
0.0
  0
LINE
  8
DETAIL
  6
CONTINUOUS
 62
     5
 10
0.3324611683476633
 20
-308.17401781635482
 30
0.0
 11
0.3228179234426989
 21
-308.17517912297632
 31
0.0
  0
LINE
  8
DETAIL
  6
CONTINUOUS
 62
     5
 10
0.3228179234426989
 20
-308.17517912297632
 30
0.0
 11
0.3131629480644733
 21
-308.17629457408287
 31
0.0
  0
LINE
  8
DETAIL
  6
CONTINUOUS
 62
     5
 10
0.3131629480644733
 20
-308.17629457408287
 30
0.0
 11
0.3131629480644733
 21
-308.17629457408287
 31
0.0
  0
LINE
  8
DETAIL
  6
CONTINUOUS
 62
     5
 10
0.3131629480644733
 20
-308.17629457408287
 30
0.0
 11
0.3034934249071739
 21
-308.17735184794827
 31
0.0
  0
LINE
  8
DETAIL
  6
CONTINUOUS
 62
     5
 10
0.3034934249071739
 20
-308.17735184794827
 30
0.0
 11
0.2938128200000847
 21
-308.17833834156568
 31
0.0
  0
LINE
  8
DETAIL
  6
CONTINUOUS
 62
     5
 10
0.2938128200000847
 20
-308.17833834156568
 30
0.0
 11
0.2938128200000847
 21
-308.17833834156568
 31
0.0
  0
LINE
  8
DETAIL
  6
CONTINUOUS
 62
     5
 10
0.2938128200000847
 20
-308.17833834156568
 30
0.0
 11
0.2841209489956782
 21
-308.17924485076708
 31
0.0
  0
LINE
  8
DETAIL
  6
CONTINUOUS
 62
     5
 10
0.2841209489956782
 20
-308.17924485076708
 30
0.0
 11
0.2743967426940799
 21
-308.18007604801687
 31
0.0
  0
LINE
  8
DETAIL
  6
CONTINUOUS
 62
     5
 10
0.2743967426940799
 20
-308.18007604801687
 30
0.0
 11
0.2743967426940799
 21
-308.18007604801687
 31
0.0
  0
LINE
  8
DETAIL
  6
CONTINUOUS
 62
     5
 10
0.2743967426940799
 20
-308.18007604801687
 30
0.0
 11
0.264635789581007
 21
-308.18083909550683
 31
0.0
  0
LINE
  8
DETAIL
  6
CONTINUOUS
 62
     5
 10
0.264635789581007
 20
-308.18083909550683
 30
0.0
 11
0.254921193727796
 21
-308.18153723770388
 31
0.0
  0
LINE
  8
DETAIL
  6
CONTINUOUS
 62
     5
 10
0.254921193727796
 20
-308.18153723770388
 30
0.0
 11
0.254921193727796
 21
-308.18153723770388
 31
0.0
  0
LINE
  8
DETAIL
  6
CONTINUOUS
 62
     5
 10
0.254921193727796
 20
-308.18153723770388
 30
0.0
 11
0.2452762849493411
 21
-308.18217639493088
 31
0.0
  0
LINE
  8
DETAIL
  6
CONTINUOUS
 62
     5
 10
0.2452762849493411
 20
-308.18217639493088
 30
0.0
 11
0.235397780442554
 21
-308.18277710865908
 31
0.0
  0
LINE
  8
DETAIL
  6
CONTINUOUS
 62
     5
 10
0.235397780442554
 20
-308.18277710865908
 30
0.0
 11
0.235397780442554
 21
-308.18277710865908
 31
0.0
  0
LINE
  8
DETAIL
  6
CONTINUOUS
 62
     5
 10
0.235397780442554
 20
-308.18277710865908
 30
0.0
 11
0.2252054779714854
 21
-308.18334993392932
 31
0.0
  0
LINE
  8
DETAIL
  6
CONTINUOUS
 62
     5
 10
0.2252054779714854
 20
-308.18334993392932
 30
0.0
 11
0.2158381101808118
 21
-308.18385085891549
 31
0.0
  0
LINE
  8
DETAIL
  6
CONTINUOUS
 62
     5
 10
0.2158381101808118
 20
-308.18385085891549
 30
0.0
 11
0.2158381101808118
 21
-308.18385085891549
 31
0.0
  0
LINE
  8
DETAIL
  6
CONTINUOUS
 62
     5
 10
0.2158381101808118
 20
-308.18385085891549
 30
0.0
 11
0.2076018617087811
 21
-308.1842731416549
 31
0.0
  0
LINE
  8
DETAIL
  6
CONTINUOUS
 62
     5
 10
0.2076018617087811
 20
-308.1842731416549
 30
0.0
 11
0.196253790283663
 21
-308.18481368650441
 31
0.0
  0
LINE
  8
DETAIL
  6
CONTINUOUS
 62
     5
 10
0.196253790283663
 20
-308.18481368650441
 30
0.0
 11
0.196253790283663
 21
-308.18481368650441
 31
0.0
  0
LINE
  8
DETAIL
  6
CONTINUOUS
 62
     5
 10
0.196253790283663
 20
-308.18481368650441
 30
0.0
 11
0.1782066069540633
 21
-308.18563582028628
 31
0.0
  0
LINE
  8
DETAIL
  6
CONTINUOUS
 62
     5
 10
0.1782066069540633
 20
-308.18563582028628
 30
0.0
 11
0.1570447629510454
 21
-308.18656491336787
 31
0.0
  0
LINE
  8
DETAIL
  6
CONTINUOUS
 62
     5
 10
0.1570447629510454
 20
-308.18656491336787
 30
0.0
 11
0.1570447629510454
 21
-308.18656491336787
 31
0.0
  0
LINE
  8
DETAIL
  6
CONTINUOUS
 62
     5
 10
0.1570447629510454
 20
-308.18656491336787
 30
0.0
 11
0.1370097169451583
 21
-308.18739842310669
 31
0.0
  0
LINE
  8
DETAIL
  6
CONTINUOUS
 62
     5
 10
0.1370097169451583
 20
-308.18739842310669
 30
0.0
 11
0.1177992171792539
 21
-308.18816011128882
 31
0.0
  0
LINE
  8
DETAIL
  6
CONTINUOUS
 62
     5
 10
0.1177992171792539
 20
-308.18816011128882
 30
0.0
 11
0.1177992171792539
 21
-308.18816011128882
 31
0.0
  0
LINE
  8
DETAIL
  6
CONTINUOUS
 62
     5
 10
0.1177992171792539
 20
-308.18816011128882
 30
0.0
 11
0.0982792923887246
 21
-308.18891491271938
 31
0.0
  0
LINE
  8
DETAIL
  6
CONTINUOUS
 62
     5
 10
0.0982792923887246
 20
-308.18891491271938
 30
0.0
 11
0.0785328037036379
 21
-308.18966614986363
 31
0.0
  0
LINE
  8
DETAIL
  6
CONTINUOUS
 62
     5
 10
0.0785328037036379
 20
-308.18966614986363
 30
0.0
 11
0.0785328037036379
 21
-308.18966614986363
 31
0.0
  0
LINE
  8
DETAIL
  6
CONTINUOUS
 62
     5
 10
0.0785328037036379
 20
-308.18966614986363
 30
0.0
 11
0.058865915565093
 21
-308.19040677833527
 31
0.0
  0
LINE
  8
DETAIL
  6
CONTINUOUS
 62
     5
 10
0.058865915565093
 20
-308.19040677833527
 30
0.0
 11
0.0392611732584101
 21
-308.19114989868882
 31
0.0
  0
LINE
  8
DETAIL
  6
CONTINUOUS
 62
     5
 10
0.0392611732584101
 20
-308.19114989868882
 30
0.0
 11
0.0392611732584101
 21
-308.19114989868882
 31
0.0
  0
LINE
  8
DETAIL
  6
CONTINUOUS
 62
     5
 10
0.0392611732584101
 20
-308.19114989868882
 30
0.0
 11
0.0196396283363356
 21
-308.19190890585742
 31
0.0
  0
LINE
  8
DETAIL
  6
CONTINUOUS
 62
     5
 10
0.0196396283363356
 20
-308.19190890585742
 30
0.0
 11
-0.0000000234217623
 21
-308.19267822736037
 31
0.0
  0
LINE
  8
DETAIL
  6
CONTINUOUS
 62
     5
 10
0.0
 20
-308.19267822736037
 30
0.0
 11
-0.0193569625412238
 21
-308.19193114585693
 31
0.0
  0
LINE
  8
DETAIL
  6
CONTINUOUS
 62
     5
 10
-0.0193569625412238
 20
-308.19193114585693
 30
0.0
 11
-0.0386942325258133
 21
-308.19119435712042
 31
0.0
  0
LINE
  8
DETAIL
  6
CONTINUOUS
 62
     5
 10
-0.0386942325258133
 20
-308.19119435712042
 30
0.0
 11
-0.0386942325258133
 21
-308.19119435712042
 31
0.0
  0
LINE
  8
DETAIL
  6
CONTINUOUS
 62
     5
 10
-0.0386942325258133
 20
-308.19119435712042
 30
0.0
 11
-0.0580120144015837
 21
-308.19047343448187
 31
0.0
  0
LINE
  8
DETAIL
  6
CONTINUOUS
 62
     5
 10
-0.0580120144015837
 20
-308.19047343448187
 30
0.0
 11
-0.0773901006334654
 21
-308.18975507354139
 31
0.0
  0
LINE
  8
DETAIL
  6
CONTINUOUS
 62
     5
 10
-0.0773901006334654
 20
-308.18975507354139
 30
0.0
 11
-0.0773901006334654
 21
-308.18975507354139
 31
0.0
  0
LINE
  8
DETAIL
  6
CONTINUOUS
 62
     5
 10
-0.0773901006334654
 20
-308.18975507354139
 30
0.0
 11
-0.0968480815349722
 21
-308.18902619487687
 31
0.0
  0
LINE
  8
DETAIL
  6
CONTINUOUS
 62
     5
 10
-0.0968480815349722
 20
-308.18902619487687
 30
0.0
 11
-0.1160851507941061
 21
-308.18829349671842
 31
0.0
  0
LINE
  8
DETAIL
  6
CONTINUOUS
 62
     5
 10
-0.1160851507941061
 20
-308.18829349671842
 30
0.0
 11
-0.1160851507941061
 21
-308.18829349671842
 31
0.0
  0
LINE
  8
DETAIL
  6
CONTINUOUS
 62
     5
 10
-0.1160851507941061
 20
-308.18829349671842
 30
0.0
 11
-0.1350209025638378
 21
-308.18755356349089
 31
0.0
  0
LINE
  8
DETAIL
  6
CONTINUOUS
 62
     5
 10
-0.1350209025638378
 20
-308.18755356349089
 30
0.0
 11
-0.154776929478885
 21
-308.1867427467468
 31
0.0
  0
LINE
  8
DETAIL
  6
CONTINUOUS
 62
     5
 10
-0.154776929478885
 20
-308.1867427467468
 30
0.0
 11
-0.154776929478885
 21
-308.1867427467468
 31
0.0
  0
LINE
  8
DETAIL
  6
CONTINUOUS
 62
     5
 10
-0.154776929478885
 20
-308.1867427467468
 30
0.0
 11
-0.1756534244698287
 21
-308.18583762827848
 31
0.0
  0
LINE
  8
DETAIL
  6
CONTINUOUS
 62
     5
 10
-0.1756534244698287
 20
-308.18583762827848
 30
0.0
 11
-0.1934629831594066
 21
-308.18503594372032
 31
0.0
  0
LINE
  8
DETAIL
  6
CONTINUOUS
 62
     5
 10
-0.1934629831594066
 20
-308.18503594372032
 30
0.0
 11
-0.1934629831594066
 21
-308.18503594372032
 31
0.0
  0
LINE
  8
DETAIL
  6
CONTINUOUS
 62
     5
 10
-0.1934629831594066
 20
-308.18503594372032
 30
0.0
 11
-0.2046661362451232
 21
-308.18450825991158
 31
0.0
  0
LINE
  8
DETAIL
  6
CONTINUOUS
 62
     5
 10
-0.2046661362451232
 20
-308.18450825991158
 30
0.0
 11
-0.2128027520275282
 21
-308.18409531467199
 31
0.0
  0
LINE
  8
DETAIL
  6
CONTINUOUS
 62
     5
 10
-0.2128027520275282
 20
-308.18409531467199
 30
0.0
 11
-0.2128027520275282
 21
-308.18409531467199
 31
0.0
  0
LINE
  8
DETAIL
  6
CONTINUOUS
 62
     5
 10
-0.2128027520275282
 20
-308.18409531467199
 30
0.0
 11
-0.2220603983171259
 21
-308.18360501159577
 31
0.0
  0
LINE
  8
DETAIL
  6
CONTINUOUS
 62
     5
 10
-0.2220603983171259
 20
-308.18360501159577
 30
0.0
 11
-0.2321381033639227
 21
-308.1830437463816
 31
0.0
  0
LINE
  8
DETAIL
  6
CONTINUOUS
 62
     5
 10
-0.2321381033639227
 20
-308.1830437463816
 30
0.0
 11
-0.2321381033639227
 21
-308.1830437463816
 31
0.0
  0
LINE
  8
DETAIL
  6
CONTINUOUS
 62
     5
 10
-0.2321381033639227
 20
-308.1830437463816
 30
0.0
 11
-0.2419134356655377
 21
-308.182454241306
 31
0.0
  0
LINE
  8
DETAIL
  6
CONTINUOUS
 62
     5
 10
-0.2419134356655377
 20
-308.182454241306
 30
0.0
 11
-0.2514666642700831
 21
-308.18182603284617
 31
0.0
  0
LINE
  8
DETAIL
  6
CONTINUOUS
 62
     5
 10
-0.2514666642700831
 20
-308.18182603284617
 30
0.0
 11
-0.2514666642700831
 21
-308.18182603284617
 31
0.0
  0
LINE
  8
DETAIL
  6
CONTINUOUS
 62
     5
 10
-0.2514666642700831
 20
-308.18182603284617
 30
0.0
 11
-0.2610981677030395
 21
-308.18113892380092
 31
0.0
  0
LINE
  8
DETAIL
  6
CONTINUOUS
 62
     5
 10
-0.2610981677030395
 20
-308.18113892380092
 30
0.0
 11
-0.2707860618484119
 21
-308.18038696806252
 31
0.0
  0
LINE
  8
DETAIL
  6
CONTINUOUS
 62
     5
 10
-0.2707860618484119
 20
-308.18038696806252
 30
0.0
 11
-0.2707860618484119
 21
-308.18038696806252
 31
0.0
  0
LINE
  8
DETAIL
  6
CONTINUOUS
 62
     5
 10
-0.2707860618484119
 20
-308.18038696806252
 30
0.0
 11
-0.2804494844331202
 21
-308.17956682765339
 31
0.0
  0
LINE
  8
DETAIL
  6
CONTINUOUS
 62
     5
 10
-0.2804494844331202
 20
-308.17956682765339
 30
0.0
 11
-0.2900939231997199
 21
-308.17867134602841
 31
0.0
  0
LINE
  8
DETAIL
  6
CONTINUOUS
 62
     5
 10
-0.2900939231997199
 20
-308.17867134602841
 30
0.0
 11
-0.2900939231997199
 21
-308.17867134602841
 31
0.0
  0
LINE
  8
DETAIL
  6
CONTINUOUS
 62
     5
 10
-0.2900939231997199
 20
-308.17867134602841
 30
0.0
 11
-0.2997408156647907
 21
-308.17769587496468
 31
0.0
  0
LINE
  8
DETAIL
  6
CONTINUOUS
 62
     5
 10
-0.2997408156647907
 20
-308.17769587496468
 30
0.0
 11
-0.3093890484292388
 21
-308.17664961810328
 31
0.0
  0
LINE
  8
DETAIL
  6
CONTINUOUS
 62
     5
 10
-0.3093890484292388
 20
-308.17664961810328
 30
0.0
 11
-0.3093890484292388
 21
-308.17664961810328
 31
0.0
  0
LINE
  8
DETAIL
  6
CONTINUOUS
 62
     5
 10
-0.3093890484292388
 20
-308.17664961810328
 30
0.0
 11
-0.3190334202795384
 21
-308.17554517351027
 31
0.0
  0
LINE
  8
DETAIL
  6
CONTINUOUS
 62
     5
 10
-0.3190334202795384
 20
-308.17554517351027
 30
0.0
 11
-0.3286749296532889
 21
-308.17439486509147
 31
0.0
  0
LINE
  8
DETAIL
  6
CONTINUOUS
 62
     5
 10
-0.3286749296532889
 20
-308.17439486509147
 30
0.0
 11
-0.3286749296532889
 21
-308.17439486509147
 31
0.0
  0
LINE
  8
DETAIL
  6
CONTINUOUS
 62
     5
 10
-0.3286749296532889
 20
-308.17439486509147
 30
0.0
 11
-0.3383157096036484
 21
-308.17321096657793
 31
0.0
  0
LINE
  8
DETAIL
  6
CONTINUOUS
 62
     5
 10
-0.3383157096036484
 20
-308.17321096657793
 30
0.0
 11
-0.3479562319912475
 21
-308.17200582516091
 31
0.0
  0
LINE
  8
DETAIL
  6
CONTINUOUS
 62
     5
 10
-0.3479562319912475
 20
-308.17200582516091
 30
0.0
 11
-0.3479562319912475
 21
-308.17200582516091
 31
0.0
  0
LINE
  8
DETAIL
  6
CONTINUOUS
 62
     5
 10
-0.3479562319912475
 20
-308.17200582516091
 30
0.0
 11
-0.3575966646587858
 21
-308.17079180147653
 31
0.0
  0
LINE
  8
DETAIL
  6
CONTINUOUS
 62
     5
 10
-0.3575966646587858
 20
-308.17079180147653
 30
0.0
 11
-0.3672376205627188
 21
-308.16958123647743
 31
0.0
  0
LINE
  8
DETAIL
  6
CONTINUOUS
 62
     5
 10
-0.3672376205627188
 20
-308.16958123647743
 30
0.0
 11
-0.3672376205627188
 21
-308.16958123647743
 31
0.0
  0
LINE
  8
DETAIL
  6
CONTINUOUS
 62
     5
 10
-0.3672376205627188
 20
-308.16958123647743
 30
0.0
 11
-0.3768797941218054
 21
-308.16838646751279
 31
0.0
  0
LINE
  8
DETAIL
  6
CONTINUOUS
 62
     5
 10
-0.3768797941218054
 20
-308.16838646751279
 30
0.0
 11
-0.3865237604868526
 21
-308.16721983720782
 31
0.0
  0
LINE
  8
DETAIL
  6
CONTINUOUS
 62
     5
 10
-0.3865237604868526
 20
-308.16721983720782
 30
0.0
 11
-0.3865237604868526
 21
-308.16721983720782
 31
0.0
  0
LINE
  8
DETAIL
  6
CONTINUOUS
 62
     5
 10
-0.3865237604868526
 20
-308.16721983720782
 30
0.0
 11
-0.3961698375685501
 21
-308.16608964096122
 31
0.0
  0
LINE
  8
DETAIL
  6
CONTINUOUS
 62
     5
 10
-0.3961698375685501
 20
-308.16608964096122
 30
0.0
 11
-0.4058174335891636
 21
-308.16498798000077
 31
0.0
  0
LINE
  8
DETAIL
  6
CONTINUOUS
 62
     5
 10
-0.4058174335891636
 20
-308.16498798000077
 30
0.0
 11
-0.4058174335891636
 21
-308.16498798000077
 31
0.0
  0
LINE
  8
DETAIL
  6
CONTINUOUS
 62
     5
 10
-0.4058174335891636
 20
-308.16498798000077
 30
0.0
 11
-0.4154657272074473
 21
-308.1639029071041
 31
0.0
  0
LINE
  8
DETAIL
  6
CONTINUOUS
 62
     5
 10
-0.4154657272074473
 20
-308.1639029071041
 30
0.0
 11
-0.4251138885190358
 21
-308.16282247542858
 31
0.0
  0
LINE
  8
DETAIL
  6
CONTINUOUS
 62
     5
 10
-0.4251138885190358
 20
-308.16282247542858
 30
0.0
 11
-0.4251138885190358
 21
-308.16282247542858
 31
0.0
  0
LINE
  8
DETAIL
  6
CONTINUOUS
 62
     5
 10
-0.4251138885190358
 20
-308.16282247542858
 30
0.0
 11
-0.4347610860527311
 21
-308.16173473820049
 31
0.0
  0
LINE
  8
DETAIL
  6
CONTINUOUS
 62
     5
 10
-0.4347610860527311
 20
-308.16173473820049
 30
0.0
 11
-0.4444064906319909
 21
-308.16062774854572
 31
0.0
  0
LINE
  8
DETAIL
  6
CONTINUOUS
 62
     5
 10
-0.4444064906319909
 20
-308.16062774854572
 30
0.0
 11
-0.4444064906319909
 21
-308.16062774854572
 31
0.0
  0
LINE
  8
DETAIL
  6
CONTINUOUS
 62
     5
 10
-0.4444064906319909
 20
-308.16062774854572
 30
0.0
 11
-0.4540492734993222
 21
-308.15948955956918
 31
0.0
  0
LINE
  8
DETAIL
  6
CONTINUOUS
 62
     5
 10
-0.4540492734993222
 20
-308.15948955956918
 30
0.0
 11
-0.463688605283096
 21
-308.15830822440518
 31
0.0
  0
LINE
  8
DETAIL
  6
CONTINUOUS
 62
     5
 10
-0.463688605283096
 20
-308.15830822440518
 30
0.0
 11
-0.463688605283096
 21
-308.15830822440518
 31
0.0
  0
LINE
  8
DETAIL
  6
CONTINUOUS
 62
     5
 10
-0.463688605283096
 20
-308.15830822440518
 30
0.0
 11
-0.473323656499133
 21
-308.15707179619272
 31
0.0
  0
LINE
  8
DETAIL
  6
CONTINUOUS
 62
     5
 10
-0.473323656499133
 20
-308.15707179619272
 30
0.0
 11
-0.4829535978278727
 21
-308.15576832806192
 31
0.0
  0
LINE
  8
DETAIL
  6
CONTINUOUS
 62
     5
 10
-0.4829535978278727
 20
-308.15576832806192
 30
0.0
 11
-0.4829535978278727
 21
-308.15576832806192
 31
0.0
  0
LINE
  8
DETAIL
  6
CONTINUOUS
 62
     5
 10
-0.4829535978278727
 20
-308.15576832806192
 30
0.0
 11
-0.4925777923199348
 21
-308.15438870871839
 31
0.0
  0
LINE
  8
DETAIL
  6
CONTINUOUS
 62
     5
 10
-0.4925777923199348
 20
-308.15438870871839
 30
0.0
 11
-0.5021963723402223
 21
-308.15293516916682
 31
0.0
  0
LINE
  8
DETAIL
  6
CONTINUOUS
 62
     5
 10
-0.5021963723402223
 20
-308.15293516916682
 30
0.0
 11
-0.5021963723402223
 21
-308.15293516916682
 31
0.0
  0
LINE
  8
DETAIL
  6
CONTINUOUS
 62
     5
 10
-0.5021963723402223
 20
-308.15293516916682
 30
0.0
 11
-0.5118096625863018
 21
-308.15141277598758
 31
0.0
  0
LINE
  8
DETAIL
  6
CONTINUOUS
 62
     5
 10
-0.5118096625863018
 20
-308.15141277598758
 30
0.0
 11
-0.5214179877671086
 21
-308.14982659576089
 31
0.0
  0
LINE
  8
DETAIL
  6
CONTINUOUS
 62
     5
 10
-0.5214179877671086
 20
-308.14982659576089
 30
0.0
 11
-0.5214179877671086
 21
-308.14982659576089
 31
0.0
  0
LINE
  8
DETAIL
  6
CONTINUOUS
 62
     5
 10
-0.5214179877671086
 20
-308.14982659576089
 30
0.0
 11
-0.5310216725938517
 21
-308.14818169506589
 31
0.0
  0
LINE
  8
DETAIL
  6
CONTINUOUS
 62
     5
 10
-0.5310216725938517
 20
-308.14818169506589
 30
0.0
 11
-0.5406210417743296
 21
-308.14648314048242
 31
0.0
  0
LINE
  8
DETAIL
  6
CONTINUOUS
 62
     5
 10
-0.5406210417743296
 20
-308.14648314048242
 30
0.0
 11
-0.5406210417743296
 21
-308.14648314048242
 31
0.0
  0
LINE
  8
DETAIL
  6
CONTINUOUS
 62
     5
 10
-0.5406210417743296
 20
-308.14648314048242
 30
0.0
 11
-0.5502164200161133
 21
-308.14473599859048
 31
0.0
  0
LINE
  8
DETAIL
  6
CONTINUOUS
 62
     5
 10
-0.5502164200161133
 20
-308.14473599859048
 30
0.0
 11
-0.5598081320274559
 21
-308.14294533597013
 31
0.0
  0
LINE
  8
DETAIL
  6
CONTINUOUS
 62
     5
 10
-0.5598081320274559
 20
-308.14294533597013
 30
0.0
 11
-0.5598081320274559
 21
-308.14294533597013
 31
0.0
  0
LINE
  8
DETAIL
  6
CONTINUOUS
 62
     5
 10
-0.5598081320274559
 20
-308.14294533597013
 30
0.0
 11
-0.5693965025166108
 21
-308.14111621920023
 31
0.0
  0
LINE
  8
DETAIL
  6
CONTINUOUS
 62
     5
 10
-0.5693965025166108
 20
-308.14111621920023
 30
0.0
 11
-0.5789818561920583
 21
-308.1392537148613
 31
0.0
  0
LINE
  8
DETAIL
  6
CONTINUOUS
 62
     5
 10
-0.5789818561920583
 20
-308.1392537148613
 30
0.0
 11
-0.5789818561920583
 21
-308.1392537148613
 31
0.0
  0
LINE
  8
DETAIL
  6
CONTINUOUS
 62
     5
 10
-0.5789818561920583
 20
-308.1392537148613
 30
0.0
 11
-0.5885645861831108
 21
-308.13736319008012
 31
0.0
  0
LINE
  8
DETAIL
  6
CONTINUOUS
 62
     5
 10
-0.5885645861831108
 20
-308.13736319008012
 30
0.0
 11
-0.5981453593042261
 21
-308.13545121417201
 31
0.0
  0
LINE
  8
DETAIL
  6
CONTINUOUS
 62
     5
 10
-0.5981453593042261
 20
-308.13545121417201
 30
0.0
 11
-0.5981453593042261
 21
-308.13545121417201
 31
0.0
  0
LINE
  8
DETAIL
  6
CONTINUOUS
 62
     5
 10
-0.5981453593042261
 20
-308.13545121417201
 30
0.0
 11
-0.6077249107918306
 21
-308.13352465699973
 31
0.0
  0
LINE
  8
DETAIL
  6
CONTINUOUS
 62
     5
 10
-0.6077249107918306
 20
-308.13352465699973
 30
0.0
 11
-0.6173039758816685
 21
-308.13159038842559
 31
0.0
  0
LINE
  8
DETAIL
  6
CONTINUOUS
 62
     5
 10
-0.6173039758816685
 20
-308.13159038842559
 30
0.0
 11
-0.6173039758816685
 21
-308.13159038842559
 31
0.0
  0
LINE
  8
DETAIL
  6
CONTINUOUS
 62
     5
 10
-0.6173039758816685
 20
-308.13159038842559
 30
0.0
 11
-0.6268832898097116
 21
-308.12965527831278
 31
0.0
  0
LINE
  8
DETAIL
  6
CONTINUOUS
 62
     5
 10
-0.6268832898097116
 20
-308.12965527831278
 30
0.0
 11
-0.636463587812159
 21
-308.12772619652333
 31
0.0
  0
LINE
  8
DETAIL
  6
CONTINUOUS
 62
     5
 10
-0.636463587812159
 20
-308.12772619652333
 30
0.0
 11
-0.636463587812159
 21
-308.12772619652333
 31
0.0
  0
LINE
  8
DETAIL
  6
CONTINUOUS
 62
     5
 10
-0.636463587812159
 20
-308.12772619652333
 30
0.0
 11
-0.6460456051247547
 21
-308.12581001291937
 31
0.0
  0
LINE
  8
DETAIL
  6
CONTINUOUS
 62
     5
 10
-0.6460456051247547
 20
-308.12581001291937
 30
0.0
 11
-0.6556300769839254
 21
-308.12391359736478
 31
0.0
  0
LINE
  8
DETAIL
  6
CONTINUOUS
 62
     5
 10
-0.6556300769839254
 20
-308.12391359736478
 30
0.0
 11
-0.6556300769839254
 21
-308.12391359736478
 31
0.0
  0
LINE
  8
DETAIL
  6
CONTINUOUS
 62
     5
 10
-0.6556300769839254
 20
-308.12391359736478
 30
0.0
 11
-0.6652177386247331
 21
-308.12204381972009
 31
0.0
  0
LINE
  8
DETAIL
  6
CONTINUOUS
 62
     5
 10
-0.6652177386247331
 20
-308.12204381972009
 30
0.0
 11
-0.6748093252842864
 21
-308.12020754985019
 31
0.0
  0
LINE
  8
DETAIL
  6
CONTINUOUS
 62
     5
 10
-0.6748093252842864
 20
-308.12020754985019
 30
0.0
 11
-0.6748093252842864
 21
-308.12020754985019
 31
0.0
  0
LINE
  8
DETAIL
  6
CONTINUOUS
 62
     5
 10
-0.6748093252842864
 20
-308.12020754985019
 30
0.0
 11
-0.6844051061725622
 21
-308.11840761985292
 31
0.0
  0
LINE
  8
DETAIL
  6
CONTINUOUS
 62
     5
 10
-0.6844051061725622
 20
-308.11840761985292
 30
0.0
 11
-0.6940034863991969
 21
-308.11663071077282
 31
0.0
  0
LINE
  8
DETAIL
  6
CONTINUOUS
 62
     5
 10
-0.6940034863991969
 20
-308.11663071077282
 30
0.0
 11
-0.6940034863991969
 21
-308.11663071077282
 31
0.0
  0
LINE
  8
DETAIL
  6
CONTINUOUS
 62
     5
 10
-0.6940034863991969
 20
-308.11663071077282
 30
0.0
 11
-0.7036024050482865
 21
-308.11485946589022
 31
0.0
  0
LINE
  8
DETAIL
  6
CONTINUOUS
 62
     5
 10
-0.7036024050482865
 20
-308.11485946589022
 30
0.0
 11
-0.7131998012039276
 21
-308.11307652848677
 31
0.0
  0
LINE
  8
DETAIL
  6
CONTINUOUS
 62
     5
 10
-0.7131998012039276
 20
-308.11307652848677
 30
0.0
 11
-0.7131998012039276
 21
-308.11307652848677
 31
0.0
  0
LINE
  8
DETAIL
  6
CONTINUOUS
 62
     5
 10
-0.7131998012039276
 20
-308.11307652848677
 30
0.0
 11
-0.7227936139502162
 21
-308.11126454184171
 31
0.0
  0
LINE
  8
DETAIL
  6
CONTINUOUS
 62
     5
 10
-0.7227936139502162
 20
-308.11126454184171
 30
0.0
 11
-0.7323817823712489
 21
-308.10940614923771
 31
0.0
  0
LINE
  8
DETAIL
  6
CONTINUOUS
 62
     5
 10
-0.7323817823712489
 20
-308.10940614923771
 30
0.0
 11
-0.7323817823712489
 21
-308.10940614923771
 31
0.0
  0
LINE
  8
DETAIL
  6
CONTINUOUS
 62
     5
 10
-0.7323817823712489
 20
-308.10940614923771
 30
0.0
 11
-0.741962245551349
 21
-308.1074839939547
 31
0.0
  0
LINE
  8
DETAIL
  6
CONTINUOUS
 62
     5
 10
-0.741962245551349
 20
-308.1074839939547
 30
0.0
 11
-0.7515329425741584
 21
-308.10548071927371
 31
0.0
  0
LINE
  8
DETAIL
  6
CONTINUOUS
 62
     5
 10
-0.7515329425741584
 20
-308.10548071927371
 30
0.0
 11
-0.7515329425741584
 21
-308.10548071927371
 31
0.0
  0
LINE
  8
DETAIL
  6
CONTINUOUS
 62
     5
 10
-0.7515329425741584
 20
-308.10548071927371
 30
0.0
 11
-0.7610918125237731
 21
-308.10337896847449
 31
0.0
  0
LINE
  8
DETAIL
  6
CONTINUOUS
 62
     5
 10
-0.7610918125237731
 20
-308.10337896847449
 30
0.0
 11
-0.7706367944849717
 21
-308.10116138483932
 31
0.0
  0
LINE
  8
DETAIL
  6
CONTINUOUS
 62
     5
 10
-0.7706367944849717
 20
-308.10116138483932
 30
0.0
 11
-0.7706367944849717
 21
-308.10116138483932
 31
0.0
  0
LINE
  8
DETAIL
  6
CONTINUOUS
 62
     5
 10
-0.7706367944849717
 20
-308.10116138483932
 30
0.0
 11
-0.7801665212282387
 21
-308.09881639534308
 31
0.0
  0
LINE
  8
DETAIL
  6
CONTINUOUS
 62
     5
 10
-0.7801665212282387
 20
-308.09881639534308
 30
0.0
 11
-0.789682400272568
 21
-308.09635556173771
 31
0.0
  0
LINE
  8
DETAIL
  6
CONTINUOUS
 62
     5
 10
-0.789682400272568
 20
-308.09635556173771
 30
0.0
 11
-0.789682400272568
 21
-308.09635556173771
 31
0.0
  0
LINE
  8
DETAIL
  6
CONTINUOUS
 62
     5
 10
-0.789682400272568
 20
-308.09635556173771
 30
0.0
 11
-0.7991865328233416
 21
-308.09379622947199
 31
0.0
  0
LINE
  8
DETAIL
  6
CONTINUOUS
 62
     5
 10
-0.7991865328233416
 20
-308.09379622947199
 30
0.0
 11
-0.8086810200866239
 21
-308.09115574399311
 31
0.0
  0
LINE
  8
DETAIL
  6
CONTINUOUS
 62
     5
 10
-0.8086810200866239
 20
-308.09115574399311
 30
0.0
 11
-0.8086810200866239
 21
-308.09115574399311
 31
0.0
  0
LINE
  8
DETAIL
  6
CONTINUOUS
 62
     5
 10
-0.8086810200866239
 20
-308.09115574399311
 30
0.0
 11
-0.8181679632680243
 21
-308.08845145074838
 31
0.0
  0
LINE
  8
DETAIL
  6
CONTINUOUS
 62
     5
 10
-0.8181679632680243
 20
-308.08845145074838
 30
0.0
 11
-0.8276494635733798
 21
-308.08570069518572
 31
0.0
  0
LINE
  8
DETAIL
  6
CONTINUOUS
 62
     5
 10
-0.8276494635733798
 20
-308.08570069518572
 30
0.0
 11
-0.8276494635733798
 21
-308.08570069518572
 31
0.0
  0
LINE
  8
DETAIL
  6
CONTINUOUS
 62
     5
 10
-0.8276494635733798
 20
-308.08570069518572
 30
0.0
 11
-0.8371276222082997
 21
-308.08292082275238
 31
0.0
  0
LINE
  8
DETAIL
  6
CONTINUOUS
 62
     5
 10
-0.8371276222082997
 20
-308.08292082275238
 30
0.0
 11
-0.8466045403783937
 21
-308.08012917889567
 31
0.0
  0
LINE
  8
DETAIL
  6
CONTINUOUS
 62
     5
 10
-0.8466045403783937
 20
-308.08012917889567
 30
0.0
 11
-0.8466045403783937
 21
-308.08012917889567
 31
0.0
  0
LINE
  8
DETAIL
  6
CONTINUOUS
 62
     5
 10
-0.8466045403783937
 20
-308.08012917889567
 30
0.0
 11
-0.8560823192894986
 21
-308.07734310906318
 31
0.0
  0
LINE
  8
DETAIL
  6
CONTINUOUS
 62
     5
 10
-0.8560823192894986
 20
-308.07734310906318
 30
0.0
 11
-0.865563060147224
 21
-308.07457995870351
 31
0.0
  0
LINE
  8
DETAIL
  6
CONTINUOUS
 62
     5
 10
-0.865563060147224
 20
-308.07457995870351
 30
0.0
 11
-0.865563060147224
 21
-308.07457995870351
 31
0.0
  0
LINE
  8
DETAIL
  6
CONTINUOUS
 62
     5
 10
-0.865563060147224
 20
-308.07457995870351
 30
0.0
 11
-0.8750483578426156
 21
-308.0718530467708
 31
0.0
  0
LINE
  8
DETAIL
  6
CONTINUOUS
 62
     5
 10
-0.8750483578426156
 20
-308.0718530467708
 30
0.0
 11
-0.8845377820057365
 21
-308.06915958625268
 31
0.0
  0
LINE
  8
DETAIL
  6
CONTINUOUS
 62
     5
 10
-0.8845377820057365
 20
-308.06915958625268
 30
0.0
 11
-0.8845377820057365
 21
-308.06915958625268
 31
0.0
  0
LINE
  8
DETAIL
  6
CONTINUOUS
 62
     5
 10
-0.8845377820057365
 20
-308.06915958625268
 30
0.0
 11
-0.8940303959525409
 21
-308.06649276364197
 31
0.0
  0
LINE
  8
DETAIL
  6
CONTINUOUS
 62
     5
 10
-0.8940303959525409
 20
-308.06649276364197
 30
0.0
 11
-0.9035252629983006
 21
-308.06384576543547
 31
0.0
  0
LINE
  8
DETAIL
  6
CONTINUOUS
 62
     5
 10
-0.9035252629983006
 20
-308.06384576543547
 30
0.0
 11
-0.9035252629983006
 21
-308.06384576543547
 31
0.0
  0
LINE
  8
DETAIL
  6
CONTINUOUS
 62
     5
 10
-0.9035252629983006
 20
-308.06384576543547
 30
0.0
 11
-0.9130214464587425
 21
-308.06121177812611
 31
0.0
  0
LINE
  8
DETAIL
  6
CONTINUOUS
 62
     5
 10
-0.9130214464587425
 20
-308.06121177812611
 30
0.0
 11
-0.9225180096495933
 21
-308.05858398820919
 31
0.0
  0
LINE
  8
DETAIL
  6
CONTINUOUS
 62
     5
 10
-0.9225180096495933
 20
-308.05858398820919
 30
0.0
 11
-0.9225180096495933
 21
-308.05858398820919
 31
0.0
  0
LINE
  8
DETAIL
  6
CONTINUOUS
 62
     5
 10
-0.9225180096495933
 20
-308.05858398820919
 30
0.0
 11
-0.932014015886125
 21
-308.05595558217829
 31
0.0
  0
LINE
  8
DETAIL
  6
CONTINUOUS
 62
     5
 10
-0.932014015886125
 20
-308.05595558217829
 30
0.0
 11
-0.9415085284840643
 21
-308.05331974652881
 31
0.0
  0
LINE
  8
DETAIL
  6
CONTINUOUS
 62
     5
 10
-0.9415085284840643
 20
-308.05331974652881
 30
0.0
 11
-0.9415085284840643
 21
-308.05331974652881
 31
0.0
  0
LINE
  8
DETAIL
  6
CONTINUOUS
 62
     5
 10
-0.9415085284840643
 20
-308.05331974652881
 30
0.0
 11
-0.951000610759138
 21
-308.05066966775439
 31
0.0
  0
LINE
  8
DETAIL
  6
CONTINUOUS
 62
     5
 10
-0.951000610759138
 20
-308.05066966775439
 30
0.0
 11
-0.9604893260266181
 21
-308.0479985323509
 31
0.0
  0
LINE
  8
DETAIL
  6
CONTINUOUS
 62
     5
 10
-0.9604893260266181
 20
-308.0479985323509
 30
0.0
 11
-0.9604893260266181
 21
-308.0479985323509
 31
0.0
  0
LINE
  8
DETAIL
  6
CONTINUOUS
 62
     5
 10
-0.9604893260266181
 20
-308.0479985323509
 30
0.0
 11
-0.9699737688949881
 21
-308.04529982970269
 31
0.0
  0
LINE
  8
DETAIL
  6
CONTINUOUS
 62
     5
 10
-0.9699737688949881
 20
-308.04529982970269
 30
0.0
 11
-0.9794531591451232
 21
-308.04256826076107
 31
0.0
  0
LINE
  8
DETAIL
  6
CONTINUOUS
 62
     5
 10
-0.9794531591451232
 20
-308.04256826076107
 30
0.0
 11
-0.9794531591451232
 21
-308.04256826076107
 31
0.0
  0
LINE
  8
DETAIL
  6
CONTINUOUS
 62
     5
 10
-0.9794531591451232
 20
-308.04256826076107
 30
0.0
 11
-0.9889267478497459
 21
-308.03979882936602
 31
0.0
  0
LINE
  8
DETAIL
  6
CONTINUOUS
 62
     5
 10
-0.9889267478497459
 20
-308.03979882936602
 30
0.0
 11
-0.9983937860831702
 21
-308.03698653935999
 31
0.0
  0
LINE
  8
DETAIL
  6
CONTINUOUS
 62
     5
 10
-0.9983937860831702
 20
-308.03698653935999
 30
0.0
 11
-0.9983937860831702
 21
-308.03698653935999
 31
0.0
  0
LINE
  8
DETAIL
  6
CONTINUOUS
 62
     5
 10
-0.9983937860831702
 20
-308.03698653935999
 30
0.0
 11
-1.0078535249181191
 21
-308.03412639458372
 31
0.0
  0
LINE
  8
DETAIL
  6
CONTINUOUS
 62
     5
 10
-1.0078535249181191
 20
-308.03412639458372
 30
0.0
 11
-1.017305215427768
 21
-308.03121339887912
 31
0.0
  0
LINE
  8
DETAIL
  6
CONTINUOUS
 62
     5
 10
-1.017305215427768
 20
-308.03121339887912
 30
0.0
 11
-1.017305215427768
 21
-308.03121339887912
 31
0.0
  0
LINE
  8
DETAIL
  6
CONTINUOUS
 62
     5
 10
-1.017305215427768
 20
-308.03121339887912
 30
0.0
 11
-1.026748108684842
 21
-308.02824255608772
 31
0.0
  0
LINE
  8
DETAIL
  6
CONTINUOUS
 62
     5
 10
-1.026748108684842
 20
-308.02824255608772
 30
0.0
 11
-1.0361814557661551
 21
-308.02520887004971
 31
0.0
  0
LINE
  8
DETAIL
  6
CONTINUOUS
 62
     5
 10
-1.0361814557661551
 20
-308.02520887004971
 30
0.0
 11
-1.0361814557661551
 21
-308.02520887004971
 31
0.0
  0
LINE
  8
DETAIL
  6
CONTINUOUS
 62
     5
 10
-1.0361814557661551
 20
-308.02520887004971
 30
0.0
 11
-1.045604507745338
 21
-308.02210734460488
 31
0.0
  0
LINE
  8
DETAIL
  6
CONTINUOUS
 62
     5
 10
-1.045604507745338
 20
-308.02210734460488
 30
0.0
 11
-1.0550165156853379
 21
-308.01893298360119
 31
0.0
  0
LINE
  8
DETAIL
  6
CONTINUOUS
 62
     5
 10
-1.0550165156853379
 20
-308.01893298360119
 30
0.0
 11
-1.0550165156853379
 21
-308.01893298360119
 31
0.0
  0
LINE
  8
DETAIL
  6
CONTINUOUS
 62
     5
 10
-1.0550165156853379
 20
-308.01893298360119
 30
0.0
 11
-1.0644171118003669
 21
-308.01568360580768
 31
0.0
  0
LINE
  8
DETAIL
  6
CONTINUOUS
 62
     5
 10
-1.0644171118003669
 20
-308.01568360580768
 30
0.0
 11
-1.073807452921528
 21
-308.01236828968217
 31
0.0
  0
LINE
  8
DETAIL
  6
CONTINUOUS
 62
     5
 10
-1.073807452921528
 20
-308.01236828968217
 30
0.0
 11
-1.073807452921528
 21
-308.01236828968217
 31
0.0
  0
LINE
  8
DETAIL
  6
CONTINUOUS
 62
     5
 10
-1.073807452921528
 20
-308.01236828968217
 30
0.0
 11
-1.0831890769939041
 21
-308.00899892862287
 31
0.0
  0
LINE
  8
DETAIL
  6
CONTINUOUS
 62
     5
 10
-1.0831890769939041
 20
-308.00899892862287
 30
0.0
 11
-1.0925635218038681
 21
-308.00558741609962
 31
0.0
  0
LINE
  8
DETAIL
  6
CONTINUOUS
 62
     5
 10
-1.0925635218038681
 20
-308.00558741609962
 30
0.0
 11
-1.0925635218038681
 21
-308.00558741609962
 31
0.0
  0
LINE
  8
DETAIL
  6
CONTINUOUS
 62
     5
 10
-1.0925635218038681
 20
-308.00558741609962
 30
0.0
 11
-1.1019323252469351
 21
-308.00214564553289
 31
0.0
  0
LINE
  8
DETAIL
  6
CONTINUOUS
 62
     5
 10
-1.1019323252469351
 20
-308.00214564553289
 30
0.0
 11
-1.111297025812291
 21
-307.99868551008012
 31
0.0
  0
LINE
  8
DETAIL
  6
CONTINUOUS
 62
     5
 10
-1.111297025812291
 20
-307.99868551008012
 30
0.0
 11
-1.111297025812291
 21
-307.99868551008012
 31
0.0
  0
LINE
  8
DETAIL
  6
CONTINUOUS
 62
     5
 10
-1.111297025812291
 20
-307.99868551008012
 30
0.0
 11
-1.12065916158349
 21
-307.99521890307631
 31
0.0
  0
LINE
  8
DETAIL
  6
CONTINUOUS
 62
     5
 10
-1.12065916158349
 20
-307.99521890307631
 30
0.0
 11
-1.1300202684246869
 21
-307.99175771884671
 31
0.0
  0
LINE
  8
DETAIL
  6
CONTINUOUS
 62
     5
 10
-1.1300202684246869
 20
-307.99175771884671
 30
0.0
 11
-1.1300202684246869
 21
-307.99175771884671
 31
0.0
  0
LINE
  8
DETAIL
  6
CONTINUOUS
 62
     5
 10
-1.1300202684246869
 20
-307.99175771884671
 30
0.0
 11
-1.139381883715487
 21
-307.98831385103949
 31
0.0
  0
LINE
  8
DETAIL
  6
CONTINUOUS
 62
     5
 10
-1.139381883715487
 20
-307.98831385103949
 30
0.0
 11
-1.148745553119852
 21
-307.98489918962503
 31
0.0
  0
LINE
  8
DETAIL
  6
CONTINUOUS
 62
     5
 10
-1.148745553119852
 20
-307.98489918962503
 30
0.0
 11
-1.148745553119852
 21
-307.98489918962503
 31
0.0
  0
LINE
  8
DETAIL
  6
CONTINUOUS
 62
     5
 10
-1.148745553119852
 20
-307.98489918962503
 30
0.0
 11
-1.1581124580050071
 21
-307.98152151685741
 31
0.0
  0
LINE
  8
DETAIL
  6
CONTINUOUS
 62
     5
 10
-1.1581124580050071
 20
-307.98152151685741
 30
0.0
 11
-1.167482314264134
 21
-307.97817218779483
 31
0.0
  0
LINE
  8
DETAIL
  6
CONTINUOUS
 62
     5
 10
-1.167482314264134
 20
-307.97817218779483
 30
0.0
 11
-1.167482314264134
 21
-307.97817218779483
 31
0.0
  0
LINE
  8
DETAIL
  6
CONTINUOUS
 62
     5
 10
-1.167482314264134
 20
-307.97817218779483
 30
0.0
 11
-1.1768545002685189
 21
-307.97483843788808
 31
0.0
  0
LINE
  8
DETAIL
  6
CONTINUOUS
 62
     5
 10
-1.1768545002685189
 20
-307.97483843788808
 30
0.0
 11
-1.1862285097722629
 21
-307.97150745134928
 31
0.0
  0
LINE
  8
DETAIL
  6
CONTINUOUS
 62
     5
 10
-1.1862285097722629
 20
-307.97150745134928
 30
0.0
 11
-1.1862285097722629
 21
-307.97150745134928
 31
0.0
  0
LINE
  8
DETAIL
  6
CONTINUOUS
 62
     5
 10
-1.1862285097722629
 20
-307.97150745134928
 30
0.0
 11
-1.1956037577219829
 21
-307.96816644738601
 31
0.0
  0
LINE
  8
DETAIL
  6
CONTINUOUS
 62
     5
 10
-1.1956037577219829
 20
-307.96816644738601
 30
0.0
 11
-1.204979228446291
 21
-307.96480283643808
 31
0.0
  0
LINE
  8
DETAIL
  6
CONTINUOUS
 62
     5
 10
-1.204979228446291
 20
-307.96480283643808
 30
0.0
 11
-1.204979228446291
 21
-307.96480283643808
 31
0.0
  0
LINE
  8
DETAIL
  6
CONTINUOUS
 62
     5
 10
-1.204979228446291
 20
-307.96480283643808
 30
0.0
 11
-1.214354200390972
 21
-307.96140389833198
 31
0.0
  0
LINE
  8
DETAIL
  6
CONTINUOUS
 62
     5
 10
-1.214354200390972
 20
-307.96140389833198
 30
0.0
 11
-1.22372955908827
 21
-307.95795619920932
 31
0.0
  0
LINE
  8
DETAIL
  6
CONTINUOUS
 62
     5
 10
-1.22372955908827
 20
-307.95795619920932
 30
0.0
 11
-1.22372955908827
 21
-307.95795619920932
 31
0.0
  0
LINE
  8
DETAIL
  6
CONTINUOUS
 62
     5
 10
-1.22372955908827
 20
-307.95795619920932
 30
0.0
 11
-1.2331050924099149
 21
-307.95444679266672
 31
0.0
  0
LINE
  8
DETAIL
  6
CONTINUOUS
 62
     5
 10
-1.2331050924099149
 20
-307.95444679266672
 30
0.0
 11
-1.2424745905004779
 21
-307.95086539581212
 31
0.0
  0
LINE
  8
DETAIL
  6
CONTINUOUS
 62
     5
 10
-1.2424745905004779
 20
-307.95086539581212
 30
0.0
 11
-1.2424745905004779
 21
-307.95086539581212
 31
0.0
  0
LINE
  8
DETAIL
  6
CONTINUOUS
 62
     5
 10
-1.2424745905004779
 20
-307.95086539581212
 30
0.0
 11
-1.25183608207567
 21
-307.94720323295451
 31
0.0
  0
LINE
  8
DETAIL
  6
CONTINUOUS
 62
     5
 10
-1.25183608207567
 20
-307.94720323295451
 30
0.0
 11
-1.2612105478642659
 21
-307.94345489370107
 31
0.0
  0
LINE
  8
DETAIL
  6
CONTINUOUS
 62
     5
 10
-1.2612105478642659
 20
-307.94345489370107
 30
0.0
 11
-1.2612105478642659
 21
-307.94345489370107
 31
0.0
  0
LINE
  8
DETAIL
  6
CONTINUOUS
 62
     5
 10
-1.2612105478642659
 20
-307.94345489370107
 30
0.0
 11
-1.270603822206795
 21
-307.93962508346073
 31
0.0
  0
LINE
  8
DETAIL
  6
CONTINUOUS
 62
     5
 10
-1.270603822206795
 20
-307.93962508346073
 30
0.0
 11
-1.2799382018781671
 21
-307.93575560555291
 31
0.0
  0
LINE
  8
DETAIL
  6
CONTINUOUS
 62
     5
 10
-1.2799382018781671
 20
-307.93575560555291
 30
0.0
 11
-1.2799382018781671
 21
-307.93575560555291
 31
0.0
  0
LINE
  8
DETAIL
  6
CONTINUOUS
 62
     5
 10
-1.2799382018781671
 20
-307.93575560555291
 30
0.0
 11
-1.2891930408725329
 21
-307.93186292495312
 31
0.0
  0
LINE
  8
DETAIL
  6
CONTINUOUS
 62
     5
 10
-1.2891930408725329
 20
-307.93186292495312
 30
0.0
 11
-1.298659459620467
 21
-307.92782505535217
 31
0.0
  0
LINE
  8
DETAIL
  6
CONTINUOUS
 62
     5
 10
-1.298659459620467
 20
-307.92782505535217
 30
0.0
 11
-1.298659459620467
 21
-307.92782505535217
 31
0.0
  0
LINE
  8
DETAIL
  6
CONTINUOUS
 62
     5
 10
-1.298659459620467
 20
-307.92782505535217
 30
0.0
 11
-1.30841563811623
 21
-307.92361457442712
 31
0.0
  0
LINE
  8
DETAIL
  6
CONTINUOUS
 62
     5
 10
-1.30841563811623
 20
-307.92361457442712
 30
0.0
 11
-1.3173762281685411
 21
-307.91972076708089
 31
0.0
  0
LINE
  8
DETAIL
  6
CONTINUOUS
 62
     5
 10
-1.3173762281685411
 20
-307.91972076708089
 30
0.0
 11
-1.3173762281685411
 21
-307.91972076708089
 31
0.0
  0
LINE
  8
DETAIL
  6
CONTINUOUS
 62
     5
 10
-1.3173762281685411
 20
-307.91972076708089
 30
0.0
 11
-1.3252505861155439
 21
-307.91628000061843
 31
0.0
  0
LINE
  8
DETAIL
  6
CONTINUOUS
 62
     5
 10
-1.3252505861155439
 20
-307.91628000061843
 30
0.0
 11
-1.336090414600221
 21
-307.91150026472269
 31
0.0
  0
LINE
  8
DETAIL
  6
CONTINUOUS
 62
     5
 10
-1.336090414600221
 20
-307.91150026472269
 30
0.0
 11
-1.336090414600221
 21
-307.91150026472269
 31
0.0
  0
LINE
  8
DETAIL
  6
CONTINUOUS
 62
     5
 10
-1.336090414600221
 20
-307.91150026472269
 30
0.0
 11
-1.3533205805420041
 21
-307.90386349058622
 31
0.0
  0
LINE
  8
DETAIL
  6
CONTINUOUS
 62
     5
 10
-1.3533205805420041
 20
-307.90386349058622
 30
0.0
 11
-1.373516261661734
 21
-307.89487575305759
 31
0.0
  0
LINE
  8
DETAIL
  6
CONTINUOUS
 62
     5
 10
-1.373516261661734
 20
-307.89487575305759
 30
0.0
 11
-1.373516261661734
 21
-307.89487575305759
 31
0.0
  0
LINE
  8
DETAIL
  6
CONTINUOUS
 62
     5
 10
-1.373516261661734
 20
-307.89487575305759
 30
0.0
 11
-1.3926258418166531
 21
-307.88632304767941
 31
0.0
  0
LINE
  8
DETAIL
  6
CONTINUOUS
 62
     5
 10
-1.3926258418166531
 20
-307.88632304767941
 30
0.0
 11
-1.4109402186054469
 21
-307.87808690911612
 31
0.0
  0
LINE
  8
DETAIL
  6
CONTINUOUS
 62
     5
 10
-1.4109402186054469
 20
-307.87808690911612
 30
0.0
 11
-1.4109402186054469
 21
-307.87808690911612
 31
0.0
  0
LINE
  8
DETAIL
  6
CONTINUOUS
 62
     5
 10
-1.4109402186054469
 20
-307.87808690911612
 30
0.0
 11
-1.429545121717865
 21
-307.869700025665
 31
0.0
  0
LINE
  8
DETAIL
  6
CONTINUOUS
 62
     5
 10
-1.429545121717865
 20
-307.869700025665
 30
0.0
 11
-1.4483630954666751
 21
-307.86120416103631
 31
0.0
  0
LINE
  8
DETAIL
  6
CONTINUOUS
 62
     5
 10
-1.4483630954666751
 20
-307.86120416103631
 30
0.0
 11
-1.4483630954666751
 21
-307.86120416103631
 31
0.0
  0
LINE
  8
DETAIL
  6
CONTINUOUS
 62
     5
 10
-1.4483630954666751
 20
-307.86120416103631
 30
0.0
 11
-1.46710344476196
 21
-307.85273538759878
 31
0.0
  0
LINE
  8
DETAIL
  6
CONTINUOUS
 62
     5
 10
-1.46710344476196
 20
-307.85273538759878
 30
0.0
 11
-1.4857857022816461
 21
-307.84429793695648
 31
0.0
  0
LINE
  8
DETAIL
  6
CONTINUOUS
 62
     5
 10
-1.4857857022816461
 20
-307.84429793695648
 30
0.0
 11
-1.4857857022816461
 21
-307.84429793695648
 31
0.0
  0
LINE
  8
DETAIL
  6
CONTINUOUS
 62
     5
 10
-1.4857857022816461
 20
-307.84429793695648
 30
0.0
 11
-1.50448752622242
 21
-307.83586765243422
 31
0.0
  0
LINE
  8
DETAIL
  6
CONTINUOUS
 62
     5
 10
-1.50448752622242
 20
-307.83586765243422
 30
0.0
 11
-1.523208849085222
 21
-307.82743866501551
 31
0.0
  0
LINE
  8
DETAIL
  6
CONTINUOUS
 62
     5
 10
48.039606009008367
 20
-232.52772528558941
 30
0.0
 11
48.150521955463319
 21
-232.49139950787711
 31
0.0
  0
LINE
  8
DETAIL
  6
CONTINUOUS
 62
     5
 10
48.150521955463319
 20
-232.49139950787711
 30
0.0
 11
48.261611214631557
 21
-232.45564212530181
 31
0.0
  0
LINE
  8
DETAIL
  6
CONTINUOUS
 62
     5
 10
48.261611214631557
 20
-232.45564212530181
 30
0.0
 11
48.261611214631557
 21
-232.45564212530181
 31
0.0
  0
LINE
  8
DETAIL
  6
CONTINUOUS
 62
     5
 10
48.261611214631557
 20
-232.45564212530181
 30
0.0
 11
48.373022279728957
 21
-232.42090601934609
 31
0.0
  0
LINE
  8
DETAIL
  6
CONTINUOUS
 62
     5
 10
48.373022279728957
 20
-232.42090601934609
 30
0.0
 11
48.484804365975833
 21
-232.38718201688079
 31
0.0
  0
LINE
  8
DETAIL
  6
CONTINUOUS
 62
     5
 10
48.484804365975833
 20
-232.38718201688079
 30
0.0
 11
48.484804365975833
 21
-232.38718201688079
 31
0.0
  0
LINE
  8
DETAIL
  6
CONTINUOUS
 62
     5
 10
48.484804365975833
 20
-232.38718201688079
 30
0.0
 11
48.596931076919191
 21
-232.35438923324
 31
0.0
  0
LINE
  8
DETAIL
  6
CONTINUOUS
 62
     5
 10
48.596931076919191
 20
-232.35438923324
 30
0.0
 11
48.709172847402442
 21
-232.3226219922208
 31
0.0
  0
LINE
  8
DETAIL
  6
CONTINUOUS
 62
     5
 10
48.709172847402442
 20
-232.3226219922208
 30
0.0
 11
48.709172847402442
 21
-232.3226219922208
 31
0.0
  0
LINE
  8
DETAIL
  6
CONTINUOUS
 62
     5
 10
48.709172847402442
 20
-232.3226219922208
 30
0.0
 11
48.821477308294561
 21
-232.29195872492571
 31
0.0
  0
LINE
  8
DETAIL
  6
CONTINUOUS
 62
     5
 10
48.821477308294561
 20
-232.29195872492571
 30
0.0
 11
48.934704043273541
 21
-232.26223908321441
 31
0.0
  0
LINE
  8
DETAIL
  6
CONTINUOUS
 62
     5
 10
48.934704043273541
 20
-232.26223908321441
 30
0.0
 11
48.934704043273541
 21
-232.26223908321441
 31
0.0
  0
LINE
  8
DETAIL
  6
CONTINUOUS
 62
     5
 10
48.934704043273541
 20
-232.26223908321441
 30
0.0
 11
49.049079463587077
 21
-232.23343800126241
 31
0.0
  0
LINE
  8
DETAIL
  6
CONTINUOUS
 62
     5
 10
49.049079463587077
 20
-232.23343800126241
 30
0.0
 11
49.161385337951288
 21
-232.20631032175521
 31
0.0
  0
LINE
  8
DETAIL
  6
CONTINUOUS
 62
     5
 10
49.161385337951288
 20
-232.20631032175521
 30
0.0
 11
49.161385337951288
 21
-232.20631032175521
 31
0.0
  0
LINE
  8
DETAIL
  6
CONTINUOUS
 62
     5
 10
49.161385337951288
 20
-232.20631032175521
 30
0.0
 11
49.268895981035257
 21
-232.1814842878928
 31
0.0
  0
LINE
  8
DETAIL
  6
CONTINUOUS
 62
     5
 10
49.268895981035257
 20
-232.1814842878928
 30
0.0
 11
49.374300533844917
 21
-232.15830183642811
 31
0.0
  0
LINE
  8
DETAIL
  6
CONTINUOUS
 62
     5
 10
49.374300533844917
 20
-232.15830183642811
 30
0.0
 11
49.374300533844917
 21
-232.15830183642811
 31
0.0
  0
LINE
  8
DETAIL
  6
CONTINUOUS
 62
     5
 10
49.374300533844917
 20
-232.15830183642811
 30
0.0
 11
49.480790446153613
 21
-232.13599568182011
 31
0.0
  0
LINE
  8
DETAIL
  6
CONTINUOUS
 62
     5
 10
49.480790446153613
 20
-232.13599568182011
 30
0.0
 11
49.588151576465862
 21
-232.1146479558009
 31
0.0
  0
LINE
  8
DETAIL
  6
CONTINUOUS
 62
     5
 10
49.588151576465862
 20
-232.1146479558009
 30
0.0
 11
49.588151576465862
 21
-232.1146479558009
 31
0.0
  0
LINE
  8
DETAIL
  6
CONTINUOUS
 62
     5
 10
49.588151576465862
 20
-232.1146479558009
 30
0.0
 11
49.695525267588437
 21
-232.09449858094851
 31
0.0
  0
LINE
  8
DETAIL
  6
CONTINUOUS
 62
     5
 10
49.695525267588437
 20
-232.09449858094851
 30
0.0
 11
49.80288039080142
 21
-232.0755692259529
 31
0.0
  0
LINE
  8
DETAIL
  6
CONTINUOUS
 62
     5
 10
49.80288039080142
 20
-232.0755692259529
 30
0.0
 11
49.80288039080142
 21
-232.0755692259529
 31
0.0
  0
LINE
  8
DETAIL
  6
CONTINUOUS
 62
     5
 10
49.80288039080142
 20
-232.0755692259529
 30
0.0
 11
49.910416568847268
 21
-232.0578328956008
 31
0.0
  0
LINE
  8
DETAIL
  6
CONTINUOUS
 62
     5
 10
49.910416568847268
 20
-232.0578328956008
 30
0.0
 11
50.01842890183957
 21
-232.0412861929608
 31
0.0
  0
LINE
  8
DETAIL
  6
CONTINUOUS
 62
     5
 10
50.01842890183957
 20
-232.0412861929608
 30
0.0
 11
50.01842890183957
 21
-232.0412861929608
 31
0.0
  0
LINE
  8
DETAIL
  6
CONTINUOUS
 62
     5
 10
50.01842890183957
 20
-232.0412861929608
 30
0.0
 11
50.126933999744779
 21
-232.025962585863
 31
0.0
  0
LINE
  8
DETAIL
  6
CONTINUOUS
 62
     5
 10
50.126933999744779
 20
-232.025962585863
 30
0.0
 11
50.23473903456761
 21
-232.01201940290429
 31
0.0
  0
LINE
  8
DETAIL
  6
CONTINUOUS
 62
     5
 10
50.23473903456761
 20
-232.01201940290429
 30
0.0
 11
50.23473903456761
 21
-232.01201940290429
 31
0.0
  0
LINE
  8
DETAIL
  6
CONTINUOUS
 62
     5
 10
50.23473903456761
 20
-232.01201940290429
 30
0.0
 11
50.340844482170951
 21
-231.99958056771811
 31
0.0
  0
LINE
  8
DETAIL
  6
CONTINUOUS
 62
     5
 10
50.340844482170951
 20
-231.99958056771811
 30
0.0
 11
50.446233471815283
 21
-231.98851252331309
 31
0.0
  0
LINE
  8
DETAIL
  6
CONTINUOUS
 62
     5
 10
50.446233471815283
 20
-231.98851252331309
 30
0.0
 11
50.446233471815283
 21
-231.98851252331309
 31
0.0
  0
LINE
  8
DETAIL
  6
CONTINUOUS
 62
     5
 10
50.446233471815283
 20
-231.98851252331309
 30
0.0
 11
50.552068257110477
 21
-231.97866412730011
 31
0.0
  0
LINE
  8
DETAIL
  6
CONTINUOUS
 62
     5
 10
50.552068257110477
 20
-231.97866412730011
 30
0.0
 11
50.658244935668343
 21
-231.97007137632141
 31
0.0
  0
LINE
  8
DETAIL
  6
CONTINUOUS
 62
     5
 10
50.658244935668343
 20
-231.97007137632141
 30
0.0
 11
50.658244935668343
 21
-231.97007137632141
 31
0.0
  0
LINE
  8
DETAIL
  6
CONTINUOUS
 62
     5
 10
50.658244935668343
 20
-231.97007137632141
 30
0.0
 11
50.76442805053739
 21
-231.96279240220289
 31
0.0
  0
LINE
  8
DETAIL
  6
CONTINUOUS
 62
     5
 10
50.76442805053739
 20
-231.96279240220289
 30
0.0
 11
50.870622082515411
 21
-231.95678673846899
 31
0.0
  0
LINE
  8
DETAIL
  6
CONTINUOUS
 62
     5
 10
50.870622082515411
 20
-231.95678673846899
 30
0.0
 11
50.870622082515411
 21
-231.95678673846899
 31
0.0
  0
LINE
  8
DETAIL
  6
CONTINUOUS
 62
     5
 10
50.870622082515411
 20
-231.95678673846899
 30
0.0
 11
50.97689309808743
 21
-231.95204108261169
 31
0.0
  0
LINE
  8
DETAIL
  6
CONTINUOUS
 62
     5
 10
50.97689309808743
 20
-231.95204108261169
 30
0.0
 11
51.083213568745123
 21
-231.9487493862953
 31
0.0
  0
LINE
  8
DETAIL
  6
CONTINUOUS
 62
     5
 10
51.083213568745123
 20
-231.9487493862953
 30
0.0
 11
51.083213568745123
 21
-231.9487493862953
 31
0.0
  0
LINE
  8
DETAIL
  6
CONTINUOUS
 62
     5
 10
51.083213568745123
 20
-231.9487493862953
 30
0.0
 11
51.189541177788897
 21
-231.94697481013009
 31
0.0
  0
LINE
  8
DETAIL
  6
CONTINUOUS
 62
     5
 10
51.189541177788897
 20
-231.94697481013009
 30
0.0
 11
51.295868050747004
 21
-231.94605009633909
 31
0.0
  0
LINE
  8
DETAIL
  6
CONTINUOUS
 62
     5
 10
51.295868050747004
 20
-231.94605009633909
 30
0.0
 11
51.402223274279088
 21
-231.9469753201864
 31
0.0
  0
LINE
  8
DETAIL
  6
CONTINUOUS
 62
     5
 10
51.402223274279088
 20
-231.9469753201864
 30
0.0
 11
51.508579092982927
 21
-231.94875084137931
 31
0.0
  0
LINE
  8
DETAIL
  6
CONTINUOUS
 62
     5
 10
51.508579092982927
 20
-231.94875084137931
 30
0.0
 11
51.508579092982927
 21
-231.94875084137931
 31
0.0
  0
LINE
  8
DETAIL
  6
CONTINUOUS
 62
     5
 10
51.508579092982927
 20
-231.94875084137931
 30
0.0
 11
51.614927626880217
 21
-231.9520442728444
 31
0.0
  0
LINE
  8
DETAIL
  6
CONTINUOUS
 62
     5
 10
51.614927626880217
 20
-231.9520442728444
 30
0.0
 11
51.721227095391441
 21
-231.9567924898374
 31
0.0
  0
LINE
  8
DETAIL
  6
CONTINUOUS
 62
     5
 10
51.721227095391441
 20
-231.9567924898374
 30
0.0
 11
51.721227095391441
 21
-231.9567924898374
 31
0.0
  0
LINE
  8
DETAIL
  6
CONTINUOUS
 62
     5
 10
51.721227095391441
 20
-231.9567924898374
 30
0.0
 11
51.827450089529073
 21
-231.96280144794079
 31
0.0
  0
LINE
  8
DETAIL
  6
CONTINUOUS
 62
     5
 10
51.827450089529073
 20
-231.96280144794079
 30
0.0
 11
51.933660587272023
 21
-231.97008416171909
 31
0.0
  0
LINE
  8
DETAIL
  6
CONTINUOUS
 62
     5
 10
51.933660587272023
 20
-231.97008416171909
 30
0.0
 11
51.933660587272023
 21
-231.97008416171909
 31
0.0
  0
LINE
  8
DETAIL
  6
CONTINUOUS
 62
     5
 10
51.933660587272023
 20
-231.97008416171909
 30
0.0
 11
52.039862501524112
 21
-231.97868103591941
 31
0.0
  0
LINE
  8
DETAIL
  6
CONTINUOUS
 62
     5
 10
52.039862501524112
 20
-231.97868103591941
 30
0.0
 11
52.145728097924803
 21
-231.98853497703161
 31
0.0
  0
LINE
  8
DETAIL
  6
CONTINUOUS
 62
     5
 10
52.145728097924803
 20
-231.98853497703161
 30
0.0
 11
52.145728097924803
 21
-231.98853497703161
 31
0.0
  0
LINE
  8
DETAIL
  6
CONTINUOUS
 62
     5
 10
52.145728097924803
 20
-231.98853497703161
 30
0.0
 11
52.251155530819688
 21
-231.99961025049291
 31
0.0
  0
LINE
  8
DETAIL
  6
CONTINUOUS
 62
     5
 10
52.251155530819688
 20
-231.99961025049291
 30
0.0
 11
52.3572781566495
 21
-232.01205405578091
 31
0.0
  0
LINE
  8
DETAIL
  6
CONTINUOUS
 62
     5
 10
52.3572781566495
 20
-232.01205405578091
 30
0.0
 11
52.3572781566495
 21
-232.01205405578091
 31
0.0
  0
LINE
  8
DETAIL
  6
CONTINUOUS
 62
     5
 10
52.3572781566495
 20
-232.01205405578091
 30
0.0
 11
52.465054719400541
 21
-232.0259964584252
 31
0.0
  0
LINE
  8
DETAIL
  6
CONTINUOUS
 62
     5
 10
52.465054719400541
 20
-232.0259964584252
 30
0.0
 11
52.573510311148993
 21
-232.04131605412769
 31
0.0
  0
LINE
  8
DETAIL
  6
CONTINUOUS
 62
     5
 10
52.573510311148993
 20
-232.04131605412769
 30
0.0
 11
52.573510311148993
 21
-232.04131605412769
 31
0.0
  0
LINE
  8
DETAIL
  6
CONTINUOUS
 62
     5
 10
52.573510311148993
 20
-232.04131605412769
 30
0.0
 11
52.681481103574917
 21
-232.0578586728748
 31
0.0
  0
LINE
  8
DETAIL
  6
CONTINUOUS
 62
     5
 10
52.681481103574917
 20
-232.0578586728748
 30
0.0
 11
52.78898123869044
 21
-232.07559055161801
 31
0.0
  0
LINE
  8
DETAIL
  6
CONTINUOUS
 62
     5
 10
52.78898123869044
 20
-232.07559055161801
 30
0.0
 11
52.78898123869044
 21
-232.07559055161801
 31
0.0
  0
LINE
  8
DETAIL
  6
CONTINUOUS
 62
     5
 10
52.78898123869044
 20
-232.07559055161801
 30
0.0
 11
52.896297962155131
 21
-232.09451425179671
 31
0.0
  0
LINE
  8
DETAIL
  6
CONTINUOUS
 62
     5
 10
52.896297962155131
 20
-232.09451425179671
 30
0.0
 11
53.003632963893097
 21
-232.11465722582719
 31
0.0
  0
LINE
  8
DETAIL
  6
CONTINUOUS
 62
     5
 10
53.003632963893097
 20
-232.11465722582719
 30
0.0
 11
53.003632963893097
 21
-232.11465722582719
 31
0.0
  0
LINE
  8
DETAIL
  6
CONTINUOUS
 62
     5
 10
53.003632963893097
 20
-232.11465722582719
 30
0.0
 11
53.110957608047777
 21
-232.13599815615129
 31
0.0
  0
LINE
  8
DETAIL
  6
CONTINUOUS
 62
     5
 10
53.110957608047777
 20
-232.13599815615129
 30
0.0
 11
53.217407511376003
 21
-232.1582957543304
 31
0.0
  0
LINE
  8
DETAIL
  6
CONTINUOUS
 62
     5
 10
53.217407511376003
 20
-232.1582957543304
 30
0.0
 11
53.217407511376003
 21
-232.1582957543304
 31
0.0
  0
LINE
  8
DETAIL
  6
CONTINUOUS
 62
     5
 10
53.217407511376003
 20
-232.1582957543304
 30
0.0
 11
53.322766490108052
 21
-232.18146748734131
 31
0.0
  0
LINE
  8
DETAIL
  6
CONTINUOUS
 62
     5
 10
53.322766490108052
 20
-232.18146748734131
 30
0.0
 11
53.430246905758167
 21
-232.20628581470331
 31
0.0
  0
LINE
  8
DETAIL
  6
CONTINUOUS
 62
     5
 10
53.430246905758167
 20
-232.20628581470331
 30
0.0
 11
53.430246905758167
 21
-232.20628581470331
 31
0.0
  0
LINE
  8
DETAIL
  6
CONTINUOUS
 62
     5
 10
53.430246905758167
 20
-232.20628581470331
 30
0.0
 11
53.542555666804219
 21
-232.23341328492231
 31
0.0
  0
LINE
  8
DETAIL
  6
CONTINUOUS
 62
     5
 10
53.542555666804219
 20
-232.23341328492231
 30
0.0
 11
53.65694932430165
 21
-232.26221780991679
 31
0.0
  0
LINE
  8
DETAIL
  6
CONTINUOUS
 62
     5
 10
53.65694932430165
 20
-232.26221780991679
 30
0.0
 11
53.65694932430165
 21
-232.26221780991679
 31
0.0
  0
LINE
  8
DETAIL
  6
CONTINUOUS
 62
     5
 10
53.65694932430165
 20
-232.26221780991679
 30
0.0
 11
53.770188630538087
 21
-232.2919398705221
 31
0.0
  0
LINE
  8
DETAIL
  6
CONTINUOUS
 62
     5
 10
53.770188630538087
 20
-232.2919398705221
 30
0.0
 11
53.882501500158916
 21
-232.322604859839
 31
0.0
  0
LINE
  8
DETAIL
  6
CONTINUOUS
 62
     5
 10
53.882501500158916
 20
-232.322604859839
 30
0.0
 11
53.882501500158916
 21
-232.322604859839
 31
0.0
  0
LINE
  8
DETAIL
  6
CONTINUOUS
 62
     5
 10
53.882501500158916
 20
-232.322604859839
 30
0.0
 11
53.994753142780382
 21
-232.35437436778059
 31
0.0
  0
LINE
  8
DETAIL
  6
CONTINUOUS
 62
     5
 10
53.994753142780382
 20
-232.35437436778059
 30
0.0
 11
54.106890785546973
 21
-232.38716985924339
 31
0.0
  0
LINE
  8
DETAIL
  6
CONTINUOUS
 62
     5
 10
54.106890785546973
 20
-232.38716985924339
 30
0.0
 11
54.106890785546973
 21
-232.38716985924339
 31
0.0
  0
LINE
  8
DETAIL
  6
CONTINUOUS
 62
     5
 10
54.106890785546973
 20
-232.38716985924339
 30
0.0
 11
54.218683351867867
 21
-232.42089666482011
 31
0.0
  0
LINE
  8
DETAIL
  6
CONTINUOUS
 62
     5
 10
54.218683351867867
 20
-232.42089666482011
 30
0.0
 11
54.33010453268389
 21
-232.4556357029023
 31
0.0
  0
LINE
  8
DETAIL
  6
CONTINUOUS
 62
     5
 10
54.33010453268389
 20
-232.4556357029023
 30
0.0
 11
54.33010453268389
 21
-232.4556357029023
 31
0.0
  0
LINE
  8
DETAIL
  6
CONTINUOUS
 62
     5
 10
54.33010453268389
 20
-232.4556357029023
 30
0.0
 11
54.441203938905574
 21
-232.4913962322845
 31
0.0
  0
LINE
  8
DETAIL
  6
CONTINUOUS
 62
     5
 10
54.441203938905574
 20
-232.4913962322845
 30
0.0
 11
54.552130093786673
 21
-232.52772528558941
 31
0.0
  0
LINE
  8
DETAIL
  6
CONTINUOUS
 62
     5
 10
54.552130093786673
 20
-232.52772528558941
 30
0.0
 11
54.663046041797323
 21
-232.49139950732931
 31
0.0
  0
LINE
  8
DETAIL
  6
CONTINUOUS
 62
     5
 10
54.663046041797323
 20
-232.49139950732931
 30
0.0
 11
54.774135302518523
 21
-232.45564212423599
 31
0.0
  0
LINE
  8
DETAIL
  6
CONTINUOUS
 62
     5
 10
54.774135302518523
 20
-232.45564212423599
 30
0.0
 11
54.774135302518523
 21
-232.45564212423599
 31
0.0
  0
LINE
  8
DETAIL
  6
CONTINUOUS
 62
     5
 10
54.774135302518523
 20
-232.45564212423599
 30
0.0
 11
54.885546369163421
 21
-232.42090601781521
 31
0.0
  0
LINE
  8
DETAIL
  6
CONTINUOUS
 62
     5
 10
54.885546369163421
 20
-232.42090601781521
 30
0.0
 11
54.997328456957348
 21
-232.3871820149302
 31
0.0
  0
LINE
  8
DETAIL
  6
CONTINUOUS
 62
     5
 10
54.997328456957348
 20
-232.3871820149302
 30
0.0
 11
54.997328456957348
 21
-232.3871820149302
 31
0.0
  0
LINE
  8
DETAIL
  6
CONTINUOUS
 62
     5
 10
54.997328456957348
 20
-232.3871820149302
 30
0.0
 11
55.109455169451849
 21
-232.35438923090101
 31
0.0
  0
LINE
  8
DETAIL
  6
CONTINUOUS
 62
     5
 10
55.109455169451849
 20
-232.35438923090101
 30
0.0
 11
55.221696941488737
 21
-232.3226219895202
 31
0.0
  0
LINE
  8
DETAIL
  6
CONTINUOUS
 62
     5
 10
55.221696941488737
 20
-232.3226219895202
 30
0.0
 11
55.221696941488737
 21
-232.3226219895202
 31
0.0
  0
LINE
  8
DETAIL
  6
CONTINUOUS
 62
     5
 10
55.221696941488737
 20
-232.3226219895202
 30
0.0
 11
55.33400140393951
 21
-232.29195872188731
 31
0.0
  0
LINE
  8
DETAIL
  6
CONTINUOUS
 62
     5
 10
55.33400140393951
 20
-232.29195872188731
 30
0.0
 11
55.447228140498737
 21
-232.2622390798542
 31
0.0
  0
LINE
  8
DETAIL
  6
CONTINUOUS
 62
     5
 10
55.447228140498737
 20
-232.2622390798542
 30
0.0
 11
55.447228140498737
 21
-232.2622390798542
 31
0.0
  0
LINE
  8
DETAIL
  6
CONTINUOUS
 62
     5
 10
55.447228140498737
 20
-232.2622390798542
 30
0.0
 11
55.56160356242026
 21
-232.23343799758871
 31
0.0
  0
LINE
  8
DETAIL
  6
CONTINUOUS
 62
     5
 10
55.56160356242026
 20
-232.23343799758871
 30
0.0
 11
55.673909438372682
 21
-232.20631031778069
 31
0.0
  0
LINE
  8
DETAIL
  6
CONTINUOUS
 62
     5
 10
55.673909438372682
 20
-232.20631031778069
 30
0.0
 11
55.673909438372682
 21
-232.20631031778069
 31
0.0
  0
LINE
  8
DETAIL
  6
CONTINUOUS
 62
     5
 10
55.673909438372682
 20
-232.20631031778069
 30
0.0
 11
55.781420082984823
 21
-232.1814842836344
 31
0.0
  0
LINE
  8
DETAIL
  6
CONTINUOUS
 62
     5
 10
55.781420082984823
 20
-232.1814842836344
 30
0.0
 11
55.886824637313786
 21
-232.15830183190701
 31
0.0
  0
LINE
  8
DETAIL
  6
CONTINUOUS
 62
     5
 10
55.886824637313786
 20
-232.15830183190701
 30
0.0
 11
55.886824637313786
 21
-232.15830183190701
 31
0.0
  0
LINE
  8
DETAIL
  6
CONTINUOUS
 62
     5
 10
55.886824637313786
 20
-232.15830183190701
 30
0.0
 11
55.993314551180902
 21
-232.13599567706319
 31
0.0
  0
LINE
  8
DETAIL
  6
CONTINUOUS
 62
     5
 10
55.993314551180902
 20
-232.13599567706319
 30
0.0
 11
56.100675683037252
 21
-232.11464795085541
 31
0.0
  0
LINE
  8
DETAIL
  6
CONTINUOUS
 62
     5
 10
56.100675683037252
 20
-232.11464795085541
 30
0.0
 11
56.100675683037252
 21
-232.11464795085541
 31
0.0
  0
LINE
  8
DETAIL
  6
CONTINUOUS
 62
     5
 10
56.100675683037252
 20
-232.11464795085541
 30
0.0
 11
56.208049375660948
 21
-232.0944985758814
 31
0.0
  0
LINE
  8
DETAIL
  6
CONTINUOUS
 62
     5
 10
56.208049375660948
 20
-232.0944985758814
 30
0.0
 11
56.315404500514433
 21
-232.0755692208254
 31
0.0
  0
LINE
  8
DETAIL
  6
CONTINUOUS
 62
     5
 10
56.315404500514433
 20
-232.0755692208254
 30
0.0
 11
56.315404500514433
 21
-232.0755692208254
 31
0.0
  0
LINE
  8
DETAIL
  6
CONTINUOUS
 62
     5
 10
56.315404500514433
 20
-232.0755692208254
 30
0.0
 11
56.422940680390873
 21
-232.0578328904835
 31
0.0
  0
LINE
  8
DETAIL
  6
CONTINUOUS
 62
     5
 10
56.422940680390873
 20
-232.0578328904835
 30
0.0
 11
56.530953014717852
 21
-232.04128618801681
 31
0.0
  0
LINE
  8
DETAIL
  6
CONTINUOUS
 62
     5
 10
56.530953014717852
 20
-232.04128618801681
 30
0.0
 11
56.530953014717852
 21
-232.04128618801681
 31
0.0
  0
LINE
  8
DETAIL
  6
CONTINUOUS
 62
     5
 10
56.530953014717852
 20
-232.04128618801681
 30
0.0
 11
56.63945811327585
 21
-232.02596258129071
 31
0.0
  0
LINE
  8
DETAIL
  6
CONTINUOUS
 62
     5
 10
56.63945811327585
 20
-232.02596258129071
 30
0.0
 11
56.747263150618437
 21
-232.0120193986302
 31
0.0
  0
LINE
  8
DETAIL
  6
CONTINUOUS
 62
     5
 10
56.747263150618437
 20
-232.0120193986302
 30
0.0
 11
56.747263150618437
 21
-232.0120193986302
 31
0.0
  0
LINE
  8
DETAIL
  6
CONTINUOUS
 62
     5
 10
56.747263150618437
 20
-232.0120193986302
 30
0.0
 11
56.853368604765592
 21
-231.99958056344261
 31
0.0
  0
LINE
  8
DETAIL
  6
CONTINUOUS
 62
     5
 10
56.853368604765592
 20
-231.99958056344261
 30
0.0
 11
56.958757602830929
 21
-231.9885125190099
 31
0.0
  0
LINE
  8
DETAIL
  6
CONTINUOUS
 62
     5
 10
56.958757602830929
 20
-231.9885125190099
 30
0.0
 11
56.958757602830929
 21
-231.9885125190099
 31
0.0
  0
LINE
  8
DETAIL
  6
CONTINUOUS
 62
     5
 10
56.958757602830929
 20
-231.9885125190099
 30
0.0
 11
57.064592395881853
 21
-231.97866412324581
 31
0.0
  0
LINE
  8
DETAIL
  6
CONTINUOUS
 62
     5
 10
57.064592395881853
 20
-231.97866412324581
 30
0.0
 11
57.170769081712479
 21
-231.97007137271359
 31
0.0
  0
LINE
  8
DETAIL
  6
CONTINUOUS
 62
     5
 10
57.170769081712479
 20
-231.97007137271359
 30
0.0
 11
57.170769081712479
 21
-231.97007137271359
 31
0.0
  0
LINE
  8
DETAIL
  6
CONTINUOUS
 62
     5
 10
57.170769081712479
 20
-231.97007137271359
 30
0.0
 11
57.276952204052122
 21
-231.962792399092
 31
0.0
  0
LINE
  8
DETAIL
  6
CONTINUOUS
 62
     5
 10
57.276952204052122
 20
-231.962792399092
 30
0.0
 11
57.383146243648298
 21
-231.95678673586781
 31
0.0
  0
LINE
  8
DETAIL
  6
CONTINUOUS
 62
     5
 10
57.383146243648298
 20
-231.95678673586781
 30
0.0
 11
57.383146243648298
 21
-231.95678673586781
 31
0.0
  0
LINE
  8
DETAIL
  6
CONTINUOUS
 62
     5
 10
57.383146243648298
 20
-231.95678673586781
 30
0.0
 11
57.489417266804139
 21
-231.9520410805103
 31
0.0
  0
LINE
  8
DETAIL
  6
CONTINUOUS
 62
     5
 10
57.489417266804139
 20
-231.9520410805103
 30
0.0
 11
57.595737745023833
 21
-231.94874938459981
 31
0.0
  0
LINE
  8
DETAIL
  6
CONTINUOUS
 62
     5
 10
57.595737745023833
 20
-231.94874938459981
 30
0.0
 11
57.595737745023833
 21
-231.94874938459981
 31
0.0
  0
LINE
  8
DETAIL
  6
CONTINUOUS
 62
     5
 10
57.595737745023833
 20
-231.94874938459981
 30
0.0
 11
57.702065361656423
 21
-231.9469748086799
 31
0.0
  0
LINE
  8
DETAIL
  6
CONTINUOUS
 62
     5
 10
57.702065361656423
 20
-231.9469748086799
 30
0.0
 11
57.808392242224038
 21
-231.94605009503809
 31
0.0
  0
LINE
  8
DETAIL
  6
CONTINUOUS
 62
     5
 10
57.808392242224038
 20
-231.94605009503809
 30
0.0
 11
57.914747459101591
 21
-231.94697531911561
 31
0.0
  0
LINE
  8
DETAIL
  6
CONTINUOUS
 62
     5
 10
57.914747459101591
 20
-231.94697531911561
 30
0.0
 11
58.021103271151112
 21
-231.9487508406967
 31
0.0
  0
LINE
  8
DETAIL
  6
CONTINUOUS
 62
     5
 10
58.021103271151112
 20
-231.9487508406967
 30
0.0
 11
58.021103271151112
 21
-231.9487508406967
 31
0.0
  0
LINE
  8
DETAIL
  6
CONTINUOUS
 62
     5
 10
58.021103271151112
 20
-231.9487508406967
 30
0.0
 11
58.127451798387263
 21
-231.95204427281669
 31
0.0
  0
LINE
  8
DETAIL
  6
CONTINUOUS
 62
     5
 10
58.127451798387263
 20
-231.95204427281669
 30
0.0
 11
58.233751260196868
 21
-231.9567924906452
 31
0.0
  0
LINE
  8
DETAIL
  6
CONTINUOUS
 62
     5
 10
58.233751260196868
 20
-231.9567924906452
 30
0.0
 11
58.233751260196868
 21
-231.9567924906452
 31
0.0
  0
LINE
  8
DETAIL
  6
CONTINUOUS
 62
     5
 10
58.233751260196868
 20
-231.9567924906452
 30
0.0
 11
58.339974247589232
 21
-231.9628014496468
 31
0.0
  0
LINE
  8
DETAIL
  6
CONTINUOUS
 62
     5
 10
58.339974247589232
 20
-231.9628014496468
 30
0.0
 11
58.446184738691272
 21
-231.97008416434261
 31
0.0
  0
LINE
  8
DETAIL
  6
CONTINUOUS
 62
     5
 10
58.446184738691272
 20
-231.97008416434261
 30
0.0
 11
58.446184738691272
 21
-231.97008416434261
 31
0.0
  0
LINE
  8
DETAIL
  6
CONTINUOUS
 62
     5
 10
58.446184738691272
 20
-231.97008416434261
 30
0.0
 11
58.552386646448667
 21
-231.97868103942761
 31
0.0
  0
LINE
  8
DETAIL
  6
CONTINUOUS
 62
     5
 10
58.552386646448667
 20
-231.97868103942761
 30
0.0
 11
58.658252235964028
 21
-231.98853498124751
 31
0.0
  0
LINE
  8
DETAIL
  6
CONTINUOUS
 62
     5
 10
58.658252235964028
 20
-231.98853498124751
 30
0.0
 11
58.658252235964028
 21
-231.98853498124751
 31
0.0
  0
LINE
  8
DETAIL
  6
CONTINUOUS
 62
     5
 10
58.658252235964028
 20
-231.98853498124751
 30
0.0
 11
58.763679661443348
 21
-231.9996102551477
 31
0.0
  0
LINE
  8
DETAIL
  6
CONTINUOUS
 62
     5
 10
58.763679661443348
 20
-231.9996102551477
 30
0.0
 11
58.869802281345073
 21
-232.01205406082039
 31
0.0
  0
LINE
  8
DETAIL
  6
CONTINUOUS
 62
     5
 10
58.869802281345073
 20
-232.01205406082039
 30
0.0
 11
58.869802281345073
 21
-232.01205406082039
 31
0.0
  0
LINE
  8
DETAIL
  6
CONTINUOUS
 62
     5
 10
58.869802281345073
 20
-232.01205406082039
 30
0.0
 11
58.977578841361492
 21
-232.02599646399449
 31
0.0
  0
LINE
  8
DETAIL
  6
CONTINUOUS
 62
     5
 10
58.977578841361492
 20
-232.02599646399449
 30
0.0
 11
59.08603443185757
 21
-232.04131606019291
 31
0.0
  0
LINE
  8
DETAIL
  6
CONTINUOUS
 62
     5
 10
59.08603443185757
 20
-232.04131606019291
 30
0.0
 11
59.08603443185757
 21
-232.04131606019291
 31
0.0
  0
LINE
  8
DETAIL
  6
CONTINUOUS
 62
     5
 10
59.08603443185757
 20
-232.04131606019291
 30
0.0
 11
59.194005222492713
 21
-232.05785867918971
 31
0.0
  0
LINE
  8
DETAIL
  6
CONTINUOUS
 62
     5
 10
59.194005222492713
 20
-232.05785867918971
 30
0.0
 11
59.301505355425661
 21
-232.0755905579781
 31
0.0
  0
LINE
  8
DETAIL
  6
CONTINUOUS
 62
     5
 10
59.301505355425661
 20
-232.0755905579781
 30
0.0
 11
59.301505355425661
 21
-232.0755905579781
 31
0.0
  0
LINE
  8
DETAIL
  6
CONTINUOUS
 62
     5
 10
59.301505355425661
 20
-232.0755905579781
 30
0.0
 11
59.408822076859451
 21
-232.0945142580828
 31
0.0
  0
LINE
  8
DETAIL
  6
CONTINUOUS
 62
     5
 10
59.408822076859451
 20
-232.0945142580828
 30
0.0
 11
59.516157076675427
 21
-232.11465723193851
 31
0.0
  0
LINE
  8
DETAIL
  6
CONTINUOUS
 62
     5
 10
59.516157076675427
 20
-232.11465723193851
 30
0.0
 11
59.516157076675427
 21
-232.11465723193851
 31
0.0
  0
LINE
  8
DETAIL
  6
CONTINUOUS
 62
     5
 10
59.516157076675427
 20
-232.11465723193851
 30
0.0
 11
59.623481718871737
 21
-232.13599816199351
 31
0.0
  0
LINE
  8
DETAIL
  6
CONTINUOUS
 62
     5
 10
59.623481718871737
 20
-232.13599816199351
 30
0.0
 11
59.729931620232954
 21
-232.15829575983659
 31
0.0
  0
LINE
  8
DETAIL
  6
CONTINUOUS
 62
     5
 10
59.729931620232954
 20
-232.15829575983659
 30
0.0
 11
59.729931620232954
 21
-232.15829575983659
 31
0.0
  0
LINE
  8
DETAIL
  6
CONTINUOUS
 62
     5
 10
59.729931620232954
 20
-232.15829575983659
 30
0.0
 11
59.835290597034152
 21
-232.18146749247401
 31
0.0
  0
LINE
  8
DETAIL
  6
CONTINUOUS
 62
     5
 10
59.835290597034152
 20
-232.18146749247401
 30
0.0
 11
59.942771010724073
 21
-232.2062858194345
 31
0.0
  0
LINE
  8
DETAIL
  6
CONTINUOUS
 62
     5
 10
59.942771010724073
 20
-232.2062858194345
 30
0.0
 11
59.942771010724073
 21
-232.2062858194345
 31
0.0
  0
LINE
  8
DETAIL
  6
CONTINUOUS
 62
     5
 10
59.942771010724073
 20
-232.2062858194345
 30
0.0
 11
60.055079769718759
 21
-232.23341328923149
 31
0.0
  0
LINE
  8
DETAIL
  6
CONTINUOUS
 62
     5
 10
60.055079769718759
 20
-232.23341328923149
 30
0.0
 11
60.16947342512799
 21
-232.2622178137949
 31
0.0
  0
LINE
  8
DETAIL
  6
CONTINUOUS
 62
     5
 10
60.16947342512799
 20
-232.2622178137949
 30
0.0
 11
60.16947342512799
 21
-232.2622178137949
 31
0.0
  0
LINE
  8
DETAIL
  6
CONTINUOUS
 62
     5
 10
60.16947342512799
 20
-232.2622178137949
 30
0.0
 11
60.28271272930624
 21
-232.29193987396911
 31
0.0
  0
LINE
  8
DETAIL
  6
CONTINUOUS
 62
     5
 10
60.28271272930624
 20
-232.29193987396911
 30
0.0
 11
60.395025596894811
 21
-232.3226048628496
 31
0.0
  0
LINE
  8
DETAIL
  6
CONTINUOUS
 62
     5
 10
60.395025596894811
 20
-232.3226048628496
 30
0.0
 11
60.395025596894811
 21
-232.3226048628496
 31
0.0
  0
LINE
  8
DETAIL
  6
CONTINUOUS
 62
     5
 10
60.395025596894811
 20
-232.3226048628496
 30
0.0
 11
60.50727723749219
 21
-232.3543743703417
 31
0.0
  0
LINE
  8
DETAIL
  6
CONTINUOUS
 62
     5
 10
60.50727723749219
 20
-232.3543743703417
 30
0.0
 11
60.61941487824356
 21
-232.3871698613398
 31
0.0
  0
LINE
  8
DETAIL
  6
CONTINUOUS
 62
     5
 10
60.61941487824356
 20
-232.3871698613398
 30
0.0
 11
60.61941487824356
 21
-232.3871698613398
 31
0.0
  0
LINE
  8
DETAIL
  6
CONTINUOUS
 62
     5
 10
60.61941487824356
 20
-232.3871698613398
 30
0.0
 11
60.731207442563353
 21
-232.42089666643409
 31
0.0
  0
LINE
  8
DETAIL
  6
CONTINUOUS
 62
     5
 10
60.731207442563353
 20
-232.42089666643409
 30
0.0
 11
60.842628621393942
 21
-232.455635704006
 31
0.0
  0
LINE
  8
DETAIL
  6
CONTINUOUS
 62
     5
 10
60.842628621393942
 20
-232.455635704006
 30
0.0
 11
60.842628621393942
 21
-232.455635704006
 31
0.0
  0
LINE
  8
DETAIL
  6
CONTINUOUS
 62
     5
 10
60.842628621393942
 20
-232.455635704006
 30
0.0
 11
60.953728025645432
 21
-232.491396232846
 31
0.0
  0
LINE
  8
DETAIL
  6
CONTINUOUS
 62
     5
 10
60.953728025645432
 20
-232.491396232846
 30
0.0
 11
61.064654178564979
 21
-232.52772528558941
 31
0.0
  0
LINE
  8
DETAIL
  6
CONTINUOUS
 62
     5
 10
-61.064654178565213
 20
-232.52772528558941
 30
0.0
 11
-60.953738232123442
 21
-232.49139950787711
 31
0.0
  0
LINE
  8
DETAIL
  6
CONTINUOUS
 62
     5
 10
-60.953738232123442
 20
-232.49139950787711
 30
0.0
 11
-60.842648972977941
 21
-232.45564212530181
 31
0.0
  0
LINE
  8
DETAIL
  6
CONTINUOUS
 62
     5
 10
-60.842648972977941
 20
-232.45564212530181
 30
0.0
 11
-60.842648972977941
 21
-232.45564212530181
 31
0.0
  0
LINE
  8
DETAIL
  6
CONTINUOUS
 62
     5
 10
-60.842648972977941
 20
-232.45564212530181
 30
0.0
 11
-60.731237907920558
 21
-232.42090601934609
 31
0.0
  0
LINE
  8
DETAIL
  6
CONTINUOUS
 62
     5
 10
-60.731237907920558
 20
-232.42090601934609
 30
0.0
 11
-60.619455821726433
 21
-232.38718201688079
 31
0.0
  0
LINE
  8
DETAIL
  6
CONTINUOUS
 62
     5
 10
-60.619455821726433
 20
-232.38718201688079
 30
0.0
 11
-60.619455821726433
 21
-232.38718201688079
 31
0.0
  0
LINE
  8
DETAIL
  6
CONTINUOUS
 62
     5
 10
-60.619455821726433
 20
-232.38718201688079
 30
0.0
 11
-60.507329110842868
 21
-232.35438923324
 31
0.0
  0
LINE
  8
DETAIL
  6
CONTINUOUS
 62
     5
 10
-60.507329110842868
 20
-232.35438923324
 30
0.0
 11
-60.395087340424197
 21
-232.3226219922208
 31
0.0
  0
LINE
  8
DETAIL
  6
CONTINUOUS
 62
     5
 10
-60.395087340424197
 20
-232.3226219922208
 30
0.0
 11
-60.395087340424197
 21
-232.3226219922208
 31
0.0
  0
LINE
  8
DETAIL
  6
CONTINUOUS
 62
     5
 10
-60.395087340424197
 20
-232.3226219922208
 30
0.0
 11
-60.282782879598017
 21
-232.29195872492571
 31
0.0
  0
LINE
  8
DETAIL
  6
CONTINUOUS
 62
     5
 10
-60.282782879598017
 20
-232.29195872492571
 30
0.0
 11
-60.169556144684293
 21
-232.26223908321441
 31
0.0
  0
LINE
  8
DETAIL
  6
CONTINUOUS
 62
     5
 10
-60.169556144684293
 20
-232.26223908321441
 30
0.0
 11
-60.169556144684293
 21
-232.26223908321441
 31
0.0
  0
LINE
  8
DETAIL
  6
CONTINUOUS
 62
     5
 10
-60.169556144684293
 20
-232.26223908321441
 30
0.0
 11
-60.055180724432383
 21
-232.23343800126241
 31
0.0
  0
LINE
  8
DETAIL
  6
CONTINUOUS
 62
     5
 10
-60.055180724432383
 20
-232.23343800126241
 30
0.0
 11
-59.942874850120923
 21
-232.20631032175521
 31
0.0
  0
LINE
  8
DETAIL
  6
CONTINUOUS
 62
     5
 10
-59.942874850120923
 20
-232.20631032175521
 30
0.0
 11
-59.942874850120923
 21
-232.20631032175521
 31
0.0
  0
LINE
  8
DETAIL
  6
CONTINUOUS
 62
     5
 10
-59.942874850120923
 20
-232.20631032175521
 30
0.0
 11
-59.835364207078783
 21
-232.1814842878928
 31
0.0
  0
LINE
  8
DETAIL
  6
CONTINUOUS
 62
     5
 10
-59.835364207078783
 20
-232.1814842878928
 30
0.0
 11
-59.72995965430141
 21
-232.15830183642811
 31
0.0
  0
LINE
  8
DETAIL
  6
CONTINUOUS
 62
     5
 10
-59.72995965430141
 20
-232.15830183642811
 30
0.0
 11
-59.72995965430141
 21
-232.15830183642811
 31
0.0
  0
LINE
  8
DETAIL
  6
CONTINUOUS
 62
     5
 10
-59.72995965430141
 20
-232.15830183642811
 30
0.0
 11
-59.623469742018408
 21
-232.13599568182011
 31
0.0
  0
LINE
  8
DETAIL
  6
CONTINUOUS
 62
     5
 10
-59.623469742018408
 20
-232.13599568182011
 30
0.0
 11
-59.516108611725492
 21
-232.1146479558009
 31
0.0
  0
LINE
  8
DETAIL
  6
CONTINUOUS
 62
     5
 10
-59.516108611725492
 20
-232.1146479558009
 30
0.0
 11
-59.516108611725492
 21
-232.1146479558009
 31
0.0
  0
LINE
  8
DETAIL
  6
CONTINUOUS
 62
     5
 10
-59.516108611725492
 20
-232.1146479558009
 30
0.0
 11
-59.40873492061678
 21
-232.09449858094851
 31
0.0
  0
LINE
  8
DETAIL
  6
CONTINUOUS
 62
     5
 10
-59.40873492061678
 20
-232.09449858094851
 30
0.0
 11
-59.301379797412892
 21
-232.0755692259529
 31
0.0
  0
LINE
  8
DETAIL
  6
CONTINUOUS
 62
     5
 10
-59.301379797412892
 20
-232.0755692259529
 30
0.0
 11
-59.301379797412892
 21
-232.0755692259529
 31
0.0
  0
LINE
  8
DETAIL
  6
CONTINUOUS
 62
     5
 10
-59.301379797412892
 20
-232.0755692259529
 30
0.0
 11
-59.193843619372728
 21
-232.0578328956008
 31
0.0
  0
LINE
  8
DETAIL
  6
CONTINUOUS
 62
     5
 10
-59.193843619372728
 20
-232.0578328956008
 30
0.0
 11
-59.085831286383382
 21
-232.0412861929608
 31
0.0
  0
LINE
  8
DETAIL
  6
CONTINUOUS
 62
     5
 10
-59.085831286383382
 20
-232.0412861929608
 30
0.0
 11
-59.085831286383382
 21
-232.0412861929608
 31
0.0
  0
LINE
  8
DETAIL
  6
CONTINUOUS
 62
     5
 10
-59.085831286383382
 20
-232.0412861929608
 30
0.0
 11
-58.977326188479083
 21
-232.025962585863
 31
0.0
  0
LINE
  8
DETAIL
  6
CONTINUOUS
 62
     5
 10
-58.977326188479083
 20
-232.025962585863
 30
0.0
 11
-58.869521153656478
 21
-232.01201940290429
 31
0.0
  0
LINE
  8
DETAIL
  6
CONTINUOUS
 62
     5
 10
-58.869521153656478
 20
-232.01201940290429
 30
0.0
 11
-58.869521153656478
 21
-232.01201940290429
 31
0.0
  0
LINE
  8
DETAIL
  6
CONTINUOUS
 62
     5
 10
-58.869521153656478
 20
-232.01201940290429
 30
0.0
 11
-58.763415706052463
 21
-231.99958056771811
 31
0.0
  0
LINE
  8
DETAIL
  6
CONTINUOUS
 62
     5
 10
-58.763415706052463
 20
-231.99958056771811
 30
0.0
 11
-58.658026716403583
 21
-231.98851252331309
 31
0.0
  0
LINE
  8
DETAIL
  6
CONTINUOUS
 62
     5
 10
-58.658026716403583
 20
-231.98851252331309
 30
0.0
 11
-58.658026716403583
 21
-231.98851252331309
 31
0.0
  0
LINE
  8
DETAIL
  6
CONTINUOUS
 62
     5
 10
-58.658026716403583
 20
-231.98851252331309
 30
0.0
 11
-58.552191931096331
 21
-231.97866412730011
 31
0.0
  0
LINE
  8
DETAIL
  6
CONTINUOUS
 62
     5
 10
-58.552191931096331
 20
-231.97866412730011
 30
0.0
 11
-58.446015252514137
 21
-231.97007137632141
 31
0.0
  0
LINE
  8
DETAIL
  6
CONTINUOUS
 62
     5
 10
-58.446015252514137
 20
-231.97007137632141
 30
0.0
 11
-58.446015252514137
 21
-231.97007137632141
 31
0.0
  0
LINE
  8
DETAIL
  6
CONTINUOUS
 62
     5
 10
-58.446015252514137
 20
-231.97007137632141
 30
0.0
 11
-58.339832137604837
 21
-231.96279240220289
 31
0.0
  0
LINE
  8
DETAIL
  6
CONTINUOUS
 62
     5
 10
-58.339832137604837
 20
-231.96279240220289
 30
0.0
 11
-58.233638105568389
 21
-231.95678673846899
 31
0.0
  0
LINE
  8
DETAIL
  6
CONTINUOUS
 62
     5
 10
-58.233638105568389
 20
-231.95678673846899
 30
0.0
 11
-58.233638105568389
 21
-231.95678673846899
 31
0.0
  0
LINE
  8
DETAIL
  6
CONTINUOUS
 62
     5
 10
-58.233638105568389
 20
-231.95678673846899
 30
0.0
 11
-58.127367089915417
 21
-231.95204108261169
 31
0.0
  0
LINE
  8
DETAIL
  6
CONTINUOUS
 62
     5
 10
-58.127367089915417
 20
-231.95204108261169
 30
0.0
 11
-58.021046619145643
 21
-231.9487493862953
 31
0.0
  0
LINE
  8
DETAIL
  6
CONTINUOUS
 62
     5
 10
-58.021046619145643
 20
-231.9487493862953
 30
0.0
 11
-58.021046619145643
 21
-231.9487493862953
 31
0.0
  0
LINE
  8
DETAIL
  6
CONTINUOUS
 62
     5
 10
-58.021046619145643
 20
-231.9487493862953
 30
0.0
 11
-57.914719009953608
 21
-231.94697481013009
 31
0.0
  0
LINE
  8
DETAIL
  6
CONTINUOUS
 62
     5
 10
-57.914719009953608
 20
-231.94697481013009
 30
0.0
 11
-57.808392136826569
 21
-231.94605009633909
 31
0.0
  0
LINE
  8
DETAIL
  6
CONTINUOUS
 62
     5
 10
-57.808392136826569
 20
-231.94605009633909
 30
0.0
 11
-57.702036913294478
 21
-231.9469753201864
 31
0.0
  0
LINE
  8
DETAIL
  6
CONTINUOUS
 62
     5
 10
-57.702036913294478
 20
-231.9469753201864
 30
0.0
 11
-57.595681094591328
 21
-231.94875084137931
 31
0.0
  0
LINE
  8
DETAIL
  6
CONTINUOUS
 62
     5
 10
-57.595681094591328
 20
-231.94875084137931
 30
0.0
 11
-57.595681094591328
 21
-231.94875084137931
 31
0.0
  0
LINE
  8
DETAIL
  6
CONTINUOUS
 62
     5
 10
-57.595681094591328
 20
-231.94875084137931
 30
0.0
 11
-57.489332560696077
 21
-231.9520442728444
 31
0.0
  0
LINE
  8
DETAIL
  6
CONTINUOUS
 62
     5
 10
-57.489332560696077
 20
-231.9520442728444
 30
0.0
 11
-57.383033092188732
 21
-231.9567924898374
 31
0.0
  0
LINE
  8
DETAIL
  6
CONTINUOUS
 62
     5
 10
-57.383033092188732
 20
-231.9567924898374
 30
0.0
 11
-57.383033092188732
 21
-231.9567924898374
 31
0.0
  0
LINE
  8
DETAIL
  6
CONTINUOUS
 62
     5
 10
-57.383033092188732
 20
-231.9567924898374
 30
0.0
 11
-57.276810098057467
 21
-231.96280144794079
 31
0.0
  0
LINE
  8
DETAIL
  6
CONTINUOUS
 62
     5
 10
-57.276810098057467
 20
-231.96280144794079
 30
0.0
 11
-57.17059960032384
 21
-231.97008416171909
 31
0.0
  0
LINE
  8
DETAIL
  6
CONTINUOUS
 62
     5
 10
-57.17059960032384
 20
-231.97008416171909
 30
0.0
 11
-57.17059960032384
 21
-231.97008416171909
 31
0.0
  0
LINE
  8
DETAIL
  6
CONTINUOUS
 62
     5
 10
-57.17059960032384
 20
-231.97008416171909
 30
0.0
 11
-57.064397686084703
 21
-231.97868103591941
 31
0.0
  0
LINE
  8
DETAIL
  6
CONTINUOUS
 62
     5
 10
-57.064397686084703
 20
-231.97868103591941
 30
0.0
 11
-56.958532089701293
 21
-231.98853497703161
 31
0.0
  0
LINE
  8
DETAIL
  6
CONTINUOUS
 62
     5
 10
-56.958532089701293
 20
-231.98853497703161
 30
0.0
 11
-56.958532089701293
 21
-231.98853497703161
 31
0.0
  0
LINE
  8
DETAIL
  6
CONTINUOUS
 62
     5
 10
-56.958532089701293
 20
-231.98853497703161
 30
0.0
 11
-56.853104656828691
 21
-231.99961025049291
 31
0.0
  0
LINE
  8
DETAIL
  6
CONTINUOUS
 62
     5
 10
-56.853104656828691
 20
-231.99961025049291
 30
0.0
 11
-56.746982031027073
 21
-232.01205405578091
 31
0.0
  0
LINE
  8
DETAIL
  6
CONTINUOUS
 62
     5
 10
-56.746982031027073
 20
-232.01205405578091
 30
0.0
 11
-56.746982031027073
 21
-232.01205405578091
 31
0.0
  0
LINE
  8
DETAIL
  6
CONTINUOUS
 62
     5
 10
-56.746982031027073
 20
-232.01205405578091
 30
0.0
 11
-56.639205468310138
 21
-232.0259964584252
 31
0.0
  0
LINE
  8
DETAIL
  6
CONTINUOUS
 62
     5
 10
-56.639205468310138
 20
-232.0259964584252
 30
0.0
 11
-56.530749876600787
 21
-232.04131605412769
 31
0.0
  0
LINE
  8
DETAIL
  6
CONTINUOUS
 62
     5
 10
-56.530749876600787
 20
-232.04131605412769
 30
0.0
 11
-56.530749876600787
 21
-232.04131605412769
 31
0.0
  0
LINE
  8
DETAIL
  6
CONTINUOUS
 62
     5
 10
-56.530749876600787
 20
-232.04131605412769
 30
0.0
 11
-56.422779084215563
 21
-232.0578586728748
 31
0.0
  0
LINE
  8
DETAIL
  6
CONTINUOUS
 62
     5
 10
-56.422779084215563
 20
-232.0578586728748
 30
0.0
 11
-56.315278949141202
 21
-232.07559055161801
 31
0.0
  0
LINE
  8
DETAIL
  6
CONTINUOUS
 62
     5
 10
-56.315278949141202
 20
-232.07559055161801
 30
0.0
 11
-56.315278949141202
 21
-232.07559055161801
 31
0.0
  0
LINE
  8
DETAIL
  6
CONTINUOUS
 62
     5
 10
-56.315278949141202
 20
-232.07559055161801
 30
0.0
 11
-56.207962225715157
 21
-232.09451425179671
 31
0.0
  0
LINE
  8
DETAIL
  6
CONTINUOUS
 62
     5
 10
-56.207962225715157
 20
-232.09451425179671
 30
0.0
 11
-56.100627224011532
 21
-232.11465722582719
 31
0.0
  0
LINE
  8
DETAIL
  6
CONTINUOUS
 62
     5
 10
-56.100627224011532
 20
-232.11465722582719
 30
0.0
 11
-56.100627224011532
 21
-232.11465722582719
 31
0.0
  0
LINE
  8
DETAIL
  6
CONTINUOUS
 62
     5
 10
-56.100627224011532
 20
-232.11465722582719
 30
0.0
 11
-55.993302579884357
 21
-232.13599815615129
 31
0.0
  0
LINE
  8
DETAIL
  6
CONTINUOUS
 62
     5
 10
-55.993302579884357
 20
-232.13599815615129
 30
0.0
 11
-55.886852676575238
 21
-232.1582957543304
 31
0.0
  0
LINE
  8
DETAIL
  6
CONTINUOUS
 62
     5
 10
-55.886852676575238
 20
-232.1582957543304
 30
0.0
 11
-55.886852676575238
 21
-232.1582957543304
 31
0.0
  0
LINE
  8
DETAIL
  6
CONTINUOUS
 62
     5
 10
-55.886852676575238
 20
-232.1582957543304
 30
0.0
 11
-55.781493697851602
 21
-232.18146748734131
 31
0.0
  0
LINE
  8
DETAIL
  6
CONTINUOUS
 62
     5
 10
-55.781493697851602
 20
-232.18146748734131
 30
0.0
 11
-55.674013282196029
 21
-232.20628581470331
 31
0.0
  0
LINE
  8
DETAIL
  6
CONTINUOUS
 62
     5
 10
-55.674013282196029
 20
-232.20628581470331
 30
0.0
 11
-55.674013282196029
 21
-232.20628581470331
 31
0.0
  0
LINE
  8
DETAIL
  6
CONTINUOUS
 62
     5
 10
-55.674013282196029
 20
-232.20628581470331
 30
0.0
 11
-55.561704521128377
 21
-232.23341328492231
 31
0.0
  0
LINE
  8
DETAIL
  6
CONTINUOUS
 62
     5
 10
-55.561704521128377
 20
-232.23341328492231
 30
0.0
 11
-55.447310863595703
 21
-232.26221780991679
 31
0.0
  0
LINE
  8
DETAIL
  6
CONTINUOUS
 62
     5
 10
-55.447310863595703
 20
-232.26221780991679
 30
0.0
 11
-55.447310863595703
 21
-232.26221780991679
 31
0.0
  0
LINE
  8
DETAIL
  6
CONTINUOUS
 62
     5
 10
-55.447310863595703
 20
-232.26221780991679
 30
0.0
 11
-55.334071557314253
 21
-232.2919398705221
 31
0.0
  0
LINE
  8
DETAIL
  6
CONTINUOUS
 62
     5
 10
-55.334071557314253
 20
-232.2919398705221
 30
0.0
 11
-55.22175868764225
 21
-232.322604859839
 31
0.0
  0
LINE
  8
DETAIL
  6
CONTINUOUS
 62
     5
 10
-55.22175868764225
 20
-232.322604859839
 30
0.0
 11
-55.22175868764225
 21
-232.322604859839
 31
0.0
  0
LINE
  8
DETAIL
  6
CONTINUOUS
 62
     5
 10
-55.22175868764225
 20
-232.322604859839
 30
0.0
 11
-55.109507044967131
 21
-232.35437436778059
 31
0.0
  0
LINE
  8
DETAIL
  6
CONTINUOUS
 62
     5
 10
-55.109507044967131
 20
-232.35437436778059
 30
0.0
 11
-54.997369402147569
 21
-232.38716985924339
 31
0.0
  0
LINE
  8
DETAIL
  6
CONTINUOUS
 62
     5
 10
-54.997369402147569
 20
-232.38716985924339
 30
0.0
 11
-54.997369402147569
 21
-232.38716985924339
 31
0.0
  0
LINE
  8
DETAIL
  6
CONTINUOUS
 62
     5
 10
-54.997369402147569
 20
-232.38716985924339
 30
0.0
 11
-54.885576835778473
 21
-232.42089666482011
 31
0.0
  0
LINE
  8
DETAIL
  6
CONTINUOUS
 62
     5
 10
-54.885576835778473
 20
-232.42089666482011
 30
0.0
 11
-54.774155654924932
 21
-232.4556357029023
 31
0.0
  0
LINE
  8
DETAIL
  6
CONTINUOUS
 62
     5
 10
-54.774155654924932
 20
-232.4556357029023
 30
0.0
 11
-54.774155654924932
 21
-232.4556357029023
 31
0.0
  0
LINE
  8
DETAIL
  6
CONTINUOUS
 62
     5
 10
-54.774155654924932
 20
-232.4556357029023
 30
0.0
 11
-54.663056248681187
 21
-232.4913962322845
 31
0.0
  0
LINE
  8
DETAIL
  6
CONTINUOUS
 62
     5
 10
-54.663056248681187
 20
-232.4913962322845
 30
0.0
 11
-54.552130093786673
 21
-232.52772528558941
 31
0.0
  0
LINE
  8
DETAIL
  6
CONTINUOUS
 62
     5
 10
-54.552130093786673
 20
-232.52772528558941
 30
0.0
 11
-54.44121414577603
 21
-232.49139950732931
 31
0.0
  0
LINE
  8
DETAIL
  6
CONTINUOUS
 62
     5
 10
-54.44121414577603
 20
-232.49139950732931
 30
0.0
 11
-54.330124885055064
 21
-232.45564212423599
 31
0.0
  0
LINE
  8
DETAIL
  6
CONTINUOUS
 62
     5
 10
-54.330124885055064
 20
-232.45564212423599
 30
0.0
 11
-54.330124885055064
 21
-232.45564212423599
 31
0.0
  0
LINE
  8
DETAIL
  6
CONTINUOUS
 62
     5
 10
-54.330124885055064
 20
-232.45564212423599
 30
0.0
 11
-54.218713818410151
 21
-232.42090601781521
 31
0.0
  0
LINE
  8
DETAIL
  6
CONTINUOUS
 62
     5
 10
-54.218713818410151
 20
-232.42090601781521
 30
0.0
 11
-54.106931730616218
 21
-232.3871820149302
 31
0.0
  0
LINE
  8
DETAIL
  6
CONTINUOUS
 62
     5
 10
-54.106931730616218
 20
-232.3871820149302
 30
0.0
 11
-54.106931730616218
 21
-232.3871820149302
 31
0.0
  0
LINE
  8
DETAIL
  6
CONTINUOUS
 62
     5
 10
-54.106931730616218
 20
-232.3871820149302
 30
0.0
 11
-53.994805018121951
 21
-232.35438923090101
 31
0.0
  0
LINE
  8
DETAIL
  6
CONTINUOUS
 62
     5
 10
-53.994805018121951
 20
-232.35438923090101
 30
0.0
 11
-53.882563246084828
 21
-232.3226219895202
 31
0.0
  0
LINE
  8
DETAIL
  6
CONTINUOUS
 62
     5
 10
-53.882563246084828
 20
-232.3226219895202
 30
0.0
 11
-53.882563246084828
 21
-232.3226219895202
 31
0.0
  0
LINE
  8
DETAIL
  6
CONTINUOUS
 62
     5
 10
-53.882563246084828
 20
-232.3226219895202
 30
0.0
 11
-53.770258783633842
 21
-232.29195872188731
 31
0.0
  0
LINE
  8
DETAIL
  6
CONTINUOUS
 62
     5
 10
-53.770258783633842
 20
-232.29195872188731
 30
0.0
 11
-53.657032047075063
 21
-232.2622390798542
 31
0.0
  0
LINE
  8
DETAIL
  6
CONTINUOUS
 62
     5
 10
-53.657032047075063
 20
-232.2622390798542
 30
0.0
 11
-53.657032047075063
 21
-232.2622390798542
 31
0.0
  0
LINE
  8
DETAIL
  6
CONTINUOUS
 62
     5
 10
-53.657032047075063
 20
-232.2622390798542
 30
0.0
 11
-53.542656625153093
 21
-232.23343799758871
 31
0.0
  0
LINE
  8
DETAIL
  6
CONTINUOUS
 62
     5
 10
-53.542656625153093
 20
-232.23343799758871
 30
0.0
 11
-53.430350749200898
 21
-232.20631031778069
 31
0.0
  0
LINE
  8
DETAIL
  6
CONTINUOUS
 62
     5
 10
-53.430350749200898
 20
-232.20631031778069
 30
0.0
 11
-53.430350749200898
 21
-232.20631031778069
 31
0.0
  0
LINE
  8
DETAIL
  6
CONTINUOUS
 62
     5
 10
-53.430350749200898
 20
-232.20631031778069
 30
0.0
 11
-53.322840104588522
 21
-232.1814842836344
 31
0.0
  0
LINE
  8
DETAIL
  6
CONTINUOUS
 62
     5
 10
-53.322840104588522
 20
-232.1814842836344
 30
0.0
 11
-53.217435550259779
 21
-232.15830183190701
 31
0.0
  0
LINE
  8
DETAIL
  6
CONTINUOUS
 62
     5
 10
-53.217435550259779
 20
-232.15830183190701
 30
0.0
 11
-53.217435550259779
 21
-232.15830183190701
 31
0.0
  0
LINE
  8
DETAIL
  6
CONTINUOUS
 62
     5
 10
-53.217435550259779
 20
-232.15830183190701
 30
0.0
 11
-53.110945636392437
 21
-232.13599567706319
 31
0.0
  0
LINE
  8
DETAIL
  6
CONTINUOUS
 62
     5
 10
-53.110945636392437
 20
-232.13599567706319
 30
0.0
 11
-53.00358450453632
 21
-232.11464795085541
 31
0.0
  0
LINE
  8
DETAIL
  6
CONTINUOUS
 62
     5
 10
-53.00358450453632
 20
-232.11464795085541
 30
0.0
 11
-53.00358450453632
 21
-232.11464795085541
 31
0.0
  0
LINE
  8
DETAIL
  6
CONTINUOUS
 62
     5
 10
-53.00358450453632
 20
-232.11464795085541
 30
0.0
 11
-52.896210811912617
 21
-232.0944985758814
 31
0.0
  0
LINE
  8
DETAIL
  6
CONTINUOUS
 62
     5
 10
-52.896210811912617
 20
-232.0944985758814
 30
0.0
 11
-52.788855687058913
 21
-232.0755692208254
 31
0.0
  0
LINE
  8
DETAIL
  6
CONTINUOUS
 62
     5
 10
-52.788855687058913
 20
-232.0755692208254
 30
0.0
 11
-52.788855687058913
 21
-232.0755692208254
 31
0.0
  0
LINE
  8
DETAIL
  6
CONTINUOUS
 62
     5
 10
-52.788855687058913
 20
-232.0755692208254
 30
0.0
 11
-52.681319507182707
 21
-232.0578328904835
 31
0.0
  0
LINE
  8
DETAIL
  6
CONTINUOUS
 62
     5
 10
-52.681319507182707
 20
-232.0578328904835
 30
0.0
 11
-52.573307172855948
 21
-232.04128618801681
 31
0.0
  0
LINE
  8
DETAIL
  6
CONTINUOUS
 62
     5
 10
-52.573307172855948
 20
-232.04128618801681
 30
0.0
 11
-52.573307172855948
 21
-232.04128618801681
 31
0.0
  0
LINE
  8
DETAIL
  6
CONTINUOUS
 62
     5
 10
-52.573307172855948
 20
-232.04128618801681
 30
0.0
 11
-52.46480207429795
 21
-232.02596258129071
 31
0.0
  0
LINE
  8
DETAIL
  6
CONTINUOUS
 62
     5
 10
-52.46480207429795
 20
-232.02596258129071
 30
0.0
 11
-52.356997036955143
 21
-232.0120193986302
 31
0.0
  0
LINE
  8
DETAIL
  6
CONTINUOUS
 62
     5
 10
-52.356997036955143
 20
-232.0120193986302
 30
0.0
 11
-52.356997036955143
 21
-232.0120193986302
 31
0.0
  0
LINE
  8
DETAIL
  6
CONTINUOUS
 62
     5
 10
-52.356997036955143
 20
-232.0120193986302
 30
0.0
 11
-52.250891582807753
 21
-231.99958056344261
 31
0.0
  0
LINE
  8
DETAIL
  6
CONTINUOUS
 62
     5
 10
-52.250891582807753
 20
-231.99958056344261
 30
0.0
 11
-52.145502584742417
 21
-231.9885125190099
 31
0.0
  0
LINE
  8
DETAIL
  6
CONTINUOUS
 62
     5
 10
-52.145502584742417
 20
-231.9885125190099
 30
0.0
 11
-52.145502584742417
 21
-231.9885125190099
 31
0.0
  0
LINE
  8
DETAIL
  6
CONTINUOUS
 62
     5
 10
-52.145502584742417
 20
-231.9885125190099
 30
0.0
 11
-52.0396677916915
 21
-231.97866412324581
 31
0.0
  0
LINE
  8
DETAIL
  6
CONTINUOUS
 62
     5
 10
-52.0396677916915
 20
-231.97866412324581
 30
0.0
 11
-51.933491105861087
 21
-231.97007137271359
 31
0.0
  0
LINE
  8
DETAIL
  6
CONTINUOUS
 62
     5
 10
-51.933491105861087
 20
-231.97007137271359
 30
0.0
 11
-51.933491105861087
 21
-231.97007137271359
 31
0.0
  0
LINE
  8
DETAIL
  6
CONTINUOUS
 62
     5
 10
-51.933491105861087
 20
-231.97007137271359
 30
0.0
 11
-51.82730798352145
 21
-231.962792399092
 31
0.0
  0
LINE
  8
DETAIL
  6
CONTINUOUS
 62
     5
 10
-51.82730798352145
 20
-231.962792399092
 30
0.0
 11
-51.721113943925047
 21
-231.95678673586781
 31
0.0
  0
LINE
  8
DETAIL
  6
CONTINUOUS
 62
     5
 10
-51.721113943925047
 20
-231.95678673586781
 30
0.0
 11
-51.721113943925047
 21
-231.95678673586781
 31
0.0
  0
LINE
  8
DETAIL
  6
CONTINUOUS
 62
     5
 10
-51.721113943925047
 20
-231.95678673586781
 30
0.0
 11
-51.614842920769661
 21
-231.9520410805103
 31
0.0
  0
LINE
  8
DETAIL
  6
CONTINUOUS
 62
     5
 10
-51.614842920769661
 20
-231.9520410805103
 30
0.0
 11
-51.508522442549747
 21
-231.94874938459981
 31
0.0
  0
LINE
  8
DETAIL
  6
CONTINUOUS
 62
     5
 10
-51.508522442549747
 20
-231.94874938459981
 30
0.0
 11
-51.508522442549747
 21
-231.94874938459981
 31
0.0
  0
LINE
  8
DETAIL
  6
CONTINUOUS
 62
     5
 10
-51.508522442549747
 20
-231.94874938459981
 30
0.0
 11
-51.402194825916922
 21
-231.9469748086799
 31
0.0
  0
LINE
  8
DETAIL
  6
CONTINUOUS
 62
     5
 10
-51.402194825916922
 20
-231.9469748086799
 30
0.0
 11
-51.295867945349528
 21
-231.94605009503809
 31
0.0
  0
LINE
  8
DETAIL
  6
CONTINUOUS
 62
     5
 10
-51.295867945349528
 20
-231.94605009503809
 30
0.0
 11
-51.189512728471982
 21
-231.94697531911561
 31
0.0
  0
LINE
  8
DETAIL
  6
CONTINUOUS
 62
     5
 10
-51.189512728471982
 20
-231.94697531911561
 30
0.0
 11
-51.083156916422467
 21
-231.9487508406967
 31
0.0
  0
LINE
  8
DETAIL
  6
CONTINUOUS
 62
     5
 10
-51.083156916422467
 20
-231.9487508406967
 30
0.0
 11
-51.083156916422467
 21
-231.9487508406967
 31
0.0
  0
LINE
  8
DETAIL
  6
CONTINUOUS
 62
     5
 10
-51.083156916422467
 20
-231.9487508406967
 30
0.0
 11
-50.976808389186317
 21
-231.95204427281669
 31
0.0
  0
LINE
  8
DETAIL
  6
CONTINUOUS
 62
     5
 10
-50.976808389186317
 20
-231.95204427281669
 30
0.0
 11
-50.870508927376697
 21
-231.9567924906452
 31
0.0
  0
LINE
  8
DETAIL
  6
CONTINUOUS
 62
     5
 10
-50.870508927376697
 20
-231.9567924906452
 30
0.0
 11
-50.870508927376697
 21
-231.9567924906452
 31
0.0
  0
LINE
  8
DETAIL
  6
CONTINUOUS
 62
     5
 10
-50.870508927376697
 20
-231.9567924906452
 30
0.0
 11
-50.764285939984347
 21
-231.9628014496468
 31
0.0
  0
LINE
  8
DETAIL
  6
CONTINUOUS
 62
     5
 10
-50.764285939984347
 20
-231.9628014496468
 30
0.0
 11
-50.6580754488823
 21
-231.97008416434261
 31
0.0
  0
LINE
  8
DETAIL
  6
CONTINUOUS
 62
     5
 10
-50.6580754488823
 20
-231.97008416434261
 30
0.0
 11
-50.6580754488823
 21
-231.97008416434261
 31
0.0
  0
LINE
  8
DETAIL
  6
CONTINUOUS
 62
     5
 10
-50.6580754488823
 20
-231.97008416434261
 30
0.0
 11
-50.551873541124678
 21
-231.97868103942761
 31
0.0
  0
LINE
  8
DETAIL
  6
CONTINUOUS
 62
     5
 10
-50.551873541124678
 20
-231.97868103942761
 30
0.0
 11
-50.446007951609317
 21
-231.98853498124751
 31
0.0
  0
LINE
  8
DETAIL
  6
CONTINUOUS
 62
     5
 10
-50.446007951609317
 20
-231.98853498124751
 30
0.0
 11
-50.446007951609317
 21
-231.98853498124751
 31
0.0
  0
LINE
  8
DETAIL
  6
CONTINUOUS
 62
     5
 10
-50.446007951609317
 20
-231.98853498124751
 30
0.0
 11
-50.340580526130452
 21
-231.9996102551477
 31
0.0
  0
LINE
  8
DETAIL
  6
CONTINUOUS
 62
     5
 10
-50.340580526130452
 20
-231.9996102551477
 30
0.0
 11
-50.234457906228272
 21
-232.01205406082039
 31
0.0
  0
LINE
  8
DETAIL
  6
CONTINUOUS
 62
     5
 10
-50.234457906228272
 20
-232.01205406082039
 30
0.0
 11
-50.234457906228272
 21
-232.01205406082039
 31
0.0
  0
LINE
  8
DETAIL
  6
CONTINUOUS
 62
     5
 10
-50.234457906228272
 20
-232.01205406082039
 30
0.0
 11
-50.126681346212081
 21
-232.02599646399449
 31
0.0
  0
LINE
  8
DETAIL
  6
CONTINUOUS
 62
     5
 10
-50.126681346212081
 20
-232.02599646399449
 30
0.0
 11
-50.018225755715783
 21
-232.04131606019291
 31
0.0
  0
LINE
  8
DETAIL
  6
CONTINUOUS
 62
     5
 10
-50.018225755715783
 20
-232.04131606019291
 30
0.0
 11
-50.018225755715783
 21
-232.04131606019291
 31
0.0
  0
LINE
  8
DETAIL
  6
CONTINUOUS
 62
     5
 10
-50.018225755715783
 20
-232.04131606019291
 30
0.0
 11
-49.91025496508064
 21
-232.05785867918971
 31
0.0
  0
LINE
  8
DETAIL
  6
CONTINUOUS
 62
     5
 10
-49.91025496508064
 20
-232.05785867918971
 30
0.0
 11
-49.802754832147912
 21
-232.0755905579781
 31
0.0
  0
LINE
  8
DETAIL
  6
CONTINUOUS
 62
     5
 10
-49.802754832147912
 20
-232.0755905579781
 30
0.0
 11
-49.802754832147912
 21
-232.0755905579781
 31
0.0
  0
LINE
  8
DETAIL
  6
CONTINUOUS
 62
     5
 10
-49.802754832147912
 20
-232.0755905579781
 30
0.0
 11
-49.695438110714122
 21
-232.0945142580828
 31
0.0
  0
LINE
  8
DETAIL
  6
CONTINUOUS
 62
     5
 10
-49.695438110714122
 20
-232.0945142580828
 30
0.0
 11
-49.588103110897919
 21
-232.11465723193851
 31
0.0
  0
LINE
  8
DETAIL
  6
CONTINUOUS
 62
     5
 10
-49.588103110897919
 20
-232.11465723193851
 30
0.0
 11
-49.588103110897919
 21
-232.11465723193851
 31
0.0
  0
LINE
  8
DETAIL
  6
CONTINUOUS
 62
     5
 10
-49.588103110897919
 20
-232.11465723193851
 30
0.0
 11
-49.480778468701601
 21
-232.13599816199351
 31
0.0
  0
LINE
  8
DETAIL
  6
CONTINUOUS
 62
     5
 10
-49.480778468701601
 20
-232.13599816199351
 30
0.0
 11
-49.374328567340633
 21
-232.15829575983659
 31
0.0
  0
LINE
  8
DETAIL
  6
CONTINUOUS
 62
     5
 10
-49.374328567340633
 20
-232.15829575983659
 30
0.0
 11
-49.374328567340633
 21
-232.15829575983659
 31
0.0
  0
LINE
  8
DETAIL
  6
CONTINUOUS
 62
     5
 10
-49.374328567340633
 20
-232.15829575983659
 30
0.0
 11
-49.268969590539427
 21
-232.18146749247401
 31
0.0
  0
LINE
  8
DETAIL
  6
CONTINUOUS
 62
     5
 10
-49.268969590539427
 20
-232.18146749247401
 30
0.0
 11
-49.1614891768495
 21
-232.2062858194345
 31
0.0
  0
LINE
  8
DETAIL
  6
CONTINUOUS
 62
     5
 10
-49.1614891768495
 20
-232.2062858194345
 30
0.0
 11
-49.1614891768495
 21
-232.2062858194345
 31
0.0
  0
LINE
  8
DETAIL
  6
CONTINUOUS
 62
     5
 10
-49.1614891768495
 20
-232.2062858194345
 30
0.0
 11
-49.049180417854593
 21
-232.23341328923149
 31
0.0
  0
LINE
  8
DETAIL
  6
CONTINUOUS
 62
     5
 10
-49.049180417854593
 20
-232.23341328923149
 30
0.0
 11
-48.934786762445583
 21
-232.2622178137949
 31
0.0
  0
LINE
  8
DETAIL
  6
CONTINUOUS
 62
     5
 10
-48.934786762445583
 20
-232.2622178137949
 30
0.0
 11
-48.934786762445583
 21
-232.2622178137949
 31
0.0
  0
LINE
  8
DETAIL
  6
CONTINUOUS
 62
     5
 10
-48.934786762445583
 20
-232.2622178137949
 30
0.0
 11
-48.821547458267098
 21
-232.29193987396911
 31
0.0
  0
LINE
  8
DETAIL
  6
CONTINUOUS
 62
     5
 10
-48.821547458267098
 20
-232.29193987396911
 30
0.0
 11
-48.709234590678761
 21
-232.3226048628496
 31
0.0
  0
LINE
  8
DETAIL
  6
CONTINUOUS
 62
     5
 10
-48.709234590678761
 20
-232.3226048628496
 30
0.0
 11
-48.709234590678761
 21
-232.3226048628496
 31
0.0
  0
LINE
  8
DETAIL
  6
CONTINUOUS
 62
     5
 10
-48.709234590678761
 20
-232.3226048628496
 30
0.0
 11
-48.596982950081383
 21
-232.3543743703417
 31
0.0
  0
LINE
  8
DETAIL
  6
CONTINUOUS
 62
     5
 10
-48.596982950081383
 20
-232.3543743703417
 30
0.0
 11
-48.484845309329778
 21
-232.3871698613398
 31
0.0
  0
LINE
  8
DETAIL
  6
CONTINUOUS
 62
     5
 10
-48.484845309329778
 20
-232.3871698613398
 30
0.0
 11
-48.484845309329778
 21
-232.3871698613398
 31
0.0
  0
LINE
  8
DETAIL
  6
CONTINUOUS
 62
     5
 10
-48.484845309329778
 20
-232.3871698613398
 30
0.0
 11
-48.373052745010227
 21
-232.42089666643409
 31
0.0
  0
LINE
  8
DETAIL
  6
CONTINUOUS
 62
     5
 10
-48.373052745010227
 20
-232.42089666643409
 30
0.0
 11
-48.261631566179403
 21
-232.455635704006
 31
0.0
  0
LINE
  8
DETAIL
  6
CONTINUOUS
 62
     5
 10
-48.261631566179403
 20
-232.455635704006
 30
0.0
 11
-48.261631566179403
 21
-232.455635704006
 31
0.0
  0
LINE
  8
DETAIL
  6
CONTINUOUS
 62
     5
 10
-48.261631566179403
 20
-232.455635704006
 30
0.0
 11
-48.150532161927913
 21
-232.491396232846
 31
0.0
  0
LINE
  8
DETAIL
  6
CONTINUOUS
 62
     5
 10
-48.150532161927913
 20
-232.491396232846
 30
0.0
 11
-48.039606009008367
 21
-232.52772528558941
 31
0.0
  0
LINE
  8
DETAIL
  6
CONTINUOUS
 62
     5
 10
208.80967397377569
 20
-18.535645472061791
 30
0.0
 11
208.72790562144471
 21
-18.534934579352239
 31
0.0
  0
LINE
  8
DETAIL
  6
CONTINUOUS
 62
     5
 10
208.72790562144471
 20
-18.534934579352239
 30
0.0
 11
208.64613618052999
 21
-18.53357019436999
 31
0.0
  0
LINE
  8
DETAIL
  6
CONTINUOUS
 62
     5
 10
208.64613618052999
 20
-18.53357019436999
 30
0.0
 11
208.64613618052999
 21
-18.53357019436999
 31
0.0
  0
LINE
  8
DETAIL
  6
CONTINUOUS
 62
     5
 10
208.64613618052999
 20
-18.53357019436999
 30
0.0
 11
208.56437170589291
 21
-18.531039310125379
 31
0.0
  0
LINE
  8
DETAIL
  6
CONTINUOUS
 62
     5
 10
208.56437170589291
 20
-18.531039310125379
 30
0.0
 11
208.48264682617631
 21
-18.527390860763941
 31
0.0
  0
LINE
  8
DETAIL
  6
CONTINUOUS
 62
     5
 10
208.48264682617631
 20
-18.527390860763941
 30
0.0
 11
208.48264682617631
 21
-18.527390860763941
 31
0.0
  0
LINE
  8
DETAIL
  6
CONTINUOUS
 62
     5
 10
208.48264682617631
 20
-18.527390860763941
 30
0.0
 11
208.40098322259249
 21
-18.522774049049531
 31
0.0
  0
LINE
  8
DETAIL
  6
CONTINUOUS
 62
     5
 10
208.40098322259249
 20
-18.522774049049531
 30
0.0
 11
208.31932221285209
 21
-18.517177211081162
 31
0.0
  0
LINE
  8
DETAIL
  6
CONTINUOUS
 62
     5
 10
208.31932221285209
 20
-18.517177211081162
 30
0.0
 11
208.31932221285209
 21
-18.517177211081162
 31
0.0
  0
LINE
  8
DETAIL
  6
CONTINUOUS
 62
     5
 10
208.31932221285209
 20
-18.517177211081162
 30
0.0
 11
208.237658243846
 21
-18.510568847673309
 31
0.0
  0
LINE
  8
DETAIL
  6
CONTINUOUS
 62
     5
 10
208.237658243846
 20
-18.510568847673309
 30
0.0
 11
208.1562786426957
 21
-18.502998985159142
 31
0.0
  0
LINE
  8
DETAIL
  6
CONTINUOUS
 62
     5
 10
208.1562786426957
 20
-18.502998985159142
 30
0.0
 11
208.1562786426957
 21
-18.502998985159142
 31
0.0
  0
LINE
  8
DETAIL
  6
CONTINUOUS
 62
     5
 10
208.1562786426957
 20
-18.502998985159142
 30
0.0
 11
208.07527116722619
 21
-18.49449672239848
 31
0.0
  0
LINE
  8
DETAIL
  6
CONTINUOUS
 62
     5
 10
208.07527116722619
 20
-18.49449672239848
 30
0.0
 11
207.9936324178457
 21
-18.484925922833781
 31
0.0
  0
LINE
  8
DETAIL
  6
CONTINUOUS
 62
     5
 10
207.9936324178457
 20
-18.484925922833781
 30
0.0
 11
207.9936324178457
 21
-18.484925922833781
 31
0.0
  0
LINE
  8
DETAIL
  6
CONTINUOUS
 62
     5
 10
207.9936324178457
 20
-18.484925922833781
 30
0.0
 11
207.91054035634761
 21
-18.474173163967631
 31
0.0
  0
LINE
  8
DETAIL
  6
CONTINUOUS
 62
     5
 10
207.91054035634761
 20
-18.474173163967631
 30
0.0
 11
207.82698954747639
 21
-18.46238111495904
 31
0.0
  0
LINE
  8
DETAIL
  6
CONTINUOUS
 62
     5
 10
207.82698954747639
 20
-18.46238111495904
 30
0.0
 11
207.82698954747639
 21
-18.46238111495904
 31
0.0
  0
LINE
  8
DETAIL
  6
CONTINUOUS
 62
     5
 10
207.82698954747639
 20
-18.46238111495904
 30
0.0
 11
207.74400716206361
 21
-18.449688991846411
 31
0.0
  0
LINE
  8
DETAIL
  6
CONTINUOUS
 62
     5
 10
207.74400716206361
 20
-18.449688991846411
 30
0.0
 11
207.66093419233221
 21
-18.435966106531399
 31
0.0
  0
LINE
  8
DETAIL
  6
CONTINUOUS
 62
     5
 10
207.66093419233221
 20
-18.435966106531399
 30
0.0
 11
207.66093419233221
 21
-18.435966106531399
 31
0.0
  0
LINE
  8
DETAIL
  6
CONTINUOUS
 62
     5
 10
207.66093419233221
 20
-18.435966106531399
 30
0.0
 11
207.57735470933719
 21
-18.421166286239671
 31
0.0
  0
LINE
  8
DETAIL
  6
CONTINUOUS
 62
     5
 10
207.57735470933719
 20
-18.421166286239671
 30
0.0
 11
207.4955112780581
 21
-18.405851323633669
 31
0.0
  0
LINE
  8
DETAIL
  6
CONTINUOUS
 62
     5
 10
207.4955112780581
 20
-18.405851323633669
 30
0.0
 11
207.4955112780581
 21
-18.405851323633669
 31
0.0
  0
LINE
  8
DETAIL
  6
CONTINUOUS
 62
     5
 10
207.4955112780581
 20
-18.405851323633669
 30
0.0
 11
207.4160741376827
 21
-18.390194513332521
 31
0.0
  0
LINE
  8
DETAIL
  6
CONTINUOUS
 62
     5
 10
207.4160741376827
 20
-18.390194513332521
 30
0.0
 11
207.33076573029669
 21
-18.372207192348011
 31
0.0
  0
LINE
  8
DETAIL
  6
CONTINUOUS
 62
     5
 10
207.33076573029669
 20
-18.372207192348011
 30
0.0
 11
207.33076573029669
 21
-18.372207192348011
 31
0.0
  0
LINE
  8
DETAIL
  6
CONTINUOUS
 62
     5
 10
207.33076573029669
 20
-18.372207192348011
 30
0.0
 11
207.23735472233059
 21
-18.351370174537809
 31
0.0
  0
LINE
  8
DETAIL
  6
CONTINUOUS
 62
     5
 10
207.23735472233059
 20
-18.351370174537809
 30
0.0
 11
207.16674247469251
 21
-18.335204138756129
 31
0.0
  0
LINE
  8
DETAIL
  6
CONTINUOUS
 62
     5
 10
207.16674247469251
 20
-18.335204138756129
 30
0.0
 11
207.16674247469251
 21
-18.335204138756129
 31
0.0
  0
LINE
  8
DETAIL
  6
CONTINUOUS
 62
     5
 10
207.16674247469251
 20
-18.335204138756129
 30
0.0
 11
207.14503381899519
 21
-18.33014937890221
 31
0.0
  0
LINE
  8
DETAIL
  6
CONTINUOUS
 62
     5
 10
207.14503381899519
 20
-18.33014937890221
 30
0.0
 11
207.1460147751886
 21
-18.330284784068681
 31
0.0
  0
LINE
  8
DETAIL
  6
CONTINUOUS
 62
     5
 10
207.1460147751886
 20
-18.330284784068681
 30
0.0
 11
207.1460147751886
 21
-18.330284784068681
 31
0.0
  0
LINE
  8
DETAIL
  6
CONTINUOUS
 62
     5
 10
207.1460147751886
 20
-18.330284784068681
 30
0.0
 11
207.13869523731319
 21
-18.328503187206248
 31
0.0
  0
LINE
  8
DETAIL
  6
CONTINUOUS
 62
     5
 10
207.13869523731319
 20
-18.328503187206248
 30
0.0
 11
207.12529940744889
 21
-18.325314601515402
 31
0.0
  0
LINE
  8
DETAIL
  6
CONTINUOUS
 62
     5
 10
207.12529940744889
 20
-18.325314601515402
 30
0.0
 11
207.12529940744889
 21
-18.325314601515402
 31
0.0
  0
LINE
  8
DETAIL
  6
CONTINUOUS
 62
     5
 10
207.12529940744889
 20
-18.325314601515402
 30
0.0
 11
207.11413086460291
 21
-18.322623366504331
 31
0.0
  0
LINE
  8
DETAIL
  6
CONTINUOUS
 62
     5
 10
207.11413086460291
 20
-18.322623366504331
 30
0.0
 11
207.10459638745209
 21
-18.320293946664151
 31
0.0
  0
LINE
  8
DETAIL
  6
CONTINUOUS
 62
     5
 10
207.10459638745209
 20
-18.320293946664151
 30
0.0
 11
207.10459638745209
 21
-18.320293946664151
 31
0.0
  0
LINE
  8
DETAIL
  6
CONTINUOUS
 62
     5
 10
207.10459638745209
 20
-18.320293946664151
 30
0.0
 11
207.0944717779125
 21
-18.31781641768794
 31
0.0
  0
LINE
  8
DETAIL
  6
CONTINUOUS
 62
     5
 10
207.0944717779125
 20
-18.31781641768794
 30
0.0
 11
207.08390573117501
 21
-18.315223175084611
 31
0.0
  0
LINE
  8
DETAIL
  6
CONTINUOUS
 62
     5
 10
207.08390573117501
 20
-18.315223175084611
 30
0.0
 11
207.08390573117501
 21
-18.315223175084611
 31
0.0
  0
LINE
  8
DETAIL
  6
CONTINUOUS
 62
     5
 10
207.08390573117501
 20
-18.315223175084611
 30
0.0
 11
207.07349147255721
 21
-18.312649843255262
 31
0.0
  0
LINE
  8
DETAIL
  6
CONTINUOUS
 62
     5
 10
207.07349147255721
 20
-18.312649843255262
 30
0.0
 11
207.06322745459511
 21
-18.310102642344191
 31
0.0
  0
LINE
  8
DETAIL
  6
CONTINUOUS
 62
     5
 10
213.81930783114379
 20
-18.535645475314819
 30
0.0
 11
213.73753937441421
 21
-18.534934556947061
 31
0.0
  0
LINE
  8
DETAIL
  6
CONTINUOUS
 62
     5
 10
213.73753937441421
 20
-18.534934556947061
 30
0.0
 11
213.65577004890699
 21
-18.5335701993863
 31
0.0
  0
LINE
  8
DETAIL
  6
CONTINUOUS
 62
     5
 10
213.65577004890699
 20
-18.5335701993863
 30
0.0
 11
213.65577004890699
 21
-18.5335701993863
 31
0.0
  0
LINE
  8
DETAIL
  6
CONTINUOUS
 62
     5
 10
213.65577004890699
 20
-18.5335701993863
 30
0.0
 11
213.57400590949919
 21
-18.531039395380962
 31
0.0
  0
LINE
  8
DETAIL
  6
CONTINUOUS
 62
     5
 10
213.57400590949919
 20
-18.531039395380962
 30
0.0
 11
213.4922807056746
 21
-18.527390865450801
 31
0.0
  0
LINE
  8
DETAIL
  6
CONTINUOUS
 62
     5
 10
213.4922807056746
 20
-18.527390865450801
 30
0.0
 11
213.4922807056746
 21
-18.527390865450801
 31
0.0
  0
LINE
  8
DETAIL
  6
CONTINUOUS
 62
     5
 10
213.4922807056746
 20
-18.527390865450801
 30
0.0
 11
213.4106158988443
 21
-18.522773759135362
 31
0.0
  0
LINE
  8
DETAIL
  6
CONTINUOUS
 62
     5
 10
213.4106158988443
 20
-18.522773759135362
 30
0.0
 11
213.32895610351619
 21
-18.517177214283041
 31
0.0
  0
LINE
  8
DETAIL
  6
CONTINUOUS
 62
     5
 10
213.32895610351619
 20
-18.517177214283041
 30
0.0
 11
213.32895610351619
 21
-18.517177214283041
 31
0.0
  0
LINE
  8
DETAIL
  6
CONTINUOUS
 62
     5
 10
213.32895610351619
 20
-18.517177214283041
 30
0.0
 11
213.24729664572351
 21
-18.510569945568481
 31
0.0
  0
LINE
  8
DETAIL
  6
CONTINUOUS
 62
     5
 10
213.24729664572351
 20
-18.510569945568481
 30
0.0
 11
213.16591254450299
 21
-18.502998986657531
 31
0.0
  0
LINE
  8
DETAIL
  6
CONTINUOUS
 62
     5
 10
213.16591254450299
 20
-18.502998986657531
 30
0.0
 11
213.16591254450299
 21
-18.502998986657531
 31
0.0
  0
LINE
  8
DETAIL
  6
CONTINUOUS
 62
     5
 10
213.16591254450299
 20
-18.502998986657531
 30
0.0
 11
213.08488826086429
 21
-18.49449263489441
 31
0.0
  0
LINE
  8
DETAIL
  6
CONTINUOUS
 62
     5
 10
213.08488826086429
 20
-18.49449263489441
 30
0.0
 11
213.00326633070611
 21
-18.484925923350598
 31
0.0
  0
LINE
  8
DETAIL
  6
CONTINUOUS
 62
     5
 10
213.00326633070611
 20
-18.484925923350598
 30
0.0
 11
213.00326633070611
 21
-18.484925923350598
 31
0.0
  0
LINE
  8
DETAIL
  6
CONTINUOUS
 62
     5
 10
213.00326633070611
 20
-18.484925923350598
 30
0.0
 11
212.92023702252391
 21
-18.474188422201681
 31
0.0
  0
LINE
  8
DETAIL
  6
CONTINUOUS
 62
     5
 10
212.92023702252391
 20
-18.474188422201681
 30
0.0
 11
212.83662346030681
 21
-18.462381114316489
 31
0.0
  0
LINE
  8
DETAIL
  6
CONTINUOUS
 62
     5
 10
212.83662346030681
 20
-18.462381114316489
 30
0.0
 11
212.83662346030681
 21
-18.462381114316489
 31
0.0
  0
LINE
  8
DETAIL
  6
CONTINUOUS
 62
     5
 10
212.83662346030681
 20
-18.462381114316489
 30
0.0
 11
212.75340687939709
 21
-18.449632046124631
 31
0.0
  0
LINE
  8
DETAIL
  6
CONTINUOUS
 62
     5
 10
212.75340687939709
 20
-18.449632046124631
 30
0.0
 11
212.67056810506071
 21
-18.435966105603711
 31
0.0
  0
LINE
  8
DETAIL
  6
CONTINUOUS
 62
     5
 10
212.67056810506071
 20
-18.435966105603711
 30
0.0
 11
212.67056810506071
 21
-18.435966105603711
 31
0.0
  0
LINE
  8
DETAIL
  6
CONTINUOUS
 62
     5
 10
212.67056810506071
 20
-18.435966105603711
 30
0.0
 11
212.5878626504873
 21
-18.421378806359829
 31
0.0
  0
LINE
  8
DETAIL
  6
CONTINUOUS
 62
     5
 10
212.5878626504873
 20
-18.421378806359829
 30
0.0
 11
212.50514519063381
 21
-18.405851322962459
 31
0.0
  0
LINE
  8
DETAIL
  6
CONTINUOUS
 62
     5
 10
212.50514519063381
 20
-18.405851322962459
 30
0.0
 11
212.50514519063381
 21
-18.405851322962459
 31
0.0
  0
LINE
  8
DETAIL
  6
CONTINUOUS
 62
     5
 10
212.50514519063381
 20
-18.405851322962459
 30
0.0
 11
212.42244613165121
 21
-18.389401373871578
 31
0.0
  0
LINE
  8
DETAIL
  6
CONTINUOUS
 62
     5
 10
212.42244613165121
 20
-18.389401373871578
 30
0.0
 11
212.34039964269101
 21
-18.372207192143382
 31
0.0
  0
LINE
  8
DETAIL
  6
CONTINUOUS
 62
     5
 10
212.34039964269101
 20
-18.372207192143382
 30
0.0
 11
212.34039964269101
 21
-18.372207192143382
 31
0.0
  0
LINE
  8
DETAIL
  6
CONTINUOUS
 62
     5
 10
212.34039964269101
 20
-18.372207192143382
 30
0.0
 11
212.25916228021109
 21
-18.354330209645472
 31
0.0
  0
LINE
  8
DETAIL
  6
CONTINUOUS
 62
     5
 10
212.25916228021109
 20
-18.354330209645472
 30
0.0
 11
212.1763763868976
 21
-18.335204138895278
 31
0.0
  0
LINE
  8
DETAIL
  6
CONTINUOUS
 62
     5
 10
212.1763763868976
 20
-18.335204138895278
 30
0.0
 11
212.1763763868976
 21
-18.335204138895278
 31
0.0
  0
LINE
  8
DETAIL
  6
CONTINUOUS
 62
     5
 10
212.1763763868976
 20
-18.335204138895278
 30
0.0
 11
212.09005578033609
 21
-18.31434349843698
 31
0.0
  0
LINE
  8
DETAIL
  6
CONTINUOUS
 62
     5
 10
212.09005578033609
 20
-18.31434349843698
 30
0.0
 11
212.00221439149439
 21
-18.29221375027555
 31
0.0
  0
LINE
  8
DETAIL
  6
CONTINUOUS
 62
     5
 10
212.00221439149439
 20
-18.29221375027555
 30
0.0
 11
212.00221439149439
 21
-18.29221375027555
 31
0.0
  0
LINE
  8
DETAIL
  6
CONTINUOUS
 62
     5
 10
212.00221439149439
 20
-18.29221375027555
 30
0.0
 11
211.91522995420661
 21
-18.269373889738521
 31
0.0
  0
LINE
  8
DETAIL
  6
CONTINUOUS
 62
     5
 10
211.91522995420661
 20
-18.269373889738521
 30
0.0
 11
211.82893530039701
 21
-18.245806101980861
 31
0.0
  0
LINE
  8
DETAIL
  6
CONTINUOUS
 62
     5
 10
211.82893530039701
 20
-18.245806101980861
 30
0.0
 11
211.82893530039701
 21
-18.245806101980861
 31
0.0
  0
LINE
  8
DETAIL
  6
CONTINUOUS
 62
     5
 10
211.82893530039701
 20
-18.245806101980861
 30
0.0
 11
211.74269539803711
 21
-18.221392727198921
 31
0.0
  0
LINE
  8
DETAIL
  6
CONTINUOUS
 62
     5
 10
211.74269539803711
 20
-18.221392727198921
 30
0.0
 11
211.6565486611926
 21
-18.196193535920429
 31
0.0
  0
LINE
  8
DETAIL
  6
CONTINUOUS
 62
     5
 10
211.6565486611926
 20
-18.196193535920429
 30
0.0
 11
211.6565486611926
 21
-18.196193535920429
 31
0.0
  0
LINE
  8
DETAIL
  6
CONTINUOUS
 62
     5
 10
211.6565486611926
 20
-18.196193535920429
 30
0.0
 11
211.5706646448352
 21
-18.17027942846698
 31
0.0
  0
LINE
  8
DETAIL
  6
CONTINUOUS
 62
     5
 10
211.5706646448352
 20
-18.17027942846698
 30
0.0
 11
211.48506402146771
 21
-18.143588394004379
 31
0.0
  0
LINE
  8
DETAIL
  6
CONTINUOUS
 62
     5
 10
211.48506402146771
 20
-18.143588394004379
 30
0.0
 11
211.48506402146771
 21
-18.143588394004379
 31
0.0
  0
LINE
  8
DETAIL
  6
CONTINUOUS
 62
     5
 10
211.48506402146771
 20
-18.143588394004379
 30
0.0
 11
211.39971076392021
 21
-18.11611374748145
 31
0.0
  0
LINE
  8
DETAIL
  6
CONTINUOUS
 62
     5
 10
211.39971076392021
 20
-18.11611374748145
 30
0.0
 11
211.31449092880939
 21
-18.08820301814194
 31
0.0
  0
LINE
  8
DETAIL
  6
CONTINUOUS
 62
     5
 10
216.32412484017729
 20
-18.08820301814194
 30
0.0
 11
216.23893176244661
 21
-18.116105148748151
 31
0.0
  0
LINE
  8
DETAIL
  6
CONTINUOUS
 62
     5
 10
216.23893176244661
 20
-18.116105148748151
 30
0.0
 11
216.15360522869329
 21
-18.143571503410389
 31
0.0
  0
LINE
  8
DETAIL
  6
CONTINUOUS
 62
     5
 10
216.15360522869329
 20
-18.143571503410389
 30
0.0
 11
216.15360522869329
 21
-18.143571503410389
 31
0.0
  0
LINE
  8
DETAIL
  6
CONTINUOUS
 62
     5
 10
216.15360522869329
 20
-18.143571503410389
 30
0.0
 11
216.06803137099629
 21
-18.170254777496211
 31
0.0
  0
LINE
  8
DETAIL
  6
CONTINUOUS
 62
     5
 10
216.06803137099629
 20
-18.170254777496211
 30
0.0
 11
215.98217467384441
 21
-18.196161551622939
 31
0.0
  0
LINE
  8
DETAIL
  6
CONTINUOUS
 62
     5
 10
215.98217467384441
 20
-18.196161551622939
 30
0.0
 11
215.98217467384441
 21
-18.196161551622939
 31
0.0
  0
LINE
  8
DETAIL
  6
CONTINUOUS
 62
     5
 10
215.98217467384441
 20
-18.196161551622939
 30
0.0
 11
215.89605591335661
 21
-18.22135377964992
 31
0.0
  0
LINE
  8
DETAIL
  6
CONTINUOUS
 62
     5
 10
215.89605591335661
 20
-18.22135377964992
 30
0.0
 11
215.8098426797587
 21
-18.245761023152681
 31
0.0
  0
LINE
  8
DETAIL
  6
CONTINUOUS
 62
     5
 10
215.8098426797587
 20
-18.245761023152681
 30
0.0
 11
215.8098426797587
 21
-18.245761023152681
 31
0.0
  0
LINE
  8
DETAIL
  6
CONTINUOUS
 62
     5
 10
215.8098426797587
 20
-18.245761023152681
 30
0.0
 11
215.72357286459419
 21
-18.269323666607761
 31
0.0
  0
LINE
  8
DETAIL
  6
CONTINUOUS
 62
     5
 10
215.72357286459419
 20
-18.269323666607761
 30
0.0
 11
215.63661875056371
 21
-18.292157778369528
 31
0.0
  0
LINE
  8
DETAIL
  6
CONTINUOUS
 62
     5
 10
215.63661875056371
 20
-18.292157778369528
 30
0.0
 11
215.63661875056371
 21
-18.292157778369528
 31
0.0
  0
LINE
  8
DETAIL
  6
CONTINUOUS
 62
     5
 10
215.63661875056371
 20
-18.292157778369528
 30
0.0
 11
215.5488151234722
 21
-18.314280761955391
 31
0.0
  0
LINE
  8
DETAIL
  6
CONTINUOUS
 62
     5
 10
215.5488151234722
 20
-18.314280761955391
 30
0.0
 11
215.46251239038611
 21
-18.335139677646112
 31
0.0
  0
LINE
  8
DETAIL
  6
CONTINUOUS
 62
     5
 10
215.46251239038611
 20
-18.335139677646112
 30
0.0
 11
215.46251239038611
 21
-18.335139677646112
 31
0.0
  0
LINE
  8
DETAIL
  6
CONTINUOUS
 62
     5
 10
215.46251239038611
 20
-18.335139677646112
 30
0.0
 11
215.3797013688754
 21
-18.35427404220286
 31
0.0
  0
LINE
  8
DETAIL
  6
CONTINUOUS
 62
     5
 10
215.3797013688754
 20
-18.35427404220286
 30
0.0
 11
215.29841889727501
 21
-18.372163541535429
 31
0.0
  0
LINE
  8
DETAIL
  6
CONTINUOUS
 62
     5
 10
215.29841889727501
 20
-18.372163541535429
 30
0.0
 11
215.29841889727501
 21
-18.372163541535429
 31
0.0
  0
LINE
  8
DETAIL
  6
CONTINUOUS
 62
     5
 10
215.29841889727501
 20
-18.372163541535429
 30
0.0
 11
215.21633449924551
 21
-18.38936776999503
 31
0.0
  0
LINE
  8
DETAIL
  6
CONTINUOUS
 62
     5
 10
215.21633449924551
 20
-18.38936776999503
 30
0.0
 11
215.1336024190023
 21
-18.405825786538799
 31
0.0
  0
LINE
  8
DETAIL
  6
CONTINUOUS
 62
     5
 10
215.1336024190023
 20
-18.405825786538799
 30
0.0
 11
215.1336024190023
 21
-18.405825786538799
 31
0.0
  0
LINE
  8
DETAIL
  6
CONTINUOUS
 62
     5
 10
215.1336024190023
 20
-18.405825786538799
 30
0.0
 11
215.05084946183979
 21
-18.421361126192551
 31
0.0
  0
LINE
  8
DETAIL
  6
CONTINUOUS
 62
     5
 10
215.05084946183979
 20
-18.421361126192551
 30
0.0
 11
214.9681079568154
 21
-18.435955763645779
 31
0.0
  0
LINE
  8
DETAIL
  6
CONTINUOUS
 62
     5
 10
214.9681079568154
 20
-18.435955763645779
 30
0.0
 11
214.9681079568154
 21
-18.435955763645779
 31
0.0
  0
LINE
  8
DETAIL
  6
CONTINUOUS
 62
     5
 10
214.9681079568154
 20
-18.435955763645779
 30
0.0
 11
214.88523491002519
 21
-18.449627977686081
 31
0.0
  0
LINE
  8
DETAIL
  6
CONTINUOUS
 62
     5
 10
214.88523491002519
 20
-18.449627977686081
 30
0.0
 11
214.80198051195839
 21
-18.46238282384547
 31
0.0
  0
LINE
  8
DETAIL
  6
CONTINUOUS
 62
     5
 10
214.80198051195839
 20
-18.46238282384547
 30
0.0
 11
214.80198051195839
 21
-18.46238282384547
 31
0.0
  0
LINE
  8
DETAIL
  6
CONTINUOUS
 62
     5
 10
214.80198051195839
 20
-18.46238282384547
 30
0.0
 11
214.71832368387049
 21
-18.4741956651817
 31
0.0
  0
LINE
  8
DETAIL
  6
CONTINUOUS
 62
     5
 10
214.71832368387049
 20
-18.4741956651817
 30
0.0
 11
214.63526508567881
 21
-18.484936318126529
 31
0.0
  0
LINE
  8
DETAIL
  6
CONTINUOUS
 62
     5
 10
214.63526508567881
 20
-18.484936318126529
 30
0.0
 11
214.63526508567881
 21
-18.484936318126529
 31
0.0
  0
LINE
  8
DETAIL
  6
CONTINUOUS
 62
     5
 10
214.63526508567881
 20
-18.484936318126529
 30
0.0
 11
214.55364438334979
 21
-18.49450208146504
 31
0.0
  0
LINE
  8
DETAIL
  6
CONTINUOUS
 62
     5
 10
214.55364438334979
 20
-18.49450208146504
 30
0.0
 11
214.47263552836691
 21
-18.503005730027549
 31
0.0
  0
LINE
  8
DETAIL
  6
CONTINUOUS
 62
     5
 10
214.47263552836691
 20
-18.503005730027549
 30
0.0
 11
214.47263552836691
 21
-18.503005730027549
 31
0.0
  0
LINE
  8
DETAIL
  6
CONTINUOUS
 62
     5
 10
214.47263552836691
 20
-18.503005730027549
 30
0.0
 11
214.391261707784
 21
-18.510574882688619
 31
0.0
  0
LINE
  8
DETAIL
  6
CONTINUOUS
 62
     5
 10
214.391261707784
 20
-18.510574882688619
 30
0.0
 11
214.30960876541209
 21
-18.517181058454302
 31
0.0
  0
LINE
  8
DETAIL
  6
CONTINUOUS
 62
     5
 10
214.30960876541209
 20
-18.517181058454302
 30
0.0
 11
214.30960876541209
 21
-18.517181058454302
 31
0.0
  0
LINE
  8
DETAIL
  6
CONTINUOUS
 62
     5
 10
214.30960876541209
 20
-18.517181058454302
 30
0.0
 11
214.2279568977979
 21
-18.522776519014311
 31
0.0
  0
LINE
  8
DETAIL
  6
CONTINUOUS
 62
     5
 10
214.2279568977979
 20
-18.522776519014311
 30
0.0
 11
214.1463010556599
 21
-18.527392596649861
 31
0.0
  0
LINE
  8
DETAIL
  6
CONTINUOUS
 62
     5
 10
214.1463010556599
 20
-18.527392596649861
 30
0.0
 11
214.1463010556599
 21
-18.527392596649861
 31
0.0
  0
LINE
  8
DETAIL
  6
CONTINUOUS
 62
     5
 10
214.1463010556599
 20
-18.527392596649861
 30
0.0
 11
214.06458445989759
 21
-18.531040345665129
 31
0.0
  0
LINE
  8
DETAIL
  6
CONTINUOUS
 62
     5
 10
214.06458445989759
 20
-18.531040345665129
 30
0.0
 11
213.98282865795551
 21
-18.533570637855519
 31
0.0
  0
LINE
  8
DETAIL
  6
CONTINUOUS
 62
     5
 10
213.98282865795551
 20
-18.533570637855519
 30
0.0
 11
213.98282865795551
 21
-18.533570637855519
 31
0.0
  0
LINE
  8
DETAIL
  6
CONTINUOUS
 62
     5
 10
213.98282865795551
 20
-18.533570637855519
 30
0.0
 11
213.90106776382481
 21
-18.534934714249399
 31
0.0
  0
LINE
  8
DETAIL
  6
CONTINUOUS
 62
     5
 10
213.90106776382481
 20
-18.534934714249399
 30
0.0
 11
213.81930783114379
 21
-18.535645475314819
 31
0.0
  0
LINE
  8
DETAIL
  6
CONTINUOUS
 62
     5
 10
211.31449092880939
 20
-18.08820301814194
 30
0.0
 11
211.22929785107769
 21
-18.116105148748151
 31
0.0
  0
LINE
  8
DETAIL
  6
CONTINUOUS
 62
     5
 10
211.22929785107769
 20
-18.116105148748151
 30
0.0
 11
211.14397131732309
 21
-18.14357150341084
 31
0.0
  0
LINE
  8
DETAIL
  6
CONTINUOUS
 62
     5
 10
211.14397131732309
 20
-18.14357150341084
 30
0.0
 11
211.14397131732309
 21
-18.14357150341084
 31
0.0
  0
LINE
  8
DETAIL
  6
CONTINUOUS
 62
     5
 10
211.14397131732309
 20
-18.14357150341084
 30
0.0
 11
211.05839745962379
 21
-18.170254777497352
 31
0.0
  0
LINE
  8
DETAIL
  6
CONTINUOUS
 62
     5
 10
211.05839745962379
 20
-18.170254777497352
 30
0.0
 11
210.9725407624687
 21
-18.19616155162521
 31
0.0
  0
LINE
  8
DETAIL
  6
CONTINUOUS
 62
     5
 10
210.9725407624687
 20
-18.19616155162521
 30
0.0
 11
210.9725407624687
 21
-18.19616155162521
 31
0.0
  0
LINE
  8
DETAIL
  6
CONTINUOUS
 62
     5
 10
210.9725407624687
 20
-18.19616155162521
 30
0.0
 11
210.88642200197589
 21
-18.2213537796531
 31
0.0
  0
LINE
  8
DETAIL
  6
CONTINUOUS
 62
     5
 10
210.88642200197589
 20
-18.2213537796531
 30
0.0
 11
210.80020876837261
 21
-18.245761023157229
 31
0.0
  0
LINE
  8
DETAIL
  6
CONTINUOUS
 62
     5
 10
210.80020876837261
 20
-18.245761023157229
 30
0.0
 11
210.80020876837261
 21
-18.245761023157229
 31
0.0
  0
LINE
  8
DETAIL
  6
CONTINUOUS
 62
     5
 10
210.80020876837261
 20
-18.245761023157229
 30
0.0
 11
210.71393895320219
 21
-18.269323666613669
 31
0.0
  0
LINE
  8
DETAIL
  6
CONTINUOUS
 62
     5
 10
210.71393895320219
 20
-18.269323666613669
 30
0.0
 11
210.6269848391639
 21
-18.292157778377259
 31
0.0
  0
LINE
  8
DETAIL
  6
CONTINUOUS
 62
     5
 10
210.6269848391639
 20
-18.292157778377259
 30
0.0
 11
210.6269848391639
 21
-18.292157778377259
 31
0.0
  0
LINE
  8
DETAIL
  6
CONTINUOUS
 62
     5
 10
210.6269848391639
 20
-18.292157778377259
 30
0.0
 11
210.53918121206419
 21
-18.314280761964479
 31
0.0
  0
LINE
  8
DETAIL
  6
CONTINUOUS
 62
     5
 10
210.53918121206419
 20
-18.314280761964479
 30
0.0
 11
210.4528784789695
 21
-18.335139677656571
 31
0.0
  0
LINE
  8
DETAIL
  6
CONTINUOUS
 62
     5
 10
210.4528784789695
 20
-18.335139677656571
 30
0.0
 11
210.4528784789695
 21
-18.335139677656571
 31
0.0
  0
LINE
  8
DETAIL
  6
CONTINUOUS
 62
     5
 10
210.4528784789695
 20
-18.335139677656571
 30
0.0
 11
210.37006745745381
 21
-18.354274042213088
 31
0.0
  0
LINE
  8
DETAIL
  6
CONTINUOUS
 62
     5
 10
210.37006745745381
 20
-18.354274042213088
 30
0.0
 11
210.28878498585979
 21
-18.372163541542928
 31
0.0
  0
LINE
  8
DETAIL
  6
CONTINUOUS
 62
     5
 10
210.28878498585979
 20
-18.372163541542928
 30
0.0
 11
210.28878498585979
 21
-18.372163541542928
 31
0.0
  0
LINE
  8
DETAIL
  6
CONTINUOUS
 62
     5
 10
210.28878498585979
 20
-18.372163541542928
 30
0.0
 11
210.20670058784711
 21
-18.389367769995719
 31
0.0
  0
LINE
  8
DETAIL
  6
CONTINUOUS
 62
     5
 10
210.20670058784711
 20
-18.389367769995719
 30
0.0
 11
210.12396850758711
 21
-18.405825786532201
 31
0.0
  0
LINE
  8
DETAIL
  6
CONTINUOUS
 62
     5
 10
210.12396850758711
 20
-18.405825786532201
 30
0.0
 11
210.12396850758711
 21
-18.405825786532201
 31
0.0
  0
LINE
  8
DETAIL
  6
CONTINUOUS
 62
     5
 10
210.12396850758711
 20
-18.405825786532201
 30
0.0
 11
210.04121555036321
 21
-18.421361126177089
 31
0.0
  0
LINE
  8
DETAIL
  6
CONTINUOUS
 62
     5
 10
210.04121555036321
 20
-18.421361126177089
 30
0.0
 11
209.9584740453993
 21
-18.435955763600081
 31
0.0
  0
LINE
  8
DETAIL
  6
CONTINUOUS
 62
     5
 10
209.9584740453993
 20
-18.435955763600081
 30
0.0
 11
209.9584740453993
 21
-18.435955763600081
 31
0.0
  0
LINE
  8
DETAIL
  6
CONTINUOUS
 62
     5
 10
209.9584740453993
 20
-18.435955763600081
 30
0.0
 11
209.8756009988351
 21
-18.44962797758421
 31
0.0
  0
LINE
  8
DETAIL
  6
CONTINUOUS
 62
     5
 10
209.8756009988351
 20
-18.44962797758421
 30
0.0
 11
209.79234660054229
 21
-18.462382823725651
 31
0.0
  0
LINE
  8
DETAIL
  6
CONTINUOUS
 62
     5
 10
209.79234660054229
 20
-18.462382823725651
 30
0.0
 11
209.79234660054229
 21
-18.462382823725651
 31
0.0
  0
LINE
  8
DETAIL
  6
CONTINUOUS
 62
     5
 10
209.79234660054229
 20
-18.462382823725651
 30
0.0
 11
209.7086897716072
 21
-18.474195665099838
 31
0.0
  0
LINE
  8
DETAIL
  6
CONTINUOUS
 62
     5
 10
209.7086897716072
 20
-18.474195665099838
 30
0.0
 11
209.62563117426271
 21
-18.4849363178846
 31
0.0
  0
LINE
  8
DETAIL
  6
CONTINUOUS
 62
     5
 10
209.62563117426271
 20
-18.4849363178846
 30
0.0
 11
209.62563117426271
 21
-18.4849363178846
 31
0.0
  0
LINE
  8
DETAIL
  6
CONTINUOUS
 62
     5
 10
209.62563117426271
 20
-18.4849363178846
 30
0.0
 11
209.5440104764302
 21
-18.4945020806631
 31
0.0
  0
LINE
  8
DETAIL
  6
CONTINUOUS
 62
     5
 10
209.5440104764302
 20
-18.4945020806631
 30
0.0
 11
209.46300162764689
 21
-18.503005728538032
 31
0.0
  0
LINE
  8
DETAIL
  6
CONTINUOUS
 62
     5
 10
209.46300162764689
 20
-18.503005728538032
 30
0.0
 11
209.46300162764689
 21
-18.503005728538032
 31
0.0
  0
LINE
  8
DETAIL
  6
CONTINUOUS
 62
     5
 10
209.46300162764689
 20
-18.503005728538032
 30
0.0
 11
209.38162781266149
 21
-18.51057488069182
 31
0.0
  0
LINE
  8
DETAIL
  6
CONTINUOUS
 62
     5
 10
209.38162781266149
 20
-18.51057488069182
 30
0.0
 11
209.2999748754514
 21
-18.517181056101439
 31
0.0
  0
LINE
  8
DETAIL
  6
CONTINUOUS
 62
     5
 10
209.2999748754514
 20
-18.517181056101439
 30
0.0
 11
209.2999748754514
 21
-18.517181056101439
 31
0.0
  0
LINE
  8
DETAIL
  6
CONTINUOUS
 62
     5
 10
209.2999748754514
 20
-18.517181056101439
 30
0.0
 11
209.2183230131777
 21
-18.522776516362679
 31
0.0
  0
LINE
  8
DETAIL
  6
CONTINUOUS
 62
     5
 10
209.2183230131777
 20
-18.522776516362679
 30
0.0
 11
209.1366671765154
 21
-18.527392593755621
 31
0.0
  0
LINE
  8
DETAIL
  6
CONTINUOUS
 62
     5
 10
209.1366671765154
 20
-18.527392593755621
 30
0.0
 11
209.1366671765154
 21
-18.527392593755621
 31
0.0
  0
LINE
  8
DETAIL
  6
CONTINUOUS
 62
     5
 10
209.1366671765154
 20
-18.527392593755621
 30
0.0
 11
209.05495058619641
 21
-18.531040342598541
 31
0.0
  0
LINE
  8
DETAIL
  6
CONTINUOUS
 62
     5
 10
209.05495058619641
 20
-18.531040342598541
 30
0.0
 11
208.97319478967711
 21
-18.533570634682061
 31
0.0
  0
LINE
  8
DETAIL
  6
CONTINUOUS
 62
     5
 10
208.97319478967711
 20
-18.533570634682061
 30
0.0
 11
208.97319478967711
 21
-18.533570634682061
 31
0.0
  0
LINE
  8
DETAIL
  6
CONTINUOUS
 62
     5
 10
208.97319478967711
 20
-18.533570634682061
 30
0.0
 11
208.8914339009925
 21
-18.534934711022292
 31
0.0
  0
LINE
  8
DETAIL
  6
CONTINUOUS
 62
     5
 10
208.8914339009925
 20
-18.534934711022292
 30
0.0
 11
208.80967397377569
 21
-18.535645472061791
 31
0.0
  0
LINE
  8
DETAIL
  6
CONTINUOUS
 62
     5
 10
-182.6466621167078
 20
-18.535645472061791
 30
0.0
 11
-182.7284305789253
 21
-18.53493455262992
 31
0.0
  0
LINE
  8
DETAIL
  6
CONTINUOUS
 62
     5
 10
-182.7284305789253
 20
-18.53493455262992
 30
0.0
 11
-182.81019990991879
 21
-18.53357019436999
 31
0.0
  0
LINE
  8
DETAIL
  6
CONTINUOUS
 62
     5
 10
-182.81019990991879
 20
-18.53357019436999
 30
0.0
 11
-182.81019990991879
 21
-18.53357019436999
 31
0.0
  0
LINE
  8
DETAIL
  6
CONTINUOUS
 62
     5
 10
-182.81019990991879
 20
-18.53357019436999
 30
0.0
 11
-182.8919640548213
 21
-18.531039390292339
 31
0.0
  0
LINE
  8
DETAIL
  6
CONTINUOUS
 62
     5
 10
-182.8919640548213
 20
-18.531039390292339
 30
0.0
 11
-182.97368926418719
 21
-18.527390860766221
 31
0.0
  0
LINE
  8
DETAIL
  6
CONTINUOUS
 62
     5
 10
-182.97368926418719
 20
-18.527390860766221
 30
0.0
 11
-182.97368926418719
 21
-18.527390860766221
 31
0.0
  0
LINE
  8
DETAIL
  6
CONTINUOUS
 62
     5
 10
-182.97368926418719
 20
-18.527390860766221
 30
0.0
 11
-183.05535407660889
 21
-18.522773755110851
 31
0.0
  0
LINE
  8
DETAIL
  6
CONTINUOUS
 62
     5
 10
-183.05535407660889
 20
-18.522773755110851
 30
0.0
 11
-183.1370138774023
 21
-18.517177211089351
 31
0.0
  0
LINE
  8
DETAIL
  6
CONTINUOUS
 62
     5
 10
-183.1370138774023
 20
-18.517177211089351
 30
0.0
 11
-183.1370138774023
 21
-18.517177211089351
 31
0.0
  0
LINE
  8
DETAIL
  6
CONTINUOUS
 62
     5
 10
-183.1370138774023
 20
-18.517177211089351
 30
0.0
 11
-183.21867334048599
 21
-18.51056994329247
 31
0.0
  0
LINE
  8
DETAIL
  6
CONTINUOUS
 62
     5
 10
-183.21867334048599
 20
-18.51056994329247
 30
0.0
 11
-183.30005744745401
 21
-18.502998985178241
 31
0.0
  0
LINE
  8
DETAIL
  6
CONTINUOUS
 62
     5
 10
-183.30005744745401
 20
-18.502998985178241
 30
0.0
 11
-183.30005744745401
 21
-18.502998985178241
 31
0.0
  0
LINE
  8
DETAIL
  6
CONTINUOUS
 62
     5
 10
-183.30005744745401
 20
-18.502998985178241
 30
0.0
 11
-183.38108173746011
 21
-18.4944926339424
 31
0.0
  0
LINE
  8
DETAIL
  6
CONTINUOUS
 62
     5
 10
-183.38108173746011
 20
-18.4944926339424
 30
0.0
 11
-183.46270367223039
 21
-18.48492592287084
 31
0.0
  0
LINE
  8
DETAIL
  6
CONTINUOUS
 62
     5
 10
-183.46270367223039
 20
-18.48492592287084
 30
0.0
 11
-183.46270367223039
 21
-18.48492592287084
 31
0.0
  0
LINE
  8
DETAIL
  6
CONTINUOUS
 62
     5
 10
-183.46270367223039
 20
-18.48492592287084
 30
0.0
 11
-183.54573298126519
 21
-18.47418842234174
 31
0.0
  0
LINE
  8
DETAIL
  6
CONTINUOUS
 62
     5
 10
-183.54573298126519
 20
-18.47418842234174
 30
0.0
 11
-183.62934654258629
 21
-18.46238111501793
 31
0.0
  0
LINE
  8
DETAIL
  6
CONTINUOUS
 62
     5
 10
-183.62934654258629
 20
-18.46238111501793
 30
0.0
 11
-183.62934654258629
 21
-18.46238111501793
 31
0.0
  0
LINE
  8
DETAIL
  6
CONTINUOUS
 62
     5
 10
-183.62934654258629
 20
-18.46238111501793
 30
0.0
 11
-183.71256312323041
 21
-18.449632047091882
 31
0.0
  0
LINE
  8
DETAIL
  6
CONTINUOUS
 62
     5
 10
-183.71256312323041
 20
-18.449632047091882
 30
0.0
 11
-183.79540189776091
 21
-18.435966106600059
 31
0.0
  0
LINE
  8
DETAIL
  6
CONTINUOUS
 62
     5
 10
-183.79540189776091
 20
-18.435966106600059
 30
0.0
 11
-183.79540189776091
 21
-18.435966106600059
 31
0.0
  0
LINE
  8
DETAIL
  6
CONTINUOUS
 62
     5
 10
-183.79540189776091
 20
-18.435966106600059
 30
0.0
 11
-183.87810735235209
 21
-18.421378807260229
 31
0.0
  0
LINE
  8
DETAIL
  6
CONTINUOUS
 62
     5
 10
-183.87810735235209
 20
-18.421378807260229
 30
0.0
 11
-183.9608248120924
 21
-18.405851323676419
 31
0.0
  0
LINE
  8
DETAIL
  6
CONTINUOUS
 62
     5
 10
-183.9608248120924
 20
-18.405851323676419
 30
0.0
 11
-183.9608248120924
 21
-18.405851323676419
 31
0.0
  0
LINE
  8
DETAIL
  6
CONTINUOUS
 62
     5
 10
-183.9608248120924
 20
-18.405851323676419
 30
0.0
 11
-184.0435238710013
 21
-18.38940137432655
 31
0.0
  0
LINE
  8
DETAIL
  6
CONTINUOUS
 62
     5
 10
-184.0435238710013
 20
-18.38940137432655
 30
0.0
 11
-184.1255703599181
 21
-18.372207192308451
 31
0.0
  0
LINE
  8
DETAIL
  6
CONTINUOUS
 62
     5
 10
-184.1255703599181
 20
-18.372207192308451
 30
0.0
 11
-184.1255703599181
 21
-18.372207192308451
 31
0.0
  0
LINE
  8
DETAIL
  6
CONTINUOUS
 62
     5
 10
-184.1255703599181
 20
-18.372207192308451
 30
0.0
 11
-184.206807722338
 21
-18.3543302095336
 31
0.0
  0
LINE
  8
DETAIL
  6
CONTINUOUS
 62
     5
 10
-184.206807722338
 20
-18.3543302095336
 30
0.0
 11
-184.28959361557551
 21
-18.335204138555351
 31
0.0
  0
LINE
  8
DETAIL
  6
CONTINUOUS
 62
     5
 10
-184.28959361557551
 20
-18.335204138555351
 30
0.0
 11
-184.28959361557551
 21
-18.335204138555351
 31
0.0
  0
LINE
  8
DETAIL
  6
CONTINUOUS
 62
     5
 10
-184.28959361557551
 20
-18.335204138555351
 30
0.0
 11
-184.37591422205239
 21
-18.314343497946769
 31
0.0
  0
LINE
  8
DETAIL
  6
CONTINUOUS
 62
     5
 10
-184.37591422205239
 20
-18.314343497946769
 30
0.0
 11
-184.46375561080319
 21
-18.292213749713479
 31
0.0
  0
LINE
  8
DETAIL
  6
CONTINUOUS
 62
     5
 10
-184.46375561080319
 20
-18.292213749713479
 30
0.0
 11
-184.46375561080319
 21
-18.292213749713479
 31
0.0
  0
LINE
  8
DETAIL
  6
CONTINUOUS
 62
     5
 10
-184.46375561080319
 20
-18.292213749713479
 30
0.0
 11
-184.55074004799329
 21
-18.269373889175309
 31
0.0
  0
LINE
  8
DETAIL
  6
CONTINUOUS
 62
     5
 10
-184.55074004799329
 20
-18.269373889175309
 30
0.0
 11
-184.63703470169679
 21
-18.245806101470858
 31
0.0
  0
LINE
  8
DETAIL
  6
CONTINUOUS
 62
     5
 10
-184.63703470169679
 20
-18.245806101470858
 30
0.0
 11
-184.63703470169679
 21
-18.245806101470858
 31
0.0
  0
LINE
  8
DETAIL
  6
CONTINUOUS
 62
     5
 10
-184.63703470169679
 20
-18.245806101470858
 30
0.0
 11
-184.72327460394041
 21
-18.22139272677714
 31
0.0
  0
LINE
  8
DETAIL
  6
CONTINUOUS
 62
     5
 10
-184.72327460394041
 20
-18.22139272677714
 30
0.0
 11
-184.80942134065799
 21
-18.196193535607559
 31
0.0
  0
LINE
  8
DETAIL
  6
CONTINUOUS
 62
     5
 10
-184.80942134065799
 20
-18.196193535607559
 30
0.0
 11
-184.80942134065799
 21
-18.196193535607559
 31
0.0
  0
LINE
  8
DETAIL
  6
CONTINUOUS
 62
     5
 10
-184.80942134065799
 20
-18.196193535607559
 30
0.0
 11
-184.89530535687621
 21
-18.17027942826962
 31
0.0
  0
LINE
  8
DETAIL
  6
CONTINUOUS
 62
     5
 10
-184.89530535687621
 20
-18.17027942826962
 30
0.0
 11
-184.98090598008909
 21
-18.143588393904341
 31
0.0
  0
LINE
  8
DETAIL
  6
CONTINUOUS
 62
     5
 10
-184.98090598008909
 20
-18.143588393904341
 30
0.0
 11
-184.98090598008909
 21
-18.143588393904341
 31
0.0
  0
LINE
  8
DETAIL
  6
CONTINUOUS
 62
     5
 10
-184.98090598008909
 20
-18.143588393904341
 30
0.0
 11
-185.06625923746381
 21
-18.1161137474428
 31
0.0
  0
LINE
  8
DETAIL
  6
CONTINUOUS
 62
     5
 10
-185.06625923746381
 20
-18.1161137474428
 30
0.0
 11
-185.15147907239199
 21
-18.08820301814194
 31
0.0
  0
LINE
  8
DETAIL
  6
CONTINUOUS
 62
     5
 10
-177.6370282586895
 20
-18.535645475314819
 30
0.0
 11
-177.71879671543209
 21
-18.534934556947061
 31
0.0
  0
LINE
  8
DETAIL
  6
CONTINUOUS
 62
     5
 10
-177.71879671543209
 20
-18.534934556947061
 30
0.0
 11
-177.8005660409608
 21
-18.5335701993863
 31
0.0
  0
LINE
  8
DETAIL
  6
CONTINUOUS
 62
     5
 10
-177.8005660409608
 20
-18.5335701993863
 30
0.0
 11
-177.8005660409608
 21
-18.5335701993863
 31
0.0
  0
LINE
  8
DETAIL
  6
CONTINUOUS
 62
     5
 10
-177.8005660409608
 20
-18.5335701993863
 30
0.0
 11
-177.8823301804068
 21
-18.531039395380962
 31
0.0
  0
LINE
  8
DETAIL
  6
CONTINUOUS
 62
     5
 10
-177.8823301804068
 20
-18.531039395380962
 30
0.0
 11
-177.96405538428209
 21
-18.527390865450801
 31
0.0
  0
LINE
  8
DETAIL
  6
CONTINUOUS
 62
     5
 10
-177.96405538428209
 20
-18.527390865450801
 30
0.0
 11
-177.96405538428209
 21
-18.527390865450801
 31
0.0
  0
LINE
  8
DETAIL
  6
CONTINUOUS
 62
     5
 10
-177.96405538428209
 20
-18.527390865450801
 30
0.0
 11
-178.04572019116989
 21
-18.522773759135362
 31
0.0
  0
LINE
  8
DETAIL
  6
CONTINUOUS
 62
     5
 10
-178.04572019116989
 20
-18.522773759135362
 30
0.0
 11
-178.1273799865601
 21
-18.517177214283041
 31
0.0
  0
LINE
  8
DETAIL
  6
CONTINUOUS
 62
     5
 10
-178.1273799865601
 20
-18.517177214283041
 30
0.0
 11
-178.1273799865601
 21
-18.517177214283041
 31
0.0
  0
LINE
  8
DETAIL
  6
CONTINUOUS
 62
     5
 10
-178.1273799865601
 20
-18.517177214283041
 30
0.0
 11
-178.2090394444167
 21
-18.510569945568481
 31
0.0
  0
LINE
  8
DETAIL
  6
CONTINUOUS
 62
     5
 10
-178.2090394444167
 20
-18.510569945568481
 30
0.0
 11
-178.29042354570061
 21
-18.502998986657531
 31
0.0
  0
LINE
  8
DETAIL
  6
CONTINUOUS
 62
     5
 10
-178.29042354570061
 20
-18.502998986657531
 30
0.0
 11
-178.29042354570061
 21
-18.502998986657531
 31
0.0
  0
LINE
  8
DETAIL
  6
CONTINUOUS
 62
     5
 10
-178.29042354570061
 20
-18.502998986657531
 30
0.0
 11
-178.3714478293991
 21
-18.49449263489441
 31
0.0
  0
LINE
  8
DETAIL
  6
CONTINUOUS
 62
     5
 10
-178.3714478293991
 20
-18.49449263489441
 30
0.0
 11
-178.4530697596106
 21
-18.484925923350598
 31
0.0
  0
LINE
  8
DETAIL
  6
CONTINUOUS
 62
     5
 10
-178.4530697596106
 20
-18.484925923350598
 30
0.0
 11
-178.4530697596106
 21
-18.484925923350598
 31
0.0
  0
LINE
  8
DETAIL
  6
CONTINUOUS
 62
     5
 10
-178.4530697596106
 20
-18.484925923350598
 30
0.0
 11
-178.53609906783731
 21
-18.474188422201681
 31
0.0
  0
LINE
  8
DETAIL
  6
CONTINUOUS
 62
     5
 10
-178.53609906783731
 20
-18.474188422201681
 30
0.0
 11
-178.61971263009011
 21
-18.462381114316489
 31
0.0
  0
LINE
  8
DETAIL
  6
CONTINUOUS
 62
     5
 10
-178.61971263009011
 20
-18.462381114316489
 30
0.0
 11
-178.61971263009011
 21
-18.462381114316489
 31
0.0
  0
LINE
  8
DETAIL
  6
CONTINUOUS
 62
     5
 10
-178.61971263009011
 20
-18.462381114316489
 30
0.0
 11
-178.70292921102509
 21
-18.449632046124631
 31
0.0
  0
LINE
  8
DETAIL
  6
CONTINUOUS
 62
     5
 10
-178.70292921102509
 20
-18.449632046124631
 30
0.0
 11
-178.78576798537691
 21
-18.435966105603711
 31
0.0
  0
LINE
  8
DETAIL
  6
CONTINUOUS
 62
     5
 10
-178.78576798537691
 20
-18.435966105603711
 30
0.0
 11
-178.78576798537691
 21
-18.435966105603711
 31
0.0
  0
LINE
  8
DETAIL
  6
CONTINUOUS
 62
     5
 10
-178.78576798537691
 20
-18.435966105603711
 30
0.0
 11
-178.86847343995669
 21
-18.421378806359829
 31
0.0
  0
LINE
  8
DETAIL
  6
CONTINUOUS
 62
     5
 10
-178.86847343995669
 20
-18.421378806359829
 30
0.0
 11
-178.95119089980631
 21
-18.405851322962459
 31
0.0
  0
LINE
  8
DETAIL
  6
CONTINUOUS
 62
     5
 10
-178.95119089980631
 20
-18.405851322962459
 30
0.0
 11
-178.95119089980631
 21
-18.405851322962459
 31
0.0
  0
LINE
  8
DETAIL
  6
CONTINUOUS
 62
     5
 10
-178.95119089980631
 20
-18.405851322962459
 30
0.0
 11
-179.03388995877549
 21
-18.389401373871578
 31
0.0
  0
LINE
  8
DETAIL
  6
CONTINUOUS
 62
     5
 10
-179.03388995877549
 20
-18.389401373871578
 30
0.0
 11
-179.11593644771349
 21
-18.372207192143382
 31
0.0
  0
LINE
  8
DETAIL
  6
CONTINUOUS
 62
     5
 10
-179.11593644771349
 20
-18.372207192143382
 30
0.0
 11
-179.11593644771349
 21
-18.372207192143382
 31
0.0
  0
LINE
  8
DETAIL
  6
CONTINUOUS
 62
     5
 10
-179.11593644771349
 20
-18.372207192143382
 30
0.0
 11
-179.19717381016201
 21
-18.354330209645472
 31
0.0
  0
LINE
  8
DETAIL
  6
CONTINUOUS
 62
     5
 10
-179.19717381016201
 20
-18.354330209645472
 30
0.0
 11
-179.2799597034336
 21
-18.335204138895278
 31
0.0
  0
LINE
  8
DETAIL
  6
CONTINUOUS
 62
     5
 10
-179.2799597034336
 20
-18.335204138895278
 30
0.0
 11
-179.2799597034336
 21
-18.335204138895278
 31
0.0
  0
LINE
  8
DETAIL
  6
CONTINUOUS
 62
     5
 10
-179.2799597034336
 20
-18.335204138895278
 30
0.0
 11
-179.36628030994211
 21
-18.31434349843698
 31
0.0
  0
LINE
  8
DETAIL
  6
CONTINUOUS
 62
     5
 10
-179.36628030994211
 20
-18.31434349843698
 30
0.0
 11
-179.45412169872321
 21
-18.29221375027555
 31
0.0
  0
LINE
  8
DETAIL
  6
CONTINUOUS
 62
     5
 10
-179.45412169872321
 20
-18.29221375027555
 30
0.0
 11
-179.45412169872321
 21
-18.29221375027555
 31
0.0
  0
LINE
  8
DETAIL
  6
CONTINUOUS
 62
     5
 10
-179.45412169872321
 20
-18.29221375027555
 30
0.0
 11
-179.54110613594571
 21
-18.269373889738521
 31
0.0
  0
LINE
  8
DETAIL
  6
CONTINUOUS
 62
     5
 10
-179.54110613594571
 20
-18.269373889738521
 30
0.0
 11
-179.62740078968889
 21
-18.245806101980861
 31
0.0
  0
LINE
  8
DETAIL
  6
CONTINUOUS
 62
     5
 10
-179.62740078968889
 20
-18.245806101980861
 30
0.0
 11
-179.62740078968889
 21
-18.245806101980861
 31
0.0
  0
LINE
  8
DETAIL
  6
CONTINUOUS
 62
     5
 10
-179.62740078968889
 20
-18.245806101980861
 30
0.0
 11
-179.71364069198469
 21
-18.221392727198921
 31
0.0
  0
LINE
  8
DETAIL
  6
CONTINUOUS
 62
     5
 10
-179.71364069198469
 20
-18.221392727198921
 30
0.0
 11
-179.79978742876921
 21
-18.196193535920429
 31
0.0
  0
LINE
  8
DETAIL
  6
CONTINUOUS
 62
     5
 10
-179.79978742876921
 20
-18.196193535920429
 30
0.0
 11
-179.79978742876921
 21
-18.196193535920429
 31
0.0
  0
LINE
  8
DETAIL
  6
CONTINUOUS
 62
     5
 10
-179.79978742876921
 20
-18.196193535920429
 30
0.0
 11
-179.88567144507351
 21
-18.17027942846698
 31
0.0
  0
LINE
  8
DETAIL
  6
CONTINUOUS
 62
     5
 10
-179.88567144507351
 20
-18.17027942846698
 30
0.0
 11
-179.9712720684017
 21
-18.143588394004379
 31
0.0
  0
LINE
  8
DETAIL
  6
CONTINUOUS
 62
     5
 10
-179.9712720684017
 20
-18.143588394004379
 30
0.0
 11
-179.9712720684017
 21
-18.143588394004379
 31
0.0
  0
LINE
  8
DETAIL
  6
CONTINUOUS
 62
     5
 10
-179.9712720684017
 20
-18.143588394004379
 30
0.0
 11
-180.05662532592621
 21
-18.11611374748145
 31
0.0
  0
LINE
  8
DETAIL
  6
CONTINUOUS
 62
     5
 10
-180.05662532592621
 20
-18.11611374748145
 30
0.0
 11
-180.14184516102389
 21
-18.08820301814194
 31
0.0
  0
LINE
  8
DETAIL
  6
CONTINUOUS
 62
     5
 10
-175.13221124965591
 20
-18.08820301814194
 30
0.0
 11
-175.21740432754271
 21
-18.116105148748151
 31
0.0
  0
LINE
  8
DETAIL
  6
CONTINUOUS
 62
     5
 10
-175.21740432754271
 20
-18.116105148748151
 30
0.0
 11
-175.30273086142191
 21
-18.143571503410389
 31
0.0
  0
LINE
  8
DETAIL
  6
CONTINUOUS
 62
     5
 10
-175.30273086142191
 20
-18.143571503410389
 30
0.0
 11
-175.30273086142191
 21
-18.143571503410389
 31
0.0
  0
LINE
  8
DETAIL
  6
CONTINUOUS
 62
     5
 10
-175.30273086142191
 20
-18.143571503410389
 30
0.0
 11
-175.38830471919351
 21
-18.170254777496211
 31
0.0
  0
LINE
  8
DETAIL
  6
CONTINUOUS
 62
     5
 10
-175.38830471919351
 20
-18.170254777496211
 30
0.0
 11
-175.47416141637771
 21
-18.196161551622939
 31
0.0
  0
LINE
  8
DETAIL
  6
CONTINUOUS
 62
     5
 10
-175.47416141637771
 20
-18.196161551622939
 30
0.0
 11
-175.47416141637771
 21
-18.196161551622939
 31
0.0
  0
LINE
  8
DETAIL
  6
CONTINUOUS
 62
     5
 10
-175.47416141637771
 20
-18.196161551622939
 30
0.0
 11
-175.5602801768716
 21
-18.22135377964992
 31
0.0
  0
LINE
  8
DETAIL
  6
CONTINUOUS
 62
     5
 10
-175.5602801768716
 20
-18.22135377964992
 30
0.0
 11
-175.64649341045629
 21
-18.245761023152681
 31
0.0
  0
LINE
  8
DETAIL
  6
CONTINUOUS
 62
     5
 10
-175.64649341045629
 20
-18.245761023152681
 30
0.0
 11
-175.64649341045629
 21
-18.245761023152681
 31
0.0
  0
LINE
  8
DETAIL
  6
CONTINUOUS
 62
     5
 10
-175.64649341045629
 20
-18.245761023152681
 30
0.0
 11
-175.7327632255938
 21
-18.269323666607761
 31
0.0
  0
LINE
  8
DETAIL
  6
CONTINUOUS
 62
     5
 10
-175.7327632255938
 20
-18.269323666607761
 30
0.0
 11
-175.81971733959151
 21
-18.292157778369528
 31
0.0
  0
LINE
  8
DETAIL
  6
CONTINUOUS
 62
     5
 10
-175.81971733959151
 20
-18.292157778369528
 30
0.0
 11
-175.81971733959151
 21
-18.292157778369528
 31
0.0
  0
LINE
  8
DETAIL
  6
CONTINUOUS
 62
     5
 10
-175.81971733959151
 20
-18.292157778369528
 30
0.0
 11
-175.9075209666521
 21
-18.314280761955391
 31
0.0
  0
LINE
  8
DETAIL
  6
CONTINUOUS
 62
     5
 10
-175.9075209666521
 20
-18.314280761955391
 30
0.0
 11
-175.9938236997173
 21
-18.335139677646112
 31
0.0
  0
LINE
  8
DETAIL
  6
CONTINUOUS
 62
     5
 10
-175.9938236997173
 20
-18.335139677646112
 30
0.0
 11
-175.9938236997173
 21
-18.335139677646112
 31
0.0
  0
LINE
  8
DETAIL
  6
CONTINUOUS
 62
     5
 10
-175.9938236997173
 20
-18.335139677646112
 30
0.0
 11
-176.07663472122201
 21
-18.35427404220286
 31
0.0
  0
LINE
  8
DETAIL
  6
CONTINUOUS
 62
     5
 10
-176.07663472122201
 20
-18.35427404220286
 30
0.0
 11
-176.15791719283021
 21
-18.372163541535429
 31
0.0
  0
LINE
  8
DETAIL
  6
CONTINUOUS
 62
     5
 10
-176.15791719283021
 20
-18.372163541535429
 30
0.0
 11
-176.15791719283021
 21
-18.372163541535429
 31
0.0
  0
LINE
  8
DETAIL
  6
CONTINUOUS
 62
     5
 10
-176.15791719283021
 20
-18.372163541535429
 30
0.0
 11
-176.24000159087521
 21
-18.38936776999503
 31
0.0
  0
LINE
  8
DETAIL
  6
CONTINUOUS
 62
     5
 10
-176.24000159087521
 20
-18.38936776999503
 30
0.0
 11
-176.3227336711393
 21
-18.405825786538799
 31
0.0
  0
LINE
  8
DETAIL
  6
CONTINUOUS
 62
     5
 10
-176.3227336711393
 20
-18.405825786538799
 30
0.0
 11
-176.3227336711393
 21
-18.405825786538799
 31
0.0
  0
LINE
  8
DETAIL
  6
CONTINUOUS
 62
     5
 10
-176.3227336711393
 20
-18.405825786538799
 30
0.0
 11
-176.40548662832609
 21
-18.421361126192551
 31
0.0
  0
LINE
  8
DETAIL
  6
CONTINUOUS
 62
     5
 10
-176.40548662832609
 20
-18.421361126192551
 30
0.0
 11
-176.48822813337441
 21
-18.435955763645779
 31
0.0
  0
LINE
  8
DETAIL
  6
CONTINUOUS
 62
     5
 10
-176.48822813337441
 20
-18.435955763645779
 30
0.0
 11
-176.48822813337441
 21
-18.435955763645779
 31
0.0
  0
LINE
  8
DETAIL
  6
CONTINUOUS
 62
     5
 10
-176.48822813337441
 20
-18.435955763645779
 30
0.0
 11
-176.57110118018409
 21
-18.449627977686081
 31
0.0
  0
LINE
  8
DETAIL
  6
CONTINUOUS
 62
     5
 10
-176.57110118018409
 20
-18.449627977686081
 30
0.0
 11
-176.65435557826319
 21
-18.46238282384547
 31
0.0
  0
LINE
  8
DETAIL
  6
CONTINUOUS
 62
     5
 10
-176.65435557826319
 20
-18.46238282384547
 30
0.0
 11
-176.65435557826319
 21
-18.46238282384547
 31
0.0
  0
LINE
  8
DETAIL
  6
CONTINUOUS
 62
     5
 10
-176.65435557826319
 20
-18.46238282384547
 30
0.0
 11
-176.7380124063541
 21
-18.4741956651817
 31
0.0
  0
LINE
  8
DETAIL
  6
CONTINUOUS
 62
     5
 10
-176.7380124063541
 20
-18.4741956651817
 30
0.0
 11
-176.82107100453501
 21
-18.484936318126529
 31
0.0
  0
LINE
  8
DETAIL
  6
CONTINUOUS
 62
     5
 10
-176.82107100453501
 20
-18.484936318126529
 30
0.0
 11
-176.82107100453501
 21
-18.484936318126529
 31
0.0
  0
LINE
  8
DETAIL
  6
CONTINUOUS
 62
     5
 10
-176.82107100453501
 20
-18.484936318126529
 30
0.0
 11
-176.90269170683879
 21
-18.49450208146504
 31
0.0
  0
LINE
  8
DETAIL
  6
CONTINUOUS
 62
     5
 10
-176.90269170683879
 20
-18.49450208146504
 30
0.0
 11
-176.98370056178439
 21
-18.503005730027549
 31
0.0
  0
LINE
  8
DETAIL
  6
CONTINUOUS
 62
     5
 10
-176.98370056178439
 20
-18.503005730027549
 30
0.0
 11
-176.98370056178439
 21
-18.503005730027549
 31
0.0
  0
LINE
  8
DETAIL
  6
CONTINUOUS
 62
     5
 10
-176.98370056178439
 20
-18.503005730027549
 30
0.0
 11
-177.06507438232171
 21
-18.510574882688619
 31
0.0
  0
LINE
  8
DETAIL
  6
CONTINUOUS
 62
     5
 10
-177.06507438232171
 20
-18.510574882688619
 30
0.0
 11
-177.14672732464169
 21
-18.517181058454302
 31
0.0
  0
LINE
  8
DETAIL
  6
CONTINUOUS
 62
     5
 10
-177.14672732464169
 20
-18.517181058454302
 30
0.0
 11
-177.14672732464169
 21
-18.517181058454302
 31
0.0
  0
LINE
  8
DETAIL
  6
CONTINUOUS
 62
     5
 10
-177.14672732464169
 20
-18.517181058454302
 30
0.0
 11
-177.22837919220339
 21
-18.522776519014311
 31
0.0
  0
LINE
  8
DETAIL
  6
CONTINUOUS
 62
     5
 10
-177.22837919220339
 20
-18.522776519014311
 30
0.0
 11
-177.31003503428971
 21
-18.527392596649861
 31
0.0
  0
LINE
  8
DETAIL
  6
CONTINUOUS
 62
     5
 10
-177.31003503428971
 20
-18.527392596649861
 30
0.0
 11
-177.31003503428971
 21
-18.527392596649861
 31
0.0
  0
LINE
  8
DETAIL
  6
CONTINUOUS
 62
     5
 10
-177.31003503428971
 20
-18.527392596649861
 30
0.0
 11
-177.3917516300053
 21
-18.531040345665129
 31
0.0
  0
LINE
  8
DETAIL
  6
CONTINUOUS
 62
     5
 10
-177.3917516300053
 20
-18.531040345665129
 30
0.0
 11
-177.47350743191149
 21
-18.533570637855519
 31
0.0
  0
LINE
  8
DETAIL
  6
CONTINUOUS
 62
     5
 10
-177.47350743191149
 20
-18.533570637855519
 30
0.0
 11
-177.47350743191149
 21
-18.533570637855519
 31
0.0
  0
LINE
  8
DETAIL
  6
CONTINUOUS
 62
     5
 10
-177.47350743191149
 20
-18.533570637855519
 30
0.0
 11
-177.55526832602121
 21
-18.534934714249399
 31
0.0
  0
LINE
  8
DETAIL
  6
CONTINUOUS
 62
     5
 10
-177.55526832602121
 20
-18.534934714249399
 30
0.0
 11
-177.6370282586895
 21
-18.535645475314819
 31
0.0
  0
LINE
  8
DETAIL
  6
CONTINUOUS
 62
     5
 10
-180.14184516102389
 20
-18.08820301814194
 30
0.0
 11
-180.22703823891129
 21
-18.116105148748151
 31
0.0
  0
LINE
  8
DETAIL
  6
CONTINUOUS
 62
     5
 10
-180.22703823891129
 20
-18.116105148748151
 30
0.0
 11
-180.3123647727912
 21
-18.14357150341084
 31
0.0
  0
LINE
  8
DETAIL
  6
CONTINUOUS
 62
     5
 10
-180.3123647727912
 20
-18.14357150341084
 30
0.0
 11
-180.3123647727912
 21
-18.14357150341084
 31
0.0
  0
LINE
  8
DETAIL
  6
CONTINUOUS
 62
     5
 10
-180.3123647727912
 20
-18.14357150341084
 30
0.0
 11
-180.39793863056269
 21
-18.170254777497352
 31
0.0
  0
LINE
  8
DETAIL
  6
CONTINUOUS
 62
     5
 10
-180.39793863056269
 20
-18.170254777497352
 30
0.0
 11
-180.48379532774609
 21
-18.19616155162521
 31
0.0
  0
LINE
  8
DETAIL
  6
CONTINUOUS
 62
     5
 10
-180.48379532774609
 20
-18.19616155162521
 30
0.0
 11
-180.48379532774609
 21
-18.19616155162521
 31
0.0
  0
LINE
  8
DETAIL
  6
CONTINUOUS
 62
     5
 10
-180.48379532774609
 20
-18.19616155162521
 30
0.0
 11
-180.56991408823751
 21
-18.2213537796531
 31
0.0
  0
LINE
  8
DETAIL
  6
CONTINUOUS
 62
     5
 10
-180.56991408823751
 20
-18.2213537796531
 30
0.0
 11
-180.65612732181671
 21
-18.245761023157229
 31
0.0
  0
LINE
  8
DETAIL
  6
CONTINUOUS
 62
     5
 10
-180.65612732181671
 20
-18.245761023157229
 30
0.0
 11
-180.65612732181671
 21
-18.245761023157229
 31
0.0
  0
LINE
  8
DETAIL
  6
CONTINUOUS
 62
     5
 10
-180.65612732181671
 20
-18.245761023157229
 30
0.0
 11
-180.74239713694581
 21
-18.269323666613669
 31
0.0
  0
LINE
  8
DETAIL
  6
CONTINUOUS
 62
     5
 10
-180.74239713694581
 20
-18.269323666613669
 30
0.0
 11
-180.82935125093061
 21
-18.292157778377259
 31
0.0
  0
LINE
  8
DETAIL
  6
CONTINUOUS
 62
     5
 10
-180.82935125093061
 20
-18.292157778377259
 30
0.0
 11
-180.82935125093061
 21
-18.292157778377259
 31
0.0
  0
LINE
  8
DETAIL
  6
CONTINUOUS
 62
     5
 10
-180.82935125093061
 20
-18.292157778377259
 30
0.0
 11
-180.9171548779741
 21
-18.314280761964479
 31
0.0
  0
LINE
  8
DETAIL
  6
CONTINUOUS
 62
     5
 10
-180.9171548779741
 20
-18.314280761964479
 30
0.0
 11
-181.0034576110163
 21
-18.335139677656571
 31
0.0
  0
LINE
  8
DETAIL
  6
CONTINUOUS
 62
     5
 10
-181.0034576110163
 20
-18.335139677656571
 30
0.0
 11
-181.0034576110163
 21
-18.335139677656571
 31
0.0
  0
LINE
  8
DETAIL
  6
CONTINUOUS
 62
     5
 10
-181.0034576110163
 20
-18.335139677656571
 30
0.0
 11
-181.08626863248969
 21
-18.354274042213088
 31
0.0
  0
LINE
  8
DETAIL
  6
CONTINUOUS
 62
     5
 10
-181.08626863248969
 20
-18.354274042213088
 30
0.0
 11
-181.1675511040514
 21
-18.372163541542928
 31
0.0
  0
LINE
  8
DETAIL
  6
CONTINUOUS
 62
     5
 10
-181.1675511040514
 20
-18.372163541542928
 30
0.0
 11
-181.1675511040514
 21
-18.372163541542928
 31
0.0
  0
LINE
  8
DETAIL
  6
CONTINUOUS
 62
     5
 10
-181.1675511040514
 20
-18.372163541542928
 30
0.0
 11
-181.2496355020385
 21
-18.389367769995719
 31
0.0
  0
LINE
  8
DETAIL
  6
CONTINUOUS
 62
     5
 10
-181.2496355020385
 20
-18.389367769995719
 30
0.0
 11
-181.33236758227889
 21
-18.405825786532201
 31
0.0
  0
LINE
  8
DETAIL
  6
CONTINUOUS
 62
     5
 10
-181.33236758227889
 20
-18.405825786532201
 30
0.0
 11
-181.33236758227889
 21
-18.405825786532201
 31
0.0
  0
LINE
  8
DETAIL
  6
CONTINUOUS
 62
     5
 10
-181.33236758227889
 20
-18.405825786532201
 30
0.0
 11
-181.4151205394887
 21
-18.421361126177089
 31
0.0
  0
LINE
  8
DETAIL
  6
CONTINUOUS
 62
     5
 10
-181.4151205394887
 20
-18.421361126177089
 30
0.0
 11
-181.49786204444399
 21
-18.435955763600081
 31
0.0
  0
LINE
  8
DETAIL
  6
CONTINUOUS
 62
     5
 10
-181.49786204444399
 20
-18.435955763600081
 30
0.0
 11
-181.49786204444399
 21
-18.435955763600081
 31
0.0
  0
LINE
  8
DETAIL
  6
CONTINUOUS
 62
     5
 10
-181.49786204444399
 20
-18.435955763600081
 30
0.0
 11
-181.5807350910022
 21
-18.44962797758421
 31
0.0
  0
LINE
  8
DETAIL
  6
CONTINUOUS
 62
     5
 10
-181.5807350910022
 20
-18.44962797758421
 30
0.0
 11
-181.66398948929239
 21
-18.462382823725651
 31
0.0
  0
LINE
  8
DETAIL
  6
CONTINUOUS
 62
     5
 10
-181.66398948929239
 20
-18.462382823725651
 30
0.0
 11
-181.66398948929239
 21
-18.462382823725651
 31
0.0
  0
LINE
  8
DETAIL
  6
CONTINUOUS
 62
     5
 10
-181.66398948929239
 20
-18.462382823725651
 30
0.0
 11
-181.74764631822629
 21
-18.474195665099838
 31
0.0
  0
LINE
  8
DETAIL
  6
CONTINUOUS
 62
     5
 10
-181.74764631822629
 20
-18.474195665099838
 30
0.0
 11
-181.83070491557049
 21
-18.4849363178846
 31
0.0
  0
LINE
  8
DETAIL
  6
CONTINUOUS
 62
     5
 10
-181.83070491557049
 20
-18.4849363178846
 30
0.0
 11
-181.83070491557049
 21
-18.4849363178846
 31
0.0
  0
LINE
  8
DETAIL
  6
CONTINUOUS
 62
     5
 10
-181.83070491557049
 20
-18.4849363178846
 30
0.0
 11
-181.91232561340391
 21
-18.4945020806631
 31
0.0
  0
LINE
  8
DETAIL
  6
CONTINUOUS
 62
     5
 10
-181.91232561340391
 20
-18.4945020806631
 30
0.0
 11
-181.9933344621916
 21
-18.503005728538032
 31
0.0
  0
LINE
  8
DETAIL
  6
CONTINUOUS
 62
     5
 10
-181.9933344621916
 20
-18.503005728538032
 30
0.0
 11
-181.9933344621916
 21
-18.503005728538032
 31
0.0
  0
LINE
  8
DETAIL
  6
CONTINUOUS
 62
     5
 10
-181.9933344621916
 20
-18.503005728538032
 30
0.0
 11
-182.07470827718879
 21
-18.51057488069182
 31
0.0
  0
LINE
  8
DETAIL
  6
CONTINUOUS
 62
     5
 10
-182.07470827718879
 20
-18.51057488069182
 30
0.0
 11
-182.15636121442321
 21
-18.517181056101439
 31
0.0
  0
LINE
  8
DETAIL
  6
CONTINUOUS
 62
     5
 10
-182.15636121442321
 20
-18.517181056101439
 30
0.0
 11
-182.15636121442321
 21
-18.517181056101439
 31
0.0
  0
LINE
  8
DETAIL
  6
CONTINUOUS
 62
     5
 10
-182.15636121442321
 20
-18.517181056101439
 30
0.0
 11
-182.23801307673691
 21
-18.522776516362679
 31
0.0
  0
LINE
  8
DETAIL
  6
CONTINUOUS
 62
     5
 10
-182.23801307673691
 20
-18.522776516362679
 30
0.0
 11
-182.3196689134584
 21
-18.527392593755621
 31
0.0
  0
LINE
  8
DETAIL
  6
CONTINUOUS
 62
     5
 10
-182.3196689134584
 20
-18.527392593755621
 30
0.0
 11
-182.3196689134584
 21
-18.527392593755621
 31
0.0
  0
LINE
  8
DETAIL
  6
CONTINUOUS
 62
     5
 10
-182.3196689134584
 20
-18.527392593755621
 30
0.0
 11
-182.40138550385791
 21
-18.531040342598541
 31
0.0
  0
LINE
  8
DETAIL
  6
CONTINUOUS
 62
     5
 10
-182.40138550385791
 20
-18.531040342598541
 30
0.0
 11
-182.483141300489
 21
-18.533570634682061
 31
0.0
  0
LINE
  8
DETAIL
  6
CONTINUOUS
 62
     5
 10
-182.483141300489
 20
-18.533570634682061
 30
0.0
 11
-182.483141300489
 21
-18.533570634682061
 31
0.0
  0
LINE
  8
DETAIL
  6
CONTINUOUS
 62
     5
 10
-182.483141300489
 20
-18.533570634682061
 30
0.0
 11
-182.56490218932211
 21
-18.534934711022292
 31
0.0
  0
LINE
  8
DETAIL
  6
CONTINUOUS
 62
     5
 10
-182.56490218932211
 20
-18.534934711022292
 30
0.0
 11
-182.6466621167078
 21
-18.535645472061791
 31
0.0
  0
LINE
  8
DETAIL
  6
CONTINUOUS
 62
     5
 10
-86.16570327552995
 20
-242.46628131021239
 30
0.0
 11
-86.16570327552995
 21
-238.45857418111771
 31
0.0
  0
LINE
  8
DETAIL
  6
CONTINUOUS
 62
     5
 10
-63.56947113424917
 20
-242.46628131021239
 30
0.0
 11
-63.56947113424917
 21
-238.45857418111771
 31
0.0
  0
LINE
  8
DETAIL
  6
CONTINUOUS
 62
     5
 10
2.5048169556839639
 20
-230.4431599229288
 30
0.0
 11
-2.5048169556839639
 21
-230.4431599229288
 31
0.0
  0
LINE
  8
DETAIL
  6
CONTINUOUS
 62
     5
 10
-2.5048169556839639
 20
-230.4431599229288
 30
0.0
 11
-2.5048169556839639
 21
-238.45857418111771
 31
0.0
  0
LINE
  8
DETAIL
  6
CONTINUOUS
 62
     5
 10
2.5048169556839639
 20
-230.4431599229288
 30
0.0
 11
2.5048169556839639
 21
-238.45857418111771
 31
0.0
  0
CIRCLE
  8
DETAIL
  6
CONTINUOUS
 62
     5
 10
0.0
 20
-254.48940269749531
 30
0.0
 40
3.0057803468208131
  0
LINE
  8
BASIS
  6
DASHDOT
 62
     6
 10
0.0
 20
-325.83601132226482
 30
0.0
 11
0.0
 21
74.044781679746393
 31
0.0
  0
TEXT
  8
ETC
  6
CONTINUOUS
 62
    61
 10
391.41806036128952
 20
204.4098114777544
 30
0.0
 40
40.0
  1
EWF-40ETA2-Q
 41
0.9
  0
ARC
  8
DETAIL
  6
CONTINUOUS
 62
     5
 10
-99.755825538587032
 20
-178.6668767905652
 30
0.0
 40
106.7847292334736
 50
179.28859885864719
 51
250.8420078128305
  0
ARC
  8
DETAIL
  6
CONTINUOUS
 62
     5
 10
-92.595285162039318
 20
-177.14547907618001
 30
0.0
 40
110.7490996818193
 50
180.10117325985109
 51
247.59925650084679
  0
ARC
  8
DETAIL
  6
CONTINUOUS
 62
     5
 10
-109.0464645247534
 20
-179.29444822128269
 30
0.0
 40
71.653364318499769
 50
178.43781391100549
 51
252.09096545456421
  0
ARC
  8
DETAIL
  6
CONTINUOUS
 62
     5
 10
-194.71600823209431
 20
-7.4346750959505243
 30
0.0
 40
2.5916927064155608
 50
194.01490649251329
 51
265.75797108464809
  0
ARC
  8
DETAIL
  6
CONTINUOUS
 62
     5
 10
-210.59185320260991
 20
-10.541280470920359
 30
0.0
 40
13.58931915512612
 50
10.510751252529589
 51
33.688618550854159
  0
ARC
  8
DETAIL
  6
CONTINUOUS
 62
     5
 10
-194.43226356615111
 20
-8.0794983657351622
 30
0.0
 40
6.4659440374839088
 50
194.93914122923221
 51
265.7831409797945
  0
ARC
  8
DETAIL
  6
CONTINUOUS
 62
     5
 10
-205.85084148326811
 20
-9.8698550613510179
 30
0.0
 40
5.1726556254472236
 50
1.367900929068075
 51
66.959604617265086
  0
ARC
  8
DETAIL
  6
CONTINUOUS
 62
     5
 10
-244.127670549231
 20
-8.2323180326802685
 30
0.0
 40
6.3066537963497042
 50
196.45986110103351
 51
266.61032666560919
  0
ARC
  8
DETAIL
  6
CONTINUOUS
 62
     5
 10
-255.41019132464359
 20
-9.9511880313150414
 30
0.0
 40
5.2347660304861217
 50
359.25482921999787
 51
67.645404057338368
  0
ARC
  8
DETAIL
  6
CONTINUOUS
 62
     5
 10
99.755825539094758
 20
-178.6668767907386
 30
0.0
 40
106.78472923292971
 50
289.15799218661789
 51
0.7114011414440219
  0
ARC
  8
DETAIL
  6
CONTINUOUS
 62
     5
 10
92.595285162708024
 20
-177.14547907640099
 30
0.0
 40
110.749099681112
 50
292.40074349856133
 51
359.89882674026609
  0
ARC
  8
DETAIL
  6
CONTINUOUS
 62
     5
 10
109.0464645247152
 20
-179.29444822128269
 30
0.0
 40
71.653364318499769
 50
287.90903454543582
 51
1.562186088994548
  0
ARC
  8
DETAIL
  6
CONTINUOUS
 62
     5
 10
194.71600823209431
 20
-7.4346750959505243
 30
0.0
 40
2.5916927064155608
 50
274.24202891535191
 51
345.98509350748668
  0
ARC
  8
DETAIL
  6
CONTINUOUS
 62
     5
 10
210.59185320260991
 20
-10.541280470920359
 30
0.0
 40
13.58931915512612
 50
146.31138144914581
 51
169.48924874747041
  0
ARC
  8
DETAIL
  6
CONTINUOUS
 62
     5
 10
194.43226356615111
 20
-8.0794983657351622
 30
0.0
 40
6.4659440374839088
 50
274.2168590202055
 51
345.06085877076782
  0
ARC
  8
DETAIL
  6
CONTINUOUS
 62
     5
 10
205.85084148326811
 20
-9.8698550613510179
 30
0.0
 40
5.1726556254472236
 50
113.0403953827349
 51
178.6320990709319
  0
ARC
  8
DETAIL
  6
CONTINUOUS
 62
     5
 10
244.127670549231
 20
-8.2323180326802685
 30
0.0
 40
6.3066537963497042
 50
273.38967333439081
 51
343.5401388989664
  0
ARC
  8
DETAIL
  6
CONTINUOUS
 62
     5
 10
255.4101913246441
 20
-9.9511880313150414
 30
0.0
 40
5.2347660304861217
 50
112.3545959426616
 51
180.7451707800021
  0
ARC
  8
DETAIL
  6
CONTINUOUS
 62
     5
 10
-243.15611501373931
 20
-54.831626003805241
 30
0.0
 40
36.148908592644233
 50
3.2029658740820661
 51
74.258083414776891
  0
ARC
  8
DETAIL
  6
CONTINUOUS
 62
     5
 10
245.15660650862949
 20
-56.43607248587989
 30
0.0
 40
38.26494767084953
 50
107.9737721211646
 51
174.56517858956201
  0
ARC
  8
DETAIL
  6
CONTINUOUS
 62
     5
 10
-141.13938669566139
 20
-81.595566636396597
 30
0.0
 40
78.402673396202587
 50
239.7185582850835
 51
267.38979535135189
  0
ARC
  8
DETAIL
  6
CONTINUOUS
 62
     5
 10
-60.674680448879833
 20
689.74989230722713
 30
0.0
 40
853.81237439382232
 50
264.3516019536346
 51
269.35627069031949
  0
ARC
  8
DETAIL
  6
CONTINUOUS
 62
     5
 10
-70.694242678586761
 20
-158.82427016119979
 30
0.0
 40
5.200511301536956
 50
274.54514994707648
 51
16.200432961228021
  0
ARC
  8
DETAIL
  6
CONTINUOUS
 62
     5
 10
95.887745639493914
 20
-123.8044059697834
 30
0.0
 40
165.03802200216481
 50
185.5008256251765
 51
191.7359222148371
  0
ARC
  8
DETAIL
  6
CONTINUOUS
 62
     5
 10
93.096993767105687
 20
6962.8932512042647
 30
0.0
 40
7104.3538174155619
 50
268.69751218909732
 51
268.72534178533982
  0
ARC
  8
DETAIL
  6
CONTINUOUS
 62
     5
 10
-118.8841858052797
 20
-99.212933970284894
 30
0.0
 40
67.448808185490222
 50
323.10849388554061
 51
327.69415858684022
  0
ARC
  8
DETAIL
  6
CONTINUOUS
 62
     5
 10
320.71419729076752
 20
-348.10320653621989
 30
0.0
 40
361.72936799344131
 50
143.95594385461811
 51
148.76436473588041
  0
ARC
  8
DETAIL
  6
CONTINUOUS
 62
     5
 10
13.38717146164117
 20
-161.7962710662928
 30
0.0
 40
2.341718070085308
 50
147.12656776762219
 51
263.61741316058271
  0
ARC
  8
DETAIL
  6
CONTINUOUS
 62
     5
 10
-39.313998492406427
 20
789.49216179143764
 30
0.0
 40
955.05645096017588
 50
273.14761619301521
 51
277.69358695116352
  0
ARC
  8
DETAIL
  6
CONTINUOUS
 62
     5
 10
60.133262499842203
 20
-13.89652647612365
 30
0.0
 40
145.86421889905989
 50
281.23176873861428
 51
303.69171464040221
  0
ARC
  8
DETAIL
  6
CONTINUOUS
 62
     5
 10
61.656092486509351
 20
-154.7048370601201
 30
0.0
 40
10.11239434585393
 50
218.63486231126831
 51
242.45857815491871
  0
ARC
  8
DETAIL
  6
CONTINUOUS
 62
     5
 10
59.7329240670947
 20
-155.86623473758121
 30
0.0
 40
8.2762194382463736
 50
250.57312940828129
 51
274.87532883750418
  0
ARC
  8
DETAIL
  6
CONTINUOUS
 62
     5
 10
61.510239887988519
 20
-88.75212188230762
 30
0.0
 40
75.368040581377016
 50
269.18355102126748
 51
281.49336114375791
  0
ARC
  8
DETAIL
  6
CONTINUOUS
 62
     5
 10
72.934034247922682
 20
-152.98556995910101
 30
0.0
 40
10.272387592664501
 50
290.4770912886143
 51
313.85833066451352
  0
ARC
  8
DETAIL
  6
CONTINUOUS
 62
     5
 10
79.579328995198921
 20
-159.9121641747515
 30
0.0
 40
0.6735983242449565
 50
314.50969986085403
 51
44.838076448685612
  0
ARC
  8
DETAIL
  6
CONTINUOUS
 62
     5
 10
53.393108552143993
 20
-183.5443571987696
 30
0.0
 40
35.945201262874782
 50
42.096425826675571
 51
44.792046311690022
  0
ARC
  8
DETAIL
  6
CONTINUOUS
 62
     5
 10
70.791469616462109
 20
-108.8471743774801
 30
0.0
 40
53.138297037326403
 50
209.80575863432719
 51
213.2136780709418
  0
ARC
  8
DETAIL
  6
CONTINUOUS
 62
     5
 10
-185.05324305644439
 20
-76.270597479756702
 30
0.0
 40
1.074906796831961
 50
90.289344113630463
 51
125.2382504490774
  0
ARC
  8
DETAIL
  6
CONTINUOUS
 62
     5
 10
-184.8187598385839
 20
-76.617924369044999
 30
0.0
 40
1.4939074720514129
 50
124.8975442707485
 51
144.31132714650099
  0
ARC
  8
DETAIL
  6
CONTINUOUS
 62
     5
 10
-184.40197708422559
 20
-76.921922237891636
 30
0.0
 40
2.0097679560098771
 50
144.20402817620121
 51
160.1232424738501
  0
ARC
  8
DETAIL
  6
CONTINUOUS
 62
     5
 10
-183.92552407334691
 20
-77.093967725103766
 30
0.0
 40
2.5163319600966489
 50
160.12772901244421
 51
179.84822867135719
  0
ARC
  8
DETAIL
  6
CONTINUOUS
 62
     5
 10
-183.9256189764892
 20
-77.11015026520181
 30
0.0
 40
2.516331960096529
 50
179.47975233111069
 51
199.20025199002299
  0
ARC
  8
DETAIL
  6
CONTINUOUS
 62
     5
 10
-184.40405708101301
 20
-77.276595755938388
 30
0.0
 40
2.0097679560087451
 50
199.2047385286142
 51
215.12395282626909
  0
ARC
  8
DETAIL
  6
CONTINUOUS
 62
     5
 10
-184.8243766599592
 20
-77.57568440525074
 30
0.0
 40
1.4939074720509911
 50
215.0166538559609
 51
234.4304367317157
  0
ARC
  8
DETAIL
  6
CONTINUOUS
 62
     5
 10
-185.0629174335761
 20
-77.920237226749123
 30
0.0
 40
1.0749067968323121
 50
234.0897305534007
 51
269.03863688882819
  0
ARC
  8
DETAIL
  6
CONTINUOUS
 62
     5
 10
-185.08638066068741
 20
-77.92009962573195
 30
0.0
 40
1.074906796831961
 50
270.28934411363042
 51
305.23825044907738
  0
ARC
  8
DETAIL
  6
CONTINUOUS
 62
     5
 10
-185.32086387854821
 20
-77.572772736443653
 30
0.0
 40
1.4939074720514129
 50
304.89754427074848
 51
324.31132714650113
  0
ARC
  8
DETAIL
  6
CONTINUOUS
 62
     5
 10
-185.73764663290629
 20
-77.268774867597017
 30
0.0
 40
2.0097679560098771
 50
324.20402817620118
 51
340.1232424738501
  0
ARC
  8
DETAIL
  6
CONTINUOUS
 62
     5
 10
-186.2140996437852
 20
-77.096729380384886
 30
0.0
 40
2.5163319600966489
 50
340.12772901244432
 51
359.84822867135722
  0
ARC
  8
DETAIL
  6
CONTINUOUS
 62
     5
 10
-186.21400474064279
 20
-77.080546840286843
 30
0.0
 40
2.516331960096529
 50
359.47975233111072
 51
19.200251990023069
  0
ARC
  8
DETAIL
  6
CONTINUOUS
 62
     5
 10
-185.7355666361191
 20
-76.914101349550265
 30
0.0
 40
2.0097679560087451
 50
19.20473852861419
 51
35.123952826269083
  0
ARC
  8
DETAIL
  6
CONTINUOUS
 62
     5
 10
-185.31524705717291
 20
-76.615012700237912
 30
0.0
 40
1.4939074720509911
 50
35.016653855960882
 51
54.430436731715659
  0
ARC
  8
DETAIL
  6
CONTINUOUS
 62
     5
 10
-185.07670628355589
 20
-76.27045987873953
 30
0.0
 40
1.0749067968323121
 50
54.089730553400678
 51
89.038636888841225
  0
ARC
  8
DETAIL
  6
CONTINUOUS
 62
     5
 10
-112.6461446791081
 20
-253.68407868639079
 30
0.0
 40
1.0749067968319239
 50
90.289344113630463
 51
125.2382504490774
  0
ARC
  8
DETAIL
  6
CONTINUOUS
 62
     5
 10
-112.4116614612476
 20
-254.03140557567929
 30
0.0
 40
1.4939074720516961
 50
124.8975442707504
 51
144.31132714650099
  0
ARC
  8
DETAIL
  6
CONTINUOUS
 62
     5
 10
-111.99487870688741
 20
-254.33540344452669
 30
0.0
 40
2.0097679560120998
 50
144.20402817621209
 51
160.1232424738447
  0
ARC
  8
DETAIL
  6
CONTINUOUS
 62
     5
 10
-111.5184256960119
 20
-254.5074489317376
 30
0.0
 40
2.5163319600952652
 50
160.12772901243889
 51
179.8482286713637
  0
ARC
  8
DETAIL
  6
CONTINUOUS
 62
     5
 10
-111.51852059915289
 20
-254.5236314718359
 30
0.0
 40
2.516331960096529
 50
179.47975233111069
 51
199.20025199002299
  0
ARC
  8
DETAIL
  6
CONTINUOUS
 62
     5
 10
-111.99695870367459
 20
-254.6900769625714
 30
0.0
 40
2.0097679560109518
 50
199.2047385286196
 51
215.12395282626909
  0
ARC
  8
DETAIL
  6
CONTINUOUS
 62
     5
 10
-112.41727828262491
 20
-254.98916561188679
 30
0.0
 40
1.4939074720481
 50
215.01665385594819
 51
234.43043673173429
  0
ARC
  8
DETAIL
  6
CONTINUOUS
 62
     5
 10
-112.65581905624001
 20
-255.33371843338401
 30
0.0
 40
1.0749067968314761
 50
234.08973055338529
 51
269.03863688884121
  0
ARC
  8
DETAIL
  6
CONTINUOUS
 62
     5
 10
-112.6792822833511
 20
-255.33358083236601
 30
0.0
 40
1.0749067968319961
 50
270.28934411363042
 51
305.23825044906482
  0
ARC
  8
DETAIL
  6
CONTINUOUS
 62
     5
 10
-112.91376550121051
 20
-254.98625394307899
 30
0.0
 40
1.493907472049725
 50
304.89754427073512
 51
324.31132714650698
  0
ARC
  8
DETAIL
  6
CONTINUOUS
 62
     5
 10
-113.330548255572
 20
-254.68225607423011
 30
0.0
 40
2.0097679560120998
 50
324.20402817621209
 51
340.1232424738447
  0
ARC
  8
DETAIL
  6
CONTINUOUS
 62
     5
 10
-113.8070012664475
 20
-254.5102105870192
 30
0.0
 40
2.5163319600952652
 50
340.12772901243892
 51
359.8482286713637
  0
ARC
  8
DETAIL
  6
CONTINUOUS
 62
     5
 10
-113.8069063633066
 20
-254.4940280469209
 30
0.0
 40
2.516331960096529
 50
359.47975233111072
 51
19.200251990023069
  0
ARC
  8
DETAIL
  6
CONTINUOUS
 62
     5
 10
-113.3284682587846
 20
-254.3275825561854
 30
0.0
 40
2.0097679560109518
 50
19.204738528619568
 51
35.123952826269083
  0
ARC
  8
DETAIL
  6
CONTINUOUS
 62
     5
 10
-112.9081486798364
 20
-254.02849390687189
 30
0.0
 40
1.4939074720508689
 50
35.016653855960882
 51
54.43043673171708
  0
ARC
  8
DETAIL
  6
CONTINUOUS
 62
     5
 10
-112.6696079062194
 20
-253.68394108537291
 30
0.0
 40
1.0749067968316619
 50
54.089730553385351
 51
89.038636888854256
  0
ARC
  8
OUTLINE
  6
CONTINUOUS
 62
     3
 10
-99.755825538587032
 20
-178.6668767905652
 30
0.0
 40
106.7847292334736
 50
179.28859885864719
 51
250.8420078128305
  0
ARC
  8
OUTLINE
  6
CONTINUOUS
 62
     3
 10
-244.127670549231
 20
-8.2323180326802685
 30
0.0
 40
6.3066537963497042
 50
196.45986110103351
 51
266.61032666560919
  0
ARC
  8
OUTLINE
  6
CONTINUOUS
 62
     3
 10
99.755825539094758
 20
-178.6668767907386
 30
0.0
 40
106.78472923292971
 50
289.15799218661789
 51
0.7114011414440219
  0
ARC
  8
OUTLINE
  6
CONTINUOUS
 62
     3
 10
244.127670549231
 20
-8.2323180326802685
 30
0.0
 40
6.3066537963497042
 50
273.38967333439081
 51
343.5401388989664
  0
ARC
  8
OUTLINE
  6
CONTINUOUS
 62
     3
 10
-243.15611501373931
 20
-54.831626003805241
 30
0.0
 40
36.148908592644233
 50
3.2029658740820661
 51
74.258083414776891
  0
ARC
  8
OUTLINE
  6
CONTINUOUS
 62
     3
 10
245.15660650862949
 20
-56.43607248587989
 30
0.0
 40
38.26494767084953
 50
107.9737721211646
 51
174.56517858956201
  0
ENDSEC
  0
EOF
