  0
SECTION
  2
HEADER
  9
$ACADVER
  1
AC1009
  9
$DWGCODEPAGE
  3
dos932
  9
$INSBASE
 10
0.0
 20
0.0
 30
0.0
  9
$EXTMIN
 10
-584.60996874446391
 20
-463.02794241698939
 30
-0.0015257624927045
  9
$EXTMAX
 10
1126.6204950826
 20
558.83789860973775
 30
0.0022888765696933
  9
$LIMMIN
 10
-2970.0
 20
-2100.0
  9
$LIMMAX
 10
2970.0
 20
2100.0
  9
$ORTHOMODE
 70
     1
  9
$REGENMODE
 70
     1
  9
$FILLMODE
 70
     1
  9
$QTEXTMODE
 70
     0
  9
$MIRRTEXT
 70
     0
  9
$LTSCALE
 40
20.0
  9
$ATTMODE
 70
     1
  9
$TEXTSIZE
 40
64.0
  9
$TRACEWID
 40
0.05
  9
$TEXTSTYLE
  7
STANDARD
  9
$CLAYER
  8
SIZE
  9
$CELTYPE
  6
CONTINUOUS
  9
$CECOLOR
 62
     7
  9
$DIMSCALE
 40
1.0
  9
$DIMASZ
 40
12.0
  9
$DIMEXO
 40
20.0
  9
$DIMDLI
 40
200.0
  9
$DIMRND
 40
0.0
  9
$DIMDLE
 40
0.0
  9
$DIMEXE
 40
20.0
  9
$DIMTP
 40
0.0
  9
$DIMTM
 40
0.0
  9
$DIMTXT
 40
64.0
  9
$DIMCEN
 40
0.09
  9
$DIMTSZ
 40
0.0
  9
$DIMTOL
 70
     0
  9
$DIMLIM
 70
     0
  9
$DIMTIH
 70
     0
  9
$DIMTOH
 70
     0
  9
$DIMSE1
 70
     0
  9
$DIMSE2
 70
     0
  9
$DIMTAD
 70
     1
  9
$DIMZIN
 70
     8
  9
$DIMBLK
  1

  9
$DIMASO
 70
     1
  9
$DIMSHO
 70
     0
  9
$DIMPOST
  1

  9
$DIMAPOST
  1

  9
$DIMALT
 70
     0
  9
$DIMALTD
 70
     2
  9
$DIMALTF
 40
25.399999999999999
  9
$DIMLFAC
 40
1.0
  9
$DIMTOFL
 70
     1
  9
$DIMTVP
 40
0.0
  9
$DIMTIX
 70
     1
  9
$DIMSOXD
 70
     0
  9
$DIMSAH
 70
     0
  9
$DIMBLK1
  1

  9
$DIMBLK2
  1

  9
$DIMSTYLE
  2
STANDARD
  9
$DIMCLRD
 70
     7
  9
$DIMCLRE
 70
     7
  9
$DIMCLRT
 70
     7
  9
$DIMTFAC
 40
1.0
  9
$DIMGAP
 40
25.0
  9
$LUNITS
 70
     2
  9
$LUPREC
 70
     4
  9
$SKETCHINC
 40
0.1
  9
$FILLETRAD
 40
3.0
  9
$AUNITS
 70
     1
  9
$AUPREC
 70
     3
  9
$MENU
  1
ACAD
  9
$ELEVATION
 40
0.0
  9
$PELEVATION
 40
0.0
  9
$THICKNESS
 40
50.0
  9
$LIMCHECK
 70
     0
  9
$CHAMFERA
 40
0.0
  9
$CHAMFERB
 40
0.0
  9
$SKPOLY
 70
     0
  9
$TDCREATE
 40
2453019.62301037
  9
$TDUPDATE
 40
2458949.444509306
  9
$TDINDWG
 40
1.7150622801
  9
$TDUSRTIMER
 40
1.7150622801
  9
$USRTIMER
 70
     1
  9
$ANGBASE
 50
0.0
  9
$ANGDIR
 70
     0
  9
$PDMODE
 70
     3
  9
$PDSIZE
 40
-2.0
  9
$PLINEWID
 40
0.0
  9
$SPLFRAME
 70
     0
  9
$SPLINETYPE
 70
     6
  9
$SPLINESEGS
 70
     8
  9
$SURFTAB1
 70
     6
  9
$SURFTAB2
 70
     6
  9
$SURFTYPE
 70
     6
  9
$SURFU
 70
     6
  9
$SURFV
 70
     6
  9
$UCSNAME
  2

  9
$UCSORG
 10
0.0
 20
0.0
 30
0.0
  9
$UCSXDIR
 10
1.0
 20
0.0
 30
0.0
  9
$UCSYDIR
 10
0.0
 20
1.0
 30
0.0
  9
$PUCSNAME
  2

  9
$PUCSORG
 10
0.0
 20
0.0
 30
0.0
  9
$PUCSXDIR
 10
1.0
 20
0.0
 30
0.0
  9
$PUCSYDIR
 10
0.0
 20
1.0
 30
0.0
  9
$USERI1
 70
     0
  9
$USERI2
 70
     0
  9
$USERI3
 70
     0
  9
$USERI4
 70
     0
  9
$USERI5
 70
     0
  9
$USERR1
 40
20.0
  9
$USERR2
 40
0.0
  9
$USERR3
 40
0.0
  9
$USERR4
 40
0.0
  9
$USERR5
 40
0.0
  9
$WORLDVIEW
 70
     1
  9
$SHADEDGE
 70
     3
  9
$SHADEDIF
 70
    70
  9
$TILEMODE
 70
     1
  9
$MAXACTVP
 70
    48
  9
$PINSBASE
 10
0.0
 20
0.0
 30
0.0
  9
$PLIMCHECK
 70
     0
  9
$PEXTMIN
 10
-100000000000000000000.0
 20
-100000000000000000000.0
 30
-100000000000000000000.0
  9
$PEXTMAX
 10
100000000000000000000.0
 20
100000000000000000000.0
 30
100000000000000000000.0
  9
$PLIMMIN
 10
0.0
 20
0.0
  9
$PLIMMAX
 10
12.0
 20
9.0
  9
$UNITMODE
 70
     0
  9
$VISRETAIN
 70
     0
  9
$PLINEGEN
 70
     0
  9
$PSLTSCALE
 70
     0
  9
$TREEDEPTH
 70
  3020
  9
$ATTDIA
 70
     0
  9
$ATTREQ
 70
     1
  9
$BLIPMODE
 70
     1
  9
$COORDS
 70
     1
  9
$DRAGMODE
 70
     2
  9
$OSMODE
 70
     0
  9
$HANDLING
 70
     0
  9
$HANDSEED
  5
13361
  0
ENDSEC
  0
SECTION
  2
TABLES
  0
TABLE
  2
LTYPE
 70
     2
  0
LTYPE
  2
CONTINUOUS
 70
     0
  3
実線
 72
    65
 73
     0
 40
0.0
  0
LTYPE
  2
DASHDOT
 70
     0
  3
____ _ ____ _ ____ _ ____ _ ____ _ ____ _ ____
 72
    65
 73
     4
 40
5.5
 49
4.0
 49
-0.6
 49
0.3
 49
-0.6
  0
ENDTAB
  0
TABLE
  2
LAYER
 70
    12
  0
LAYER
  2
0
 70
     0
 62
     7
  6
CONTINUOUS
  0
LAYER
  2
BASIS
 70
     0
 62
     6
  6
DASHDOT
  0
LAYER
  2
OUTLINE
 70
     0
 62
     3
  6
CONTINUOUS
  0
LAYER
  2
DETAIL
 70
     0
 62
     5
  6
CONTINUOUS
  0
LAYER
  2
SIZE
 70
     0
 62
    30
  6
CONTINUOUS
  0
LAYER
  2
ARRANGE
 70
     0
 62
     1
  6
CONTINUOUS
  0
LAYER
  2
DEFPOINTS
 70
     0
 62
     7
  6
CONTINUOUS
  0
LAYER
  2
ETC
 70
     0
 62
    61
  6
CONTINUOUS
  0
LAYER
  2
FIX
 70
     0
 62
    11
  6
CONTINUOUS
  0
LAYER
  2
NOTE
 70
     0
 62
     4
  6
CONTINUOUS
  0
LAYER
  2
SERVICESPACE
 70
    64
 62
     2
  6
DASHDOT
  0
LAYER
  2
SYMBOLLINE
 70
    64
 62
    15
  6
CONTINUOUS
  0
ENDTAB
  0
TABLE
  2
STYLE
 70
     1
  0
STYLE
  2
STANDARD
 70
     0
 40
64.0
 41
0.9
 50
0.0
 71
     0
 42
64.0
  3
SIMPLEX.shx
  4
BIGFONT.shx
  0
ENDTAB
  0
TABLE
  2
APPID
 70
    19
  0
APPID
  2
ACAD
 70
     0
  0
APPID
  2
AUTOCAD_POSTSCRIPT_FIGURE
 70
     0
  0
APPID
  2
ACAD_EXEMPT_FROM_CAD_STANDARDS
 70
     0
  0
APPID
  2
ACAD_PSEXT
 70
     0
  0
APPID
  2
ACAUTHENVIRON
 70
     0
  0
APPID
  2
GENIUS_GENOENT_13
 70
     0
  0
APPID
  2
GENIUS_GENCFG_13
 70
     0
  0
APPID
  2
GENIUS_GENCFG0_13
 70
     0
  0
APPID
  2
GENIUS_GENCFG1_13
 70
     0
  0
APPID
  2
GENIUS_GENCFG2_13
 70
     0
  0
APPID
  2
GENIUS_GENCFG3_13
 70
     0
  0
APPID
  2
GENIUS_GENCFG4_13
 70
     0
  0
APPID
  2
GENIUS_GEVCFG0_13
 70
     0
  0
APPID
  2
CONTENTBLOCKICON
 70
     0
  0
APPID
  2
CONTENTBLOCKDESCRIPTION
 70
     0
  0
APPID
  2
ACAD_NAV_VCDISPLAY
 70
     0
  0
APPID
  2
ACAD_MLEADERVER
 70
     0
  0
APPID
  2
ACDBDYNAMICBLOCKTRUENAME
 70
     0
  0
APPID
  2
ACDBDYNAMICBLOCKGUID
 70
     0
  0
ENDTAB
  0
TABLE
  2
DIMSTYLE
 70
     1
  0
DIMSTYLE
  2
STANDARD
 70
     0
  3

  4

  5
_ORIGIN
  6

  7

 40
1.0
 41
12.0
 42
20.0
 43
200.0
 44
20.0
 45
0.0
 46
0.0
 47
0.0
 48
0.0
140
64.0
141
0.09
142
0.0
143
25.399999999999999
144
1.0
145
0.0
146
1.0
147
25.0
 71
     0
 72
     0
 73
     0
 74
     0
 75
     0
 76
     0
 77
     1
 78
     8
170
     0
171
     2
172
     1
173
     0
174
     1
175
     0
176
     7
177
     7
178
     7
  0
ENDTAB
  0
TABLE
  2
VIEW
 70
     1
  0
VIEW
  2
ALL
 70
     0
 40
4282.6198079999986
 10
0.0
 20
41.309904000000003
 41
5940.0
 11
0.0
 21
0.0
 31
1.0
 12
0.0
 22
0.0
 32
0.0
 42
50.0
 43
0.0
 44
0.0
 50
0.0
 71
     0
  0
ENDTAB
  0
TABLE
  2
UCS
 70
     0
  0
ENDTAB
  0
TABLE
  2
VPORT
 70
     1
  0
VPORT
  2
*ACTIVE
 70
     0
 10
0.0
 20
0.0
 11
1.0
 21
1.0
 12
271.00526316906769
 22
47.904978096374244
 13
0.0
 23
0.0
 14
1.0
 24
1.0
 15
0.0
 25
0.0
 16
0.0
 26
0.0
 36
1.0
 17
0.0
 27
0.0
 37
0.0
 40
1028.640642182706
 41
1.747787610619469
 42
50.0
 43
0.0
 44
0.0
 50
0.0
 51
0.0
 71
     0
 72
  1000
 73
     1
 74
     3
 75
     0
 76
     0
 77
     0
 78
     0
  0
ENDTAB
  0
ENDSEC
  0
SECTION
  2
BLOCKS
  0
BLOCK
  8
0
  2
_ORIGIN
 70
     0
 10
0.0
 20
0.0
 30
0.0
  3
_ORIGIN
  1
_ORIGIN
  0
CIRCLE
  8
0
  6
CONTINUOUS
 62
     7
 10
0.0
 20
0.0
 30
0.0
 40
0.5
  0
LINE
  8
0
  6
CONTINUOUS
 62
     7
 10
0.0
 20
0.0
 30
0.0
 11
-1.0
 21
0.0
 31
0.0
  0
ENDBLK
  8
0
  0
ENDSEC
  0
SECTION
  2
ENTITIES
  0
POINT
  8
ARRANGE
  6
CONTINUOUS
 62
     1
 10
0.0
 20
0.0
 30
0.0
  0
TEXT
  8
ETC
  6
CONTINUOUS
 62
    61
 10
344.87539504366401
 20
494.56101113953241
 30
0.0
 40
64.0
  1
EWF-40ETA40A2_6
 41
0.9
  0
TEXT
  8
ETC
  6
CONTINUOUS
 62
    61
 10
340.68940104366362
 20
376.60570112470168
 30
0.0
 40
64.0
  1
産業扇
 41
0.9
  0
TEXT
  8
ETC
  6
CONTINUOUS
 62
    61
 10
391.39079929221953
 20
268.45692823847639
 30
0.0
 40
40.0
  1
EWF-40ETA40A2
 41
0.9
  0
LINE
  8
SIZE
  6
CONTINUOUS
 62
    30
 10
-259.99999722098443
 20
18.5
 30
0.0
 11
-259.99999722098443
 21
264.96668498765212
 31
0.0
  0
LINE
  8
SIZE
  6
CONTINUOUS
 62
    30
 10
259.9912425583293
 20
18.65911678100133
 30
0.0
 11
259.9912425583293
 21
264.96668498765212
 31
0.0
  0
LINE
  8
SIZE
  6
CONTINUOUS
 62
    30
 10
-247.9999972209844
 20
244.96668498765209
 30
0.0
 11
247.9912425583293
 21
244.96668498765209
 31
0.0
  0
CIRCLE
  8
SIZE
  6
CONTINUOUS
 62
    30
 10
-259.99999722098443
 20
244.96668498765209
 30
0.0
 40
6.0
  0
LINE
  8
SIZE
  6
CONTINUOUS
 62
    30
 10
-259.99999722098443
 20
244.96668498765209
 30
0.0
 11
-247.9999972209844
 21
244.96668498765209
 31
0.0
  0
CIRCLE
  8
SIZE
  6
CONTINUOUS
 62
    30
 10
259.9912425583293
 20
244.96668498765209
 30
0.0
 40
6.0
  0
LINE
  8
SIZE
  6
CONTINUOUS
 62
    30
 10
259.9912425583293
 20
244.96668498765209
 30
0.0
 11
247.9912425583293
 21
244.96668498765209
 31
0.0
  0
TEXT
  8
SIZE
  6
CONTINUOUS
 62
    30
 10
-74.057142857371588
 20
269.96668498765212
 30
0.0
 40
64.0
  1
520
 41
0.9
 72
     1
 11
-0.0000000002287379
 21
269.96668498765212
 31
0.0
  0
POINT
  8
DEFPOINTS
  6
CONTINUOUS
 62
    30
 10
-259.99999722098443
 20
-1.5
 30
0.0
  0
POINT
  8
DEFPOINTS
  6
CONTINUOUS
 62
    30
 10
259.9912425583293
 20
-1.3408832189986699
 30
0.0
  0
POINT
  8
DEFPOINTS
  6
CONTINUOUS
 62
    30
 10
259.9912425583293
 20
244.96668498765209
 30
0.0
  0
LINE
  8
SIZE
  6
CONTINUOUS
 62
    30
 10
-230.4431599229288
 20
34.486821293642492
 30
0.0
 11
-230.4431599229288
 21
151.39419561661629
 31
0.0
  0
LINE
  8
SIZE
  6
CONTINUOUS
 62
    30
 10
230.4431599229288
 20
34.486821293642492
 30
0.0
 11
230.4431599229288
 21
151.39419561661629
 31
0.0
  0
LINE
  8
SIZE
  6
CONTINUOUS
 62
    30
 10
-218.4431599229288
 20
131.39419561661629
 30
0.0
 11
218.4431599229288
 21
131.39419561661629
 31
0.0
  0
CIRCLE
  8
SIZE
  6
CONTINUOUS
 62
    30
 10
-230.4431599229288
 20
131.39419561661629
 30
0.0
 40
6.0
  0
LINE
  8
SIZE
  6
CONTINUOUS
 62
    30
 10
-230.4431599229288
 20
131.39419561661629
 30
0.0
 11
-218.4431599229288
 21
131.39419561661629
 31
0.0
  0
CIRCLE
  8
SIZE
  6
CONTINUOUS
 62
    30
 10
230.4431599229288
 20
131.39419561661629
 30
0.0
 40
6.0
  0
LINE
  8
SIZE
  6
CONTINUOUS
 62
    30
 10
230.4431599229288
 20
131.39419561661629
 30
0.0
 11
218.4431599229288
 21
131.39419561661629
 31
0.0
  0
TEXT
  8
SIZE
  6
CONTINUOUS
 62
    30
 10
-74.05714285714285
 20
156.39419561661629
 30
0.0
 40
64.0
  1
460
 41
0.9
 72
     1
 11
0.0
 21
156.39419561661629
 31
0.0
  0
POINT
  8
DEFPOINTS
  6
CONTINUOUS
 62
    30
 10
-230.4431599229288
 20
14.486821293642491
 30
0.0
  0
POINT
  8
DEFPOINTS
  6
CONTINUOUS
 62
    30
 10
230.4431599229288
 20
14.486821293642491
 30
0.0
  0
POINT
  8
DEFPOINTS
  6
CONTINUOUS
 62
    30
 10
230.4431599229288
 20
131.39419561661629
 30
0.0
  0
CIRCLE
  8
FIX
  6
CONTINUOUS
 62
    11
 10
-230.4431599229288
 20
0.247200003400053
 30
0.0
 40
7.0
  0
CIRCLE
  8
FIX
  6
CONTINUOUS
 62
    11
 10
230.4431599229288
 20
0.0
 30
0.0
 40
7.0
  0
LINE
  8
SIZE
  6
CONTINUOUS
 62
    30
 10
278.49710982658962
 20
0.0
 30
0.0
 11
404.81452190754771
 21
0.0
 31
0.0
  0
LINE
  8
SIZE
  6
CONTINUOUS
 62
    30
 10
273.38728323699428
 20
-10.019267822735969
 30
0.0
 11
404.81452190754771
 21
-10.019267822736079
 31
0.0
  0
LINE
  8
SIZE
  6
CONTINUOUS
 62
    30
 10
384.81452190754771
 20
-22.019267822736079
 30
0.0
 11
384.81452190754771
 21
-34.019267822735969
 31
0.0
  0
LINE
  8
SIZE
  6
CONTINUOUS
 62
    30
 10
384.81452190754771
 20
12.0
 30
0.0
 11
384.81452190754771
 21
156.28571428571419
 31
0.0
  0
LINE
  8
SIZE
  6
CONTINUOUS
 62
    30
 10
384.81452190754771
 20
-10.019267822736079
 30
0.0
 11
384.81452190754771
 21
0.0
 31
0.0
  0
CIRCLE
  8
SIZE
  6
CONTINUOUS
 62
    30
 10
384.81452190754771
 20
-10.019267822736079
 30
0.0
 40
6.0
  0
LINE
  8
SIZE
  6
CONTINUOUS
 62
    30
 10
384.81452190754771
 20
-10.019267822736079
 30
0.0
 11
384.81452190754771
 21
-22.019267822736079
 31
0.0
  0
CIRCLE
  8
SIZE
  6
CONTINUOUS
 62
    30
 10
384.81452190754771
 20
0.0
 30
0.0
 40
6.0
  0
LINE
  8
SIZE
  6
CONTINUOUS
 62
    30
 10
384.81452190754771
 20
0.0
 30
0.0
 11
384.81452190754771
 21
12.0
 31
0.0
  0
TEXT
  8
SIZE
  6
CONTINUOUS
 62
    30
 10
359.81452190754771
 20
49.000000000000092
 30
0.0
 40
64.0
  1
10
 50
90.0
 41
0.9
 72
     1
 11
359.81452190754771
 21
90.142857142857224
 31
0.0
  0
POINT
  8
DEFPOINTS
  6
CONTINUOUS
 62
    30
 10
258.49710982658962
 20
0.0
 30
0.0
  0
POINT
  8
DEFPOINTS
  6
CONTINUOUS
 62
    30
 10
253.38728323699431
 20
-10.019267822735969
 30
0.0
  0
POINT
  8
DEFPOINTS
  6
CONTINUOUS
 62
    30
 10
384.81452190754771
 20
-10.019267822736079
 30
0.0
  0
LINE
  8
SIZE
  6
CONTINUOUS
 62
    30
 10
273.38728323699428
 20
-10.019267822735969
 30
0.0
 11
404.81452190754771
 21
-10.019267822736079
 31
0.0
  0
LINE
  8
SIZE
  6
CONTINUOUS
 62
    30
 10
263.36801541425802
 20
-20.038535645471939
 30
0.0
 11
404.81452190754771
 21
-20.038535645471939
 31
0.0
  0
LINE
  8
SIZE
  6
CONTINUOUS
 62
    30
 10
384.81452190754771
 20
1.980732177263917
 30
0.0
 11
384.81452190754771
 21
13.980732177263921
 31
0.0
  0
LINE
  8
SIZE
  6
CONTINUOUS
 62
    30
 10
384.81452190754771
 20
-32.038535645471939
 30
0.0
 11
384.81452190754771
 21
-257.26694449511137
 31
0.0
  0
LINE
  8
SIZE
  6
CONTINUOUS
 62
    30
 10
384.81452190754771
 20
-10.019267822736079
 30
0.0
 11
384.81452190754771
 21
-20.038535645471939
 31
0.0
  0
CIRCLE
  8
SIZE
  6
CONTINUOUS
 62
    30
 10
384.81452190754771
 20
-10.019267822736079
 30
0.0
 40
6.0
  0
LINE
  8
SIZE
  6
CONTINUOUS
 62
    30
 10
384.81452190754771
 20
-10.019267822736079
 30
0.0
 11
384.81452190754771
 21
1.980732177263917
 31
0.0
  0
CIRCLE
  8
SIZE
  6
CONTINUOUS
 62
    30
 10
384.81452190754771
 20
-20.038535645471939
 30
0.0
 40
6.0
  0
LINE
  8
SIZE
  6
CONTINUOUS
 62
    30
 10
384.81452190754771
 20
-20.038535645471939
 30
0.0
 11
384.81452190754771
 21
-32.038535645471939
 31
0.0
  0
TEXT
  8
SIZE
  6
CONTINUOUS
 62
    30
 10
359.81452190754771
 20
-232.2669444951112
 30
0.0
 40
64.0
  1
10
 50
90.0
 41
0.9
 72
     1
 11
359.81452190754771
 21
-191.12408735225409
 31
0.0
  0
POINT
  8
DEFPOINTS
  6
CONTINUOUS
 62
    30
 10
253.38728323699431
 20
-10.019267822735969
 30
0.0
  0
POINT
  8
DEFPOINTS
  6
CONTINUOUS
 62
    30
 10
243.368015414258
 20
-20.038535645471939
 30
0.0
  0
POINT
  8
DEFPOINTS
  6
CONTINUOUS
 62
    30
 10
384.81452190754771
 20
-20.038535645471939
 30
0.0
  0
LINE
  8
SIZE
  6
CONTINUOUS
 62
    30
 10
278.49710982658962
 20
0.0
 30
0.0
 11
531.55286783170322
 21
0.0
 31
0.0
  0
LINE
  8
SIZE
  6
CONTINUOUS
 62
    30
 10
258.33333333333331
 20
-99.591522157995996
 30
0.0
 11
531.55286783170322
 21
-99.591522157995996
 31
0.0
  0
LINE
  8
SIZE
  6
CONTINUOUS
 62
    30
 10
511.55286783170322
 20
-12.0
 30
0.0
 11
511.55286783170322
 21
-87.591522157995996
 31
0.0
  0
LINE
  8
SIZE
  6
CONTINUOUS
 62
    30
 10
511.55286783170322
 20
-99.591522157995996
 30
0.0
 11
511.55286783170322
 21
-275.42009358656748
 31
0.0
  0
CIRCLE
  8
SIZE
  6
CONTINUOUS
 62
    30
 10
511.55286783170322
 20
0.0
 30
0.0
 40
6.0
  0
LINE
  8
SIZE
  6
CONTINUOUS
 62
    30
 10
511.55286783170322
 20
0.0
 30
0.0
 11
511.55286783170322
 21
-12.0
 31
0.0
  0
CIRCLE
  8
SIZE
  6
CONTINUOUS
 62
    30
 10
511.55286783170322
 20
-99.591522157995996
 30
0.0
 40
6.0
  0
LINE
  8
SIZE
  6
CONTINUOUS
 62
    30
 10
511.55286783170322
 20
-99.591522157995996
 30
0.0
 11
511.55286783170322
 21
-87.591522157995996
 31
0.0
  0
TEXT
  8
SIZE
  6
CONTINUOUS
 62
    30
 10
486.55286783170322
 20
-250.42009358656739
 30
0.0
 40
64.0
  1
99
 50
90.0
 41
0.9
 72
     1
 11
486.55286783170322
 21
-205.16295072942461
 31
0.0
  0
POINT
  8
DEFPOINTS
  6
CONTINUOUS
 62
    30
 10
258.49710982658962
 20
0.0
 30
0.0
  0
POINT
  8
DEFPOINTS
  6
CONTINUOUS
 62
    30
 10
238.33333333333329
 20
-99.591522157995996
 30
0.0
  0
POINT
  8
DEFPOINTS
  6
CONTINUOUS
 62
    30
 10
511.55286783170322
 20
-99.591522157995996
 30
0.0
  0
TEXT
  8
NOTE
  6
CONTINUOUS
 62
     4
 10
-577.23322031510793
 20
89.813382410918052
 30
0.0
 40
64.0
  1
4-φ14
 41
0.9
  0
LINE
  8
SIZE
  6
CONTINUOUS
 62
    30
 10
-278.49710982658962
 20
0.0
 30
0.0
 11
-383.81931770129682
 21
0.0
 31
0.0
  0
LINE
  8
SIZE
  6
CONTINUOUS
 62
    30
 10
-19.917622206577111
 20
-291.22396399236987
 30
0.0
 11
-383.81931770129682
 21
-291.22396399236987
 31
0.0
  0
LINE
  8
SIZE
  6
CONTINUOUS
 62
    30
 10
-363.81931770129682
 20
-12.0
 30
0.0
 11
-363.81931770129682
 21
-279.22396399236987
 31
0.0
  0
CIRCLE
  8
SIZE
  6
CONTINUOUS
 62
    30
 10
-363.81931770129682
 20
0.0
 30
0.0
 40
6.0
  0
LINE
  8
SIZE
  6
CONTINUOUS
 62
    30
 10
-363.81931770129682
 20
0.0
 30
0.0
 11
-363.81931770129682
 21
-12.0
 31
0.0
  0
CIRCLE
  8
SIZE
  6
CONTINUOUS
 62
    30
 10
-363.81931770129682
 20
-291.22396399236987
 30
0.0
 40
6.0
  0
LINE
  8
SIZE
  6
CONTINUOUS
 62
    30
 10
-363.81931770129682
 20
-291.22396399236987
 30
0.0
 11
-363.81931770129682
 21
-279.22396399236987
 31
0.0
  0
TEXT
  8
SIZE
  6
CONTINUOUS
 62
    30
 10
-388.81931770129682
 20
-207.32626771047069
 30
0.0
 40
64.0
  1
291
 50
90.0
 41
0.9
 72
     1
 11
-388.81931770129682
 21
-145.61198199618499
 31
0.0
  0
POINT
  8
DEFPOINTS
  6
CONTINUOUS
 62
    30
 10
-258.49710982658962
 20
0.0
 30
0.0
  0
POINT
  8
DEFPOINTS
  6
CONTINUOUS
 62
    30
 10
0.0823777934228929
 20
-291.22396399236987
 30
0.0
  0
POINT
  8
DEFPOINTS
  6
CONTINUOUS
 62
    30
 10
-363.81931770129682
 20
-291.22396399236987
 30
0.0
  0
LINE
  8
NOTE
  6
CONTINUOUS
 62
     4
 10
-233.1479144340901
 20
5.7438390598275646
 30
0.0
 11
-230.38451579445791
 21
0.1807169823895265
 31
0.0
  0
LINE
  8
NOTE
  6
CONTINUOUS
 62
     4
 10
-230.38451579445791
 20
0.1807169823895265
 30
0.0
 11
-235.55925543389409
 21
3.6168149079512659
 31
0.0
  0
LINE
  8
NOTE
  6
CONTINUOUS
 62
     4
 10
-230.38451579445791
 20
0.1807169823895265
 30
0.0
 11
-238.32265407352631
 21
9.179936985389304
 31
0.0
  0
LINE
  8
NOTE
  6
CONTINUOUS
 62
     4
 10
-238.32265407352611
 20
9.179936985389304
 30
0.0
 11
-286.48810867395952
 21
63.783611960005032
 31
0.0
  0
LINE
  8
NOTE
  6
CONTINUOUS
 62
     4
 10
-286.48810867395952
 20
63.783611960005032
 30
0.0
 11
-584.35667091899359
 21
63.945066809185391
 31
0.0
  0
LINE
  8
OUTLINE
  6
CONTINUOUS
 62
     3
 10
-256.99421965317919
 20
-6.4123314065507202
 30
0.0
 11
-256.99421965317919
 21
-3.0057803468209841
 31
0.0
  0
LINE
  8
OUTLINE
  6
CONTINUOUS
 62
     3
 10
-246.9749518304429
 20
-16.4315992292868
 30
0.0
 11
-246.9749518304429
 21
-13.89435725155761
 31
0.0
  0
LINE
  8
OUTLINE
  6
CONTINUOUS
 62
     3
 10
-206.53232368060461
 20
-160.30828516377619
 30
0.0
 11
-206.53232368060461
 21
-20.038535645472049
 31
0.0
  0
LINE
  8
OUTLINE
  6
CONTINUOUS
 62
     3
 10
-4.7090558766860804
 20
-289.15606936416168
 30
0.0
 11
4.7090558766858521
 21
-289.15606936416168
 31
0.0
  0
LINE
  8
OUTLINE
  6
CONTINUOUS
 62
     3
 10
57.911368015414148
 20
-288.65510597302489
 30
0.0
 11
-57.911368015414382
 21
-288.65510597302489
 31
0.0
  0
LINE
  8
OUTLINE
  6
CONTINUOUS
 62
     3
 10
89.672447013487499
 20
-266.51252408477842
 30
0.0
 11
65.325626204238915
 21
-266.51252408477842
 31
0.0
  0
LINE
  8
OUTLINE
  6
CONTINUOUS
 62
     3
 10
-134.26846303665889
 20
-262.50481695568391
 30
0.0
 11
-89.672447013487499
 21
-262.50481695568391
 31
0.0
  0
LINE
  8
OUTLINE
  6
CONTINUOUS
 62
     3
 10
89.672447013487499
 20
-262.50481695568391
 30
0.0
 11
131.08035153794211
 21
-262.50481695550008
 31
0.0
  0
LINE
  8
OUTLINE
  6
CONTINUOUS
 62
     3
 10
-89.672447013487499
 20
-266.51252408477842
 30
0.0
 11
-89.672447013487499
 21
-262.50481695568391
 31
0.0
  0
LINE
  8
OUTLINE
  6
CONTINUOUS
 62
     3
 10
-65.325626204239143
 20
-281.24084778420018
 30
0.0
 11
-65.325626204239143
 21
-266.51252408477842
 31
0.0
  0
LINE
  8
OUTLINE
  6
CONTINUOUS
 62
     3
 10
-4.7090558766860804
 20
-289.15606936416168
 30
0.0
 11
-4.7090558766860804
 21
-288.65510597302489
 31
0.0
  0
LINE
  8
OUTLINE
  6
CONTINUOUS
 62
     3
 10
4.7090558766858521
 20
-289.15606936416168
 30
0.0
 11
4.7090558766858521
 21
-288.65510597302489
 31
0.0
  0
LINE
  8
OUTLINE
  6
CONTINUOUS
 62
     3
 10
-238.33333333333351
 20
-99.591522157995882
 30
0.0
 11
-206.53232368060461
 21
-99.591522157995882
 31
0.0
  0
LINE
  8
OUTLINE
  6
CONTINUOUS
 62
     3
 10
206.53232368060429
 20
-99.591522157995882
 30
0.0
 11
238.33333333333329
 21
-99.591522157995882
 31
0.0
  0
LINE
  8
OUTLINE
  6
CONTINUOUS
 62
     3
 10
-238.33333333333351
 20
-95.58381502890154
 30
0.0
 11
-206.53232368060461
 21
-95.58381502890154
 31
0.0
  0
LINE
  8
OUTLINE
  6
CONTINUOUS
 62
     3
 10
206.53232368060429
 20
-95.58381502890154
 30
0.0
 11
238.33333333333329
 21
-95.58381502890154
 31
0.0
  0
LINE
  8
OUTLINE
  6
CONTINUOUS
 62
     3
 10
209.43116466766739
 20
-78.901734104046
 30
0.0
 11
207.01572659314891
 21
-78.901734104046
 31
0.0
  0
LINE
  8
OUTLINE
  6
CONTINUOUS
 62
     3
 10
209.43116466766739
 20
-75.394990366088564
 30
0.0
 11
206.53232368060429
 21
-75.394990366088564
 31
0.0
  0
LINE
  8
OUTLINE
  6
CONTINUOUS
 62
     3
 10
65.325626204238915
 20
-281.24084778420018
 30
0.0
 11
65.325626204238915
 21
-266.51252408477842
 31
0.0
  0
LINE
  8
OUTLINE
  6
CONTINUOUS
 62
     3
 10
89.672447013487499
 20
-266.51252408477842
 30
0.0
 11
89.672447013487499
 21
-262.50481695568391
 31
0.0
  0
LINE
  8
OUTLINE
  6
CONTINUOUS
 62
     3
 10
243.368015414258
 20
-20.038535645472049
 30
0.0
 11
206.53232368060429
 21
-20.038535645472049
 31
0.0
  0
LINE
  8
OUTLINE
  6
CONTINUOUS
 62
     3
 10
-206.53232368060461
 20
-20.038535645472049
 30
0.0
 11
-243.36801541425831
 21
-20.038535645472049
 31
0.0
  0
LINE
  8
OUTLINE
  6
CONTINUOUS
 62
     3
 10
253.38728323699411
 20
-10.019267822736079
 30
0.0
 11
250.1758680125115
 21
-10.019267822736079
 31
0.0
  0
LINE
  8
OUTLINE
  6
CONTINUOUS
 62
     3
 10
-250.1758680125115
 20
-10.019267822736079
 30
0.0
 11
-253.38728323699431
 21
-10.019267822736079
 31
0.0
  0
LINE
  8
OUTLINE
  6
CONTINUOUS
 62
     3
 10
258.49710982658962
 20
-3.0057803468209841
 30
0.0
 11
256.99421965317902
 21
-3.0057803468209841
 31
0.0
  0
LINE
  8
OUTLINE
  6
CONTINUOUS
 62
     3
 10
258.49710982658962
 20
0.0
 30
0.0
 11
-258.49710982658962
 21
0.0
 31
0.0
  0
LINE
  8
OUTLINE
  6
CONTINUOUS
 62
     3
 10
207.19673085749309
 20
-78.901734104046
 30
0.0
 11
207.90520007947339
 21
-77.899807321772641
 31
0.0
  0
LINE
  8
OUTLINE
  6
CONTINUOUS
 62
     3
 10
206.53232368060429
 20
-20.038535645472049
 30
0.0
 11
206.53232368060429
 21
-160.30828516377619
 31
0.0
  0
LINE
  8
OUTLINE
  6
CONTINUOUS
 62
     3
 10
207.90520007947339
 20
-76.396917148362263
 30
0.0
 11
207.90520007947339
 21
-77.899807321772641
 31
0.0
  0
LINE
  8
OUTLINE
  6
CONTINUOUS
 62
     3
 10
209.43117939273819
 20
-75.394990366088564
 30
0.0
 11
209.43117939273819
 21
-78.901734104046
 31
0.0
  0
LINE
  8
OUTLINE
  6
CONTINUOUS
 62
     3
 10
207.90520007947339
 20
-76.396917148362263
 30
0.0
 11
207.19673085749309
 21
-75.394990366088564
 31
0.0
  0
LINE
  8
OUTLINE
  6
CONTINUOUS
 62
     3
 10
246.97495183044319
 20
-13.89435725155761
 30
0.0
 11
246.97495183044319
 21
-16.4315992292868
 31
0.0
  0
LINE
  8
OUTLINE
  6
CONTINUOUS
 62
     3
 10
256.99421965317902
 20
-3.0057803468209841
 30
0.0
 11
256.99421965317902
 21
-6.4123314065507202
 31
0.0
  0
ARC
  8
OUTLINE
  6
CONTINUOUS
 62
     3
 10
-57.911368015414382
 20
-281.24084778420018
 30
0.0
 40
7.4142581888247028
 50
180.0
 51
270.0
  0
ARC
  8
OUTLINE
  6
CONTINUOUS
 62
     3
 10
-253.38728323699431
 20
-6.4123314065507202
 30
0.0
 40
3.606936416184908
 50
180.0
 51
270.0
  0
ARC
  8
OUTLINE
  6
CONTINUOUS
 62
     3
 10
-243.36801541425831
 20
-16.4315992292868
 30
0.0
 40
3.606936416184908
 50
180.0
 51
270.0
  0
ARC
  8
OUTLINE
  6
CONTINUOUS
 62
     3
 10
-238.33333333333351
 20
-97.587668593448825
 30
0.0
 40
2.0038535645472839
 50
90.0
 51
270.0
  0
ARC
  8
OUTLINE
  6
CONTINUOUS
 62
     3
 10
-258.49710982658962
 20
-1.5028901734103779
 30
0.0
 40
1.502890173410377
 50
90.0
 51
270.0
  0
ARC
  8
OUTLINE
  6
CONTINUOUS
 62
     3
 10
57.911368015414148
 20
-281.24084778420018
 30
0.0
 40
7.4142581888247614
 50
270.0
 51
0.0
  0
ARC
  8
OUTLINE
  6
CONTINUOUS
 62
     3
 10
0.0
 20
-284.6248554913293
 30
0.0
 40
6.5350674373797437
 50
223.89739816710619
 51
316.10260183289381
  0
ARC
  8
OUTLINE
  6
CONTINUOUS
 62
     3
 10
243.368015414258
 20
-16.4315992292868
 30
0.0
 40
3.606936416185023
 50
270.0
 51
0.0
  0
ARC
  8
OUTLINE
  6
CONTINUOUS
 62
     3
 10
253.38728323699411
 20
-6.4123314065507202
 30
0.0
 40
3.606936416184793
 50
270.0
 51
0.0
  0
ARC
  8
OUTLINE
  6
CONTINUOUS
 62
     3
 10
238.33333333333329
 20
-97.587668593448825
 30
0.0
 40
2.0038535645470561
 50
270.0
 51
90.0
  0
ARC
  8
OUTLINE
  6
CONTINUOUS
 62
     3
 10
258.49710982658962
 20
-1.5028901734103779
 30
0.0
 40
1.502890173410377
 50
270.0
 51
90.0
  0
LINE
  8
OUTLINE
  6
CONTINUOUS
 62
     3
 10
1.5232088276154629
 20
-290.79468337742401
 30
0.0
 11
1.5047595783680661
 21
-290.80300158206848
 31
0.0
  0
LINE
  8
OUTLINE
  6
CONTINUOUS
 62
     3
 10
1.5047595783680661
 20
-290.80300158206848
 30
0.0
 11
1.4863313201174151
 21
-290.81132032424989
 31
0.0
  0
LINE
  8
OUTLINE
  6
CONTINUOUS
 62
     3
 10
1.4863313201174151
 20
-290.81132032424989
 30
0.0
 11
1.4863313201174151
 21
-290.81132032424989
 31
0.0
  0
LINE
  8
OUTLINE
  6
CONTINUOUS
 62
     3
 10
1.4863313201174151
 20
-290.81132032424989
 30
0.0
 11
1.467925158871594
 21
-290.81964496111772
 31
0.0
  0
LINE
  8
OUTLINE
  6
CONTINUOUS
 62
     3
 10
1.467925158871594
 20
-290.81964496111772
 30
0.0
 11
1.4494626606858669
 21
-290.82800012827431
 31
0.0
  0
LINE
  8
OUTLINE
  6
CONTINUOUS
 62
     3
 10
1.4494626606858669
 20
-290.82800012827431
 30
0.0
 11
1.4494626606858669
 21
-290.82800012827431
 31
0.0
  0
LINE
  8
OUTLINE
  6
CONTINUOUS
 62
     3
 10
1.4494626606858669
 20
-290.82800012827431
 30
0.0
 11
1.4309222815618341
 21
-290.83638260960993
 31
0.0
  0
LINE
  8
OUTLINE
  6
CONTINUOUS
 62
     3
 10
1.4309222815618341
 20
-290.83638260960993
 30
0.0
 11
1.412589577238577
 21
-290.84465850371652
 31
0.0
  0
LINE
  8
OUTLINE
  6
CONTINUOUS
 62
     3
 10
1.412589577238577
 20
-290.84465850371652
 30
0.0
 11
1.412589577238577
 21
-290.84465850371652
 31
0.0
  0
LINE
  8
OUTLINE
  6
CONTINUOUS
 62
     3
 10
1.412589577238577
 20
-290.84465850371652
 30
0.0
 11
1.394539663639534
 21
-290.85278710354692
 31
0.0
  0
LINE
  8
OUTLINE
  6
CONTINUOUS
 62
     3
 10
1.394539663639534
 20
-290.85278710354692
 30
0.0
 11
1.3756987976926209
 21
-290.86123116479638
 31
0.0
  0
LINE
  8
OUTLINE
  6
CONTINUOUS
 62
     3
 10
1.3756987976926209
 20
-290.86123116479638
 30
0.0
 11
1.3756987976926209
 21
-290.86123116479638
 31
0.0
  0
LINE
  8
OUTLINE
  6
CONTINUOUS
 62
     3
 10
1.3756987976926209
 20
-290.86123116479638
 30
0.0
 11
1.355778105637683
 21
-290.87010851742679
 31
0.0
  0
LINE
  8
OUTLINE
  6
CONTINUOUS
 62
     3
 10
1.355778105637683
 20
-290.87010851742679
 30
0.0
 11
1.3387770499657561
 21
-290.8776538257332
 31
0.0
  0
LINE
  8
OUTLINE
  6
CONTINUOUS
 62
     3
 10
1.3387770499657561
 20
-290.8776538257332
 30
0.0
 11
1.3387770499657561
 21
-290.8776538257332
 31
0.0
  0
LINE
  8
OUTLINE
  6
CONTINUOUS
 62
     3
 10
1.3387770499657561
 20
-290.8776538257332
 30
0.0
 11
1.328077038081346
 21
-290.88237814810708
 31
0.0
  0
LINE
  8
OUTLINE
  6
CONTINUOUS
 62
     3
 10
1.328077038081346
 20
-290.88237814810708
 30
0.0
 11
1.3202989207998139
 21
-290.88578128500279
 31
0.0
  0
LINE
  8
OUTLINE
  6
CONTINUOUS
 62
     3
 10
1.3202989207998139
 20
-290.88578128500279
 30
0.0
 11
1.3202989207998139
 21
-290.88578128500279
 31
0.0
  0
LINE
  8
OUTLINE
  6
CONTINUOUS
 62
     3
 10
1.3202989207998139
 20
-290.88578128500279
 30
0.0
 11
1.3114443957372259
 21
-290.88963397236438
 31
0.0
  0
LINE
  8
OUTLINE
  6
CONTINUOUS
 62
     3
 10
1.3114443957372259
 20
-290.88963397236438
 30
0.0
 11
1.3017991043061561
 21
-290.89380194603848
 31
0.0
  0
LINE
  8
OUTLINE
  6
CONTINUOUS
 62
     3
 10
1.3017991043061561
 20
-290.89380194603848
 30
0.0
 11
1.3017991043061561
 21
-290.89380194603848
 31
0.0
  0
LINE
  8
OUTLINE
  6
CONTINUOUS
 62
     3
 10
1.3017991043061561
 20
-290.89380194603848
 30
0.0
 11
1.292432704047314
 21
-290.89780230265632
 31
0.0
  0
LINE
  8
OUTLINE
  6
CONTINUOUS
 62
     3
 10
1.292432704047314
 20
-290.89780230265632
 30
0.0
 11
1.2832669732219979
 21
-290.90166258208723
 31
0.0
  0
LINE
  8
OUTLINE
  6
CONTINUOUS
 62
     3
 10
1.2832669732219979
 20
-290.90166258208723
 30
0.0
 11
1.2832669732219979
 21
-290.90166258208723
 31
0.0
  0
LINE
  8
OUTLINE
  6
CONTINUOUS
 62
     3
 10
1.2832669732219979
 20
-290.90166258208723
 30
0.0
 11
1.2740136136019371
 21
-290.90550374179628
 31
0.0
  0
LINE
  8
OUTLINE
  6
CONTINUOUS
 62
     3
 10
1.2740136136019371
 20
-290.90550374179628
 30
0.0
 11
1.26469190028547
 21
-290.90930996639548
 31
0.0
  0
LINE
  8
OUTLINE
  6
CONTINUOUS
 62
     3
 10
1.26469190028547
 20
-290.90930996639548
 30
0.0
 11
1.26469190028547
 21
-290.90930996639548
 31
0.0
  0
LINE
  8
OUTLINE
  6
CONTINUOUS
 62
     3
 10
1.26469190028547
 20
-290.90930996639548
 30
0.0
 11
1.255377398196742
 21
-290.91304040932772
 31
0.0
  0
LINE
  8
OUTLINE
  6
CONTINUOUS
 62
     3
 10
1.255377398196742
 20
-290.91304040932772
 30
0.0
 11
1.2460632582346991
 21
-290.91669087221089
 31
0.0
  0
LINE
  8
OUTLINE
  6
CONTINUOUS
 62
     3
 10
1.2460632582346991
 20
-290.91669087221089
 30
0.0
 11
1.2460632582346991
 21
-290.91669087221089
 31
0.0
  0
LINE
  8
OUTLINE
  6
CONTINUOUS
 62
     3
 10
1.2460632582346991
 20
-290.91669087221089
 30
0.0
 11
1.236728157589823
 21
-290.92026696002063
 31
0.0
  0
LINE
  8
OUTLINE
  6
CONTINUOUS
 62
     3
 10
1.236728157589823
 20
-290.92026696002063
 30
0.0
 11
1.227375292638953
 21
-290.92377684298708
 31
0.0
  0
LINE
  8
OUTLINE
  6
CONTINUOUS
 62
     3
 10
1.227375292638953
 20
-290.92377684298708
 30
0.0
 11
1.227375292638953
 21
-290.92377684298708
 31
0.0
  0
LINE
  8
OUTLINE
  6
CONTINUOUS
 62
     3
 10
1.227375292638953
 20
-290.92377684298708
 30
0.0
 11
1.2180125102911461
 21
-290.92722999046038
 31
0.0
  0
LINE
  8
OUTLINE
  6
CONTINUOUS
 62
     3
 10
1.2180125102911461
 20
-290.92722999046038
 30
0.0
 11
1.2086417403945691
 21
-290.9306385030095
 31
0.0
  0
LINE
  8
OUTLINE
  6
CONTINUOUS
 62
     3
 10
1.2086417403945691
 20
-290.9306385030095
 30
0.0
 11
1.2086417403945691
 21
-290.9306385030095
 31
0.0
  0
LINE
  8
OUTLINE
  6
CONTINUOUS
 62
     3
 10
1.2086417403945691
 20
-290.9306385030095
 30
0.0
 11
1.199263829900246
 21
-290.93401496275249
 31
0.0
  0
LINE
  8
OUTLINE
  6
CONTINUOUS
 62
     3
 10
1.199263829900246
 20
-290.93401496275249
 30
0.0
 11
1.189881211230158
 21
-290.93737124677102
 31
0.0
  0
LINE
  8
OUTLINE
  6
CONTINUOUS
 62
     3
 10
1.189881211230158
 20
-290.93737124677102
 30
0.0
 11
1.189881211230158
 21
-290.93737124677102
 31
0.0
  0
LINE
  8
OUTLINE
  6
CONTINUOUS
 62
     3
 10
1.189881211230158
 20
-290.93737124677102
 30
0.0
 11
1.1804966069685181
 21
-290.94071910311959
 31
0.0
  0
LINE
  8
OUTLINE
  6
CONTINUOUS
 62
     3
 10
1.1804966069685181
 20
-290.94071910311959
 30
0.0
 11
1.1711123148734259
 21
-290.94407046876358
 31
0.0
  0
LINE
  8
OUTLINE
  6
CONTINUOUS
 62
     3
 10
1.1711123148734259
 20
-290.94407046876358
 30
0.0
 11
1.1711123148734259
 21
-290.94407046876358
 31
0.0
  0
LINE
  8
OUTLINE
  6
CONTINUOUS
 62
     3
 10
1.1711123148734259
 20
-290.94407046876358
 30
0.0
 11
1.1617305549548289
 21
-290.94743731524278
 31
0.0
  0
LINE
  8
OUTLINE
  6
CONTINUOUS
 62
     3
 10
1.1617305549548289
 20
-290.94743731524278
 30
0.0
 11
1.152353661052985
 21
-290.95083156347908
 31
0.0
  0
LINE
  8
OUTLINE
  6
CONTINUOUS
 62
     3
 10
1.152353661052985
 20
-290.95083156347908
 30
0.0
 11
1.152353661052985
 21
-290.95083156347908
 31
0.0
  0
LINE
  8
OUTLINE
  6
CONTINUOUS
 62
     3
 10
1.152353661052985
 20
-290.95083156347908
 30
0.0
 11
1.142983266536248
 21
-290.95426119344802
 31
0.0
  0
LINE
  8
OUTLINE
  6
CONTINUOUS
 62
     3
 10
1.142983266536248
 20
-290.95426119344802
 30
0.0
 11
1.133618089042784
 21
-290.95771847196642
 31
0.0
  0
LINE
  8
OUTLINE
  6
CONTINUOUS
 62
     3
 10
1.133618089042784
 20
-290.95771847196642
 30
0.0
 11
1.133618089042784
 21
-290.95771847196642
 31
0.0
  0
LINE
  8
OUTLINE
  6
CONTINUOUS
 62
     3
 10
1.133618089042784
 20
-290.95771847196642
 30
0.0
 11
1.124256119323263
 21
-290.96119173665193
 31
0.0
  0
LINE
  8
OUTLINE
  6
CONTINUOUS
 62
     3
 10
1.124256119323263
 20
-290.96119173665193
 30
0.0
 11
1.1148953563001669
 21
-290.96466932148928
 31
0.0
  0
LINE
  8
OUTLINE
  6
CONTINUOUS
 62
     3
 10
1.1148953563001669
 20
-290.96466932148928
 30
0.0
 11
1.1148953563001669
 21
-290.96466932148928
 31
0.0
  0
LINE
  8
OUTLINE
  6
CONTINUOUS
 62
     3
 10
1.1148953563001669
 20
-290.96466932148928
 30
0.0
 11
1.105533800392323
 21
-290.96813955979712
 31
0.0
  0
LINE
  8
OUTLINE
  6
CONTINUOUS
 62
     3
 10
1.105533800392323
 20
-290.96813955979712
 30
0.0
 11
1.096169449828039
 21
-290.9715907858689
 31
0.0
  0
LINE
  8
OUTLINE
  6
CONTINUOUS
 62
     3
 10
1.096169449828039
 20
-290.9715907858689
 30
0.0
 11
1.096169449828039
 21
-290.9715907858689
 31
0.0
  0
LINE
  8
OUTLINE
  6
CONTINUOUS
 62
     3
 10
1.096169449828039
 20
-290.9715907858689
 30
0.0
 11
1.0868003024356769
 21
-290.97501133417461
 31
0.0
  0
LINE
  8
OUTLINE
  6
CONTINUOUS
 62
     3
 10
1.0868003024356769
 20
-290.97501133417461
 30
0.0
 11
1.0774243566299899
 21
-290.97838953892449
 31
0.0
  0
LINE
  8
OUTLINE
  6
CONTINUOUS
 62
     3
 10
1.0774243566299899
 20
-290.97838953892449
 30
0.0
 11
1.0774243566299899
 21
-290.97838953892449
 31
0.0
  0
LINE
  8
OUTLINE
  6
CONTINUOUS
 62
     3
 10
1.0774243566299899
 20
-290.97838953892449
 30
0.0
 11
1.068039610932829
 21
-290.98171373428102
 31
0.0
  0
LINE
  8
OUTLINE
  6
CONTINUOUS
 62
     3
 10
1.068039610932829
 20
-290.98171373428102
 30
0.0
 11
1.0586440637089249
 21
-290.9849722544767
 31
0.0
  0
LINE
  8
OUTLINE
  6
CONTINUOUS
 62
     3
 10
1.0586440637089249
 20
-290.9849722544767
 30
0.0
 11
1.0586440637089249
 21
-290.9849722544767
 31
0.0
  0
LINE
  8
OUTLINE
  6
CONTINUOUS
 62
     3
 10
1.0586440637089249
 20
-290.9849722544767
 30
0.0
 11
1.0492361926271769
 21
-290.98815620051482
 31
0.0
  0
LINE
  8
OUTLINE
  6
CONTINUOUS
 62
     3
 10
1.0492361926271769
 20
-290.98815620051482
 30
0.0
 11
1.039816392728881
 21
-290.99126774041679
 31
0.0
  0
LINE
  8
OUTLINE
  6
CONTINUOUS
 62
     3
 10
1.039816392728881
 20
-290.99126774041679
 30
0.0
 11
1.039816392728881
 21
-290.99126774041679
 31
0.0
  0
LINE
  8
OUTLINE
  6
CONTINUOUS
 62
     3
 10
1.039816392728881
 20
-290.99126774041679
 30
0.0
 11
1.030385538395876
 21
-290.99431180895863
 31
0.0
  0
LINE
  8
OUTLINE
  6
CONTINUOUS
 62
     3
 10
1.030385538395876
 20
-290.99431180895863
 30
0.0
 11
1.0209445039981799
 21
-290.99729334092092
 31
0.0
  0
LINE
  8
OUTLINE
  6
CONTINUOUS
 62
     3
 10
1.0209445039981799
 20
-290.99729334092092
 30
0.0
 11
1.0209445039981799
 21
-290.99729334092092
 31
0.0
  0
LINE
  8
OUTLINE
  6
CONTINUOUS
 62
     3
 10
1.0209445039981799
 20
-290.99729334092092
 30
0.0
 11
1.0114941639039901
 21
-291.00021727108572
 31
0.0
  0
LINE
  8
OUTLINE
  6
CONTINUOUS
 62
     3
 10
1.0114941639039901
 20
-291.00021727108572
 30
0.0
 11
1.0020353924846861
 21
-291.00308853423508
 31
0.0
  0
LINE
  8
OUTLINE
  6
CONTINUOUS
 62
     3
 10
1.0020353924846861
 20
-291.00308853423508
 30
0.0
 11
1.0020353924846861
 21
-291.00308853423508
 31
0.0
  0
LINE
  8
OUTLINE
  6
CONTINUOUS
 62
     3
 10
1.0020353924846861
 20
-291.00308853423508
 30
0.0
 11
0.9925690641125584
 21
-291.00591206514832
 31
0.0
  0
LINE
  8
OUTLINE
  6
CONTINUOUS
 62
     3
 10
0.9925690641125584
 20
-291.00591206514832
 30
0.0
 11
0.9830960531580786
 21
-291.00869279860677
 31
0.0
  0
LINE
  8
OUTLINE
  6
CONTINUOUS
 62
     3
 10
0.9830960531580786
 20
-291.00869279860677
 30
0.0
 11
0.9830960531580786
 21
-291.00869279860677
 31
0.0
  0
LINE
  8
OUTLINE
  6
CONTINUOUS
 62
     3
 10
0.9830960531580786
 20
-291.00869279860677
 30
0.0
 11
0.9736172339923996
 21
-291.01143566939118
 31
0.0
  0
LINE
  8
OUTLINE
  6
CONTINUOUS
 62
     3
 10
0.9736172339923996
 20
-291.01143566939118
 30
0.0
 11
0.9641334809866748
 21
-291.01414561228262
 31
0.0
  0
LINE
  8
OUTLINE
  6
CONTINUOUS
 62
     3
 10
0.9641334809866748
 20
-291.01414561228262
 30
0.0
 11
0.9641334809866748
 21
-291.01414561228262
 31
0.0
  0
LINE
  8
OUTLINE
  6
CONTINUOUS
 62
     3
 10
0.9641334809866748
 20
-291.01414561228262
 30
0.0
 11
0.9546456739662972
 21
-291.01682787770739
 31
0.0
  0
LINE
  8
OUTLINE
  6
CONTINUOUS
 62
     3
 10
0.9546456739662972
 20
-291.01682787770739
 30
0.0
 11
0.9451547145754375
 21
-291.01948897867157
 31
0.0
  0
LINE
  8
OUTLINE
  6
CONTINUOUS
 62
     3
 10
0.9451547145754375
 20
-291.01948897867157
 30
0.0
 11
0.9451547145754375
 21
-291.01948897867157
 31
0.0
  0
LINE
  8
OUTLINE
  6
CONTINUOUS
 62
     3
 10
0.9451547145754375
 20
-291.01948897867157
 30
0.0
 11
0.9356615099118244
 21
-291.02213574382631
 31
0.0
  0
LINE
  8
OUTLINE
  6
CONTINUOUS
 62
     3
 10
0.9356615099118244
 20
-291.02213574382631
 30
0.0
 11
0.9261669670745505
 21
-291.02477500182351
 31
0.0
  0
LINE
  8
OUTLINE
  6
CONTINUOUS
 62
     3
 10
0.9261669670745505
 20
-291.02477500182351
 30
0.0
 11
0.9261669670745505
 21
-291.02477500182351
 31
0.0
  0
LINE
  8
OUTLINE
  6
CONTINUOUS
 62
     3
 10
0.9261669670745505
 20
-291.02477500182351
 30
0.0
 11
0.9166719931613443
 21
-291.0274135813147
 31
0.0
  0
LINE
  8
OUTLINE
  6
CONTINUOUS
 62
     3
 10
0.9166719931613443
 20
-291.0274135813147
 30
0.0
 11
0.9071774952708438
 21
-291.0300583109514
 31
0.0
  0
LINE
  8
OUTLINE
  6
CONTINUOUS
 62
     3
 10
0.9071774952708438
 20
-291.0300583109514
 30
0.0
 11
0.9071774952708438
 21
-291.0300583109514
 31
0.0
  0
LINE
  8
OUTLINE
  6
CONTINUOUS
 62
     3
 10
0.9071774952708438
 20
-291.0300583109514
 30
0.0
 11
0.8976843805010049
 21
-291.03271601938479
 31
0.0
  0
LINE
  8
OUTLINE
  6
CONTINUOUS
 62
     3
 10
0.8976843805010049
 20
-291.03271601938479
 30
0.0
 11
0.8881935559504655
 21
-291.03539353526651
 31
0.0
  0
LINE
  8
OUTLINE
  6
CONTINUOUS
 62
     3
 10
0.8881935559504655
 20
-291.03539353526651
 30
0.0
 11
0.8881935559504655
 21
-291.03539353526651
 31
0.0
  0
LINE
  8
OUTLINE
  6
CONTINUOUS
 62
     3
 10
0.8881935559504655
 20
-291.03539353526651
 30
0.0
 11
0.8787059287176362
 21
-291.03809768724801
 31
0.0
  0
LINE
  8
OUTLINE
  6
CONTINUOUS
 62
     3
 10
0.8787059287176362
 20
-291.03809768724801
 30
0.0
 11
0.869222405900473
 21
-291.04083530398088
 31
0.0
  0
LINE
  8
OUTLINE
  6
CONTINUOUS
 62
     3
 10
0.869222405900473
 20
-291.04083530398088
 30
0.0
 11
0.869222405900473
 21
-291.04083530398088
 31
0.0
  0
LINE
  8
OUTLINE
  6
CONTINUOUS
 62
     3
 10
0.869222405900473
 20
-291.04083530398088
 30
0.0
 11
0.8597433934455694
 21
-291.0436091847763
 31
0.0
  0
LINE
  8
OUTLINE
  6
CONTINUOUS
 62
     3
 10
0.8597433934455694
 20
-291.0436091847763
 30
0.0
 11
0.8502672926929336
 21
-291.04640601158258
 31
0.0
  0
LINE
  8
OUTLINE
  6
CONTINUOUS
 62
     3
 10
0.8502672926929336
 20
-291.04640601158258
 30
0.0
 11
0.8502672926929336
 21
-291.04640601158258
 31
0.0
  0
LINE
  8
OUTLINE
  6
CONTINUOUS
 62
     3
 10
0.8502672926929336
 20
-291.04640601158258
 30
0.0
 11
0.8407920038303018
 21
-291.04920843700688
 31
0.0
  0
LINE
  8
OUTLINE
  6
CONTINUOUS
 62
     3
 10
0.8407920038303018
 20
-291.04920843700688
 30
0.0
 11
0.8313154270451832
 21
-291.05199911365781
 31
0.0
  0
LINE
  8
OUTLINE
  6
CONTINUOUS
 62
     3
 10
0.8313154270451832
 20
-291.05199911365781
 30
0.0
 11
0.8313154270451832
 21
-291.05199911365781
 31
0.0
  0
LINE
  8
OUTLINE
  6
CONTINUOUS
 62
     3
 10
0.8313154270451832
 20
-291.05199911365781
 30
0.0
 11
0.8218354625257689
 21
-291.05476069414289
 31
0.0
  0
LINE
  8
OUTLINE
  6
CONTINUOUS
 62
     3
 10
0.8218354625257689
 20
-291.05476069414289
 30
0.0
 11
0.8123500104597952
 21
-291.05747583107001
 31
0.0
  0
LINE
  8
OUTLINE
  6
CONTINUOUS
 62
     3
 10
0.8123500104597952
 20
-291.05747583107001
 30
0.0
 11
0.8123500104597952
 21
-291.05747583107001
 31
0.0
  0
LINE
  8
OUTLINE
  6
CONTINUOUS
 62
     3
 10
0.8123500104597952
 20
-291.05747583107001
 30
0.0
 11
0.8028569710352258
 21
-291.06012717704652
 31
0.0
  0
LINE
  8
OUTLINE
  6
CONTINUOUS
 62
     3
 10
0.8028569710352258
 20
-291.06012717704652
 30
0.0
 11
0.7933542444402519
 21
-291.0626973846812
 31
0.0
  0
LINE
  8
OUTLINE
  6
CONTINUOUS
 62
     3
 10
0.7933542444402519
 20
-291.0626973846812
 30
0.0
 11
0.7933542444402519
 21
-291.0626973846812
 31
0.0
  0
LINE
  8
OUTLINE
  6
CONTINUOUS
 62
     3
 10
0.7933542444402519
 20
-291.0626973846812
 30
0.0
 11
0.7838397308619278
 21
-291.06516910658081
 31
0.0
  0
LINE
  8
OUTLINE
  6
CONTINUOUS
 62
     3
 10
0.7838397308619278
 20
-291.06516910658081
 30
0.0
 11
0.7743113304891267
 21
-291.06752499535389
 31
0.0
  0
LINE
  8
OUTLINE
  6
CONTINUOUS
 62
     3
 10
0.7743113304891267
 20
-291.06752499535389
 30
0.0
 11
0.7743113304891267
 21
-291.06752499535389
 31
0.0
  0
LINE
  8
OUTLINE
  6
CONTINUOUS
 62
     3
 10
0.7743113304891267
 20
-291.06752499535389
 30
0.0
 11
0.7647676366689211
 21
-291.06975348742878
 31
0.0
  0
LINE
  8
OUTLINE
  6
CONTINUOUS
 62
     3
 10
0.7647676366689211
 20
-291.06975348742878
 30
0.0
 11
0.7552100153898209
 21
-291.07186615451798
 31
0.0
  0
LINE
  8
OUTLINE
  6
CONTINUOUS
 62
     3
 10
0.7552100153898209
 20
-291.07186615451798
 30
0.0
 11
0.7552100153898209
 21
-291.07186615451798
 31
0.0
  0
LINE
  8
OUTLINE
  6
CONTINUOUS
 62
     3
 10
0.7552100153898209
 20
-291.07186615451798
 30
0.0
 11
0.7456405258001269
 21
-291.07388035215422
 31
0.0
  0
LINE
  8
OUTLINE
  6
CONTINUOUS
 62
     3
 10
0.7456405258001269
 20
-291.07388035215422
 30
0.0
 11
0.7360612270481397
 21
-291.0758134358714
 31
0.0
  0
LINE
  8
OUTLINE
  6
CONTINUOUS
 62
     3
 10
0.7360612270481397
 20
-291.0758134358714
 30
0.0
 11
0.7360612270481397
 21
-291.0758134358714
 31
0.0
  0
LINE
  8
OUTLINE
  6
CONTINUOUS
 62
     3
 10
0.7360612270481397
 20
-291.0758134358714
 30
0.0
 11
0.7264741782817055
 21
-291.07768276120203
 31
0.0
  0
LINE
  8
OUTLINE
  6
CONTINUOUS
 62
     3
 10
0.7264741782817055
 20
-291.07768276120203
 30
0.0
 11
0.7168814386491249
 21
-291.0795056836796
 31
0.0
  0
LINE
  8
OUTLINE
  6
CONTINUOUS
 62
     3
 10
0.7168814386491249
 20
-291.0795056836796
 30
0.0
 11
0.7168814386491249
 21
-291.0795056836796
 31
0.0
  0
LINE
  8
OUTLINE
  6
CONTINUOUS
 62
     3
 10
0.7168814386491249
 20
-291.0795056836796
 30
0.0
 11
0.7072850672986988
 21
-291.08129955883692
 31
0.0
  0
LINE
  8
OUTLINE
  6
CONTINUOUS
 62
     3
 10
0.7072850672986988
 20
-291.08129955883692
 30
0.0
 11
0.6976871233787279
 21
-291.08308174220781
 31
0.0
  0
LINE
  8
OUTLINE
  6
CONTINUOUS
 62
     3
 10
0.6976871233787279
 20
-291.08308174220781
 30
0.0
 11
0.6976871233787279
 21
-291.08308174220781
 31
0.0
  0
LINE
  8
OUTLINE
  6
CONTINUOUS
 62
     3
 10
0.6976871233787279
 20
-291.08308174220781
 30
0.0
 11
0.6880896660372855
 21
-291.08486958932468
 31
0.0
  0
LINE
  8
OUTLINE
  6
CONTINUOUS
 62
     3
 10
0.6880896660372855
 20
-291.08486958932468
 30
0.0
 11
0.6784947544228999
 21
-291.08668045572119
 31
0.0
  0
LINE
  8
OUTLINE
  6
CONTINUOUS
 62
     3
 10
0.6784947544228999
 20
-291.08668045572119
 30
0.0
 11
0.6784947544228999
 21
-291.08668045572119
 31
0.0
  0
LINE
  8
OUTLINE
  6
CONTINUOUS
 62
     3
 10
0.6784947544228999
 20
-291.08668045572119
 30
0.0
 11
0.6689039871957903
 21
-291.08852765944971
 31
0.0
  0
LINE
  8
OUTLINE
  6
CONTINUOUS
 62
     3
 10
0.6689039871957903
 20
-291.08852765944971
 30
0.0
 11
0.6593171210683977
 21
-291.0904083686371
 31
0.0
  0
LINE
  8
OUTLINE
  6
CONTINUOUS
 62
     3
 10
0.6593171210683977
 20
-291.0904083686371
 30
0.0
 11
0.6593171210683977
 21
-291.0904083686371
 31
0.0
  0
LINE
  8
OUTLINE
  6
CONTINUOUS
 62
     3
 10
0.6593171210683977
 20
-291.0904083686371
 30
0.0
 11
0.6497334522653091
 21
-291.09231571392888
 31
0.0
  0
LINE
  8
OUTLINE
  6
CONTINUOUS
 62
     3
 10
0.6497334522653091
 20
-291.09231571392888
 30
0.0
 11
0.6401522770106567
 21
-291.09424282597217
 31
0.0
  0
LINE
  8
OUTLINE
  6
CONTINUOUS
 62
     3
 10
0.6401522770106567
 20
-291.09424282597217
 30
0.0
 11
0.6401522770106567
 21
-291.09424282597217
 31
0.0
  0
LINE
  8
OUTLINE
  6
CONTINUOUS
 62
     3
 10
0.6401522770106567
 20
-291.09424282597217
 30
0.0
 11
0.6305728915288
 21
-291.09618283541312
 31
0.0
  0
LINE
  8
OUTLINE
  6
CONTINUOUS
 62
     3
 10
0.6305728915288
 20
-291.09618283541312
 30
0.0
 11
0.6209945920445534
 21
-291.0981288728982
 31
0.0
  0
LINE
  8
OUTLINE
  6
CONTINUOUS
 62
     3
 10
0.6209945920445534
 20
-291.0981288728982
 30
0.0
 11
0.6209945920445534
 21
-291.0981288728982
 31
0.0
  0
LINE
  8
OUTLINE
  6
CONTINUOUS
 62
     3
 10
0.6209945920445534
 20
-291.0981288728982
 30
0.0
 11
0.6114166747825038
 21
-291.10007406907249
 31
0.0
  0
LINE
  8
OUTLINE
  6
CONTINUOUS
 62
     3
 10
0.6114166747825038
 20
-291.10007406907249
 30
0.0
 11
0.6018384359667834
 21
-291.10201155458287
 31
0.0
  0
LINE
  8
OUTLINE
  6
CONTINUOUS
 62
     3
 10
0.6018384359667834
 20
-291.10201155458287
 30
0.0
 11
0.6018384359667834
 21
-291.10201155458287
 31
0.0
  0
LINE
  8
OUTLINE
  6
CONTINUOUS
 62
     3
 10
0.6018384359667834
 20
-291.10201155458287
 30
0.0
 11
0.5922591718226613
 21
-291.10393446007572
 31
0.0
  0
LINE
  8
OUTLINE
  6
CONTINUOUS
 62
     3
 10
0.5922591718226613
 20
-291.10393446007572
 30
0.0
 11
0.5826781785735875
 21
-291.10583591619718
 31
0.0
  0
LINE
  8
OUTLINE
  6
CONTINUOUS
 62
     3
 10
0.5826781785735875
 20
-291.10583591619718
 30
0.0
 11
0.5826781785735875
 21
-291.10583591619718
 31
0.0
  0
LINE
  8
OUTLINE
  6
CONTINUOUS
 62
     3
 10
0.5826781785735875
 20
-291.10583591619718
 30
0.0
 11
0.5730947934996493
 21
-291.10770935414399
 31
0.0
  0
LINE
  8
OUTLINE
  6
CONTINUOUS
 62
     3
 10
0.5730947934996493
 20
-291.10770935414399
 30
0.0
 11
0.5635085181006616
 21
-291.10954940731523
 31
0.0
  0
LINE
  8
OUTLINE
  6
CONTINUOUS
 62
     3
 10
0.5635085181006616
 20
-291.10954940731523
 30
0.0
 11
0.5635085181006616
 21
-291.10954940731523
 31
0.0
  0
LINE
  8
OUTLINE
  6
CONTINUOUS
 62
     3
 10
0.5635085181006616
 20
-291.10954940731523
 30
0.0
 11
0.5539188949312575
 21
-291.11135100966038
 31
0.0
  0
LINE
  8
OUTLINE
  6
CONTINUOUS
 62
     3
 10
0.5539188949312575
 20
-291.11135100966038
 30
0.0
 11
0.5443254665458426
 21
-291.11310909513008
 31
0.0
  0
LINE
  8
OUTLINE
  6
CONTINUOUS
 62
     3
 10
0.5443254665458426
 20
-291.11310909513008
 30
0.0
 11
0.5443254665458426
 21
-291.11310909513008
 31
0.0
  0
LINE
  8
OUTLINE
  6
CONTINUOUS
 62
     3
 10
0.5443254665458426
 20
-291.11310909513008
 30
0.0
 11
0.5347277754992774
 21
-291.11481859767349
 31
0.0
  0
LINE
  8
OUTLINE
  6
CONTINUOUS
 62
     3
 10
0.5347277754992774
 20
-291.11481859767349
 30
0.0
 11
0.5251253643468772
 21
-291.11647445124089
 31
0.0
  0
LINE
  8
OUTLINE
  6
CONTINUOUS
 62
     3
 10
0.5251253643468772
 20
-291.11647445124089
 30
0.0
 11
0.5251253643468772
 21
-291.11647445124089
 31
0.0
  0
LINE
  8
OUTLINE
  6
CONTINUOUS
 62
     3
 10
0.5251253643468772
 20
-291.11647445124089
 30
0.0
 11
0.5155177756437297
 21
-291.11807158978138
 31
0.0
  0
LINE
  8
OUTLINE
  6
CONTINUOUS
 62
     3
 10
0.5155177756437297
 20
-291.11807158978138
 30
0.0
 11
0.5059045519412848
 21
-291.11960494724542
 31
0.0
  0
LINE
  8
OUTLINE
  6
CONTINUOUS
 62
     3
 10
0.5059045519412848
 20
-291.11960494724542
 30
0.0
 11
0.5059045519412848
 21
-291.11960494724542
 31
0.0
  0
LINE
  8
OUTLINE
  6
CONTINUOUS
 62
     3
 10
0.5059045519412848
 20
-291.11960494724542
 30
0.0
 11
0.4962852357937209
 21
-291.12106945758222
 31
0.0
  0
LINE
  8
OUTLINE
  6
CONTINUOUS
 62
     3
 10
0.4962852357937209
 20
-291.12106945758222
 30
0.0
 11
0.4866593697670396
 21
-291.12246005474202
 31
0.0
  0
LINE
  8
OUTLINE
  6
CONTINUOUS
 62
     3
 10
0.4866593697670396
 20
-291.12246005474202
 30
0.0
 11
0.4866593697670396
 21
-291.12246005474202
 31
0.0
  0
LINE
  8
OUTLINE
  6
CONTINUOUS
 62
     3
 10
0.4866593697670396
 20
-291.12246005474202
 30
0.0
 11
0.477026792686047
 21
-291.12377450795219
 31
0.0
  0
LINE
  8
OUTLINE
  6
CONTINUOUS
 62
     3
 10
0.477026792686047
 20
-291.12377450795219
 30
0.0
 11
0.4673885284012158
 21
-291.12502192755738
 31
0.0
  0
LINE
  8
OUTLINE
  6
CONTINUOUS
 62
     3
 10
0.4673885284012158
 20
-291.12502192755738
 30
0.0
 11
0.4673885284012158
 21
-291.12502192755738
 31
0.0
  0
LINE
  8
OUTLINE
  6
CONTINUOUS
 62
     3
 10
0.4673885284012158
 20
-291.12502192755738
 30
0.0
 11
0.4577458970609314
 21
-291.12621425917769
 31
0.0
  0
LINE
  8
OUTLINE
  6
CONTINUOUS
 62
     3
 10
0.4577458970609314
 20
-291.12621425917769
 30
0.0
 11
0.4481002189806986
 21
-291.12736344842682
 31
0.0
  0
LINE
  8
OUTLINE
  6
CONTINUOUS
 62
     3
 10
0.4481002189806986
 20
-291.12736344842682
 30
0.0
 11
0.4481002189806986
 21
-291.12736344842682
 31
0.0
  0
LINE
  8
OUTLINE
  6
CONTINUOUS
 62
     3
 10
0.4481002189806986
 20
-291.12736344842682
 30
0.0
 11
0.4384528143616535
 21
-291.12848144092311
 31
0.0
  0
LINE
  8
OUTLINE
  6
CONTINUOUS
 62
     3
 10
0.4384528143616535
 20
-291.12848144092311
 30
0.0
 11
0.4288050027817008
 21
-291.1295801823137
 31
0.0
  0
LINE
  8
OUTLINE
  6
CONTINUOUS
 62
     3
 10
0.4288050027817008
 20
-291.1295801823137
 30
0.0
 11
0.4288050027817008
 21
-291.1295801823137
 31
0.0
  0
LINE
  8
OUTLINE
  6
CONTINUOUS
 62
     3
 10
0.4288050027817008
 20
-291.1295801823137
 30
0.0
 11
0.4191581042452981
 21
-291.13067161822482
 31
0.0
  0
LINE
  8
OUTLINE
  6
CONTINUOUS
 62
     3
 10
0.4191581042452981
 20
-291.13067161822482
 30
0.0
 11
0.409513441081117
 21
-291.13176769418038
 31
0.0
  0
LINE
  8
OUTLINE
  6
CONTINUOUS
 62
     3
 10
0.409513441081117
 20
-291.13176769418038
 30
0.0
 11
0.409513441081117
 21
-291.13176769418038
 31
0.0
  0
LINE
  8
OUTLINE
  6
CONTINUOUS
 62
     3
 10
0.409513441081117
 20
-291.13176769418038
 30
0.0
 11
0.3998723340300785
 21
-291.13288035577489
 31
0.0
  0
LINE
  8
OUTLINE
  6
CONTINUOUS
 62
     3
 10
0.3998723340300785
 20
-291.13288035577489
 30
0.0
 11
0.3902360951547053
 21
-291.13402154899092
 31
0.0
  0
LINE
  8
OUTLINE
  6
CONTINUOUS
 62
     3
 10
0.3902360951547053
 20
-291.13402154899092
 30
0.0
 11
0.3902360951547053
 21
-291.13402154899092
 31
0.0
  0
LINE
  8
OUTLINE
  6
CONTINUOUS
 62
     3
 10
0.3902360951547053
 20
-291.13402154899092
 30
0.0
 11
0.3806054230180962
 21
-291.13519917184829
 31
0.0
  0
LINE
  8
OUTLINE
  6
CONTINUOUS
 62
     3
 10
0.3806054230180962
 20
-291.13519917184829
 30
0.0
 11
0.3709785708661002
 21
-291.13640493012548
 31
0.0
  0
LINE
  8
OUTLINE
  6
CONTINUOUS
 62
     3
 10
0.3709785708661002
 20
-291.13640493012548
 30
0.0
 11
0.3709785708661002
 21
-291.13640493012548
 31
0.0
  0
LINE
  8
OUTLINE
  6
CONTINUOUS
 62
     3
 10
0.3709785708661002
 20
-291.13640493012548
 30
0.0
 11
0.3613531503958711
 21
-291.1376264828923
 31
0.0
  0
LINE
  8
OUTLINE
  6
CONTINUOUS
 62
     3
 10
0.3613531503958711
 20
-291.1376264828923
 30
0.0
 11
0.3517266524265779
 21
-291.13885149463101
 31
0.0
  0
LINE
  8
OUTLINE
  6
CONTINUOUS
 62
     3
 10
0.3517266524265779
 20
-291.13885149463101
 30
0.0
 11
0.3517266524265779
 21
-291.13885149463101
 31
0.0
  0
LINE
  8
OUTLINE
  6
CONTINUOUS
 62
     3
 10
0.3517266524265779
 20
-291.13885149463101
 30
0.0
 11
0.3420966503385898
 21
-291.14006762612769
 31
0.0
  0
LINE
  8
OUTLINE
  6
CONTINUOUS
 62
     3
 10
0.3420966503385898
 20
-291.14006762612769
 30
0.0
 11
0.332461168635291
 21
-291.14126251797308
 31
0.0
  0
LINE
  8
OUTLINE
  6
CONTINUOUS
 62
     3
 10
0.332461168635291
 20
-291.14126251797308
 30
0.0
 11
0.332461168635291
 21
-291.14126251797308
 31
0.0
  0
LINE
  8
OUTLINE
  6
CONTINUOUS
 62
     3
 10
0.332461168635291
 20
-291.14126251797308
 30
0.0
 11
0.32281792369713
 21
-291.1424238245508
 31
0.0
  0
LINE
  8
OUTLINE
  6
CONTINUOUS
 62
     3
 10
0.32281792369713
 20
-291.1424238245508
 30
0.0
 11
0.313162948290028
 21
-291.14353927561518
 31
0.0
  0
LINE
  8
OUTLINE
  6
CONTINUOUS
 62
     3
 10
0.313162948290028
 20
-291.14353927561518
 30
0.0
 11
0.313162948290028
 21
-291.14353927561518
 31
0.0
  0
LINE
  8
OUTLINE
  6
CONTINUOUS
 62
     3
 10
0.313162948290028
 20
-291.14353927561518
 30
0.0
 11
0.3034934251102186
 21
-291.14459654944062
 31
0.0
  0
LINE
  8
OUTLINE
  6
CONTINUOUS
 62
     3
 10
0.3034934251102186
 20
-291.14459654944062
 30
0.0
 11
0.2938128201899417
 21
-291.14558304302278
 31
0.0
  0
LINE
  8
OUTLINE
  6
CONTINUOUS
 62
     3
 10
0.2938128201899417
 20
-291.14558304302278
 30
0.0
 11
0.2938128201899417
 21
-291.14558304302278
 31
0.0
  0
LINE
  8
OUTLINE
  6
CONTINUOUS
 62
     3
 10
0.2938128201899417
 20
-291.14558304302278
 30
0.0
 11
0.2841209491825794
 21
-291.14648955219508
 31
0.0
  0
LINE
  8
OUTLINE
  6
CONTINUOUS
 62
     3
 10
0.2841209491825794
 20
-291.14648955219508
 30
0.0
 11
0.2743967428878022
 21
-291.14732074942162
 31
0.0
  0
LINE
  8
OUTLINE
  6
CONTINUOUS
 62
     3
 10
0.2743967428878022
 20
-291.14732074942162
 30
0.0
 11
0.2743967428878022
 21
-291.14732074942162
 31
0.0
  0
LINE
  8
OUTLINE
  6
CONTINUOUS
 62
     3
 10
0.2743967428878022
 20
-291.14732074942162
 30
0.0
 11
0.2646357897888265
 21
-291.1480837968943
 31
0.0
  0
LINE
  8
OUTLINE
  6
CONTINUOUS
 62
     3
 10
0.2646357897888265
 20
-291.1480837968943
 30
0.0
 11
0.2549211939558518
 21
-291.14878193908021
 31
0.0
  0
LINE
  8
OUTLINE
  6
CONTINUOUS
 62
     3
 10
0.2549211939558518
 20
-291.14878193908021
 30
0.0
 11
0.2549211939558518
 21
-291.14878193908021
 31
0.0
  0
LINE
  8
OUTLINE
  6
CONTINUOUS
 62
     3
 10
0.2549211939558518
 20
-291.14878193908021
 30
0.0
 11
0.2452762852012711
 21
-291.14942109630198
 31
0.0
  0
LINE
  8
OUTLINE
  6
CONTINUOUS
 62
     3
 10
0.2452762852012711
 20
-291.14942109630198
 30
0.0
 11
0.2353977807201773
 21
-291.15002181003018
 31
0.0
  0
LINE
  8
OUTLINE
  6
CONTINUOUS
 62
     3
 10
0.2353977807201773
 20
-291.15002181003018
 30
0.0
 11
0.2353977807201773
 21
-291.15002181003018
 31
0.0
  0
LINE
  8
OUTLINE
  6
CONTINUOUS
 62
     3
 10
0.2353977807201773
 20
-291.15002181003018
 30
0.0
 11
0.2252054782748019
 21
-291.15059463530622
 31
0.0
  0
LINE
  8
OUTLINE
  6
CONTINUOUS
 62
     3
 10
0.2252054782748019
 20
-291.15059463530622
 30
0.0
 11
0.2158381105080025
 21
-291.15109556030143
 31
0.0
  0
LINE
  8
OUTLINE
  6
CONTINUOUS
 62
     3
 10
0.2158381105080025
 20
-291.15109556030143
 30
0.0
 11
0.2158381105080025
 21
-291.15109556030143
 31
0.0
  0
LINE
  8
OUTLINE
  6
CONTINUOUS
 62
     3
 10
0.2158381105080025
 20
-291.15109556030143
 30
0.0
 11
0.2076018620559807
 21
-291.15151784305152
 31
0.0
  0
LINE
  8
OUTLINE
  6
CONTINUOUS
 62
     3
 10
0.2076018620559807
 20
-291.15151784305152
 30
0.0
 11
0.1962537906451871
 21
-291.15205838792548
 31
0.0
  0
LINE
  8
OUTLINE
  6
CONTINUOUS
 62
     3
 10
0.1962537906451871
 20
-291.15205838792548
 30
0.0
 11
0.1962537906451871
 21
-291.15205838792548
 31
0.0
  0
LINE
  8
OUTLINE
  6
CONTINUOUS
 62
     3
 10
0.1962537906451871
 20
-291.15205838792548
 30
0.0
 11
0.1782066073192254
 21
-291.15288052175578
 31
0.0
  0
LINE
  8
OUTLINE
  6
CONTINUOUS
 62
     3
 10
0.1782066073192254
 20
-291.15288052175578
 30
0.0
 11
0.1570447633027925
 21
-291.15380961489922
 31
0.0
  0
LINE
  8
OUTLINE
  6
CONTINUOUS
 62
     3
 10
0.1570447633027925
 20
-291.15380961489922
 30
0.0
 11
0.1570447633027925
 21
-291.15380961489922
 31
0.0
  0
LINE
  8
OUTLINE
  6
CONTINUOUS
 62
     3
 10
0.1570447633027925
 20
-291.15380961489922
 30
0.0
 11
0.1370097172614351
 21
-291.15464312469942
 31
0.0
  0
LINE
  8
OUTLINE
  6
CONTINUOUS
 62
     3
 10
0.1370097172614351
 20
-291.15464312469942
 30
0.0
 11
0.1177992174448264
 21
-291.15540481293368
 31
0.0
  0
LINE
  8
OUTLINE
  6
CONTINUOUS
 62
     3
 10
0.1177992174448264
 20
-291.15540481293368
 30
0.0
 11
0.1177992174448264
 21
-291.15540481293368
 31
0.0
  0
LINE
  8
OUTLINE
  6
CONTINUOUS
 62
     3
 10
0.1177992174448264
 20
-291.15540481293368
 30
0.0
 11
0.0982792925965441
 21
-291.15615961440108
 31
0.0
  0
LINE
  8
OUTLINE
  6
CONTINUOUS
 62
     3
 10
0.0982792925965441
 20
-291.15615961440108
 30
0.0
 11
0.0785328038516582
 21
-291.15691085156038
 31
0.0
  0
LINE
  8
OUTLINE
  6
CONTINUOUS
 62
     3
 10
0.0785328038516582
 20
-291.15691085156038
 30
0.0
 11
0.0785328038516582
 21
-291.15691085156038
 31
0.0
  0
LINE
  8
OUTLINE
  6
CONTINUOUS
 62
     3
 10
0.0785328038516582
 20
-291.15691085156038
 30
0.0
 11
0.0588659156555877
 21
-291.15765148001719
 31
0.0
  0
LINE
  8
OUTLINE
  6
CONTINUOUS
 62
     3
 10
0.0588659156555877
 20
-291.15765148001719
 30
0.0
 11
0.0392611733027479
 21
-291.1583946003085
 31
0.0
  0
LINE
  8
OUTLINE
  6
CONTINUOUS
 62
     3
 10
0.0392611733027479
 20
-291.1583946003085
 30
0.0
 11
0.0392611733027479
 21
-291.1583946003085
 31
0.0
  0
LINE
  8
OUTLINE
  6
CONTINUOUS
 62
     3
 10
0.0392611733027479
 20
-291.1583946003085
 30
0.0
 11
0.0196396283529339
 21
-291.15915360735772
 31
0.0
  0
LINE
  8
OUTLINE
  6
CONTINUOUS
 62
     3
 10
0.0196396283529339
 20
-291.15915360735772
 30
0.0
 11
-0.0000000234217623
 21
-291.15992292870919
 31
0.0
  0
LINE
  8
OUTLINE
  6
CONTINUOUS
 62
     3
 10
0.0
 20
-291.15992292870919
 30
0.0
 11
-0.0193569623893382
 21
-291.15917584720592
 31
0.0
  0
LINE
  8
OUTLINE
  6
CONTINUOUS
 62
     3
 10
-0.0193569623893382
 20
-291.15917584720592
 30
0.0
 11
-0.0386942322547839
 21
-291.15843905847032
 31
0.0
  0
LINE
  8
OUTLINE
  6
CONTINUOUS
 62
     3
 10
-0.0386942322547839
 20
-291.15843905847032
 30
0.0
 11
-0.0386942322547839
 21
-291.15843905847032
 31
0.0
  0
LINE
  8
OUTLINE
  6
CONTINUOUS
 62
     3
 10
-0.0386942322547839
 20
-291.15843905847032
 30
0.0
 11
-0.0580120140687086
 21
-291.15771813583609
 31
0.0
  0
LINE
  8
OUTLINE
  6
CONTINUOUS
 62
     3
 10
-0.0580120140687086
 20
-291.15771813583609
 30
0.0
 11
-0.0773901002853563
 21
-291.15699977490402
 31
0.0
  0
LINE
  8
OUTLINE
  6
CONTINUOUS
 62
     3
 10
-0.0773901002853563
 20
-291.15699977490402
 30
0.0
 11
-0.0773901002853563
 21
-291.15699977490402
 31
0.0
  0
LINE
  8
OUTLINE
  6
CONTINUOUS
 62
     3
 10
-0.0773901002853563
 20
-291.15699977490402
 30
0.0
 11
-0.0968480812016423
 21
-291.15627089625292
 31
0.0
  0
LINE
  8
OUTLINE
  6
CONTINUOUS
 62
     3
 10
-0.0968480812016423
 20
-291.15627089625292
 30
0.0
 11
-0.1160851504973834
 21
-291.15553819811402
 31
0.0
  0
LINE
  8
OUTLINE
  6
CONTINUOUS
 62
     3
 10
-0.1160851504973834
 20
-291.15553819811402
 30
0.0
 11
-0.1160851504973834
 21
-291.15553819811402
 31
0.0
  0
LINE
  8
OUTLINE
  6
CONTINUOUS
 62
     3
 10
-0.1160851504973834
 20
-291.15553819811402
 30
0.0
 11
-0.1350209023194111
 21
-291.1547982649123
 31
0.0
  0
LINE
  8
OUTLINE
  6
CONTINUOUS
 62
     3
 10
-0.1350209023194111
 20
-291.1547982649123
 30
0.0
 11
-0.1547769292963039
 21
-291.15398744820618
 31
0.0
  0
LINE
  8
OUTLINE
  6
CONTINUOUS
 62
     3
 10
-0.1547769292963039
 20
-291.15398744820618
 30
0.0
 11
-0.1547769292963039
 21
-291.15398744820618
 31
0.0
  0
LINE
  8
OUTLINE
  6
CONTINUOUS
 62
     3
 10
-0.1547769292963039
 20
-291.15398744820618
 30
0.0
 11
-0.1756534243490933
 21
-291.15308232979112
 31
0.0
  0
LINE
  8
OUTLINE
  6
CONTINUOUS
 62
     3
 10
-0.1756534243490933
 20
-291.15308232979112
 30
0.0
 11
-0.1934629830871017
 21
-291.1522806452856
 31
0.0
  0
LINE
  8
OUTLINE
  6
CONTINUOUS
 62
     3
 10
-0.1934629830871017
 20
-291.1522806452856
 30
0.0
 11
-0.1934629830871017
 21
-291.1522806452856
 31
0.0
  0
LINE
  8
OUTLINE
  6
CONTINUOUS
 62
     3
 10
-0.1934629830871017
 20
-291.1522806452856
 30
0.0
 11
-0.2046661361971474
 21
-291.15175296151477
 31
0.0
  0
LINE
  8
OUTLINE
  6
CONTINUOUS
 62
     3
 10
-0.2046661361971474
 20
-291.15175296151477
 30
0.0
 11
-0.2128027519904663
 21
-291.15134001630707
 31
0.0
  0
LINE
  8
OUTLINE
  6
CONTINUOUS
 62
     3
 10
-0.2128027519904663
 20
-291.15134001630707
 30
0.0
 11
-0.2128027519904663
 21
-291.15134001630707
 31
0.0
  0
LINE
  8
OUTLINE
  6
CONTINUOUS
 62
     3
 10
-0.2128027519904663
 20
-291.15134001630707
 30
0.0
 11
-0.2220603982909779
 21
-291.15084971326593
 31
0.0
  0
LINE
  8
OUTLINE
  6
CONTINUOUS
 62
     3
 10
-0.2220603982909779
 20
-291.15084971326593
 30
0.0
 11
-0.2321381033482339
 21
-291.15028844808762
 31
0.0
  0
LINE
  8
OUTLINE
  6
CONTINUOUS
 62
     3
 10
-0.2321381033482339
 20
-291.15028844808762
 30
0.0
 11
-0.2321381033482339
 21
-291.15028844808762
 31
0.0
  0
LINE
  8
OUTLINE
  6
CONTINUOUS
 62
     3
 10
-0.2321381033482339
 20
-291.15028844808762
 30
0.0
 11
-0.2419134356568975
 21
-291.14969894304448
 31
0.0
  0
LINE
  8
OUTLINE
  6
CONTINUOUS
 62
     3
 10
-0.2419134356568975
 20
-291.14969894304448
 30
0.0
 11
-0.2514666642655357
 21
-291.14907073461251
 31
0.0
  0
LINE
  8
OUTLINE
  6
CONTINUOUS
 62
     3
 10
-0.2514666642655357
 20
-291.14907073461251
 30
0.0
 11
-0.2514666642655357
 21
-291.14907073461251
 31
0.0
  0
LINE
  8
OUTLINE
  6
CONTINUOUS
 62
     3
 10
-0.2514666642655357
 20
-291.14907073461251
 30
0.0
 11
-0.2610981677009931
 21
-291.1483836255897
 31
0.0
  0
LINE
  8
OUTLINE
  6
CONTINUOUS
 62
     3
 10
-0.2610981677009931
 20
-291.1483836255897
 30
0.0
 11
-0.2707860618477298
 21
-291.14763166986711
 31
0.0
  0
LINE
  8
OUTLINE
  6
CONTINUOUS
 62
     3
 10
-0.2707860618477298
 20
-291.14763166986711
 30
0.0
 11
-0.2707860618477298
 21
-291.14763166986711
 31
0.0
  0
LINE
  8
OUTLINE
  6
CONTINUOUS
 62
     3
 10
-0.2707860618477298
 20
-291.14763166986711
 30
0.0
 11
-0.2804494844331202
 21
-291.14681152946582
 31
0.0
  0
LINE
  8
OUTLINE
  6
CONTINUOUS
 62
     3
 10
-0.2804494844331202
 20
-291.14681152946582
 30
0.0
 11
-0.2900939231999473
 21
-291.14591604783772
 31
0.0
  0
LINE
  8
OUTLINE
  6
CONTINUOUS
 62
     3
 10
-0.2900939231999473
 20
-291.14591604783772
 30
0.0
 11
-0.2900939231999473
 21
-291.14591604783772
 31
0.0
  0
LINE
  8
OUTLINE
  6
CONTINUOUS
 62
     3
 10
-0.2900939231999473
 20
-291.14591604783772
 30
0.0
 11
-0.2997408156645633
 21
-291.14494057676018
 31
0.0
  0
LINE
  8
OUTLINE
  6
CONTINUOUS
 62
     3
 10
-0.2997408156645633
 20
-291.14494057676018
 30
0.0
 11
-0.3093890484292388
 21
-291.14389431987581
 31
0.0
  0
LINE
  8
OUTLINE
  6
CONTINUOUS
 62
     3
 10
-0.3093890484292388
 20
-291.14389431987581
 30
0.0
 11
-0.3093890484292388
 21
-291.14389431987581
 31
0.0
  0
LINE
  8
OUTLINE
  6
CONTINUOUS
 62
     3
 10
-0.3093890484292388
 20
-291.14389431987581
 30
0.0
 11
-0.3190334202795384
 21
-291.14278987525228
 31
0.0
  0
LINE
  8
OUTLINE
  6
CONTINUOUS
 62
     3
 10
-0.3190334202795384
 20
-291.14278987525228
 30
0.0
 11
-0.3286749296535163
 21
-291.14163956679658
 31
0.0
  0
LINE
  8
OUTLINE
  6
CONTINUOUS
 62
     3
 10
-0.3286749296535163
 20
-291.14163956679658
 30
0.0
 11
-0.3286749296535163
 21
-291.14163956679658
 31
0.0
  0
LINE
  8
OUTLINE
  6
CONTINUOUS
 62
     3
 10
-0.3286749296535163
 20
-291.14163956679658
 30
0.0
 11
-0.3383157096036484
 21
-291.14045566824149
 31
0.0
  0
LINE
  8
OUTLINE
  6
CONTINUOUS
 62
     3
 10
-0.3383157096036484
 20
-291.14045566824149
 30
0.0
 11
-0.3479562319912475
 21
-291.13925052678081
 31
0.0
  0
LINE
  8
OUTLINE
  6
CONTINUOUS
 62
     3
 10
-0.3479562319912475
 20
-291.13925052678081
 30
0.0
 11
-0.3479562319912475
 21
-291.13925052678081
 31
0.0
  0
LINE
  8
OUTLINE
  6
CONTINUOUS
 62
     3
 10
-0.3479562319912475
 20
-291.13925052678081
 30
0.0
 11
-0.3575966646585584
 21
-291.13803650305198
 31
0.0
  0
LINE
  8
OUTLINE
  6
CONTINUOUS
 62
     3
 10
-0.3575966646585584
 20
-291.13803650305198
 30
0.0
 11
-0.3672376205627188
 21
-291.13682593801002
 31
0.0
  0
LINE
  8
OUTLINE
  6
CONTINUOUS
 62
     3
 10
-0.3672376205627188
 20
-291.13682593801002
 30
0.0
 11
-0.3672376205627188
 21
-291.13682593801002
 31
0.0
  0
LINE
  8
OUTLINE
  6
CONTINUOUS
 62
     3
 10
-0.3672376205627188
 20
-291.13682593801002
 30
0.0
 11
-0.3768797941218054
 21
-291.13563116900502
 31
0.0
  0
LINE
  8
OUTLINE
  6
CONTINUOUS
 62
     3
 10
-0.3768797941218054
 20
-291.13563116900502
 30
0.0
 11
-0.3865237604866252
 21
-291.13446453866482
 31
0.0
  0
LINE
  8
OUTLINE
  6
CONTINUOUS
 62
     3
 10
-0.3865237604866252
 20
-291.13446453866482
 30
0.0
 11
-0.3865237604866252
 21
-291.13446453866482
 31
0.0
  0
LINE
  8
OUTLINE
  6
CONTINUOUS
 62
     3
 10
-0.3865237604866252
 20
-291.13446453866482
 30
0.0
 11
-0.3961698375685501
 21
-291.13333434238911
 31
0.0
  0
LINE
  8
OUTLINE
  6
CONTINUOUS
 62
     3
 10
-0.3961698375685501
 20
-291.13333434238911
 30
0.0
 11
-0.4058174335891636
 21
-291.13223268140558
 31
0.0
  0
LINE
  8
OUTLINE
  6
CONTINUOUS
 62
     3
 10
-0.4058174335891636
 20
-291.13223268140558
 30
0.0
 11
-0.4058174335891636
 21
-291.13223268140558
 31
0.0
  0
LINE
  8
OUTLINE
  6
CONTINUOUS
 62
     3
 10
-0.4058174335891636
 20
-291.13223268140558
 30
0.0
 11
-0.4154657272074473
 21
-291.1311476084926
 31
0.0
  0
LINE
  8
OUTLINE
  6
CONTINUOUS
 62
     3
 10
-0.4154657272074473
 20
-291.1311476084926
 30
0.0
 11
-0.4251138885192631
 21
-291.13006717680759
 31
0.0
  0
LINE
  8
OUTLINE
  6
CONTINUOUS
 62
     3
 10
-0.4251138885192631
 20
-291.13006717680759
 30
0.0
 11
-0.4251138885192631
 21
-291.13006717680759
 31
0.0
  0
LINE
  8
OUTLINE
  6
CONTINUOUS
 62
     3
 10
-0.4251138885192631
 20
-291.13006717680759
 30
0.0
 11
-0.4347610860529585
 21
-291.1289794395766
 31
0.0
  0
LINE
  8
OUTLINE
  6
CONTINUOUS
 62
     3
 10
-0.4347610860529585
 20
-291.1289794395766
 30
0.0
 11
-0.4444064906319909
 21
-291.12787244992438
 31
0.0
  0
LINE
  8
OUTLINE
  6
CONTINUOUS
 62
     3
 10
-0.4444064906319909
 20
-291.12787244992438
 30
0.0
 11
-0.4444064906319909
 21
-291.12787244992438
 31
0.0
  0
LINE
  8
OUTLINE
  6
CONTINUOUS
 62
     3
 10
-0.4444064906319909
 20
-291.12787244992438
 30
0.0
 11
-0.4540492734993222
 21
-291.12673426095802
 31
0.0
  0
LINE
  8
OUTLINE
  6
CONTINUOUS
 62
     3
 10
-0.4540492734993222
 20
-291.12673426095802
 30
0.0
 11
-0.463688605283096
 21
-291.12555292581021
 31
0.0
  0
LINE
  8
OUTLINE
  6
CONTINUOUS
 62
     3
 10
-0.463688605283096
 20
-291.12555292581021
 30
0.0
 11
-0.463688605283096
 21
-291.12555292581021
 31
0.0
  0
LINE
  8
OUTLINE
  6
CONTINUOUS
 62
     3
 10
-0.463688605283096
 20
-291.12555292581021
 30
0.0
 11
-0.4733236564993604
 21
-291.12431649761999
 31
0.0
  0
LINE
  8
OUTLINE
  6
CONTINUOUS
 62
     3
 10
-0.4733236564993604
 20
-291.12431649761999
 30
0.0
 11
-0.4829535978278727
 21
-291.1230130295188
 31
0.0
  0
LINE
  8
OUTLINE
  6
CONTINUOUS
 62
     3
 10
-0.4829535978278727
 20
-291.1230130295188
 30
0.0
 11
-0.4829535978278727
 21
-291.1230130295188
 31
0.0
  0
LINE
  8
OUTLINE
  6
CONTINUOUS
 62
     3
 10
-0.4829535978278727
 20
-291.1230130295188
 30
0.0
 11
-0.4925777923199348
 21
-291.12163341021068
 31
0.0
  0
LINE
  8
OUTLINE
  6
CONTINUOUS
 62
     3
 10
-0.4925777923199348
 20
-291.12163341021068
 30
0.0
 11
-0.5021963723402223
 21
-291.12017987069919
 31
0.0
  0
LINE
  8
OUTLINE
  6
CONTINUOUS
 62
     3
 10
-0.5021963723402223
 20
-291.12017987069919
 30
0.0
 11
-0.5021963723402223
 21
-291.12017987069919
 31
0.0
  0
LINE
  8
OUTLINE
  6
CONTINUOUS
 62
     3
 10
-0.5021963723402223
 20
-291.12017987069919
 30
0.0
 11
-0.5118096625863018
 21
-291.11865747756281
 31
0.0
  0
LINE
  8
OUTLINE
  6
CONTINUOUS
 62
     3
 10
-0.5118096625863018
 20
-291.11865747756281
 30
0.0
 11
-0.5214179877671086
 21
-291.11707129737908
 31
0.0
  0
LINE
  8
OUTLINE
  6
CONTINUOUS
 62
     3
 10
-0.5214179877671086
 20
-291.11707129737908
 30
0.0
 11
-0.5214179877671086
 21
-291.11707129737908
 31
0.0
  0
LINE
  8
OUTLINE
  6
CONTINUOUS
 62
     3
 10
-0.5214179877671086
 20
-291.11707129737908
 30
0.0
 11
-0.5310216725938517
 21
-291.11542639672609
 31
0.0
  0
LINE
  8
OUTLINE
  6
CONTINUOUS
 62
     3
 10
-0.5310216725938517
 20
-291.11542639672609
 30
0.0
 11
-0.5406210417743296
 21
-291.11372784218167
 31
0.0
  0
LINE
  8
OUTLINE
  6
CONTINUOUS
 62
     3
 10
-0.5406210417743296
 20
-291.11372784218167
 30
0.0
 11
-0.5406210417743296
 21
-291.11372784218167
 31
0.0
  0
LINE
  8
OUTLINE
  6
CONTINUOUS
 62
     3
 10
-0.5406210417743296
 20
-291.11372784218167
 30
0.0
 11
-0.5502164200161133
 21
-291.11198070032322
 31
0.0
  0
LINE
  8
OUTLINE
  6
CONTINUOUS
 62
     3
 10
-0.5502164200161133
 20
-291.11198070032322
 30
0.0
 11
-0.5598081320274559
 21
-291.11019003772878
 31
0.0
  0
LINE
  8
OUTLINE
  6
CONTINUOUS
 62
     3
 10
-0.5598081320274559
 20
-291.11019003772878
 30
0.0
 11
-0.5598081320274559
 21
-291.11019003772878
 31
0.0
  0
LINE
  8
OUTLINE
  6
CONTINUOUS
 62
     3
 10
-0.5598081320274559
 20
-291.11019003772878
 30
0.0
 11
-0.5693965025166108
 21
-291.10836092097628
 31
0.0
  0
LINE
  8
OUTLINE
  6
CONTINUOUS
 62
     3
 10
-0.5693965025166108
 20
-291.10836092097628
 30
0.0
 11
-0.578981856191831
 21
-291.10649841664372
 31
0.0
  0
LINE
  8
OUTLINE
  6
CONTINUOUS
 62
     3
 10
-0.578981856191831
 20
-291.10649841664372
 30
0.0
 11
-0.578981856191831
 21
-291.10649841664372
 31
0.0
  0
LINE
  8
OUTLINE
  6
CONTINUOUS
 62
     3
 10
-0.578981856191831
 20
-291.10649841664372
 30
0.0
 11
-0.5885645861831108
 21
-291.10460789185618
 31
0.0
  0
LINE
  8
OUTLINE
  6
CONTINUOUS
 62
     3
 10
-0.5885645861831108
 20
-291.10460789185618
 30
0.0
 11
-0.5981453593042261
 21
-291.10269591593078
 31
0.0
  0
LINE
  8
OUTLINE
  6
CONTINUOUS
 62
     3
 10
-0.5981453593042261
 20
-291.10269591593078
 30
0.0
 11
-0.5981453593042261
 21
-291.10269591593078
 31
0.0
  0
LINE
  8
OUTLINE
  6
CONTINUOUS
 62
     3
 10
-0.5981453593042261
 20
-291.10269591593078
 30
0.0
 11
-0.6077249107918306
 21
-291.10076935873201
 31
0.0
  0
LINE
  8
OUTLINE
  6
CONTINUOUS
 62
     3
 10
-0.6077249107918306
 20
-291.10076935873201
 30
0.0
 11
-0.6173039758816685
 21
-291.09883509012479
 31
0.0
  0
LINE
  8
OUTLINE
  6
CONTINUOUS
 62
     3
 10
-0.6173039758816685
 20
-291.09883509012479
 30
0.0
 11
-0.6173039758816685
 21
-291.09883509012479
 31
0.0
  0
LINE
  8
OUTLINE
  6
CONTINUOUS
 62
     3
 10
-0.6173039758816685
 20
-291.09883509012479
 30
0.0
 11
-0.626883289809939
 21
-291.0968999799727
 31
0.0
  0
LINE
  8
OUTLINE
  6
CONTINUOUS
 62
     3
 10
-0.626883289809939
 20
-291.0968999799727
 30
0.0
 11
-0.636463587812159
 21
-291.09497089814118
 31
0.0
  0
LINE
  8
OUTLINE
  6
CONTINUOUS
 62
     3
 10
-0.636463587812159
 20
-291.09497089814118
 30
0.0
 11
-0.636463587812159
 21
-291.09497089814118
 31
0.0
  0
LINE
  8
OUTLINE
  6
CONTINUOUS
 62
     3
 10
-0.636463587812159
 20
-291.09497089814118
 30
0.0
 11
-0.6460456051249821
 21
-291.09305471449397
 31
0.0
  0
LINE
  8
OUTLINE
  6
CONTINUOUS
 62
     3
 10
-0.6460456051249821
 20
-291.09305471449397
 30
0.0
 11
-0.6556300769839254
 21
-291.09115829889657
 31
0.0
  0
LINE
  8
OUTLINE
  6
CONTINUOUS
 62
     3
 10
-0.6556300769839254
 20
-291.09115829889657
 30
0.0
 11
-0.6556300769839254
 21
-291.09115829889657
 31
0.0
  0
LINE
  8
OUTLINE
  6
CONTINUOUS
 62
     3
 10
-0.6556300769839254
 20
-291.09115829889657
 30
0.0
 11
-0.6652177386249605
 21
-291.08928852121278
 31
0.0
  0
LINE
  8
OUTLINE
  6
CONTINUOUS
 62
     3
 10
-0.6652177386249605
 20
-291.08928852121278
 30
0.0
 11
-0.6748093252842864
 21
-291.08745225130718
 31
0.0
  0
LINE
  8
OUTLINE
  6
CONTINUOUS
 62
     3
 10
-0.6748093252842864
 20
-291.08745225130718
 30
0.0
 11
-0.6748093252842864
 21
-291.08745225130718
 31
0.0
  0
LINE
  8
OUTLINE
  6
CONTINUOUS
 62
     3
 10
-0.6748093252842864
 20
-291.08745225130718
 30
0.0
 11
-0.6844051061725622
 21
-291.08565232128052
 31
0.0
  0
LINE
  8
OUTLINE
  6
CONTINUOUS
 62
     3
 10
-0.6844051061725622
 20
-291.08565232128052
 30
0.0
 11
-0.6940034863991969
 21
-291.08387541217678
 31
0.0
  0
LINE
  8
OUTLINE
  6
CONTINUOUS
 62
     3
 10
-0.6940034863991969
 20
-291.08387541217678
 30
0.0
 11
-0.6940034863991969
 21
-291.08387541217678
 31
0.0
  0
LINE
  8
OUTLINE
  6
CONTINUOUS
 62
     3
 10
-0.6940034863991969
 20
-291.08387541217678
 30
0.0
 11
-0.7036024050482865
 21
-291.0821041672757
 31
0.0
  0
LINE
  8
OUTLINE
  6
CONTINUOUS
 62
     3
 10
-0.7036024050482865
 20
-291.0821041672757
 30
0.0
 11
-0.7131998012039276
 21
-291.08032122985787
 31
0.0
  0
LINE
  8
OUTLINE
  6
CONTINUOUS
 62
     3
 10
-0.7131998012039276
 20
-291.08032122985787
 30
0.0
 11
-0.7131998012039276
 21
-291.08032122985787
 31
0.0
  0
LINE
  8
OUTLINE
  6
CONTINUOUS
 62
     3
 10
-0.7131998012039276
 20
-291.08032122985787
 30
0.0
 11
-0.7227936139502162
 21
-291.07850924320383
 31
0.0
  0
LINE
  8
OUTLINE
  6
CONTINUOUS
 62
     3
 10
-0.7227936139502162
 20
-291.07850924320383
 30
0.0
 11
-0.7323817823712489
 21
-291.07665085059318
 31
0.0
  0
LINE
  8
OUTLINE
  6
CONTINUOUS
 62
     3
 10
-0.7323817823712489
 20
-291.07665085059318
 30
0.0
 11
-0.7323817823712489
 21
-291.07665085059318
 31
0.0
  0
LINE
  8
OUTLINE
  6
CONTINUOUS
 62
     3
 10
-0.7323817823712489
 20
-291.07665085059318
 30
0.0
 11
-0.7419622455511217
 21
-291.07472869530608
 31
0.0
  0
LINE
  8
OUTLINE
  6
CONTINUOUS
 62
     3
 10
-0.7419622455511217
 20
-291.07472869530608
 30
0.0
 11
-0.751532942573931
 21
-291.07272542062287
 31
0.0
  0
LINE
  8
OUTLINE
  6
CONTINUOUS
 62
     3
 10
-0.751532942573931
 20
-291.07272542062287
 30
0.0
 11
-0.751532942573931
 21
-291.07272542062287
 31
0.0
  0
LINE
  8
OUTLINE
  6
CONTINUOUS
 62
     3
 10
-0.751532942573931
 20
-291.07272542062287
 30
0.0
 11
-0.7610918125237731
 21
-291.07062366982308
 31
0.0
  0
LINE
  8
OUTLINE
  6
CONTINUOUS
 62
     3
 10
-0.7610918125237731
 20
-291.07062366982308
 30
0.0
 11
-0.7706367944849717
 21
-291.06840608618768
 31
0.0
  0
LINE
  8
OUTLINE
  6
CONTINUOUS
 62
     3
 10
-0.7706367944849717
 20
-291.06840608618768
 30
0.0
 11
-0.7706367944849717
 21
-291.06840608618768
 31
0.0
  0
LINE
  8
OUTLINE
  6
CONTINUOUS
 62
     3
 10
-0.7706367944849717
 20
-291.06840608618768
 30
0.0
 11
-0.7801665212282387
 21
-291.06606109669087
 31
0.0
  0
LINE
  8
OUTLINE
  6
CONTINUOUS
 62
     3
 10
-0.7801665212282387
 20
-291.06606109669087
 30
0.0
 11
-0.789682400272568
 21
-291.0636002630863
 31
0.0
  0
LINE
  8
OUTLINE
  6
CONTINUOUS
 62
     3
 10
-0.789682400272568
 20
-291.0636002630863
 30
0.0
 11
-0.789682400272568
 21
-291.0636002630863
 31
0.0
  0
LINE
  8
OUTLINE
  6
CONTINUOUS
 62
     3
 10
-0.789682400272568
 20
-291.0636002630863
 30
0.0
 11
-0.7991865328233416
 21
-291.06104093082041
 31
0.0
  0
LINE
  8
OUTLINE
  6
CONTINUOUS
 62
     3
 10
-0.7991865328233416
 20
-291.06104093082041
 30
0.0
 11
-0.8086810200866239
 21
-291.05840044534148
 31
0.0
  0
LINE
  8
OUTLINE
  6
CONTINUOUS
 62
     3
 10
-0.8086810200866239
 20
-291.05840044534148
 30
0.0
 11
-0.8086810200866239
 21
-291.05840044534148
 31
0.0
  0
LINE
  8
OUTLINE
  6
CONTINUOUS
 62
     3
 10
-0.8086810200866239
 20
-291.05840044534148
 30
0.0
 11
-0.8181679632680243
 21
-291.05569615209669
 31
0.0
  0
LINE
  8
OUTLINE
  6
CONTINUOUS
 62
     3
 10
-0.8181679632680243
 20
-291.05569615209669
 30
0.0
 11
-0.8276494635733798
 21
-291.05294539653431
 31
0.0
  0
LINE
  8
OUTLINE
  6
CONTINUOUS
 62
     3
 10
-0.8276494635733798
 20
-291.05294539653431
 30
0.0
 11
-0.8276494635733798
 21
-291.05294539653431
 31
0.0
  0
LINE
  8
OUTLINE
  6
CONTINUOUS
 62
     3
 10
-0.8276494635733798
 20
-291.05294539653431
 30
0.0
 11
-0.8371276222082997
 21
-291.05016552410058
 31
0.0
  0
LINE
  8
OUTLINE
  6
CONTINUOUS
 62
     3
 10
-0.8371276222082997
 20
-291.05016552410058
 30
0.0
 11
-0.8466045403783937
 21
-291.04737388024398
 31
0.0
  0
LINE
  8
OUTLINE
  6
CONTINUOUS
 62
     3
 10
-0.8466045403783937
 20
-291.04737388024398
 30
0.0
 11
-0.8466045403783937
 21
-291.04737388024398
 31
0.0
  0
LINE
  8
OUTLINE
  6
CONTINUOUS
 62
     3
 10
-0.8466045403783937
 20
-291.04737388024398
 30
0.0
 11
-0.8560823192894986
 21
-291.04458781041171
 31
0.0
  0
LINE
  8
OUTLINE
  6
CONTINUOUS
 62
     3
 10
-0.8560823192894986
 20
-291.04458781041171
 30
0.0
 11
-0.865563060147224
 21
-291.04182466005199
 31
0.0
  0
LINE
  8
OUTLINE
  6
CONTINUOUS
 62
     3
 10
-0.865563060147224
 20
-291.04182466005199
 30
0.0
 11
-0.865563060147224
 21
-291.04182466005199
 31
0.0
  0
LINE
  8
OUTLINE
  6
CONTINUOUS
 62
     3
 10
-0.865563060147224
 20
-291.04182466005199
 30
0.0
 11
-0.8750483578423882
 21
-291.03909774811962
 31
0.0
  0
LINE
  8
OUTLINE
  6
CONTINUOUS
 62
     3
 10
-0.8750483578423882
 20
-291.03909774811962
 30
0.0
 11
-0.8845377820057365
 21
-291.03640428760121
 31
0.0
  0
LINE
  8
OUTLINE
  6
CONTINUOUS
 62
     3
 10
-0.8845377820057365
 20
-291.03640428760121
 30
0.0
 11
-0.8845377820057365
 21
-291.03640428760121
 31
0.0
  0
LINE
  8
OUTLINE
  6
CONTINUOUS
 62
     3
 10
-0.8845377820057365
 20
-291.03640428760121
 30
0.0
 11
-0.8940303959525409
 21
-291.03373746499079
 31
0.0
  0
LINE
  8
OUTLINE
  6
CONTINUOUS
 62
     3
 10
-0.8940303959525409
 20
-291.03373746499079
 30
0.0
 11
-0.9035252629983006
 21
-291.03109046678378
 31
0.0
  0
LINE
  8
OUTLINE
  6
CONTINUOUS
 62
     3
 10
-0.9035252629983006
 20
-291.03109046678378
 30
0.0
 11
-0.9035252629983006
 21
-291.03109046678378
 31
0.0
  0
LINE
  8
OUTLINE
  6
CONTINUOUS
 62
     3
 10
-0.9035252629983006
 20
-291.03109046678378
 30
0.0
 11
-0.9130214464589699
 21
-291.02845647947458
 31
0.0
  0
LINE
  8
OUTLINE
  6
CONTINUOUS
 62
     3
 10
-0.9130214464589699
 20
-291.02845647947458
 30
0.0
 11
-0.9225180096495933
 21
-291.02582868955739
 31
0.0
  0
LINE
  8
OUTLINE
  6
CONTINUOUS
 62
     3
 10
-0.9225180096495933
 20
-291.02582868955739
 30
0.0
 11
-0.9225180096495933
 21
-291.02582868955739
 31
0.0
  0
LINE
  8
OUTLINE
  6
CONTINUOUS
 62
     3
 10
-0.9225180096495933
 20
-291.02582868955739
 30
0.0
 11
-0.932014015886125
 21
-291.02320028352682
 31
0.0
  0
LINE
  8
OUTLINE
  6
CONTINUOUS
 62
     3
 10
-0.932014015886125
 20
-291.02320028352682
 30
0.0
 11
-0.9415085284842917
 21
-291.02056444787718
 31
0.0
  0
LINE
  8
OUTLINE
  6
CONTINUOUS
 62
     3
 10
-0.9415085284842917
 20
-291.02056444787718
 30
0.0
 11
-0.9415085284842917
 21
-291.02056444787718
 31
0.0
  0
LINE
  8
OUTLINE
  6
CONTINUOUS
 62
     3
 10
-0.9415085284842917
 20
-291.02056444787718
 30
0.0
 11
-0.951000610759138
 21
-291.01791436910281
 31
0.0
  0
LINE
  8
OUTLINE
  6
CONTINUOUS
 62
     3
 10
-0.951000610759138
 20
-291.01791436910281
 30
0.0
 11
-0.9604893260266181
 21
-291.01524323369921
 31
0.0
  0
LINE
  8
OUTLINE
  6
CONTINUOUS
 62
     3
 10
-0.9604893260266181
 20
-291.01524323369921
 30
0.0
 11
-0.9604893260266181
 21
-291.01524323369921
 31
0.0
  0
LINE
  8
OUTLINE
  6
CONTINUOUS
 62
     3
 10
-0.9604893260266181
 20
-291.01524323369921
 30
0.0
 11
-0.9699737688952155
 21
-291.01254453105088
 31
0.0
  0
LINE
  8
OUTLINE
  6
CONTINUOUS
 62
     3
 10
-0.9699737688952155
 20
-291.01254453105088
 30
0.0
 11
-0.9794531591451232
 21
-291.00981296210938
 31
0.0
  0
LINE
  8
OUTLINE
  6
CONTINUOUS
 62
     3
 10
-0.9794531591451232
 20
-291.00981296210938
 30
0.0
 11
-0.9794531591451232
 21
-291.00981296210938
 31
0.0
  0
LINE
  8
OUTLINE
  6
CONTINUOUS
 62
     3
 10
-0.9794531591451232
 20
-291.00981296210938
 30
0.0
 11
-0.9889267478497459
 21
-291.00704353071438
 31
0.0
  0
LINE
  8
OUTLINE
  6
CONTINUOUS
 62
     3
 10
-0.9889267478497459
 20
-291.00704353071438
 30
0.0
 11
-0.9983937860829428
 21
-291.00423124070841
 31
0.0
  0
LINE
  8
OUTLINE
  6
CONTINUOUS
 62
     3
 10
-0.9983937860829428
 20
-291.00423124070841
 30
0.0
 11
-0.9983937860829428
 21
-291.00423124070841
 31
0.0
  0
LINE
  8
OUTLINE
  6
CONTINUOUS
 62
     3
 10
-0.9983937860829428
 20
-291.00423124070841
 30
0.0
 11
-1.0078535249181191
 21
-291.00137109593197
 31
0.0
  0
LINE
  8
OUTLINE
  6
CONTINUOUS
 62
     3
 10
-1.0078535249181191
 20
-291.00137109593197
 30
0.0
 11
-1.017305215427768
 21
-290.99845810022782
 31
0.0
  0
LINE
  8
OUTLINE
  6
CONTINUOUS
 62
     3
 10
-1.017305215427768
 20
-290.99845810022782
 30
0.0
 11
-1.017305215427768
 21
-290.99845810022782
 31
0.0
  0
LINE
  8
OUTLINE
  6
CONTINUOUS
 62
     3
 10
-1.017305215427768
 20
-290.99845810022782
 30
0.0
 11
-1.026748108684842
 21
-290.99548725743608
 31
0.0
  0
LINE
  8
OUTLINE
  6
CONTINUOUS
 62
     3
 10
-1.026748108684842
 20
-290.99548725743608
 30
0.0
 11
-1.0361814557661551
 21
-290.99245357139768
 31
0.0
  0
LINE
  8
OUTLINE
  6
CONTINUOUS
 62
     3
 10
-1.0361814557661551
 20
-290.99245357139768
 30
0.0
 11
-1.0361814557661551
 21
-290.99245357139768
 31
0.0
  0
LINE
  8
OUTLINE
  6
CONTINUOUS
 62
     3
 10
-1.0361814557661551
 20
-290.99245357139768
 30
0.0
 11
-1.045604507745338
 21
-290.98935204595352
 31
0.0
  0
LINE
  8
OUTLINE
  6
CONTINUOUS
 62
     3
 10
-1.045604507745338
 20
-290.98935204595352
 30
0.0
 11
-1.0550165156853379
 21
-290.98617768494989
 31
0.0
  0
LINE
  8
OUTLINE
  6
CONTINUOUS
 62
     3
 10
-1.0550165156853379
 20
-290.98617768494989
 30
0.0
 11
-1.0550165156853379
 21
-290.98617768494989
 31
0.0
  0
LINE
  8
OUTLINE
  6
CONTINUOUS
 62
     3
 10
-1.0550165156853379
 20
-290.98617768494989
 30
0.0
 11
-1.0644171118003669
 21
-290.98292830715599
 31
0.0
  0
LINE
  8
OUTLINE
  6
CONTINUOUS
 62
     3
 10
-1.0644171118003669
 20
-290.98292830715599
 30
0.0
 11
-1.0738074529213011
 21
-290.97961299103059
 31
0.0
  0
LINE
  8
OUTLINE
  6
CONTINUOUS
 62
     3
 10
-1.0738074529213011
 20
-290.97961299103059
 30
0.0
 11
-1.0738074529213011
 21
-290.97961299103059
 31
0.0
  0
LINE
  8
OUTLINE
  6
CONTINUOUS
 62
     3
 10
-1.0738074529213011
 20
-290.97961299103059
 30
0.0
 11
-1.0831890769939041
 21
-290.97624362997118
 31
0.0
  0
LINE
  8
OUTLINE
  6
CONTINUOUS
 62
     3
 10
-1.0831890769939041
 20
-290.97624362997118
 30
0.0
 11
-1.092563521804095
 21
-290.97283211744798
 31
0.0
  0
LINE
  8
OUTLINE
  6
CONTINUOUS
 62
     3
 10
-1.092563521804095
 20
-290.97283211744798
 30
0.0
 11
-1.092563521804095
 21
-290.97283211744798
 31
0.0
  0
LINE
  8
OUTLINE
  6
CONTINUOUS
 62
     3
 10
-1.092563521804095
 20
-290.97283211744798
 30
0.0
 11
-1.1019323252469351
 21
-290.96939034688143
 31
0.0
  0
LINE
  8
OUTLINE
  6
CONTINUOUS
 62
     3
 10
-1.1019323252469351
 20
-290.96939034688143
 30
0.0
 11
-1.111297025812291
 21
-290.96593021142849
 31
0.0
  0
LINE
  8
OUTLINE
  6
CONTINUOUS
 62
     3
 10
-1.111297025812291
 20
-290.96593021142849
 30
0.0
 11
-1.111297025812291
 21
-290.96593021142849
 31
0.0
  0
LINE
  8
OUTLINE
  6
CONTINUOUS
 62
     3
 10
-1.111297025812291
 20
-290.96593021142849
 30
0.0
 11
-1.12065916158349
 21
-290.96246360442558
 31
0.0
  0
LINE
  8
OUTLINE
  6
CONTINUOUS
 62
     3
 10
-1.12065916158349
 20
-290.96246360442558
 30
0.0
 11
-1.1300202684246869
 21
-290.95900242019542
 31
0.0
  0
LINE
  8
OUTLINE
  6
CONTINUOUS
 62
     3
 10
-1.1300202684246869
 20
-290.95900242019542
 30
0.0
 11
-1.1300202684246869
 21
-290.95900242019542
 31
0.0
  0
LINE
  8
OUTLINE
  6
CONTINUOUS
 62
     3
 10
-1.1300202684246869
 20
-290.95900242019542
 30
0.0
 11
-1.139381883715487
 21
-290.95555855238808
 31
0.0
  0
LINE
  8
OUTLINE
  6
CONTINUOUS
 62
     3
 10
-1.139381883715487
 20
-290.95555855238808
 30
0.0
 11
-1.148745553120079
 21
-290.95214389097367
 31
0.0
  0
LINE
  8
OUTLINE
  6
CONTINUOUS
 62
     3
 10
-1.148745553120079
 20
-290.95214389097367
 30
0.0
 11
-1.148745553120079
 21
-290.95214389097367
 31
0.0
  0
LINE
  8
OUTLINE
  6
CONTINUOUS
 62
     3
 10
-1.148745553120079
 20
-290.95214389097367
 30
0.0
 11
-1.1581124580050071
 21
-290.94876621820589
 31
0.0
  0
LINE
  8
OUTLINE
  6
CONTINUOUS
 62
     3
 10
-1.1581124580050071
 20
-290.94876621820589
 30
0.0
 11
-1.167482314264362
 21
-290.9454168891433
 31
0.0
  0
LINE
  8
OUTLINE
  6
CONTINUOUS
 62
     3
 10
-1.167482314264362
 20
-290.9454168891433
 30
0.0
 11
-1.167482314264362
 21
-290.9454168891433
 31
0.0
  0
LINE
  8
OUTLINE
  6
CONTINUOUS
 62
     3
 10
-1.167482314264362
 20
-290.9454168891433
 30
0.0
 11
-1.1768545002682911
 21
-290.94208313923679
 31
0.0
  0
LINE
  8
OUTLINE
  6
CONTINUOUS
 62
     3
 10
-1.1768545002682911
 20
-290.94208313923679
 30
0.0
 11
-1.1862285097722629
 21
-290.93875215269782
 31
0.0
  0
LINE
  8
OUTLINE
  6
CONTINUOUS
 62
     3
 10
-1.1862285097722629
 20
-290.93875215269782
 30
0.0
 11
-1.1862285097722629
 21
-290.93875215269782
 31
0.0
  0
LINE
  8
OUTLINE
  6
CONTINUOUS
 62
     3
 10
-1.1862285097722629
 20
-290.93875215269782
 30
0.0
 11
-1.1956037577219829
 21
-290.93541114873432
 31
0.0
  0
LINE
  8
OUTLINE
  6
CONTINUOUS
 62
     3
 10
-1.1956037577219829
 20
-290.93541114873432
 30
0.0
 11
-1.204979228446291
 21
-290.93204753778662
 31
0.0
  0
LINE
  8
OUTLINE
  6
CONTINUOUS
 62
     3
 10
-1.204979228446291
 20
-290.93204753778662
 30
0.0
 11
-1.204979228446291
 21
-290.93204753778662
 31
0.0
  0
LINE
  8
OUTLINE
  6
CONTINUOUS
 62
     3
 10
-1.204979228446291
 20
-290.93204753778662
 30
0.0
 11
-1.214354200390972
 21
-290.92864859968068
 31
0.0
  0
LINE
  8
OUTLINE
  6
CONTINUOUS
 62
     3
 10
-1.214354200390972
 20
-290.92864859968068
 30
0.0
 11
-1.22372955908827
 21
-290.92520090055791
 31
0.0
  0
LINE
  8
OUTLINE
  6
CONTINUOUS
 62
     3
 10
-1.22372955908827
 20
-290.92520090055791
 30
0.0
 11
-1.22372955908827
 21
-290.92520090055791
 31
0.0
  0
LINE
  8
OUTLINE
  6
CONTINUOUS
 62
     3
 10
-1.22372955908827
 20
-290.92520090055791
 30
0.0
 11
-1.2331050924099149
 21
-290.92169149401502
 31
0.0
  0
LINE
  8
OUTLINE
  6
CONTINUOUS
 62
     3
 10
-1.2331050924099149
 20
-290.92169149401502
 30
0.0
 11
-1.2424745905004779
 21
-290.91811009716059
 31
0.0
  0
LINE
  8
OUTLINE
  6
CONTINUOUS
 62
     3
 10
-1.2424745905004779
 20
-290.91811009716059
 30
0.0
 11
-1.2424745905004779
 21
-290.91811009716059
 31
0.0
  0
LINE
  8
OUTLINE
  6
CONTINUOUS
 62
     3
 10
-1.2424745905004779
 20
-290.91811009716059
 30
0.0
 11
-1.25183608207567
 21
-290.91444793430281
 31
0.0
  0
LINE
  8
OUTLINE
  6
CONTINUOUS
 62
     3
 10
-1.25183608207567
 20
-290.91444793430281
 30
0.0
 11
-1.2612105478642659
 21
-290.91069959505
 31
0.0
  0
LINE
  8
OUTLINE
  6
CONTINUOUS
 62
     3
 10
-1.2612105478642659
 20
-290.91069959505
 30
0.0
 11
-1.2612105478642659
 21
-290.91069959505
 31
0.0
  0
LINE
  8
OUTLINE
  6
CONTINUOUS
 62
     3
 10
-1.2612105478642659
 20
-290.91069959505
 30
0.0
 11
-1.270603822206795
 21
-290.90686978481119
 31
0.0
  0
LINE
  8
OUTLINE
  6
CONTINUOUS
 62
     3
 10
-1.270603822206795
 20
-290.90686978481119
 30
0.0
 11
-1.279938201878394
 21
-290.90300030690622
 31
0.0
  0
LINE
  8
OUTLINE
  6
CONTINUOUS
 62
     3
 10
-1.279938201878394
 20
-290.90300030690622
 30
0.0
 11
-1.279938201878394
 21
-290.90300030690622
 31
0.0
  0
LINE
  8
OUTLINE
  6
CONTINUOUS
 62
     3
 10
-1.279938201878394
 20
-290.90300030690622
 30
0.0
 11
-1.2891930408727601
 21
-290.89910762631058
 31
0.0
  0
LINE
  8
OUTLINE
  6
CONTINUOUS
 62
     3
 10
-1.2891930408727601
 20
-290.89910762631058
 30
0.0
 11
-1.298659459620467
 21
-290.89506975671679
 31
0.0
  0
LINE
  8
OUTLINE
  6
CONTINUOUS
 62
     3
 10
-1.298659459620467
 20
-290.89506975671679
 30
0.0
 11
-1.298659459620467
 21
-290.89506975671679
 31
0.0
  0
LINE
  8
OUTLINE
  6
CONTINUOUS
 62
     3
 10
-1.298659459620467
 20
-290.89506975671679
 30
0.0
 11
-1.30841563811623
 21
-290.89085927580152
 31
0.0
  0
LINE
  8
OUTLINE
  6
CONTINUOUS
 62
     3
 10
-1.30841563811623
 20
-290.89085927580152
 30
0.0
 11
-1.3173762281685411
 21
-290.8869654684662
 31
0.0
  0
LINE
  8
OUTLINE
  6
CONTINUOUS
 62
     3
 10
-1.3173762281685411
 20
-290.8869654684662
 30
0.0
 11
-1.3173762281685411
 21
-290.8869654684662
 31
0.0
  0
LINE
  8
OUTLINE
  6
CONTINUOUS
 62
     3
 10
-1.3173762281685411
 20
-290.8869654684662
 30
0.0
 11
-1.3252505861155439
 21
-290.88352470201488
 31
0.0
  0
LINE
  8
OUTLINE
  6
CONTINUOUS
 62
     3
 10
-1.3252505861155439
 20
-290.88352470201488
 30
0.0
 11
-1.336090414600221
 21
-290.87874496614359
 31
0.0
  0
LINE
  8
OUTLINE
  6
CONTINUOUS
 62
     3
 10
-1.336090414600221
 20
-290.87874496614359
 30
0.0
 11
-1.336090414600221
 21
-290.87874496614359
 31
0.0
  0
LINE
  8
OUTLINE
  6
CONTINUOUS
 62
     3
 10
-1.336090414600221
 20
-290.87874496614359
 30
0.0
 11
-1.3533205805420041
 21
-290.87110819205623
 31
0.0
  0
LINE
  8
OUTLINE
  6
CONTINUOUS
 62
     3
 10
-1.3533205805420041
 20
-290.87110819205623
 30
0.0
 11
-1.373516261661734
 21
-290.86212045459388
 31
0.0
  0
LINE
  8
OUTLINE
  6
CONTINUOUS
 62
     3
 10
-1.373516261661734
 20
-290.86212045459388
 30
0.0
 11
-1.373516261661734
 21
-290.86212045459388
 31
0.0
  0
LINE
  8
OUTLINE
  6
CONTINUOUS
 62
     3
 10
-1.373516261661734
 20
-290.86212045459388
 30
0.0
 11
-1.3926258418166531
 21
-290.85356774928903
 31
0.0
  0
LINE
  8
OUTLINE
  6
CONTINUOUS
 62
     3
 10
-1.3926258418166531
 20
-290.85356774928903
 30
0.0
 11
-1.4109402186054469
 21
-290.84533161080248
 31
0.0
  0
LINE
  8
OUTLINE
  6
CONTINUOUS
 62
     3
 10
-1.4109402186054469
 20
-290.84533161080248
 30
0.0
 11
-1.4109402186054469
 21
-290.84533161080248
 31
0.0
  0
LINE
  8
OUTLINE
  6
CONTINUOUS
 62
     3
 10
-1.4109402186054469
 20
-290.84533161080248
 30
0.0
 11
-1.429545121718093
 21
-290.83694472742872
 31
0.0
  0
LINE
  8
OUTLINE
  6
CONTINUOUS
 62
     3
 10
-1.429545121718093
 20
-290.83694472742872
 30
0.0
 11
-1.448363095466902
 21
-290.82844886287319
 31
0.0
  0
LINE
  8
OUTLINE
  6
CONTINUOUS
 62
     3
 10
-1.448363095466902
 20
-290.82844886287319
 30
0.0
 11
-1.448363095466902
 21
-290.82844886287319
 31
0.0
  0
LINE
  8
OUTLINE
  6
CONTINUOUS
 62
     3
 10
-1.448363095466902
 20
-290.82844886287319
 30
0.0
 11
-1.46710344476196
 21
-290.81998008950171
 31
0.0
  0
LINE
  8
OUTLINE
  6
CONTINUOUS
 62
     3
 10
-1.46710344476196
 20
-290.81998008950171
 30
0.0
 11
-1.4857857022816461
 21
-290.81154263890909
 31
0.0
  0
LINE
  8
OUTLINE
  6
CONTINUOUS
 62
     3
 10
-1.4857857022816461
 20
-290.81154263890909
 30
0.0
 11
-1.4857857022816461
 21
-290.81154263890909
 31
0.0
  0
LINE
  8
OUTLINE
  6
CONTINUOUS
 62
     3
 10
-1.4857857022816461
 20
-290.81154263890909
 30
0.0
 11
-1.50448752622242
 21
-290.80311235441638
 31
0.0
  0
LINE
  8
OUTLINE
  6
CONTINUOUS
 62
     3
 10
-1.50448752622242
 20
-290.80311235441638
 30
0.0
 11
-1.523208849085449
 21
-290.79468336701439
 31
0.0
  0
LINE
  8
OUTLINE
  6
CONTINUOUS
 62
     3
 10
238.33333333333329
 20
-99.591522157995882
 30
0.0
 11
206.53232368060429
 21
-99.591522157995882
 31
0.0
  0
LINE
  8
OUTLINE
  6
CONTINUOUS
 62
     3
 10
-206.53232368060461
 20
-99.591522157995882
 30
0.0
 11
-238.33333333333351
 21
-99.591522157995882
 31
0.0
  0
ARC
  8
OUTLINE
  6
CONTINUOUS
 62
     3
 10
-238.33333333333351
 20
-64.524084778419933
 30
0.0
 40
34.46628131021189
 50
295.68763667249539
 51
337.3431083458018
  0
ARC
  8
OUTLINE
  6
CONTINUOUS
 62
     3
 10
-233.3236994219653
 20
-49.495183044315809
 30
0.0
 40
29.456647398843931
 50
24.539341144897559
 51
90.0
  0
ARC
  8
OUTLINE
  6
CONTINUOUS
 62
     3
 10
238.33333333333329
 20
-64.524084778419933
 30
0.0
 40
34.466281310212011
 50
202.6568916541982
 51
244.31236332750379
  0
ARC
  8
OUTLINE
  6
CONTINUOUS
 62
     3
 10
233.3236994219651
 20
-49.495183044315809
 30
0.0
 40
29.456647398843931
 50
91.044076173398295
 51
155.46065885510251
  0
LINE
  8
DETAIL
  6
CONTINUOUS
 62
     5
 10
-256.99421965317919
 20
-6.4123314065507202
 30
0.0
 11
-256.99421965317919
 21
-3.0057803468209841
 31
0.0
  0
LINE
  8
DETAIL
  6
CONTINUOUS
 62
     5
 10
-253.8226442489304
 20
-3.0057803468209841
 30
0.0
 11
-253.8226442489304
 21
-5.1098265895952864
 31
0.0
  0
LINE
  8
DETAIL
  6
CONTINUOUS
 62
     5
 10
-246.9749518304429
 20
-16.4315992292868
 30
0.0
 11
-246.9749518304429
 21
-13.89435725155761
 31
0.0
  0
LINE
  8
DETAIL
  6
CONTINUOUS
 62
     5
 10
-206.53232368060461
 20
-160.30828516377619
 30
0.0
 11
-206.53232368060461
 21
-14.52793834296688
 31
0.0
  0
LINE
  8
DETAIL
  6
CONTINUOUS
 62
     5
 10
-204.22979870900599
 20
-5.1098265895952864
 30
0.0
 11
-204.22979870900599
 21
-3.0057803468209841
 31
0.0
  0
LINE
  8
DETAIL
  6
CONTINUOUS
 62
     5
 10
-203.34421218136779
 20
-14.52793834296688
 30
0.0
 11
-203.34421218136779
 21
-160.30828516377619
 31
0.0
  0
LINE
  8
DETAIL
  6
CONTINUOUS
 62
     5
 10
-192.8942911573204
 20
-3.0057803468209841
 30
0.0
 11
-192.8942911573204
 21
-6.4123314065507202
 31
0.0
  0
LINE
  8
DETAIL
  6
CONTINUOUS
 62
     5
 10
-185.15147907239199
 20
-14.52793834296688
 30
0.0
 11
-185.15147907239199
 21
-18.53564547206156
 31
0.0
  0
LINE
  8
DETAIL
  6
CONTINUOUS
 62
     5
 10
-180.67319707734671
 20
-18.53564547206156
 30
0.0
 11
-180.67319707734671
 21
-160.30828516377619
 31
0.0
  0
LINE
  8
DETAIL
  6
CONTINUOUS
 62
     5
 10
-180.14184516102409
 20
-14.52793834296688
 30
0.0
 11
-180.14184516102409
 21
-18.088203018141598
 31
0.0
  0
LINE
  8
DETAIL
  6
CONTINUOUS
 62
     5
 10
-175.13221124965591
 20
-18.53564547206156
 30
0.0
 11
-175.13221124965591
 21
-14.52793834296688
 31
0.0
  0
LINE
  8
DETAIL
  6
CONTINUOUS
 62
     5
 10
-4.7090558766860804
 20
-289.15606936416168
 30
0.0
 11
4.7090558766858521
 21
-289.15606936416168
 31
0.0
  0
LINE
  8
DETAIL
  6
CONTINUOUS
 62
     5
 10
57.911368015414148
 20
-288.65510597302489
 30
0.0
 11
-57.911368015414382
 21
-288.65510597302489
 31
0.0
  0
LINE
  8
DETAIL
  6
CONTINUOUS
 62
     5
 10
-163.1385838328456
 20
-14.52793834296688
 30
0.0
 11
-163.1385838328456
 21
-10.019267822736079
 31
0.0
  0
LINE
  8
DETAIL
  6
CONTINUOUS
 62
     5
 10
-151.09460705917991
 20
-13.02504816955684
 30
0.0
 11
-151.09460705917991
 21
-16.4315992292868
 31
0.0
  0
LINE
  8
DETAIL
  6
CONTINUOUS
 62
     5
 10
89.672447013487499
 20
-266.51252408477842
 30
0.0
 11
-89.672447013487499
 21
-266.51252408477842
 31
0.0
  0
LINE
  8
DETAIL
  6
CONTINUOUS
 62
     5
 10
-134.26846303665889
 20
-262.50481695568391
 30
0.0
 11
-89.672447013487499
 21
-262.50481695568391
 31
0.0
  0
LINE
  8
DETAIL
  6
CONTINUOUS
 62
     5
 10
89.672447013487499
 20
-262.50481695568391
 30
0.0
 11
131.08035153794211
 21
-262.50481695550008
 31
0.0
  0
LINE
  8
DETAIL
  6
CONTINUOUS
 62
     5
 10
-131.0803515374223
 20
-230.4431599229288
 30
0.0
 11
-89.672447013487499
 21
-230.4431599229288
 31
0.0
  0
LINE
  8
DETAIL
  6
CONTINUOUS
 62
     5
 10
89.672447013487499
 20
-230.4431599229288
 30
0.0
 11
131.0803515374221
 21
-230.4431599229288
 31
0.0
  0
LINE
  8
DETAIL
  6
CONTINUOUS
 62
     5
 10
83.660886319845758
 20
-225.4335260115605
 30
0.0
 11
-83.660886319845758
 21
-225.4335260115605
 31
0.0
  0
LINE
  8
DETAIL
  6
CONTINUOUS
 62
     5
 10
-86.165703275529722
 20
-225.4335260115605
 30
0.0
 11
-83.869947366163842
 21
-225.4335260115605
 31
0.0
  0
LINE
  8
DETAIL
  6
CONTINUOUS
 62
     5
 10
83.869947366163615
 20
-225.4335260115605
 30
0.0
 11
86.165703275529722
 21
-225.4335260115605
 31
0.0
  0
LINE
  8
DETAIL
  6
CONTINUOUS
 62
     5
 10
-86.165703275529722
 20
-221.4258188824663
 30
0.0
 11
86.165703275529722
 21
-221.4258188824663
 31
0.0
  0
LINE
  8
DETAIL
  6
CONTINUOUS
 62
     5
 10
-89.672447013487499
 20
-266.51252408477842
 30
0.0
 11
-89.672447013487499
 21
-230.4431599229288
 31
0.0
  0
LINE
  8
DETAIL
  6
CONTINUOUS
 62
     5
 10
-61.064654178564979
 20
-214.91329479768791
 30
0.0
 11
-48.039606009008367
 21
-214.91329479768791
 31
0.0
  0
LINE
  8
DETAIL
  6
CONTINUOUS
 62
     5
 10
48.039606009008367
 20
-214.91329479768791
 30
0.0
 11
61.064654178565213
 21
-214.91329479768791
 31
0.0
  0
LINE
  8
DETAIL
  6
CONTINUOUS
 62
     5
 10
57.808392136175833
 20
-211.70712909441229
 30
0.0
 11
51.29586805139752
 21
-211.70712909441229
 31
0.0
  0
LINE
  8
DETAIL
  6
CONTINUOUS
 62
     5
 10
-51.29586805139752
 20
-211.70712909441229
 30
0.0
 11
-57.808392136176053
 21
-211.70712909441229
 31
0.0
  0
LINE
  8
DETAIL
  6
CONTINUOUS
 62
     5
 10
-66.127167630057784
 20
-219.4219653179189
 30
0.0
 11
-66.127167630057784
 21
-185.8214505583162
 31
0.0
  0
LINE
  8
DETAIL
  6
CONTINUOUS
 62
     5
 10
-65.325626204239143
 20
-281.24084778420018
 30
0.0
 11
-65.325626204239143
 21
-266.51252408477842
 31
0.0
  0
LINE
  8
DETAIL
  6
CONTINUOUS
 62
     5
 10
-65.325626204239143
 20
-184.43314008437801
 30
0.0
 11
-65.325626204239143
 21
-155.89980732177261
 31
0.0
  0
LINE
  8
DETAIL
  6
CONTINUOUS
 62
     5
 10
-66.127167630057784
 20
-185.8214505583162
 30
0.0
 11
66.127167630057784
 21
-185.8214505583162
 31
0.0
  0
LINE
  8
DETAIL
  6
CONTINUOUS
 62
     5
 10
-65.325626204239143
 20
-184.43314008437801
 30
0.0
 11
65.325626204239143
 21
-184.43314008437801
 31
0.0
  0
LINE
  8
DETAIL
  6
CONTINUOUS
 62
     5
 10
-61.064654178564979
 20
-221.4258188824663
 30
0.0
 11
-61.064654178564979
 21
-214.91329479768791
 31
0.0
  0
LINE
  8
DETAIL
  6
CONTINUOUS
 62
     5
 10
-57.808392136176053
 20
-211.70712909441229
 30
0.0
 11
-57.808392136176053
 21
-214.91329479768791
 31
0.0
  0
LINE
  8
DETAIL
  6
CONTINUOUS
 62
     5
 10
-54.552130093786673
 20
-221.4258188824663
 30
0.0
 11
-54.552130093786673
 21
-215.4949699869378
 31
0.0
  0
LINE
  8
DETAIL
  6
CONTINUOUS
 62
     5
 10
-51.29586805139752
 20
-211.70712909441229
 30
0.0
 11
-51.29586805139752
 21
-214.91329479768791
 31
0.0
  0
LINE
  8
DETAIL
  6
CONTINUOUS
 62
     5
 10
-48.039606009008367
 20
-221.4258188824663
 30
0.0
 11
-48.039606009008367
 21
-214.91329479768791
 31
0.0
  0
LINE
  8
DETAIL
  6
CONTINUOUS
 62
     5
 10
-26.057750734429419
 20
-144.67822736030831
 30
0.0
 11
-25.2283521774641
 21
-135.1981584741884
 31
0.0
  0
LINE
  8
DETAIL
  6
CONTINUOUS
 62
     5
 10
-65.325626204239143
 20
-184.43314008437801
 30
0.0
 11
-66.127167630057784
 21
-185.8214505583162
 31
0.0
  0
LINE
  8
DETAIL
  6
CONTINUOUS
 62
     5
 10
-57.911368015414382
 20
-148.48554913294791
 30
0.0
 11
40.0594193130446
 21
-148.48554913294791
 31
0.0
  0
LINE
  8
DETAIL
  6
CONTINUOUS
 62
     5
 10
-13.02500367880293
 20
-147.9845857418108
 30
0.0
 11
13.02504816955661
 21
-147.9845857418108
 31
0.0
  0
LINE
  8
DETAIL
  6
CONTINUOUS
 62
     5
 10
26.057750734429192
 20
-144.67822736030831
 30
0.0
 11
-26.057750734429419
 21
-144.67822736030831
 31
0.0
  0
LINE
  8
DETAIL
  6
CONTINUOUS
 62
     5
 10
-10.51310727502937
 20
-147.94003997557721
 30
0.0
 11
-12.856099651027311
 21
-145.59702468343201
 31
0.0
  0
LINE
  8
DETAIL
  6
CONTINUOUS
 62
     5
 10
-8.5163776493257046
 20
-130.15028901734081
 30
0.0
 11
-8.5163776493255909
 21
-123.1087499259601
 31
0.0
  0
LINE
  8
DETAIL
  6
CONTINUOUS
 62
     5
 10
-4.7090558766860804
 20
-289.15606936416168
 30
0.0
 11
-4.7090558766860804
 21
-288.65510597302489
 31
0.0
  0
LINE
  8
DETAIL
  6
CONTINUOUS
 62
     5
 10
-15.028901734104011
 20
-130.15028901734081
 30
0.0
 11
-20.674399794259902
 21
-130.6442060974903
 31
0.0
  0
LINE
  8
DETAIL
  6
CONTINUOUS
 62
     5
 10
4.3767546761418998
 20
-130.15028901734081
 30
0.0
 11
-15.028901734104011
 21
-130.15028901734081
 31
0.0
  0
LINE
  8
DETAIL
  6
CONTINUOUS
 62
     5
 10
4.7090558766858521
 20
-289.15606936416168
 30
0.0
 11
4.7090558766858521
 21
-288.65510597302489
 31
0.0
  0
LINE
  8
DETAIL
  6
CONTINUOUS
 62
     5
 10
-238.33333333333351
 20
-99.591522157995882
 30
0.0
 11
-206.53232368060461
 21
-99.591522157995882
 31
0.0
  0
LINE
  8
DETAIL
  6
CONTINUOUS
 62
     5
 10
206.53232368060429
 20
-99.591522157995882
 30
0.0
 11
238.33333333333329
 21
-99.591522157995882
 31
0.0
  0
LINE
  8
DETAIL
  6
CONTINUOUS
 62
     5
 10
-238.33333333333351
 20
-95.58381502890154
 30
0.0
 11
-206.53232368060461
 21
-95.58381502890154
 31
0.0
  0
LINE
  8
DETAIL
  6
CONTINUOUS
 62
     5
 10
-180.67319707734671
 20
-95.58381502890154
 30
0.0
 11
180.67319707734649
 21
-95.58381502890154
 31
0.0
  0
LINE
  8
DETAIL
  6
CONTINUOUS
 62
     5
 10
206.53232368060429
 20
-95.58381502890154
 30
0.0
 11
238.33333333333329
 21
-95.58381502890154
 31
0.0
  0
LINE
  8
DETAIL
  6
CONTINUOUS
 62
     5
 10
26.057750734429192
 20
-144.67822736030831
 30
0.0
 11
25.765728764918322
 21
-141.34040097518249
 31
0.0
  0
LINE
  8
DETAIL
  6
CONTINUOUS
 62
     5
 10
10.51310727502937
 20
-147.94003997557721
 30
0.0
 11
12.85609965102708
 21
-145.59702468343201
 31
0.0
  0
LINE
  8
DETAIL
  6
CONTINUOUS
 62
     5
 10
209.43116466766739
 20
-78.901734104046
 30
0.0
 11
207.01572659314891
 21
-78.901734104046
 31
0.0
  0
LINE
  8
DETAIL
  6
CONTINUOUS
 62
     5
 10
209.43116466766739
 20
-75.394990366088564
 30
0.0
 11
206.53232368060429
 21
-75.394990366088564
 31
0.0
  0
LINE
  8
DETAIL
  6
CONTINUOUS
 62
     5
 10
48.039606009008367
 20
-221.4258188824663
 30
0.0
 11
48.039606009008367
 21
-214.91329479768791
 31
0.0
  0
LINE
  8
DETAIL
  6
CONTINUOUS
 62
     5
 10
51.29586805139752
 20
-211.70712909441229
 30
0.0
 11
51.29586805139752
 21
-214.91329479768791
 31
0.0
  0
LINE
  8
DETAIL
  6
CONTINUOUS
 62
     5
 10
54.552130093786673
 20
-221.4258188824663
 30
0.0
 11
54.552130093786673
 21
-215.4949699869378
 31
0.0
  0
LINE
  8
DETAIL
  6
CONTINUOUS
 62
     5
 10
57.808392136175833
 20
-211.70712909441229
 30
0.0
 11
57.808392136175833
 21
-214.91329479768791
 31
0.0
  0
LINE
  8
DETAIL
  6
CONTINUOUS
 62
     5
 10
61.064654178565213
 20
-221.4258188824663
 30
0.0
 11
61.064654178565213
 21
-214.91329479768791
 31
0.0
  0
LINE
  8
DETAIL
  6
CONTINUOUS
 62
     5
 10
63.56947113424917
 20
-225.4335260115605
 30
0.0
 11
63.56947113424917
 21
-221.4258188824663
 31
0.0
  0
LINE
  8
DETAIL
  6
CONTINUOUS
 62
     5
 10
65.325626204238915
 20
-281.24084778420018
 30
0.0
 11
65.325626204238915
 21
-266.51252408477842
 31
0.0
  0
LINE
  8
DETAIL
  6
CONTINUOUS
 62
     5
 10
65.325626204239143
 20
-184.43314008437801
 30
0.0
 11
65.325626204238915
 21
-160.48331991931931
 31
0.0
  0
LINE
  8
DETAIL
  6
CONTINUOUS
 62
     5
 10
66.127167630057784
 20
-219.4219653179189
 30
0.0
 11
66.127167630057784
 21
-185.8214505583162
 31
0.0
  0
LINE
  8
DETAIL
  6
CONTINUOUS
 62
     5
 10
86.165703275529722
 20
-225.4335260115605
 30
0.0
 11
86.165703275529722
 21
-221.4258188824663
 31
0.0
  0
LINE
  8
DETAIL
  6
CONTINUOUS
 62
     5
 10
89.672447013487499
 20
-266.51252408477842
 30
0.0
 11
89.672447013487499
 21
-230.4431599229288
 31
0.0
  0
LINE
  8
DETAIL
  6
CONTINUOUS
 62
     5
 10
243.368015414258
 20
-20.038535645472049
 30
0.0
 11
206.53232368060429
 21
-20.038535645472049
 31
0.0
  0
LINE
  8
DETAIL
  6
CONTINUOUS
 62
     5
 10
180.67319707734649
 20
-20.038535645472049
 30
0.0
 11
-180.67319707734671
 21
-20.038535645472049
 31
0.0
  0
LINE
  8
DETAIL
  6
CONTINUOUS
 62
     5
 10
-206.53232368060461
 20
-20.038535645472049
 30
0.0
 11
-243.36801541425831
 21
-20.038535645472049
 31
0.0
  0
LINE
  8
DETAIL
  6
CONTINUOUS
 62
     5
 10
216.32412484017709
 20
-18.53564547206156
 30
0.0
 11
206.53232368060429
 21
-18.53564547206156
 31
0.0
  0
LINE
  8
DETAIL
  6
CONTINUOUS
 62
     5
 10
-175.13221124965591
 20
-18.53564547206156
 30
0.0
 11
-185.15147907239199
 21
-18.53564547206156
 31
0.0
  0
LINE
  8
DETAIL
  6
CONTINUOUS
 62
     5
 10
244.5005606345369
 20
-14.52793834296688
 30
0.0
 11
163.1385838328454
 21
-14.52793834296688
 31
0.0
  0
LINE
  8
DETAIL
  6
CONTINUOUS
 62
     5
 10
-163.1385838328456
 20
-14.52793834296688
 30
0.0
 11
-244.50056063453709
 21
-14.52793834296688
 31
0.0
  0
LINE
  8
DETAIL
  6
CONTINUOUS
 62
     5
 10
253.38728323699431
 20
-10.019267822736079
 30
0.0
 11
250.1758680125115
 21
-10.019267822736079
 31
0.0
  0
LINE
  8
DETAIL
  6
CONTINUOUS
 62
     5
 10
189.28735474113549
 20
-10.019267822736079
 30
0.0
 11
-189.28735474113549
 21
-10.019267822736079
 31
0.0
  0
LINE
  8
DETAIL
  6
CONTINUOUS
 62
     5
 10
-189.28735474113549
 20
-10.019267822736079
 30
0.0
 11
-194.90771509461271
 21
-10.019267822736079
 31
0.0
  0
LINE
  8
DETAIL
  6
CONTINUOUS
 62
     5
 10
-250.1758680125115
 20
-10.019267822736079
 30
0.0
 11
-253.38728323699431
 21
-10.019267822736079
 31
0.0
  0
LINE
  8
DETAIL
  6
CONTINUOUS
 62
     5
 10
189.28735474113549
 20
-10.019267822736079
 30
0.0
 11
194.90771509461231
 21
-10.019267822736079
 31
0.0
  0
LINE
  8
DETAIL
  6
CONTINUOUS
 62
     5
 10
253.8226442489304
 20
-5.1098265895952864
 30
0.0
 11
203.82636743547781
 21
-5.1098265895952864
 31
0.0
  0
LINE
  8
DETAIL
  6
CONTINUOUS
 62
     5
 10
-253.8226442489304
 20
-5.1098265895952864
 30
0.0
 11
-203.82636743547801
 21
-5.1098265895952864
 31
0.0
  0
LINE
  8
DETAIL
  6
CONTINUOUS
 62
     5
 10
258.49710982658962
 20
-3.0057803468209841
 30
0.0
 11
-258.49710982658962
 21
-3.0057803468209841
 31
0.0
  0
LINE
  8
DETAIL
  6
CONTINUOUS
 62
     5
 10
258.49710982658962
 20
0.0
 30
0.0
 11
-258.49710982658962
 21
0.0
 31
0.0
  0
LINE
  8
DETAIL
  6
CONTINUOUS
 62
     5
 10
207.19673085749309
 20
-78.901734104046
 30
0.0
 11
207.90520007947339
 21
-77.899807321772641
 31
0.0
  0
LINE
  8
DETAIL
  6
CONTINUOUS
 62
     5
 10
151.09460705917971
 20
-16.4315992292868
 30
0.0
 11
151.09460705917971
 21
-13.02504816955684
 31
0.0
  0
LINE
  8
DETAIL
  6
CONTINUOUS
 62
     5
 10
163.1385838328454
 20
-14.52793834296688
 30
0.0
 11
163.1385838328454
 21
-10.019267822736079
 31
0.0
  0
LINE
  8
DETAIL
  6
CONTINUOUS
 62
     5
 10
180.67319707734649
 20
-160.30828516377619
 30
0.0
 11
180.67319707734649
 21
-14.52793834296688
 31
0.0
  0
LINE
  8
DETAIL
  6
CONTINUOUS
 62
     5
 10
192.8942911573204
 20
-6.4123314065507202
 30
0.0
 11
192.8942911573204
 21
-3.0057803468209841
 31
0.0
  0
LINE
  8
DETAIL
  6
CONTINUOUS
 62
     5
 10
203.34421218136779
 20
-160.30828516377619
 30
0.0
 11
203.34421218136779
 21
-14.52793834296688
 31
0.0
  0
LINE
  8
DETAIL
  6
CONTINUOUS
 62
     5
 10
204.22979870900579
 20
-5.1098265895952864
 30
0.0
 11
204.22979870900579
 21
-3.0057803468209841
 31
0.0
  0
LINE
  8
DETAIL
  6
CONTINUOUS
 62
     5
 10
206.53232368060429
 20
-14.52793834296688
 30
0.0
 11
206.53232368060429
 21
-160.30828516377619
 31
0.0
  0
LINE
  8
DETAIL
  6
CONTINUOUS
 62
     5
 10
207.90520007947339
 20
-76.396917148362263
 30
0.0
 11
207.90520007947339
 21
-77.899807321772641
 31
0.0
  0
LINE
  8
DETAIL
  6
CONTINUOUS
 62
     5
 10
209.43117939273819
 20
-75.394990366088564
 30
0.0
 11
209.43117939273819
 21
-78.901734104046
 31
0.0
  0
LINE
  8
DETAIL
  6
CONTINUOUS
 62
     5
 10
207.90520007947339
 20
-76.396917148362263
 30
0.0
 11
207.19673085749309
 21
-75.394990366088564
 31
0.0
  0
LINE
  8
DETAIL
  6
CONTINUOUS
 62
     5
 10
211.31449092880879
 20
-14.52793834296688
 30
0.0
 11
211.31449092880879
 21
-18.088203018141598
 31
0.0
  0
LINE
  8
DETAIL
  6
CONTINUOUS
 62
     5
 10
216.32412484017709
 20
-18.53564547206156
 30
0.0
 11
216.32412484017709
 21
-14.52793834296688
 31
0.0
  0
LINE
  8
DETAIL
  6
CONTINUOUS
 62
     5
 10
246.97495183044319
 20
-13.89435725155761
 30
0.0
 11
246.97495183044319
 21
-16.4315992292868
 31
0.0
  0
LINE
  8
DETAIL
  6
CONTINUOUS
 62
     5
 10
253.8226442489304
 20
-5.1098265895952864
 30
0.0
 11
253.8226442489304
 21
-3.0057803468209841
 31
0.0
  0
LINE
  8
DETAIL
  6
CONTINUOUS
 62
     5
 10
256.99421965317919
 20
-3.0057803468209841
 30
0.0
 11
256.99421965317919
 21
-6.4123314065507202
 31
0.0
  0
ARC
  8
DETAIL
  6
CONTINUOUS
 62
     5
 10
-57.911368015414382
 20
-281.24084778420018
 30
0.0
 40
7.4142581888247028
 50
180.0
 51
270.0
  0
ARC
  8
DETAIL
  6
CONTINUOUS
 62
     5
 10
-83.660886319845758
 20
-231.44508670520199
 30
0.0
 40
6.0115606936415116
 50
90.0
 51
180.0
  0
ARC
  8
DETAIL
  6
CONTINUOUS
 62
     5
 10
-253.38728323699431
 20
-6.4123314065507202
 30
0.0
 40
3.606936416184908
 50
180.0
 51
270.0
  0
ARC
  8
DETAIL
  6
CONTINUOUS
 62
     5
 10
-189.28735474113549
 20
-6.4123314065507202
 30
0.0
 40
3.606936416184964
 50
180.0
 51
270.0
  0
ARC
  8
DETAIL
  6
CONTINUOUS
 62
     5
 10
-243.36801541425831
 20
-16.4315992292868
 30
0.0
 40
3.606936416184908
 50
180.0
 51
270.0
  0
ARC
  8
DETAIL
  6
CONTINUOUS
 62
     5
 10
-147.4876706429948
 20
-16.4315992292868
 30
0.0
 40
3.606936416184964
 50
180.0
 51
270.0
  0
ARC
  8
DETAIL
  6
CONTINUOUS
 62
     5
 10
-154.10038740600069
 20
-13.02504816955684
 30
0.0
 40
3.0057803468208131
 50
0.0
 51
90.0
  0
ARC
  8
DETAIL
  6
CONTINUOUS
 62
     5
 10
-238.33333333333351
 20
-97.587668593448825
 30
0.0
 40
2.0038535645472839
 50
90.0
 51
270.0
  0
ARC
  8
DETAIL
  6
CONTINUOUS
 62
     5
 10
-258.49710982658962
 20
-1.5028901734103779
 30
0.0
 40
1.502890173410377
 50
90.0
 51
270.0
  0
ARC
  8
DETAIL
  6
CONTINUOUS
 62
     5
 10
-57.911368015414382
 20
-155.89980732177261
 30
0.0
 40
7.4142581888247614
 50
90.0
 51
180.0
  0
ARC
  8
DETAIL
  6
CONTINUOUS
 62
     5
 10
-20.237781435127541
 20
-135.63477683982691
 30
0.0
 40
5.0096339113681561
 50
94.999999935999412
 51
174.99999998889771
  0
ARC
  8
DETAIL
  6
CONTINUOUS
 62
     5
 10
-13.02504816955684
 20
-151.591522157996
 30
0.0
 40
3.606936416184908
 50
90.0
 51
120.5064405230938
  0
ARC
  8
DETAIL
  6
CONTINUOUS
 62
     5
 10
-68.131021194605182
 20
-219.4219653179189
 30
0.0
 40
2.0038535645470561
 50
270.0
 51
0.0
  0
ARC
  8
DETAIL
  6
CONTINUOUS
 62
     5
 10
-11.72254335260118
 20
-144.46347947191151
 30
0.0
 40
1.6030828516377429
 50
187.70070112470259
 51
224.99971980700289
  0
ARC
  8
DETAIL
  6
CONTINUOUS
 62
     5
 10
-11.221579961464389
 20
-148.64850573310281
 30
0.0
 40
1.0019267822736391
 50
41.609122939304889
 51
44.999719807002897
  0
ARC
  8
DETAIL
  6
CONTINUOUS
 62
     5
 10
57.911368015414148
 20
-281.24084778420018
 30
0.0
 40
7.4142581888247614
 50
270.0
 51
0.0
  0
ARC
  8
DETAIL
  6
CONTINUOUS
 62
     5
 10
0.0
 20
-284.6248554913293
 30
0.0
 40
6.5350674373797437
 50
223.89739816710619
 51
316.10260183289381
  0
ARC
  8
DETAIL
  6
CONTINUOUS
 62
     5
 10
83.660886319845758
 20
-231.44508670520199
 30
0.0
 40
6.0115606936416279
 50
0.0
 51
90.0
  0
ARC
  8
DETAIL
  6
CONTINUOUS
 62
     5
 10
13.02504816955661
 20
-151.591522157996
 30
0.0
 40
3.6069364161849879
 50
59.493559476906192
 51
90.0
  0
ARC
  8
DETAIL
  6
CONTINUOUS
 62
     5
 10
68.131021194604955
 20
-219.4219653179189
 30
0.0
 40
2.0038535645472271
 50
180.0
 51
270.0
  0
ARC
  8
DETAIL
  6
CONTINUOUS
 62
     5
 10
11.72254335260118
 20
-144.46347947191151
 30
0.0
 40
1.6030828516377471
 50
315.00028019299708
 51
352.29929887529732
  0
ARC
  8
DETAIL
  6
CONTINUOUS
 62
     5
 10
11.221579961464389
 20
-148.64850573310281
 30
0.0
 40
1.0019267822736111
 50
135.00028019299711
 51
138.39087706069509
  0
ARC
  8
DETAIL
  6
CONTINUOUS
 62
     5
 10
189.28735474113549
 20
-6.4123314065507202
 30
0.0
 40
3.606936416184793
 50
270.0
 51
0.0
  0
ARC
  8
DETAIL
  6
CONTINUOUS
 62
     5
 10
147.4876706429948
 20
-16.4315992292868
 30
0.0
 40
3.606936416185023
 50
270.0
 51
0.0
  0
ARC
  8
DETAIL
  6
CONTINUOUS
 62
     5
 10
243.368015414258
 20
-16.4315992292868
 30
0.0
 40
3.606936416185023
 50
270.0
 51
0.0
  0
ARC
  8
DETAIL
  6
CONTINUOUS
 62
     5
 10
253.38728323699431
 20
-6.4123314065507202
 30
0.0
 40
3.606936416184793
 50
270.0
 51
0.0
  0
ARC
  8
DETAIL
  6
CONTINUOUS
 62
     5
 10
154.10038740600069
 20
-13.02504816955684
 30
0.0
 40
3.0057803468207558
 50
90.0
 51
180.0
  0
ARC
  8
DETAIL
  6
CONTINUOUS
 62
     5
 10
238.33333333333329
 20
-97.587668593448825
 30
0.0
 40
2.0038535645470561
 50
270.0
 51
90.0
  0
ARC
  8
DETAIL
  6
CONTINUOUS
 62
     5
 10
258.49710982658962
 20
-1.5028901734103779
 30
0.0
 40
1.502890173410377
 50
270.0
 51
90.0
  0
LINE
  8
DETAIL
  6
CONTINUOUS
 62
     5
 10
1.5232088276154629
 20
-290.79468337742401
 30
0.0
 11
1.5047595783680661
 21
-290.80300158206848
 31
0.0
  0
LINE
  8
DETAIL
  6
CONTINUOUS
 62
     5
 10
1.5047595783680661
 20
-290.80300158206848
 30
0.0
 11
1.4863313201174151
 21
-290.81132032424989
 31
0.0
  0
LINE
  8
DETAIL
  6
CONTINUOUS
 62
     5
 10
1.4863313201174151
 20
-290.81132032424989
 30
0.0
 11
1.4863313201174151
 21
-290.81132032424989
 31
0.0
  0
LINE
  8
DETAIL
  6
CONTINUOUS
 62
     5
 10
1.4863313201174151
 20
-290.81132032424989
 30
0.0
 11
1.467925158871594
 21
-290.81964496111772
 31
0.0
  0
LINE
  8
DETAIL
  6
CONTINUOUS
 62
     5
 10
1.467925158871594
 20
-290.81964496111772
 30
0.0
 11
1.4494626606858669
 21
-290.82800012827431
 31
0.0
  0
LINE
  8
DETAIL
  6
CONTINUOUS
 62
     5
 10
1.4494626606858669
 20
-290.82800012827431
 30
0.0
 11
1.4494626606858669
 21
-290.82800012827431
 31
0.0
  0
LINE
  8
DETAIL
  6
CONTINUOUS
 62
     5
 10
1.4494626606858669
 20
-290.82800012827431
 30
0.0
 11
1.4309222815618341
 21
-290.83638260960993
 31
0.0
  0
LINE
  8
DETAIL
  6
CONTINUOUS
 62
     5
 10
1.4309222815618341
 20
-290.83638260960993
 30
0.0
 11
1.412589577238577
 21
-290.84465850371652
 31
0.0
  0
LINE
  8
DETAIL
  6
CONTINUOUS
 62
     5
 10
1.412589577238577
 20
-290.84465850371652
 30
0.0
 11
1.412589577238577
 21
-290.84465850371652
 31
0.0
  0
LINE
  8
DETAIL
  6
CONTINUOUS
 62
     5
 10
1.412589577238577
 20
-290.84465850371652
 30
0.0
 11
1.394539663639534
 21
-290.85278710354692
 31
0.0
  0
LINE
  8
DETAIL
  6
CONTINUOUS
 62
     5
 10
1.394539663639534
 20
-290.85278710354692
 30
0.0
 11
1.3756987976926209
 21
-290.86123116479638
 31
0.0
  0
LINE
  8
DETAIL
  6
CONTINUOUS
 62
     5
 10
1.3756987976926209
 20
-290.86123116479638
 30
0.0
 11
1.3756987976926209
 21
-290.86123116479638
 31
0.0
  0
LINE
  8
DETAIL
  6
CONTINUOUS
 62
     5
 10
1.3756987976926209
 20
-290.86123116479638
 30
0.0
 11
1.355778105637683
 21
-290.87010851742679
 31
0.0
  0
LINE
  8
DETAIL
  6
CONTINUOUS
 62
     5
 10
1.355778105637683
 20
-290.87010851742679
 30
0.0
 11
1.3387770499657561
 21
-290.8776538257332
 31
0.0
  0
LINE
  8
DETAIL
  6
CONTINUOUS
 62
     5
 10
1.3387770499657561
 20
-290.8776538257332
 30
0.0
 11
1.3387770499657561
 21
-290.8776538257332
 31
0.0
  0
LINE
  8
DETAIL
  6
CONTINUOUS
 62
     5
 10
1.3387770499657561
 20
-290.8776538257332
 30
0.0
 11
1.328077038081346
 21
-290.88237814810708
 31
0.0
  0
LINE
  8
DETAIL
  6
CONTINUOUS
 62
     5
 10
1.328077038081346
 20
-290.88237814810708
 30
0.0
 11
1.3202989207998139
 21
-290.88578128500279
 31
0.0
  0
LINE
  8
DETAIL
  6
CONTINUOUS
 62
     5
 10
1.3202989207998139
 20
-290.88578128500279
 30
0.0
 11
1.3202989207998139
 21
-290.88578128500279
 31
0.0
  0
LINE
  8
DETAIL
  6
CONTINUOUS
 62
     5
 10
1.3202989207998139
 20
-290.88578128500279
 30
0.0
 11
1.3114443957372259
 21
-290.88963397236438
 31
0.0
  0
LINE
  8
DETAIL
  6
CONTINUOUS
 62
     5
 10
1.3114443957372259
 20
-290.88963397236438
 30
0.0
 11
1.3017991043061561
 21
-290.89380194603848
 31
0.0
  0
LINE
  8
DETAIL
  6
CONTINUOUS
 62
     5
 10
1.3017991043061561
 20
-290.89380194603848
 30
0.0
 11
1.3017991043061561
 21
-290.89380194603848
 31
0.0
  0
LINE
  8
DETAIL
  6
CONTINUOUS
 62
     5
 10
1.3017991043061561
 20
-290.89380194603848
 30
0.0
 11
1.292432704047314
 21
-290.89780230265632
 31
0.0
  0
LINE
  8
DETAIL
  6
CONTINUOUS
 62
     5
 10
1.292432704047314
 20
-290.89780230265632
 30
0.0
 11
1.2832669732219979
 21
-290.90166258208723
 31
0.0
  0
LINE
  8
DETAIL
  6
CONTINUOUS
 62
     5
 10
1.2832669732219979
 20
-290.90166258208723
 30
0.0
 11
1.2832669732219979
 21
-290.90166258208723
 31
0.0
  0
LINE
  8
DETAIL
  6
CONTINUOUS
 62
     5
 10
1.2832669732219979
 20
-290.90166258208723
 30
0.0
 11
1.2740136136019371
 21
-290.90550374179628
 31
0.0
  0
LINE
  8
DETAIL
  6
CONTINUOUS
 62
     5
 10
1.2740136136019371
 20
-290.90550374179628
 30
0.0
 11
1.26469190028547
 21
-290.90930996639548
 31
0.0
  0
LINE
  8
DETAIL
  6
CONTINUOUS
 62
     5
 10
1.26469190028547
 20
-290.90930996639548
 30
0.0
 11
1.26469190028547
 21
-290.90930996639548
 31
0.0
  0
LINE
  8
DETAIL
  6
CONTINUOUS
 62
     5
 10
1.26469190028547
 20
-290.90930996639548
 30
0.0
 11
1.255377398196742
 21
-290.91304040932772
 31
0.0
  0
LINE
  8
DETAIL
  6
CONTINUOUS
 62
     5
 10
1.255377398196742
 20
-290.91304040932772
 30
0.0
 11
1.2460632582346991
 21
-290.91669087221089
 31
0.0
  0
LINE
  8
DETAIL
  6
CONTINUOUS
 62
     5
 10
1.2460632582346991
 20
-290.91669087221089
 30
0.0
 11
1.2460632582346991
 21
-290.91669087221089
 31
0.0
  0
LINE
  8
DETAIL
  6
CONTINUOUS
 62
     5
 10
1.2460632582346991
 20
-290.91669087221089
 30
0.0
 11
1.236728157589823
 21
-290.92026696002063
 31
0.0
  0
LINE
  8
DETAIL
  6
CONTINUOUS
 62
     5
 10
1.236728157589823
 20
-290.92026696002063
 30
0.0
 11
1.227375292638953
 21
-290.92377684298708
 31
0.0
  0
LINE
  8
DETAIL
  6
CONTINUOUS
 62
     5
 10
1.227375292638953
 20
-290.92377684298708
 30
0.0
 11
1.227375292638953
 21
-290.92377684298708
 31
0.0
  0
LINE
  8
DETAIL
  6
CONTINUOUS
 62
     5
 10
1.227375292638953
 20
-290.92377684298708
 30
0.0
 11
1.2180125102911461
 21
-290.92722999046038
 31
0.0
  0
LINE
  8
DETAIL
  6
CONTINUOUS
 62
     5
 10
1.2180125102911461
 20
-290.92722999046038
 30
0.0
 11
1.2086417403945691
 21
-290.9306385030095
 31
0.0
  0
LINE
  8
DETAIL
  6
CONTINUOUS
 62
     5
 10
1.2086417403945691
 20
-290.9306385030095
 30
0.0
 11
1.2086417403945691
 21
-290.9306385030095
 31
0.0
  0
LINE
  8
DETAIL
  6
CONTINUOUS
 62
     5
 10
1.2086417403945691
 20
-290.9306385030095
 30
0.0
 11
1.199263829900246
 21
-290.93401496275249
 31
0.0
  0
LINE
  8
DETAIL
  6
CONTINUOUS
 62
     5
 10
1.199263829900246
 20
-290.93401496275249
 30
0.0
 11
1.189881211230158
 21
-290.93737124677102
 31
0.0
  0
LINE
  8
DETAIL
  6
CONTINUOUS
 62
     5
 10
1.189881211230158
 20
-290.93737124677102
 30
0.0
 11
1.189881211230158
 21
-290.93737124677102
 31
0.0
  0
LINE
  8
DETAIL
  6
CONTINUOUS
 62
     5
 10
1.189881211230158
 20
-290.93737124677102
 30
0.0
 11
1.1804966069685181
 21
-290.94071910311959
 31
0.0
  0
LINE
  8
DETAIL
  6
CONTINUOUS
 62
     5
 10
1.1804966069685181
 20
-290.94071910311959
 30
0.0
 11
1.1711123148734259
 21
-290.94407046876358
 31
0.0
  0
LINE
  8
DETAIL
  6
CONTINUOUS
 62
     5
 10
1.1711123148734259
 20
-290.94407046876358
 30
0.0
 11
1.1711123148734259
 21
-290.94407046876358
 31
0.0
  0
LINE
  8
DETAIL
  6
CONTINUOUS
 62
     5
 10
1.1711123148734259
 20
-290.94407046876358
 30
0.0
 11
1.1617305549548289
 21
-290.94743731524278
 31
0.0
  0
LINE
  8
DETAIL
  6
CONTINUOUS
 62
     5
 10
1.1617305549548289
 20
-290.94743731524278
 30
0.0
 11
1.152353661052985
 21
-290.95083156347908
 31
0.0
  0
LINE
  8
DETAIL
  6
CONTINUOUS
 62
     5
 10
1.152353661052985
 20
-290.95083156347908
 30
0.0
 11
1.152353661052985
 21
-290.95083156347908
 31
0.0
  0
LINE
  8
DETAIL
  6
CONTINUOUS
 62
     5
 10
1.152353661052985
 20
-290.95083156347908
 30
0.0
 11
1.142983266536248
 21
-290.95426119344802
 31
0.0
  0
LINE
  8
DETAIL
  6
CONTINUOUS
 62
     5
 10
1.142983266536248
 20
-290.95426119344802
 30
0.0
 11
1.133618089042784
 21
-290.95771847196642
 31
0.0
  0
LINE
  8
DETAIL
  6
CONTINUOUS
 62
     5
 10
1.133618089042784
 20
-290.95771847196642
 30
0.0
 11
1.133618089042784
 21
-290.95771847196642
 31
0.0
  0
LINE
  8
DETAIL
  6
CONTINUOUS
 62
     5
 10
1.133618089042784
 20
-290.95771847196642
 30
0.0
 11
1.124256119323263
 21
-290.96119173665193
 31
0.0
  0
LINE
  8
DETAIL
  6
CONTINUOUS
 62
     5
 10
1.124256119323263
 20
-290.96119173665193
 30
0.0
 11
1.1148953563001669
 21
-290.96466932148928
 31
0.0
  0
LINE
  8
DETAIL
  6
CONTINUOUS
 62
     5
 10
1.1148953563001669
 20
-290.96466932148928
 30
0.0
 11
1.1148953563001669
 21
-290.96466932148928
 31
0.0
  0
LINE
  8
DETAIL
  6
CONTINUOUS
 62
     5
 10
1.1148953563001669
 20
-290.96466932148928
 30
0.0
 11
1.105533800392323
 21
-290.96813955979712
 31
0.0
  0
LINE
  8
DETAIL
  6
CONTINUOUS
 62
     5
 10
1.105533800392323
 20
-290.96813955979712
 30
0.0
 11
1.096169449828039
 21
-290.9715907858689
 31
0.0
  0
LINE
  8
DETAIL
  6
CONTINUOUS
 62
     5
 10
1.096169449828039
 20
-290.9715907858689
 30
0.0
 11
1.096169449828039
 21
-290.9715907858689
 31
0.0
  0
LINE
  8
DETAIL
  6
CONTINUOUS
 62
     5
 10
1.096169449828039
 20
-290.9715907858689
 30
0.0
 11
1.0868003024356769
 21
-290.97501133417461
 31
0.0
  0
LINE
  8
DETAIL
  6
CONTINUOUS
 62
     5
 10
1.0868003024356769
 20
-290.97501133417461
 30
0.0
 11
1.0774243566299899
 21
-290.97838953892449
 31
0.0
  0
LINE
  8
DETAIL
  6
CONTINUOUS
 62
     5
 10
1.0774243566299899
 20
-290.97838953892449
 30
0.0
 11
1.0774243566299899
 21
-290.97838953892449
 31
0.0
  0
LINE
  8
DETAIL
  6
CONTINUOUS
 62
     5
 10
1.0774243566299899
 20
-290.97838953892449
 30
0.0
 11
1.068039610932829
 21
-290.98171373428102
 31
0.0
  0
LINE
  8
DETAIL
  6
CONTINUOUS
 62
     5
 10
1.068039610932829
 20
-290.98171373428102
 30
0.0
 11
1.0586440637089249
 21
-290.9849722544767
 31
0.0
  0
LINE
  8
DETAIL
  6
CONTINUOUS
 62
     5
 10
1.0586440637089249
 20
-290.9849722544767
 30
0.0
 11
1.0586440637089249
 21
-290.9849722544767
 31
0.0
  0
LINE
  8
DETAIL
  6
CONTINUOUS
 62
     5
 10
1.0586440637089249
 20
-290.9849722544767
 30
0.0
 11
1.0492361926271769
 21
-290.98815620051482
 31
0.0
  0
LINE
  8
DETAIL
  6
CONTINUOUS
 62
     5
 10
1.0492361926271769
 20
-290.98815620051482
 30
0.0
 11
1.039816392728881
 21
-290.99126774041679
 31
0.0
  0
LINE
  8
DETAIL
  6
CONTINUOUS
 62
     5
 10
1.039816392728881
 20
-290.99126774041679
 30
0.0
 11
1.039816392728881
 21
-290.99126774041679
 31
0.0
  0
LINE
  8
DETAIL
  6
CONTINUOUS
 62
     5
 10
1.039816392728881
 20
-290.99126774041679
 30
0.0
 11
1.030385538395876
 21
-290.99431180895863
 31
0.0
  0
LINE
  8
DETAIL
  6
CONTINUOUS
 62
     5
 10
1.030385538395876
 20
-290.99431180895863
 30
0.0
 11
1.0209445039981799
 21
-290.99729334092092
 31
0.0
  0
LINE
  8
DETAIL
  6
CONTINUOUS
 62
     5
 10
1.0209445039981799
 20
-290.99729334092092
 30
0.0
 11
1.0209445039981799
 21
-290.99729334092092
 31
0.0
  0
LINE
  8
DETAIL
  6
CONTINUOUS
 62
     5
 10
1.0209445039981799
 20
-290.99729334092092
 30
0.0
 11
1.0114941639039901
 21
-291.00021727108572
 31
0.0
  0
LINE
  8
DETAIL
  6
CONTINUOUS
 62
     5
 10
1.0114941639039901
 20
-291.00021727108572
 30
0.0
 11
1.0020353924846861
 21
-291.00308853423508
 31
0.0
  0
LINE
  8
DETAIL
  6
CONTINUOUS
 62
     5
 10
1.0020353924846861
 20
-291.00308853423508
 30
0.0
 11
1.0020353924846861
 21
-291.00308853423508
 31
0.0
  0
LINE
  8
DETAIL
  6
CONTINUOUS
 62
     5
 10
1.0020353924846861
 20
-291.00308853423508
 30
0.0
 11
0.9925690641125584
 21
-291.00591206514832
 31
0.0
  0
LINE
  8
DETAIL
  6
CONTINUOUS
 62
     5
 10
0.9925690641125584
 20
-291.00591206514832
 30
0.0
 11
0.9830960531580786
 21
-291.00869279860677
 31
0.0
  0
LINE
  8
DETAIL
  6
CONTINUOUS
 62
     5
 10
0.9830960531580786
 20
-291.00869279860677
 30
0.0
 11
0.9830960531580786
 21
-291.00869279860677
 31
0.0
  0
LINE
  8
DETAIL
  6
CONTINUOUS
 62
     5
 10
0.9830960531580786
 20
-291.00869279860677
 30
0.0
 11
0.9736172339923996
 21
-291.01143566939118
 31
0.0
  0
LINE
  8
DETAIL
  6
CONTINUOUS
 62
     5
 10
0.9736172339923996
 20
-291.01143566939118
 30
0.0
 11
0.9641334809866748
 21
-291.01414561228262
 31
0.0
  0
LINE
  8
DETAIL
  6
CONTINUOUS
 62
     5
 10
0.9641334809866748
 20
-291.01414561228262
 30
0.0
 11
0.9641334809866748
 21
-291.01414561228262
 31
0.0
  0
LINE
  8
DETAIL
  6
CONTINUOUS
 62
     5
 10
0.9641334809866748
 20
-291.01414561228262
 30
0.0
 11
0.9546456739662972
 21
-291.01682787770739
 31
0.0
  0
LINE
  8
DETAIL
  6
CONTINUOUS
 62
     5
 10
0.9546456739662972
 20
-291.01682787770739
 30
0.0
 11
0.9451547145754375
 21
-291.01948897867157
 31
0.0
  0
LINE
  8
DETAIL
  6
CONTINUOUS
 62
     5
 10
0.9451547145754375
 20
-291.01948897867157
 30
0.0
 11
0.9451547145754375
 21
-291.01948897867157
 31
0.0
  0
LINE
  8
DETAIL
  6
CONTINUOUS
 62
     5
 10
0.9451547145754375
 20
-291.01948897867157
 30
0.0
 11
0.9356615099118244
 21
-291.02213574382631
 31
0.0
  0
LINE
  8
DETAIL
  6
CONTINUOUS
 62
     5
 10
0.9356615099118244
 20
-291.02213574382631
 30
0.0
 11
0.9261669670745505
 21
-291.02477500182351
 31
0.0
  0
LINE
  8
DETAIL
  6
CONTINUOUS
 62
     5
 10
0.9261669670745505
 20
-291.02477500182351
 30
0.0
 11
0.9261669670745505
 21
-291.02477500182351
 31
0.0
  0
LINE
  8
DETAIL
  6
CONTINUOUS
 62
     5
 10
0.9261669670745505
 20
-291.02477500182351
 30
0.0
 11
0.9166719931613443
 21
-291.0274135813147
 31
0.0
  0
LINE
  8
DETAIL
  6
CONTINUOUS
 62
     5
 10
0.9166719931613443
 20
-291.0274135813147
 30
0.0
 11
0.9071774952708438
 21
-291.0300583109514
 31
0.0
  0
LINE
  8
DETAIL
  6
CONTINUOUS
 62
     5
 10
0.9071774952708438
 20
-291.0300583109514
 30
0.0
 11
0.9071774952708438
 21
-291.0300583109514
 31
0.0
  0
LINE
  8
DETAIL
  6
CONTINUOUS
 62
     5
 10
0.9071774952708438
 20
-291.0300583109514
 30
0.0
 11
0.8976843805010049
 21
-291.03271601938479
 31
0.0
  0
LINE
  8
DETAIL
  6
CONTINUOUS
 62
     5
 10
0.8976843805010049
 20
-291.03271601938479
 30
0.0
 11
0.8881935559504655
 21
-291.03539353526651
 31
0.0
  0
LINE
  8
DETAIL
  6
CONTINUOUS
 62
     5
 10
0.8881935559504655
 20
-291.03539353526651
 30
0.0
 11
0.8881935559504655
 21
-291.03539353526651
 31
0.0
  0
LINE
  8
DETAIL
  6
CONTINUOUS
 62
     5
 10
0.8881935559504655
 20
-291.03539353526651
 30
0.0
 11
0.8787059287176362
 21
-291.03809768724801
 31
0.0
  0
LINE
  8
DETAIL
  6
CONTINUOUS
 62
     5
 10
0.8787059287176362
 20
-291.03809768724801
 30
0.0
 11
0.869222405900473
 21
-291.04083530398088
 31
0.0
  0
LINE
  8
DETAIL
  6
CONTINUOUS
 62
     5
 10
0.869222405900473
 20
-291.04083530398088
 30
0.0
 11
0.869222405900473
 21
-291.04083530398088
 31
0.0
  0
LINE
  8
DETAIL
  6
CONTINUOUS
 62
     5
 10
0.869222405900473
 20
-291.04083530398088
 30
0.0
 11
0.8597433934455694
 21
-291.0436091847763
 31
0.0
  0
LINE
  8
DETAIL
  6
CONTINUOUS
 62
     5
 10
0.8597433934455694
 20
-291.0436091847763
 30
0.0
 11
0.8502672926929336
 21
-291.04640601158258
 31
0.0
  0
LINE
  8
DETAIL
  6
CONTINUOUS
 62
     5
 10
0.8502672926929336
 20
-291.04640601158258
 30
0.0
 11
0.8502672926929336
 21
-291.04640601158258
 31
0.0
  0
LINE
  8
DETAIL
  6
CONTINUOUS
 62
     5
 10
0.8502672926929336
 20
-291.04640601158258
 30
0.0
 11
0.8407920038303018
 21
-291.04920843700688
 31
0.0
  0
LINE
  8
DETAIL
  6
CONTINUOUS
 62
     5
 10
0.8407920038303018
 20
-291.04920843700688
 30
0.0
 11
0.8313154270451832
 21
-291.05199911365781
 31
0.0
  0
LINE
  8
DETAIL
  6
CONTINUOUS
 62
     5
 10
0.8313154270451832
 20
-291.05199911365781
 30
0.0
 11
0.8313154270451832
 21
-291.05199911365781
 31
0.0
  0
LINE
  8
DETAIL
  6
CONTINUOUS
 62
     5
 10
0.8313154270451832
 20
-291.05199911365781
 30
0.0
 11
0.8218354625257689
 21
-291.05476069414289
 31
0.0
  0
LINE
  8
DETAIL
  6
CONTINUOUS
 62
     5
 10
0.8218354625257689
 20
-291.05476069414289
 30
0.0
 11
0.8123500104597952
 21
-291.05747583107001
 31
0.0
  0
LINE
  8
DETAIL
  6
CONTINUOUS
 62
     5
 10
0.8123500104597952
 20
-291.05747583107001
 30
0.0
 11
0.8123500104597952
 21
-291.05747583107001
 31
0.0
  0
LINE
  8
DETAIL
  6
CONTINUOUS
 62
     5
 10
0.8123500104597952
 20
-291.05747583107001
 30
0.0
 11
0.8028569710352258
 21
-291.06012717704652
 31
0.0
  0
LINE
  8
DETAIL
  6
CONTINUOUS
 62
     5
 10
0.8028569710352258
 20
-291.06012717704652
 30
0.0
 11
0.7933542444402519
 21
-291.0626973846812
 31
0.0
  0
LINE
  8
DETAIL
  6
CONTINUOUS
 62
     5
 10
0.7933542444402519
 20
-291.0626973846812
 30
0.0
 11
0.7933542444402519
 21
-291.0626973846812
 31
0.0
  0
LINE
  8
DETAIL
  6
CONTINUOUS
 62
     5
 10
0.7933542444402519
 20
-291.0626973846812
 30
0.0
 11
0.7838397308619278
 21
-291.06516910658081
 31
0.0
  0
LINE
  8
DETAIL
  6
CONTINUOUS
 62
     5
 10
0.7838397308619278
 20
-291.06516910658081
 30
0.0
 11
0.7743113304891267
 21
-291.06752499535389
 31
0.0
  0
LINE
  8
DETAIL
  6
CONTINUOUS
 62
     5
 10
0.7743113304891267
 20
-291.06752499535389
 30
0.0
 11
0.7743113304891267
 21
-291.06752499535389
 31
0.0
  0
LINE
  8
DETAIL
  6
CONTINUOUS
 62
     5
 10
0.7743113304891267
 20
-291.06752499535389
 30
0.0
 11
0.7647676366689211
 21
-291.06975348742878
 31
0.0
  0
LINE
  8
DETAIL
  6
CONTINUOUS
 62
     5
 10
0.7647676366689211
 20
-291.06975348742878
 30
0.0
 11
0.7552100153898209
 21
-291.07186615451798
 31
0.0
  0
LINE
  8
DETAIL
  6
CONTINUOUS
 62
     5
 10
0.7552100153898209
 20
-291.07186615451798
 30
0.0
 11
0.7552100153898209
 21
-291.07186615451798
 31
0.0
  0
LINE
  8
DETAIL
  6
CONTINUOUS
 62
     5
 10
0.7552100153898209
 20
-291.07186615451798
 30
0.0
 11
0.7456405258001269
 21
-291.07388035215422
 31
0.0
  0
LINE
  8
DETAIL
  6
CONTINUOUS
 62
     5
 10
0.7456405258001269
 20
-291.07388035215422
 30
0.0
 11
0.7360612270481397
 21
-291.0758134358714
 31
0.0
  0
LINE
  8
DETAIL
  6
CONTINUOUS
 62
     5
 10
0.7360612270481397
 20
-291.0758134358714
 30
0.0
 11
0.7360612270481397
 21
-291.0758134358714
 31
0.0
  0
LINE
  8
DETAIL
  6
CONTINUOUS
 62
     5
 10
0.7360612270481397
 20
-291.0758134358714
 30
0.0
 11
0.7264741782817055
 21
-291.07768276120203
 31
0.0
  0
LINE
  8
DETAIL
  6
CONTINUOUS
 62
     5
 10
0.7264741782817055
 20
-291.07768276120203
 30
0.0
 11
0.7168814386491249
 21
-291.0795056836796
 31
0.0
  0
LINE
  8
DETAIL
  6
CONTINUOUS
 62
     5
 10
0.7168814386491249
 20
-291.0795056836796
 30
0.0
 11
0.7168814386491249
 21
-291.0795056836796
 31
0.0
  0
LINE
  8
DETAIL
  6
CONTINUOUS
 62
     5
 10
0.7168814386491249
 20
-291.0795056836796
 30
0.0
 11
0.7072850672986988
 21
-291.08129955883692
 31
0.0
  0
LINE
  8
DETAIL
  6
CONTINUOUS
 62
     5
 10
0.7072850672986988
 20
-291.08129955883692
 30
0.0
 11
0.6976871233787279
 21
-291.08308174220781
 31
0.0
  0
LINE
  8
DETAIL
  6
CONTINUOUS
 62
     5
 10
0.6976871233787279
 20
-291.08308174220781
 30
0.0
 11
0.6976871233787279
 21
-291.08308174220781
 31
0.0
  0
LINE
  8
DETAIL
  6
CONTINUOUS
 62
     5
 10
0.6976871233787279
 20
-291.08308174220781
 30
0.0
 11
0.6880896660372855
 21
-291.08486958932468
 31
0.0
  0
LINE
  8
DETAIL
  6
CONTINUOUS
 62
     5
 10
0.6880896660372855
 20
-291.08486958932468
 30
0.0
 11
0.6784947544228999
 21
-291.08668045572119
 31
0.0
  0
LINE
  8
DETAIL
  6
CONTINUOUS
 62
     5
 10
0.6784947544228999
 20
-291.08668045572119
 30
0.0
 11
0.6784947544228999
 21
-291.08668045572119
 31
0.0
  0
LINE
  8
DETAIL
  6
CONTINUOUS
 62
     5
 10
0.6784947544228999
 20
-291.08668045572119
 30
0.0
 11
0.6689039871957903
 21
-291.08852765944971
 31
0.0
  0
LINE
  8
DETAIL
  6
CONTINUOUS
 62
     5
 10
0.6689039871957903
 20
-291.08852765944971
 30
0.0
 11
0.6593171210683977
 21
-291.0904083686371
 31
0.0
  0
LINE
  8
DETAIL
  6
CONTINUOUS
 62
     5
 10
0.6593171210683977
 20
-291.0904083686371
 30
0.0
 11
0.6593171210683977
 21
-291.0904083686371
 31
0.0
  0
LINE
  8
DETAIL
  6
CONTINUOUS
 62
     5
 10
0.6593171210683977
 20
-291.0904083686371
 30
0.0
 11
0.6497334522653091
 21
-291.09231571392888
 31
0.0
  0
LINE
  8
DETAIL
  6
CONTINUOUS
 62
     5
 10
0.6497334522653091
 20
-291.09231571392888
 30
0.0
 11
0.6401522770106567
 21
-291.09424282597217
 31
0.0
  0
LINE
  8
DETAIL
  6
CONTINUOUS
 62
     5
 10
0.6401522770106567
 20
-291.09424282597217
 30
0.0
 11
0.6401522770106567
 21
-291.09424282597217
 31
0.0
  0
LINE
  8
DETAIL
  6
CONTINUOUS
 62
     5
 10
0.6401522770106567
 20
-291.09424282597217
 30
0.0
 11
0.6305728915288
 21
-291.09618283541312
 31
0.0
  0
LINE
  8
DETAIL
  6
CONTINUOUS
 62
     5
 10
0.6305728915288
 20
-291.09618283541312
 30
0.0
 11
0.6209945920445534
 21
-291.0981288728982
 31
0.0
  0
LINE
  8
DETAIL
  6
CONTINUOUS
 62
     5
 10
0.6209945920445534
 20
-291.0981288728982
 30
0.0
 11
0.6209945920445534
 21
-291.0981288728982
 31
0.0
  0
LINE
  8
DETAIL
  6
CONTINUOUS
 62
     5
 10
0.6209945920445534
 20
-291.0981288728982
 30
0.0
 11
0.6114166747825038
 21
-291.10007406907249
 31
0.0
  0
LINE
  8
DETAIL
  6
CONTINUOUS
 62
     5
 10
0.6114166747825038
 20
-291.10007406907249
 30
0.0
 11
0.6018384359667834
 21
-291.10201155458287
 31
0.0
  0
LINE
  8
DETAIL
  6
CONTINUOUS
 62
     5
 10
0.6018384359667834
 20
-291.10201155458287
 30
0.0
 11
0.6018384359667834
 21
-291.10201155458287
 31
0.0
  0
LINE
  8
DETAIL
  6
CONTINUOUS
 62
     5
 10
0.6018384359667834
 20
-291.10201155458287
 30
0.0
 11
0.5922591718226613
 21
-291.10393446007572
 31
0.0
  0
LINE
  8
DETAIL
  6
CONTINUOUS
 62
     5
 10
0.5922591718226613
 20
-291.10393446007572
 30
0.0
 11
0.5826781785735875
 21
-291.10583591619718
 31
0.0
  0
LINE
  8
DETAIL
  6
CONTINUOUS
 62
     5
 10
0.5826781785735875
 20
-291.10583591619718
 30
0.0
 11
0.5826781785735875
 21
-291.10583591619718
 31
0.0
  0
LINE
  8
DETAIL
  6
CONTINUOUS
 62
     5
 10
0.5826781785735875
 20
-291.10583591619718
 30
0.0
 11
0.5730947934996493
 21
-291.10770935414399
 31
0.0
  0
LINE
  8
DETAIL
  6
CONTINUOUS
 62
     5
 10
0.5730947934996493
 20
-291.10770935414399
 30
0.0
 11
0.5635085181006616
 21
-291.10954940731523
 31
0.0
  0
LINE
  8
DETAIL
  6
CONTINUOUS
 62
     5
 10
0.5635085181006616
 20
-291.10954940731523
 30
0.0
 11
0.5635085181006616
 21
-291.10954940731523
 31
0.0
  0
LINE
  8
DETAIL
  6
CONTINUOUS
 62
     5
 10
0.5635085181006616
 20
-291.10954940731523
 30
0.0
 11
0.5539188949312575
 21
-291.11135100966038
 31
0.0
  0
LINE
  8
DETAIL
  6
CONTINUOUS
 62
     5
 10
0.5539188949312575
 20
-291.11135100966038
 30
0.0
 11
0.5443254665458426
 21
-291.11310909513008
 31
0.0
  0
LINE
  8
DETAIL
  6
CONTINUOUS
 62
     5
 10
0.5443254665458426
 20
-291.11310909513008
 30
0.0
 11
0.5443254665458426
 21
-291.11310909513008
 31
0.0
  0
LINE
  8
DETAIL
  6
CONTINUOUS
 62
     5
 10
0.5443254665458426
 20
-291.11310909513008
 30
0.0
 11
0.5347277754992774
 21
-291.11481859767349
 31
0.0
  0
LINE
  8
DETAIL
  6
CONTINUOUS
 62
     5
 10
0.5347277754992774
 20
-291.11481859767349
 30
0.0
 11
0.5251253643468772
 21
-291.11647445124089
 31
0.0
  0
LINE
  8
DETAIL
  6
CONTINUOUS
 62
     5
 10
0.5251253643468772
 20
-291.11647445124089
 30
0.0
 11
0.5251253643468772
 21
-291.11647445124089
 31
0.0
  0
LINE
  8
DETAIL
  6
CONTINUOUS
 62
     5
 10
0.5251253643468772
 20
-291.11647445124089
 30
0.0
 11
0.5155177756437297
 21
-291.11807158978138
 31
0.0
  0
LINE
  8
DETAIL
  6
CONTINUOUS
 62
     5
 10
0.5155177756437297
 20
-291.11807158978138
 30
0.0
 11
0.5059045519412848
 21
-291.11960494724542
 31
0.0
  0
LINE
  8
DETAIL
  6
CONTINUOUS
 62
     5
 10
0.5059045519412848
 20
-291.11960494724542
 30
0.0
 11
0.5059045519412848
 21
-291.11960494724542
 31
0.0
  0
LINE
  8
DETAIL
  6
CONTINUOUS
 62
     5
 10
0.5059045519412848
 20
-291.11960494724542
 30
0.0
 11
0.4962852357937209
 21
-291.12106945758222
 31
0.0
  0
LINE
  8
DETAIL
  6
CONTINUOUS
 62
     5
 10
0.4962852357937209
 20
-291.12106945758222
 30
0.0
 11
0.4866593697670396
 21
-291.12246005474202
 31
0.0
  0
LINE
  8
DETAIL
  6
CONTINUOUS
 62
     5
 10
0.4866593697670396
 20
-291.12246005474202
 30
0.0
 11
0.4866593697670396
 21
-291.12246005474202
 31
0.0
  0
LINE
  8
DETAIL
  6
CONTINUOUS
 62
     5
 10
0.4866593697670396
 20
-291.12246005474202
 30
0.0
 11
0.477026792686047
 21
-291.12377450795219
 31
0.0
  0
LINE
  8
DETAIL
  6
CONTINUOUS
 62
     5
 10
0.477026792686047
 20
-291.12377450795219
 30
0.0
 11
0.4673885284012158
 21
-291.12502192755738
 31
0.0
  0
LINE
  8
DETAIL
  6
CONTINUOUS
 62
     5
 10
0.4673885284012158
 20
-291.12502192755738
 30
0.0
 11
0.4673885284012158
 21
-291.12502192755738
 31
0.0
  0
LINE
  8
DETAIL
  6
CONTINUOUS
 62
     5
 10
0.4673885284012158
 20
-291.12502192755738
 30
0.0
 11
0.4577458970609314
 21
-291.12621425917769
 31
0.0
  0
LINE
  8
DETAIL
  6
CONTINUOUS
 62
     5
 10
0.4577458970609314
 20
-291.12621425917769
 30
0.0
 11
0.4481002189806986
 21
-291.12736344842682
 31
0.0
  0
LINE
  8
DETAIL
  6
CONTINUOUS
 62
     5
 10
0.4481002189806986
 20
-291.12736344842682
 30
0.0
 11
0.4481002189806986
 21
-291.12736344842682
 31
0.0
  0
LINE
  8
DETAIL
  6
CONTINUOUS
 62
     5
 10
0.4481002189806986
 20
-291.12736344842682
 30
0.0
 11
0.4384528143616535
 21
-291.12848144092311
 31
0.0
  0
LINE
  8
DETAIL
  6
CONTINUOUS
 62
     5
 10
0.4384528143616535
 20
-291.12848144092311
 30
0.0
 11
0.4288050027817008
 21
-291.1295801823137
 31
0.0
  0
LINE
  8
DETAIL
  6
CONTINUOUS
 62
     5
 10
0.4288050027817008
 20
-291.1295801823137
 30
0.0
 11
0.4288050027817008
 21
-291.1295801823137
 31
0.0
  0
LINE
  8
DETAIL
  6
CONTINUOUS
 62
     5
 10
0.4288050027817008
 20
-291.1295801823137
 30
0.0
 11
0.4191581042452981
 21
-291.13067161822482
 31
0.0
  0
LINE
  8
DETAIL
  6
CONTINUOUS
 62
     5
 10
0.4191581042452981
 20
-291.13067161822482
 30
0.0
 11
0.409513441081117
 21
-291.13176769418038
 31
0.0
  0
LINE
  8
DETAIL
  6
CONTINUOUS
 62
     5
 10
0.409513441081117
 20
-291.13176769418038
 30
0.0
 11
0.409513441081117
 21
-291.13176769418038
 31
0.0
  0
LINE
  8
DETAIL
  6
CONTINUOUS
 62
     5
 10
0.409513441081117
 20
-291.13176769418038
 30
0.0
 11
0.3998723340300785
 21
-291.13288035577489
 31
0.0
  0
LINE
  8
DETAIL
  6
CONTINUOUS
 62
     5
 10
0.3998723340300785
 20
-291.13288035577489
 30
0.0
 11
0.3902360951547053
 21
-291.13402154899092
 31
0.0
  0
LINE
  8
DETAIL
  6
CONTINUOUS
 62
     5
 10
0.3902360951547053
 20
-291.13402154899092
 30
0.0
 11
0.3902360951547053
 21
-291.13402154899092
 31
0.0
  0
LINE
  8
DETAIL
  6
CONTINUOUS
 62
     5
 10
0.3902360951547053
 20
-291.13402154899092
 30
0.0
 11
0.3806054230180962
 21
-291.13519917184829
 31
0.0
  0
LINE
  8
DETAIL
  6
CONTINUOUS
 62
     5
 10
0.3806054230180962
 20
-291.13519917184829
 30
0.0
 11
0.3709785708661002
 21
-291.13640493012548
 31
0.0
  0
LINE
  8
DETAIL
  6
CONTINUOUS
 62
     5
 10
0.3709785708661002
 20
-291.13640493012548
 30
0.0
 11
0.3709785708661002
 21
-291.13640493012548
 31
0.0
  0
LINE
  8
DETAIL
  6
CONTINUOUS
 62
     5
 10
0.3709785708661002
 20
-291.13640493012548
 30
0.0
 11
0.3613531503958711
 21
-291.1376264828923
 31
0.0
  0
LINE
  8
DETAIL
  6
CONTINUOUS
 62
     5
 10
0.3613531503958711
 20
-291.1376264828923
 30
0.0
 11
0.3517266524265779
 21
-291.13885149463101
 31
0.0
  0
LINE
  8
DETAIL
  6
CONTINUOUS
 62
     5
 10
0.3517266524265779
 20
-291.13885149463101
 30
0.0
 11
0.3517266524265779
 21
-291.13885149463101
 31
0.0
  0
LINE
  8
DETAIL
  6
CONTINUOUS
 62
     5
 10
0.3517266524265779
 20
-291.13885149463101
 30
0.0
 11
0.3420966503385898
 21
-291.14006762612769
 31
0.0
  0
LINE
  8
DETAIL
  6
CONTINUOUS
 62
     5
 10
0.3420966503385898
 20
-291.14006762612769
 30
0.0
 11
0.332461168635291
 21
-291.14126251797308
 31
0.0
  0
LINE
  8
DETAIL
  6
CONTINUOUS
 62
     5
 10
0.332461168635291
 20
-291.14126251797308
 30
0.0
 11
0.332461168635291
 21
-291.14126251797308
 31
0.0
  0
LINE
  8
DETAIL
  6
CONTINUOUS
 62
     5
 10
0.332461168635291
 20
-291.14126251797308
 30
0.0
 11
0.32281792369713
 21
-291.1424238245508
 31
0.0
  0
LINE
  8
DETAIL
  6
CONTINUOUS
 62
     5
 10
0.32281792369713
 20
-291.1424238245508
 30
0.0
 11
0.313162948290028
 21
-291.14353927561518
 31
0.0
  0
LINE
  8
DETAIL
  6
CONTINUOUS
 62
     5
 10
0.313162948290028
 20
-291.14353927561518
 30
0.0
 11
0.313162948290028
 21
-291.14353927561518
 31
0.0
  0
LINE
  8
DETAIL
  6
CONTINUOUS
 62
     5
 10
0.313162948290028
 20
-291.14353927561518
 30
0.0
 11
0.3034934251102186
 21
-291.14459654944062
 31
0.0
  0
LINE
  8
DETAIL
  6
CONTINUOUS
 62
     5
 10
0.3034934251102186
 20
-291.14459654944062
 30
0.0
 11
0.2938128201899417
 21
-291.14558304302278
 31
0.0
  0
LINE
  8
DETAIL
  6
CONTINUOUS
 62
     5
 10
0.2938128201899417
 20
-291.14558304302278
 30
0.0
 11
0.2938128201899417
 21
-291.14558304302278
 31
0.0
  0
LINE
  8
DETAIL
  6
CONTINUOUS
 62
     5
 10
0.2938128201899417
 20
-291.14558304302278
 30
0.0
 11
0.2841209491825794
 21
-291.14648955219508
 31
0.0
  0
LINE
  8
DETAIL
  6
CONTINUOUS
 62
     5
 10
0.2841209491825794
 20
-291.14648955219508
 30
0.0
 11
0.2743967428878022
 21
-291.14732074942162
 31
0.0
  0
LINE
  8
DETAIL
  6
CONTINUOUS
 62
     5
 10
0.2743967428878022
 20
-291.14732074942162
 30
0.0
 11
0.2743967428878022
 21
-291.14732074942162
 31
0.0
  0
LINE
  8
DETAIL
  6
CONTINUOUS
 62
     5
 10
0.2743967428878022
 20
-291.14732074942162
 30
0.0
 11
0.2646357897888265
 21
-291.1480837968943
 31
0.0
  0
LINE
  8
DETAIL
  6
CONTINUOUS
 62
     5
 10
0.2646357897888265
 20
-291.1480837968943
 30
0.0
 11
0.2549211939558518
 21
-291.14878193908021
 31
0.0
  0
LINE
  8
DETAIL
  6
CONTINUOUS
 62
     5
 10
0.2549211939558518
 20
-291.14878193908021
 30
0.0
 11
0.2549211939558518
 21
-291.14878193908021
 31
0.0
  0
LINE
  8
DETAIL
  6
CONTINUOUS
 62
     5
 10
0.2549211939558518
 20
-291.14878193908021
 30
0.0
 11
0.2452762852012711
 21
-291.14942109630198
 31
0.0
  0
LINE
  8
DETAIL
  6
CONTINUOUS
 62
     5
 10
0.2452762852012711
 20
-291.14942109630198
 30
0.0
 11
0.2353977807201773
 21
-291.15002181003018
 31
0.0
  0
LINE
  8
DETAIL
  6
CONTINUOUS
 62
     5
 10
0.2353977807201773
 20
-291.15002181003018
 30
0.0
 11
0.2353977807201773
 21
-291.15002181003018
 31
0.0
  0
LINE
  8
DETAIL
  6
CONTINUOUS
 62
     5
 10
0.2353977807201773
 20
-291.15002181003018
 30
0.0
 11
0.2252054782748019
 21
-291.15059463530622
 31
0.0
  0
LINE
  8
DETAIL
  6
CONTINUOUS
 62
     5
 10
0.2252054782748019
 20
-291.15059463530622
 30
0.0
 11
0.2158381105080025
 21
-291.15109556030143
 31
0.0
  0
LINE
  8
DETAIL
  6
CONTINUOUS
 62
     5
 10
0.2158381105080025
 20
-291.15109556030143
 30
0.0
 11
0.2158381105080025
 21
-291.15109556030143
 31
0.0
  0
LINE
  8
DETAIL
  6
CONTINUOUS
 62
     5
 10
0.2158381105080025
 20
-291.15109556030143
 30
0.0
 11
0.2076018620559807
 21
-291.15151784305152
 31
0.0
  0
LINE
  8
DETAIL
  6
CONTINUOUS
 62
     5
 10
0.2076018620559807
 20
-291.15151784305152
 30
0.0
 11
0.1962537906451871
 21
-291.15205838792548
 31
0.0
  0
LINE
  8
DETAIL
  6
CONTINUOUS
 62
     5
 10
0.1962537906451871
 20
-291.15205838792548
 30
0.0
 11
0.1962537906451871
 21
-291.15205838792548
 31
0.0
  0
LINE
  8
DETAIL
  6
CONTINUOUS
 62
     5
 10
0.1962537906451871
 20
-291.15205838792548
 30
0.0
 11
0.1782066073192254
 21
-291.15288052175578
 31
0.0
  0
LINE
  8
DETAIL
  6
CONTINUOUS
 62
     5
 10
0.1782066073192254
 20
-291.15288052175578
 30
0.0
 11
0.1570447633027925
 21
-291.15380961489922
 31
0.0
  0
LINE
  8
DETAIL
  6
CONTINUOUS
 62
     5
 10
0.1570447633027925
 20
-291.15380961489922
 30
0.0
 11
0.1570447633027925
 21
-291.15380961489922
 31
0.0
  0
LINE
  8
DETAIL
  6
CONTINUOUS
 62
     5
 10
0.1570447633027925
 20
-291.15380961489922
 30
0.0
 11
0.1370097172614351
 21
-291.15464312469942
 31
0.0
  0
LINE
  8
DETAIL
  6
CONTINUOUS
 62
     5
 10
0.1370097172614351
 20
-291.15464312469942
 30
0.0
 11
0.1177992174448264
 21
-291.15540481293368
 31
0.0
  0
LINE
  8
DETAIL
  6
CONTINUOUS
 62
     5
 10
0.1177992174448264
 20
-291.15540481293368
 30
0.0
 11
0.1177992174448264
 21
-291.15540481293368
 31
0.0
  0
LINE
  8
DETAIL
  6
CONTINUOUS
 62
     5
 10
0.1177992174448264
 20
-291.15540481293368
 30
0.0
 11
0.0982792925965441
 21
-291.15615961440108
 31
0.0
  0
LINE
  8
DETAIL
  6
CONTINUOUS
 62
     5
 10
0.0982792925965441
 20
-291.15615961440108
 30
0.0
 11
0.0785328038516582
 21
-291.15691085156038
 31
0.0
  0
LINE
  8
DETAIL
  6
CONTINUOUS
 62
     5
 10
0.0785328038516582
 20
-291.15691085156038
 30
0.0
 11
0.0785328038516582
 21
-291.15691085156038
 31
0.0
  0
LINE
  8
DETAIL
  6
CONTINUOUS
 62
     5
 10
0.0785328038516582
 20
-291.15691085156038
 30
0.0
 11
0.0588659156555877
 21
-291.15765148001719
 31
0.0
  0
LINE
  8
DETAIL
  6
CONTINUOUS
 62
     5
 10
0.0588659156555877
 20
-291.15765148001719
 30
0.0
 11
0.0392611733027479
 21
-291.1583946003085
 31
0.0
  0
LINE
  8
DETAIL
  6
CONTINUOUS
 62
     5
 10
0.0392611733027479
 20
-291.1583946003085
 30
0.0
 11
0.0392611733027479
 21
-291.1583946003085
 31
0.0
  0
LINE
  8
DETAIL
  6
CONTINUOUS
 62
     5
 10
0.0392611733027479
 20
-291.1583946003085
 30
0.0
 11
0.0196396283529339
 21
-291.15915360735772
 31
0.0
  0
LINE
  8
DETAIL
  6
CONTINUOUS
 62
     5
 10
0.0196396283529339
 20
-291.15915360735772
 30
0.0
 11
-0.0000000234217623
 21
-291.15992292870919
 31
0.0
  0
LINE
  8
DETAIL
  6
CONTINUOUS
 62
     5
 10
0.0
 20
-291.15992292870919
 30
0.0
 11
-0.0193569623893382
 21
-291.15917584720592
 31
0.0
  0
LINE
  8
DETAIL
  6
CONTINUOUS
 62
     5
 10
-0.0193569623893382
 20
-291.15917584720592
 30
0.0
 11
-0.0386942322547839
 21
-291.15843905847032
 31
0.0
  0
LINE
  8
DETAIL
  6
CONTINUOUS
 62
     5
 10
-0.0386942322547839
 20
-291.15843905847032
 30
0.0
 11
-0.0386942322547839
 21
-291.15843905847032
 31
0.0
  0
LINE
  8
DETAIL
  6
CONTINUOUS
 62
     5
 10
-0.0386942322547839
 20
-291.15843905847032
 30
0.0
 11
-0.0580120140687086
 21
-291.15771813583609
 31
0.0
  0
LINE
  8
DETAIL
  6
CONTINUOUS
 62
     5
 10
-0.0580120140687086
 20
-291.15771813583609
 30
0.0
 11
-0.0773901002853563
 21
-291.15699977490402
 31
0.0
  0
LINE
  8
DETAIL
  6
CONTINUOUS
 62
     5
 10
-0.0773901002853563
 20
-291.15699977490402
 30
0.0
 11
-0.0773901002853563
 21
-291.15699977490402
 31
0.0
  0
LINE
  8
DETAIL
  6
CONTINUOUS
 62
     5
 10
-0.0773901002853563
 20
-291.15699977490402
 30
0.0
 11
-0.0968480812016423
 21
-291.15627089625292
 31
0.0
  0
LINE
  8
DETAIL
  6
CONTINUOUS
 62
     5
 10
-0.0968480812016423
 20
-291.15627089625292
 30
0.0
 11
-0.1160851504973834
 21
-291.15553819811402
 31
0.0
  0
LINE
  8
DETAIL
  6
CONTINUOUS
 62
     5
 10
-0.1160851504973834
 20
-291.15553819811402
 30
0.0
 11
-0.1160851504973834
 21
-291.15553819811402
 31
0.0
  0
LINE
  8
DETAIL
  6
CONTINUOUS
 62
     5
 10
-0.1160851504973834
 20
-291.15553819811402
 30
0.0
 11
-0.1350209023194111
 21
-291.1547982649123
 31
0.0
  0
LINE
  8
DETAIL
  6
CONTINUOUS
 62
     5
 10
-0.1350209023194111
 20
-291.1547982649123
 30
0.0
 11
-0.1547769292963039
 21
-291.15398744820618
 31
0.0
  0
LINE
  8
DETAIL
  6
CONTINUOUS
 62
     5
 10
-0.1547769292963039
 20
-291.15398744820618
 30
0.0
 11
-0.1547769292963039
 21
-291.15398744820618
 31
0.0
  0
LINE
  8
DETAIL
  6
CONTINUOUS
 62
     5
 10
-0.1547769292963039
 20
-291.15398744820618
 30
0.0
 11
-0.1756534243490933
 21
-291.15308232979112
 31
0.0
  0
LINE
  8
DETAIL
  6
CONTINUOUS
 62
     5
 10
-0.1756534243490933
 20
-291.15308232979112
 30
0.0
 11
-0.1934629830871017
 21
-291.1522806452856
 31
0.0
  0
LINE
  8
DETAIL
  6
CONTINUOUS
 62
     5
 10
-0.1934629830871017
 20
-291.1522806452856
 30
0.0
 11
-0.1934629830871017
 21
-291.1522806452856
 31
0.0
  0
LINE
  8
DETAIL
  6
CONTINUOUS
 62
     5
 10
-0.1934629830871017
 20
-291.1522806452856
 30
0.0
 11
-0.2046661361971474
 21
-291.15175296151477
 31
0.0
  0
LINE
  8
DETAIL
  6
CONTINUOUS
 62
     5
 10
-0.2046661361971474
 20
-291.15175296151477
 30
0.0
 11
-0.2128027519904663
 21
-291.15134001630707
 31
0.0
  0
LINE
  8
DETAIL
  6
CONTINUOUS
 62
     5
 10
-0.2128027519904663
 20
-291.15134001630707
 30
0.0
 11
-0.2128027519904663
 21
-291.15134001630707
 31
0.0
  0
LINE
  8
DETAIL
  6
CONTINUOUS
 62
     5
 10
-0.2128027519904663
 20
-291.15134001630707
 30
0.0
 11
-0.2220603982909779
 21
-291.15084971326593
 31
0.0
  0
LINE
  8
DETAIL
  6
CONTINUOUS
 62
     5
 10
-0.2220603982909779
 20
-291.15084971326593
 30
0.0
 11
-0.2321381033482339
 21
-291.15028844808762
 31
0.0
  0
LINE
  8
DETAIL
  6
CONTINUOUS
 62
     5
 10
-0.2321381033482339
 20
-291.15028844808762
 30
0.0
 11
-0.2321381033482339
 21
-291.15028844808762
 31
0.0
  0
LINE
  8
DETAIL
  6
CONTINUOUS
 62
     5
 10
-0.2321381033482339
 20
-291.15028844808762
 30
0.0
 11
-0.2419134356568975
 21
-291.14969894304448
 31
0.0
  0
LINE
  8
DETAIL
  6
CONTINUOUS
 62
     5
 10
-0.2419134356568975
 20
-291.14969894304448
 30
0.0
 11
-0.2514666642655357
 21
-291.14907073461251
 31
0.0
  0
LINE
  8
DETAIL
  6
CONTINUOUS
 62
     5
 10
-0.2514666642655357
 20
-291.14907073461251
 30
0.0
 11
-0.2514666642655357
 21
-291.14907073461251
 31
0.0
  0
LINE
  8
DETAIL
  6
CONTINUOUS
 62
     5
 10
-0.2514666642655357
 20
-291.14907073461251
 30
0.0
 11
-0.2610981677009931
 21
-291.1483836255897
 31
0.0
  0
LINE
  8
DETAIL
  6
CONTINUOUS
 62
     5
 10
-0.2610981677009931
 20
-291.1483836255897
 30
0.0
 11
-0.2707860618477298
 21
-291.14763166986711
 31
0.0
  0
LINE
  8
DETAIL
  6
CONTINUOUS
 62
     5
 10
-0.2707860618477298
 20
-291.14763166986711
 30
0.0
 11
-0.2707860618477298
 21
-291.14763166986711
 31
0.0
  0
LINE
  8
DETAIL
  6
CONTINUOUS
 62
     5
 10
-0.2707860618477298
 20
-291.14763166986711
 30
0.0
 11
-0.2804494844331202
 21
-291.14681152946582
 31
0.0
  0
LINE
  8
DETAIL
  6
CONTINUOUS
 62
     5
 10
-0.2804494844331202
 20
-291.14681152946582
 30
0.0
 11
-0.2900939231999473
 21
-291.14591604783772
 31
0.0
  0
LINE
  8
DETAIL
  6
CONTINUOUS
 62
     5
 10
-0.2900939231999473
 20
-291.14591604783772
 30
0.0
 11
-0.2900939231999473
 21
-291.14591604783772
 31
0.0
  0
LINE
  8
DETAIL
  6
CONTINUOUS
 62
     5
 10
-0.2900939231999473
 20
-291.14591604783772
 30
0.0
 11
-0.2997408156645633
 21
-291.14494057676018
 31
0.0
  0
LINE
  8
DETAIL
  6
CONTINUOUS
 62
     5
 10
-0.2997408156645633
 20
-291.14494057676018
 30
0.0
 11
-0.3093890484292388
 21
-291.14389431987581
 31
0.0
  0
LINE
  8
DETAIL
  6
CONTINUOUS
 62
     5
 10
-0.3093890484292388
 20
-291.14389431987581
 30
0.0
 11
-0.3093890484292388
 21
-291.14389431987581
 31
0.0
  0
LINE
  8
DETAIL
  6
CONTINUOUS
 62
     5
 10
-0.3093890484292388
 20
-291.14389431987581
 30
0.0
 11
-0.3190334202795384
 21
-291.14278987525228
 31
0.0
  0
LINE
  8
DETAIL
  6
CONTINUOUS
 62
     5
 10
-0.3190334202795384
 20
-291.14278987525228
 30
0.0
 11
-0.3286749296535163
 21
-291.14163956679658
 31
0.0
  0
LINE
  8
DETAIL
  6
CONTINUOUS
 62
     5
 10
-0.3286749296535163
 20
-291.14163956679658
 30
0.0
 11
-0.3286749296535163
 21
-291.14163956679658
 31
0.0
  0
LINE
  8
DETAIL
  6
CONTINUOUS
 62
     5
 10
-0.3286749296535163
 20
-291.14163956679658
 30
0.0
 11
-0.3383157096036484
 21
-291.14045566824149
 31
0.0
  0
LINE
  8
DETAIL
  6
CONTINUOUS
 62
     5
 10
-0.3383157096036484
 20
-291.14045566824149
 30
0.0
 11
-0.3479562319912475
 21
-291.13925052678081
 31
0.0
  0
LINE
  8
DETAIL
  6
CONTINUOUS
 62
     5
 10
-0.3479562319912475
 20
-291.13925052678081
 30
0.0
 11
-0.3479562319912475
 21
-291.13925052678081
 31
0.0
  0
LINE
  8
DETAIL
  6
CONTINUOUS
 62
     5
 10
-0.3479562319912475
 20
-291.13925052678081
 30
0.0
 11
-0.3575966646585584
 21
-291.13803650305198
 31
0.0
  0
LINE
  8
DETAIL
  6
CONTINUOUS
 62
     5
 10
-0.3575966646585584
 20
-291.13803650305198
 30
0.0
 11
-0.3672376205627188
 21
-291.13682593801002
 31
0.0
  0
LINE
  8
DETAIL
  6
CONTINUOUS
 62
     5
 10
-0.3672376205627188
 20
-291.13682593801002
 30
0.0
 11
-0.3672376205627188
 21
-291.13682593801002
 31
0.0
  0
LINE
  8
DETAIL
  6
CONTINUOUS
 62
     5
 10
-0.3672376205627188
 20
-291.13682593801002
 30
0.0
 11
-0.3768797941218054
 21
-291.13563116900502
 31
0.0
  0
LINE
  8
DETAIL
  6
CONTINUOUS
 62
     5
 10
-0.3768797941218054
 20
-291.13563116900502
 30
0.0
 11
-0.3865237604866252
 21
-291.13446453866482
 31
0.0
  0
LINE
  8
DETAIL
  6
CONTINUOUS
 62
     5
 10
-0.3865237604866252
 20
-291.13446453866482
 30
0.0
 11
-0.3865237604866252
 21
-291.13446453866482
 31
0.0
  0
LINE
  8
DETAIL
  6
CONTINUOUS
 62
     5
 10
-0.3865237604866252
 20
-291.13446453866482
 30
0.0
 11
-0.3961698375685501
 21
-291.13333434238911
 31
0.0
  0
LINE
  8
DETAIL
  6
CONTINUOUS
 62
     5
 10
-0.3961698375685501
 20
-291.13333434238911
 30
0.0
 11
-0.4058174335891636
 21
-291.13223268140558
 31
0.0
  0
LINE
  8
DETAIL
  6
CONTINUOUS
 62
     5
 10
-0.4058174335891636
 20
-291.13223268140558
 30
0.0
 11
-0.4058174335891636
 21
-291.13223268140558
 31
0.0
  0
LINE
  8
DETAIL
  6
CONTINUOUS
 62
     5
 10
-0.4058174335891636
 20
-291.13223268140558
 30
0.0
 11
-0.4154657272074473
 21
-291.1311476084926
 31
0.0
  0
LINE
  8
DETAIL
  6
CONTINUOUS
 62
     5
 10
-0.4154657272074473
 20
-291.1311476084926
 30
0.0
 11
-0.4251138885192631
 21
-291.13006717680759
 31
0.0
  0
LINE
  8
DETAIL
  6
CONTINUOUS
 62
     5
 10
-0.4251138885192631
 20
-291.13006717680759
 30
0.0
 11
-0.4251138885192631
 21
-291.13006717680759
 31
0.0
  0
LINE
  8
DETAIL
  6
CONTINUOUS
 62
     5
 10
-0.4251138885192631
 20
-291.13006717680759
 30
0.0
 11
-0.4347610860529585
 21
-291.1289794395766
 31
0.0
  0
LINE
  8
DETAIL
  6
CONTINUOUS
 62
     5
 10
-0.4347610860529585
 20
-291.1289794395766
 30
0.0
 11
-0.4444064906319909
 21
-291.12787244992438
 31
0.0
  0
LINE
  8
DETAIL
  6
CONTINUOUS
 62
     5
 10
-0.4444064906319909
 20
-291.12787244992438
 30
0.0
 11
-0.4444064906319909
 21
-291.12787244992438
 31
0.0
  0
LINE
  8
DETAIL
  6
CONTINUOUS
 62
     5
 10
-0.4444064906319909
 20
-291.12787244992438
 30
0.0
 11
-0.4540492734993222
 21
-291.12673426095802
 31
0.0
  0
LINE
  8
DETAIL
  6
CONTINUOUS
 62
     5
 10
-0.4540492734993222
 20
-291.12673426095802
 30
0.0
 11
-0.463688605283096
 21
-291.12555292581021
 31
0.0
  0
LINE
  8
DETAIL
  6
CONTINUOUS
 62
     5
 10
-0.463688605283096
 20
-291.12555292581021
 30
0.0
 11
-0.463688605283096
 21
-291.12555292581021
 31
0.0
  0
LINE
  8
DETAIL
  6
CONTINUOUS
 62
     5
 10
-0.463688605283096
 20
-291.12555292581021
 30
0.0
 11
-0.4733236564993604
 21
-291.12431649761999
 31
0.0
  0
LINE
  8
DETAIL
  6
CONTINUOUS
 62
     5
 10
-0.4733236564993604
 20
-291.12431649761999
 30
0.0
 11
-0.4829535978278727
 21
-291.1230130295188
 31
0.0
  0
LINE
  8
DETAIL
  6
CONTINUOUS
 62
     5
 10
-0.4829535978278727
 20
-291.1230130295188
 30
0.0
 11
-0.4829535978278727
 21
-291.1230130295188
 31
0.0
  0
LINE
  8
DETAIL
  6
CONTINUOUS
 62
     5
 10
-0.4829535978278727
 20
-291.1230130295188
 30
0.0
 11
-0.4925777923199348
 21
-291.12163341021068
 31
0.0
  0
LINE
  8
DETAIL
  6
CONTINUOUS
 62
     5
 10
-0.4925777923199348
 20
-291.12163341021068
 30
0.0
 11
-0.5021963723402223
 21
-291.12017987069919
 31
0.0
  0
LINE
  8
DETAIL
  6
CONTINUOUS
 62
     5
 10
-0.5021963723402223
 20
-291.12017987069919
 30
0.0
 11
-0.5021963723402223
 21
-291.12017987069919
 31
0.0
  0
LINE
  8
DETAIL
  6
CONTINUOUS
 62
     5
 10
-0.5021963723402223
 20
-291.12017987069919
 30
0.0
 11
-0.5118096625863018
 21
-291.11865747756281
 31
0.0
  0
LINE
  8
DETAIL
  6
CONTINUOUS
 62
     5
 10
-0.5118096625863018
 20
-291.11865747756281
 30
0.0
 11
-0.5214179877671086
 21
-291.11707129737908
 31
0.0
  0
LINE
  8
DETAIL
  6
CONTINUOUS
 62
     5
 10
-0.5214179877671086
 20
-291.11707129737908
 30
0.0
 11
-0.5214179877671086
 21
-291.11707129737908
 31
0.0
  0
LINE
  8
DETAIL
  6
CONTINUOUS
 62
     5
 10
-0.5214179877671086
 20
-291.11707129737908
 30
0.0
 11
-0.5310216725938517
 21
-291.11542639672609
 31
0.0
  0
LINE
  8
DETAIL
  6
CONTINUOUS
 62
     5
 10
-0.5310216725938517
 20
-291.11542639672609
 30
0.0
 11
-0.5406210417743296
 21
-291.11372784218167
 31
0.0
  0
LINE
  8
DETAIL
  6
CONTINUOUS
 62
     5
 10
-0.5406210417743296
 20
-291.11372784218167
 30
0.0
 11
-0.5406210417743296
 21
-291.11372784218167
 31
0.0
  0
LINE
  8
DETAIL
  6
CONTINUOUS
 62
     5
 10
-0.5406210417743296
 20
-291.11372784218167
 30
0.0
 11
-0.5502164200161133
 21
-291.11198070032322
 31
0.0
  0
LINE
  8
DETAIL
  6
CONTINUOUS
 62
     5
 10
-0.5502164200161133
 20
-291.11198070032322
 30
0.0
 11
-0.5598081320274559
 21
-291.11019003772878
 31
0.0
  0
LINE
  8
DETAIL
  6
CONTINUOUS
 62
     5
 10
-0.5598081320274559
 20
-291.11019003772878
 30
0.0
 11
-0.5598081320274559
 21
-291.11019003772878
 31
0.0
  0
LINE
  8
DETAIL
  6
CONTINUOUS
 62
     5
 10
-0.5598081320274559
 20
-291.11019003772878
 30
0.0
 11
-0.5693965025166108
 21
-291.10836092097628
 31
0.0
  0
LINE
  8
DETAIL
  6
CONTINUOUS
 62
     5
 10
-0.5693965025166108
 20
-291.10836092097628
 30
0.0
 11
-0.578981856191831
 21
-291.10649841664372
 31
0.0
  0
LINE
  8
DETAIL
  6
CONTINUOUS
 62
     5
 10
-0.578981856191831
 20
-291.10649841664372
 30
0.0
 11
-0.578981856191831
 21
-291.10649841664372
 31
0.0
  0
LINE
  8
DETAIL
  6
CONTINUOUS
 62
     5
 10
-0.578981856191831
 20
-291.10649841664372
 30
0.0
 11
-0.5885645861831108
 21
-291.10460789185618
 31
0.0
  0
LINE
  8
DETAIL
  6
CONTINUOUS
 62
     5
 10
-0.5885645861831108
 20
-291.10460789185618
 30
0.0
 11
-0.5981453593042261
 21
-291.10269591593078
 31
0.0
  0
LINE
  8
DETAIL
  6
CONTINUOUS
 62
     5
 10
-0.5981453593042261
 20
-291.10269591593078
 30
0.0
 11
-0.5981453593042261
 21
-291.10269591593078
 31
0.0
  0
LINE
  8
DETAIL
  6
CONTINUOUS
 62
     5
 10
-0.5981453593042261
 20
-291.10269591593078
 30
0.0
 11
-0.6077249107918306
 21
-291.10076935873201
 31
0.0
  0
LINE
  8
DETAIL
  6
CONTINUOUS
 62
     5
 10
-0.6077249107918306
 20
-291.10076935873201
 30
0.0
 11
-0.6173039758816685
 21
-291.09883509012479
 31
0.0
  0
LINE
  8
DETAIL
  6
CONTINUOUS
 62
     5
 10
-0.6173039758816685
 20
-291.09883509012479
 30
0.0
 11
-0.6173039758816685
 21
-291.09883509012479
 31
0.0
  0
LINE
  8
DETAIL
  6
CONTINUOUS
 62
     5
 10
-0.6173039758816685
 20
-291.09883509012479
 30
0.0
 11
-0.626883289809939
 21
-291.0968999799727
 31
0.0
  0
LINE
  8
DETAIL
  6
CONTINUOUS
 62
     5
 10
-0.626883289809939
 20
-291.0968999799727
 30
0.0
 11
-0.636463587812159
 21
-291.09497089814118
 31
0.0
  0
LINE
  8
DETAIL
  6
CONTINUOUS
 62
     5
 10
-0.636463587812159
 20
-291.09497089814118
 30
0.0
 11
-0.636463587812159
 21
-291.09497089814118
 31
0.0
  0
LINE
  8
DETAIL
  6
CONTINUOUS
 62
     5
 10
-0.636463587812159
 20
-291.09497089814118
 30
0.0
 11
-0.6460456051249821
 21
-291.09305471449397
 31
0.0
  0
LINE
  8
DETAIL
  6
CONTINUOUS
 62
     5
 10
-0.6460456051249821
 20
-291.09305471449397
 30
0.0
 11
-0.6556300769839254
 21
-291.09115829889657
 31
0.0
  0
LINE
  8
DETAIL
  6
CONTINUOUS
 62
     5
 10
-0.6556300769839254
 20
-291.09115829889657
 30
0.0
 11
-0.6556300769839254
 21
-291.09115829889657
 31
0.0
  0
LINE
  8
DETAIL
  6
CONTINUOUS
 62
     5
 10
-0.6556300769839254
 20
-291.09115829889657
 30
0.0
 11
-0.6652177386249605
 21
-291.08928852121278
 31
0.0
  0
LINE
  8
DETAIL
  6
CONTINUOUS
 62
     5
 10
-0.6652177386249605
 20
-291.08928852121278
 30
0.0
 11
-0.6748093252842864
 21
-291.08745225130718
 31
0.0
  0
LINE
  8
DETAIL
  6
CONTINUOUS
 62
     5
 10
-0.6748093252842864
 20
-291.08745225130718
 30
0.0
 11
-0.6748093252842864
 21
-291.08745225130718
 31
0.0
  0
LINE
  8
DETAIL
  6
CONTINUOUS
 62
     5
 10
-0.6748093252842864
 20
-291.08745225130718
 30
0.0
 11
-0.6844051061725622
 21
-291.08565232128052
 31
0.0
  0
LINE
  8
DETAIL
  6
CONTINUOUS
 62
     5
 10
-0.6844051061725622
 20
-291.08565232128052
 30
0.0
 11
-0.6940034863991969
 21
-291.08387541217678
 31
0.0
  0
LINE
  8
DETAIL
  6
CONTINUOUS
 62
     5
 10
-0.6940034863991969
 20
-291.08387541217678
 30
0.0
 11
-0.6940034863991969
 21
-291.08387541217678
 31
0.0
  0
LINE
  8
DETAIL
  6
CONTINUOUS
 62
     5
 10
-0.6940034863991969
 20
-291.08387541217678
 30
0.0
 11
-0.7036024050482865
 21
-291.0821041672757
 31
0.0
  0
LINE
  8
DETAIL
  6
CONTINUOUS
 62
     5
 10
-0.7036024050482865
 20
-291.0821041672757
 30
0.0
 11
-0.7131998012039276
 21
-291.08032122985787
 31
0.0
  0
LINE
  8
DETAIL
  6
CONTINUOUS
 62
     5
 10
-0.7131998012039276
 20
-291.08032122985787
 30
0.0
 11
-0.7131998012039276
 21
-291.08032122985787
 31
0.0
  0
LINE
  8
DETAIL
  6
CONTINUOUS
 62
     5
 10
-0.7131998012039276
 20
-291.08032122985787
 30
0.0
 11
-0.7227936139502162
 21
-291.07850924320383
 31
0.0
  0
LINE
  8
DETAIL
  6
CONTINUOUS
 62
     5
 10
-0.7227936139502162
 20
-291.07850924320383
 30
0.0
 11
-0.7323817823712489
 21
-291.07665085059318
 31
0.0
  0
LINE
  8
DETAIL
  6
CONTINUOUS
 62
     5
 10
-0.7323817823712489
 20
-291.07665085059318
 30
0.0
 11
-0.7323817823712489
 21
-291.07665085059318
 31
0.0
  0
LINE
  8
DETAIL
  6
CONTINUOUS
 62
     5
 10
-0.7323817823712489
 20
-291.07665085059318
 30
0.0
 11
-0.7419622455511217
 21
-291.07472869530608
 31
0.0
  0
LINE
  8
DETAIL
  6
CONTINUOUS
 62
     5
 10
-0.7419622455511217
 20
-291.07472869530608
 30
0.0
 11
-0.751532942573931
 21
-291.07272542062287
 31
0.0
  0
LINE
  8
DETAIL
  6
CONTINUOUS
 62
     5
 10
-0.751532942573931
 20
-291.07272542062287
 30
0.0
 11
-0.751532942573931
 21
-291.07272542062287
 31
0.0
  0
LINE
  8
DETAIL
  6
CONTINUOUS
 62
     5
 10
-0.751532942573931
 20
-291.07272542062287
 30
0.0
 11
-0.7610918125237731
 21
-291.07062366982308
 31
0.0
  0
LINE
  8
DETAIL
  6
CONTINUOUS
 62
     5
 10
-0.7610918125237731
 20
-291.07062366982308
 30
0.0
 11
-0.7706367944849717
 21
-291.06840608618768
 31
0.0
  0
LINE
  8
DETAIL
  6
CONTINUOUS
 62
     5
 10
-0.7706367944849717
 20
-291.06840608618768
 30
0.0
 11
-0.7706367944849717
 21
-291.06840608618768
 31
0.0
  0
LINE
  8
DETAIL
  6
CONTINUOUS
 62
     5
 10
-0.7706367944849717
 20
-291.06840608618768
 30
0.0
 11
-0.7801665212282387
 21
-291.06606109669087
 31
0.0
  0
LINE
  8
DETAIL
  6
CONTINUOUS
 62
     5
 10
-0.7801665212282387
 20
-291.06606109669087
 30
0.0
 11
-0.789682400272568
 21
-291.0636002630863
 31
0.0
  0
LINE
  8
DETAIL
  6
CONTINUOUS
 62
     5
 10
-0.789682400272568
 20
-291.0636002630863
 30
0.0
 11
-0.789682400272568
 21
-291.0636002630863
 31
0.0
  0
LINE
  8
DETAIL
  6
CONTINUOUS
 62
     5
 10
-0.789682400272568
 20
-291.0636002630863
 30
0.0
 11
-0.7991865328233416
 21
-291.06104093082041
 31
0.0
  0
LINE
  8
DETAIL
  6
CONTINUOUS
 62
     5
 10
-0.7991865328233416
 20
-291.06104093082041
 30
0.0
 11
-0.8086810200866239
 21
-291.05840044534148
 31
0.0
  0
LINE
  8
DETAIL
  6
CONTINUOUS
 62
     5
 10
-0.8086810200866239
 20
-291.05840044534148
 30
0.0
 11
-0.8086810200866239
 21
-291.05840044534148
 31
0.0
  0
LINE
  8
DETAIL
  6
CONTINUOUS
 62
     5
 10
-0.8086810200866239
 20
-291.05840044534148
 30
0.0
 11
-0.8181679632680243
 21
-291.05569615209669
 31
0.0
  0
LINE
  8
DETAIL
  6
CONTINUOUS
 62
     5
 10
-0.8181679632680243
 20
-291.05569615209669
 30
0.0
 11
-0.8276494635733798
 21
-291.05294539653431
 31
0.0
  0
LINE
  8
DETAIL
  6
CONTINUOUS
 62
     5
 10
-0.8276494635733798
 20
-291.05294539653431
 30
0.0
 11
-0.8276494635733798
 21
-291.05294539653431
 31
0.0
  0
LINE
  8
DETAIL
  6
CONTINUOUS
 62
     5
 10
-0.8276494635733798
 20
-291.05294539653431
 30
0.0
 11
-0.8371276222082997
 21
-291.05016552410058
 31
0.0
  0
LINE
  8
DETAIL
  6
CONTINUOUS
 62
     5
 10
-0.8371276222082997
 20
-291.05016552410058
 30
0.0
 11
-0.8466045403783937
 21
-291.04737388024398
 31
0.0
  0
LINE
  8
DETAIL
  6
CONTINUOUS
 62
     5
 10
-0.8466045403783937
 20
-291.04737388024398
 30
0.0
 11
-0.8466045403783937
 21
-291.04737388024398
 31
0.0
  0
LINE
  8
DETAIL
  6
CONTINUOUS
 62
     5
 10
-0.8466045403783937
 20
-291.04737388024398
 30
0.0
 11
-0.8560823192894986
 21
-291.04458781041171
 31
0.0
  0
LINE
  8
DETAIL
  6
CONTINUOUS
 62
     5
 10
-0.8560823192894986
 20
-291.04458781041171
 30
0.0
 11
-0.865563060147224
 21
-291.04182466005199
 31
0.0
  0
LINE
  8
DETAIL
  6
CONTINUOUS
 62
     5
 10
-0.865563060147224
 20
-291.04182466005199
 30
0.0
 11
-0.865563060147224
 21
-291.04182466005199
 31
0.0
  0
LINE
  8
DETAIL
  6
CONTINUOUS
 62
     5
 10
-0.865563060147224
 20
-291.04182466005199
 30
0.0
 11
-0.8750483578423882
 21
-291.03909774811962
 31
0.0
  0
LINE
  8
DETAIL
  6
CONTINUOUS
 62
     5
 10
-0.8750483578423882
 20
-291.03909774811962
 30
0.0
 11
-0.8845377820057365
 21
-291.03640428760121
 31
0.0
  0
LINE
  8
DETAIL
  6
CONTINUOUS
 62
     5
 10
-0.8845377820057365
 20
-291.03640428760121
 30
0.0
 11
-0.8845377820057365
 21
-291.03640428760121
 31
0.0
  0
LINE
  8
DETAIL
  6
CONTINUOUS
 62
     5
 10
-0.8845377820057365
 20
-291.03640428760121
 30
0.0
 11
-0.8940303959525409
 21
-291.03373746499079
 31
0.0
  0
LINE
  8
DETAIL
  6
CONTINUOUS
 62
     5
 10
-0.8940303959525409
 20
-291.03373746499079
 30
0.0
 11
-0.9035252629983006
 21
-291.03109046678378
 31
0.0
  0
LINE
  8
DETAIL
  6
CONTINUOUS
 62
     5
 10
-0.9035252629983006
 20
-291.03109046678378
 30
0.0
 11
-0.9035252629983006
 21
-291.03109046678378
 31
0.0
  0
LINE
  8
DETAIL
  6
CONTINUOUS
 62
     5
 10
-0.9035252629983006
 20
-291.03109046678378
 30
0.0
 11
-0.9130214464589699
 21
-291.02845647947458
 31
0.0
  0
LINE
  8
DETAIL
  6
CONTINUOUS
 62
     5
 10
-0.9130214464589699
 20
-291.02845647947458
 30
0.0
 11
-0.9225180096495933
 21
-291.02582868955739
 31
0.0
  0
LINE
  8
DETAIL
  6
CONTINUOUS
 62
     5
 10
-0.9225180096495933
 20
-291.02582868955739
 30
0.0
 11
-0.9225180096495933
 21
-291.02582868955739
 31
0.0
  0
LINE
  8
DETAIL
  6
CONTINUOUS
 62
     5
 10
-0.9225180096495933
 20
-291.02582868955739
 30
0.0
 11
-0.932014015886125
 21
-291.02320028352682
 31
0.0
  0
LINE
  8
DETAIL
  6
CONTINUOUS
 62
     5
 10
-0.932014015886125
 20
-291.02320028352682
 30
0.0
 11
-0.9415085284842917
 21
-291.02056444787718
 31
0.0
  0
LINE
  8
DETAIL
  6
CONTINUOUS
 62
     5
 10
-0.9415085284842917
 20
-291.02056444787718
 30
0.0
 11
-0.9415085284842917
 21
-291.02056444787718
 31
0.0
  0
LINE
  8
DETAIL
  6
CONTINUOUS
 62
     5
 10
-0.9415085284842917
 20
-291.02056444787718
 30
0.0
 11
-0.951000610759138
 21
-291.01791436910281
 31
0.0
  0
LINE
  8
DETAIL
  6
CONTINUOUS
 62
     5
 10
-0.951000610759138
 20
-291.01791436910281
 30
0.0
 11
-0.9604893260266181
 21
-291.01524323369921
 31
0.0
  0
LINE
  8
DETAIL
  6
CONTINUOUS
 62
     5
 10
-0.9604893260266181
 20
-291.01524323369921
 30
0.0
 11
-0.9604893260266181
 21
-291.01524323369921
 31
0.0
  0
LINE
  8
DETAIL
  6
CONTINUOUS
 62
     5
 10
-0.9604893260266181
 20
-291.01524323369921
 30
0.0
 11
-0.9699737688952155
 21
-291.01254453105088
 31
0.0
  0
LINE
  8
DETAIL
  6
CONTINUOUS
 62
     5
 10
-0.9699737688952155
 20
-291.01254453105088
 30
0.0
 11
-0.9794531591451232
 21
-291.00981296210938
 31
0.0
  0
LINE
  8
DETAIL
  6
CONTINUOUS
 62
     5
 10
-0.9794531591451232
 20
-291.00981296210938
 30
0.0
 11
-0.9794531591451232
 21
-291.00981296210938
 31
0.0
  0
LINE
  8
DETAIL
  6
CONTINUOUS
 62
     5
 10
-0.9794531591451232
 20
-291.00981296210938
 30
0.0
 11
-0.9889267478497459
 21
-291.00704353071438
 31
0.0
  0
LINE
  8
DETAIL
  6
CONTINUOUS
 62
     5
 10
-0.9889267478497459
 20
-291.00704353071438
 30
0.0
 11
-0.9983937860829428
 21
-291.00423124070841
 31
0.0
  0
LINE
  8
DETAIL
  6
CONTINUOUS
 62
     5
 10
-0.9983937860829428
 20
-291.00423124070841
 30
0.0
 11
-0.9983937860829428
 21
-291.00423124070841
 31
0.0
  0
LINE
  8
DETAIL
  6
CONTINUOUS
 62
     5
 10
-0.9983937860829428
 20
-291.00423124070841
 30
0.0
 11
-1.0078535249181191
 21
-291.00137109593197
 31
0.0
  0
LINE
  8
DETAIL
  6
CONTINUOUS
 62
     5
 10
-1.0078535249181191
 20
-291.00137109593197
 30
0.0
 11
-1.017305215427768
 21
-290.99845810022782
 31
0.0
  0
LINE
  8
DETAIL
  6
CONTINUOUS
 62
     5
 10
-1.017305215427768
 20
-290.99845810022782
 30
0.0
 11
-1.017305215427768
 21
-290.99845810022782
 31
0.0
  0
LINE
  8
DETAIL
  6
CONTINUOUS
 62
     5
 10
-1.017305215427768
 20
-290.99845810022782
 30
0.0
 11
-1.026748108684842
 21
-290.99548725743608
 31
0.0
  0
LINE
  8
DETAIL
  6
CONTINUOUS
 62
     5
 10
-1.026748108684842
 20
-290.99548725743608
 30
0.0
 11
-1.0361814557661551
 21
-290.99245357139768
 31
0.0
  0
LINE
  8
DETAIL
  6
CONTINUOUS
 62
     5
 10
-1.0361814557661551
 20
-290.99245357139768
 30
0.0
 11
-1.0361814557661551
 21
-290.99245357139768
 31
0.0
  0
LINE
  8
DETAIL
  6
CONTINUOUS
 62
     5
 10
-1.0361814557661551
 20
-290.99245357139768
 30
0.0
 11
-1.045604507745338
 21
-290.98935204595352
 31
0.0
  0
LINE
  8
DETAIL
  6
CONTINUOUS
 62
     5
 10
-1.045604507745338
 20
-290.98935204595352
 30
0.0
 11
-1.0550165156853379
 21
-290.98617768494989
 31
0.0
  0
LINE
  8
DETAIL
  6
CONTINUOUS
 62
     5
 10
-1.0550165156853379
 20
-290.98617768494989
 30
0.0
 11
-1.0550165156853379
 21
-290.98617768494989
 31
0.0
  0
LINE
  8
DETAIL
  6
CONTINUOUS
 62
     5
 10
-1.0550165156853379
 20
-290.98617768494989
 30
0.0
 11
-1.0644171118003669
 21
-290.98292830715599
 31
0.0
  0
LINE
  8
DETAIL
  6
CONTINUOUS
 62
     5
 10
-1.0644171118003669
 20
-290.98292830715599
 30
0.0
 11
-1.0738074529213011
 21
-290.97961299103059
 31
0.0
  0
LINE
  8
DETAIL
  6
CONTINUOUS
 62
     5
 10
-1.0738074529213011
 20
-290.97961299103059
 30
0.0
 11
-1.0738074529213011
 21
-290.97961299103059
 31
0.0
  0
LINE
  8
DETAIL
  6
CONTINUOUS
 62
     5
 10
-1.0738074529213011
 20
-290.97961299103059
 30
0.0
 11
-1.0831890769939041
 21
-290.97624362997118
 31
0.0
  0
LINE
  8
DETAIL
  6
CONTINUOUS
 62
     5
 10
-1.0831890769939041
 20
-290.97624362997118
 30
0.0
 11
-1.092563521804095
 21
-290.97283211744798
 31
0.0
  0
LINE
  8
DETAIL
  6
CONTINUOUS
 62
     5
 10
-1.092563521804095
 20
-290.97283211744798
 30
0.0
 11
-1.092563521804095
 21
-290.97283211744798
 31
0.0
  0
LINE
  8
DETAIL
  6
CONTINUOUS
 62
     5
 10
-1.092563521804095
 20
-290.97283211744798
 30
0.0
 11
-1.1019323252469351
 21
-290.96939034688143
 31
0.0
  0
LINE
  8
DETAIL
  6
CONTINUOUS
 62
     5
 10
-1.1019323252469351
 20
-290.96939034688143
 30
0.0
 11
-1.111297025812291
 21
-290.96593021142849
 31
0.0
  0
LINE
  8
DETAIL
  6
CONTINUOUS
 62
     5
 10
-1.111297025812291
 20
-290.96593021142849
 30
0.0
 11
-1.111297025812291
 21
-290.96593021142849
 31
0.0
  0
LINE
  8
DETAIL
  6
CONTINUOUS
 62
     5
 10
-1.111297025812291
 20
-290.96593021142849
 30
0.0
 11
-1.12065916158349
 21
-290.96246360442558
 31
0.0
  0
LINE
  8
DETAIL
  6
CONTINUOUS
 62
     5
 10
-1.12065916158349
 20
-290.96246360442558
 30
0.0
 11
-1.1300202684246869
 21
-290.95900242019542
 31
0.0
  0
LINE
  8
DETAIL
  6
CONTINUOUS
 62
     5
 10
-1.1300202684246869
 20
-290.95900242019542
 30
0.0
 11
-1.1300202684246869
 21
-290.95900242019542
 31
0.0
  0
LINE
  8
DETAIL
  6
CONTINUOUS
 62
     5
 10
-1.1300202684246869
 20
-290.95900242019542
 30
0.0
 11
-1.139381883715487
 21
-290.95555855238808
 31
0.0
  0
LINE
  8
DETAIL
  6
CONTINUOUS
 62
     5
 10
-1.139381883715487
 20
-290.95555855238808
 30
0.0
 11
-1.148745553120079
 21
-290.95214389097367
 31
0.0
  0
LINE
  8
DETAIL
  6
CONTINUOUS
 62
     5
 10
-1.148745553120079
 20
-290.95214389097367
 30
0.0
 11
-1.148745553120079
 21
-290.95214389097367
 31
0.0
  0
LINE
  8
DETAIL
  6
CONTINUOUS
 62
     5
 10
-1.148745553120079
 20
-290.95214389097367
 30
0.0
 11
-1.1581124580050071
 21
-290.94876621820589
 31
0.0
  0
LINE
  8
DETAIL
  6
CONTINUOUS
 62
     5
 10
-1.1581124580050071
 20
-290.94876621820589
 30
0.0
 11
-1.167482314264362
 21
-290.9454168891433
 31
0.0
  0
LINE
  8
DETAIL
  6
CONTINUOUS
 62
     5
 10
-1.167482314264362
 20
-290.9454168891433
 30
0.0
 11
-1.167482314264362
 21
-290.9454168891433
 31
0.0
  0
LINE
  8
DETAIL
  6
CONTINUOUS
 62
     5
 10
-1.167482314264362
 20
-290.9454168891433
 30
0.0
 11
-1.1768545002682911
 21
-290.94208313923679
 31
0.0
  0
LINE
  8
DETAIL
  6
CONTINUOUS
 62
     5
 10
-1.1768545002682911
 20
-290.94208313923679
 30
0.0
 11
-1.1862285097722629
 21
-290.93875215269782
 31
0.0
  0
LINE
  8
DETAIL
  6
CONTINUOUS
 62
     5
 10
-1.1862285097722629
 20
-290.93875215269782
 30
0.0
 11
-1.1862285097722629
 21
-290.93875215269782
 31
0.0
  0
LINE
  8
DETAIL
  6
CONTINUOUS
 62
     5
 10
-1.1862285097722629
 20
-290.93875215269782
 30
0.0
 11
-1.1956037577219829
 21
-290.93541114873432
 31
0.0
  0
LINE
  8
DETAIL
  6
CONTINUOUS
 62
     5
 10
-1.1956037577219829
 20
-290.93541114873432
 30
0.0
 11
-1.204979228446291
 21
-290.93204753778662
 31
0.0
  0
LINE
  8
DETAIL
  6
CONTINUOUS
 62
     5
 10
-1.204979228446291
 20
-290.93204753778662
 30
0.0
 11
-1.204979228446291
 21
-290.93204753778662
 31
0.0
  0
LINE
  8
DETAIL
  6
CONTINUOUS
 62
     5
 10
-1.204979228446291
 20
-290.93204753778662
 30
0.0
 11
-1.214354200390972
 21
-290.92864859968068
 31
0.0
  0
LINE
  8
DETAIL
  6
CONTINUOUS
 62
     5
 10
-1.214354200390972
 20
-290.92864859968068
 30
0.0
 11
-1.22372955908827
 21
-290.92520090055791
 31
0.0
  0
LINE
  8
DETAIL
  6
CONTINUOUS
 62
     5
 10
-1.22372955908827
 20
-290.92520090055791
 30
0.0
 11
-1.22372955908827
 21
-290.92520090055791
 31
0.0
  0
LINE
  8
DETAIL
  6
CONTINUOUS
 62
     5
 10
-1.22372955908827
 20
-290.92520090055791
 30
0.0
 11
-1.2331050924099149
 21
-290.92169149401502
 31
0.0
  0
LINE
  8
DETAIL
  6
CONTINUOUS
 62
     5
 10
-1.2331050924099149
 20
-290.92169149401502
 30
0.0
 11
-1.2424745905004779
 21
-290.91811009716059
 31
0.0
  0
LINE
  8
DETAIL
  6
CONTINUOUS
 62
     5
 10
-1.2424745905004779
 20
-290.91811009716059
 30
0.0
 11
-1.2424745905004779
 21
-290.91811009716059
 31
0.0
  0
LINE
  8
DETAIL
  6
CONTINUOUS
 62
     5
 10
-1.2424745905004779
 20
-290.91811009716059
 30
0.0
 11
-1.25183608207567
 21
-290.91444793430281
 31
0.0
  0
LINE
  8
DETAIL
  6
CONTINUOUS
 62
     5
 10
-1.25183608207567
 20
-290.91444793430281
 30
0.0
 11
-1.2612105478642659
 21
-290.91069959505
 31
0.0
  0
LINE
  8
DETAIL
  6
CONTINUOUS
 62
     5
 10
-1.2612105478642659
 20
-290.91069959505
 30
0.0
 11
-1.2612105478642659
 21
-290.91069959505
 31
0.0
  0
LINE
  8
DETAIL
  6
CONTINUOUS
 62
     5
 10
-1.2612105478642659
 20
-290.91069959505
 30
0.0
 11
-1.270603822206795
 21
-290.90686978481119
 31
0.0
  0
LINE
  8
DETAIL
  6
CONTINUOUS
 62
     5
 10
-1.270603822206795
 20
-290.90686978481119
 30
0.0
 11
-1.279938201878394
 21
-290.90300030690622
 31
0.0
  0
LINE
  8
DETAIL
  6
CONTINUOUS
 62
     5
 10
-1.279938201878394
 20
-290.90300030690622
 30
0.0
 11
-1.279938201878394
 21
-290.90300030690622
 31
0.0
  0
LINE
  8
DETAIL
  6
CONTINUOUS
 62
     5
 10
-1.279938201878394
 20
-290.90300030690622
 30
0.0
 11
-1.2891930408727601
 21
-290.89910762631058
 31
0.0
  0
LINE
  8
DETAIL
  6
CONTINUOUS
 62
     5
 10
-1.2891930408727601
 20
-290.89910762631058
 30
0.0
 11
-1.298659459620467
 21
-290.89506975671679
 31
0.0
  0
LINE
  8
DETAIL
  6
CONTINUOUS
 62
     5
 10
-1.298659459620467
 20
-290.89506975671679
 30
0.0
 11
-1.298659459620467
 21
-290.89506975671679
 31
0.0
  0
LINE
  8
DETAIL
  6
CONTINUOUS
 62
     5
 10
-1.298659459620467
 20
-290.89506975671679
 30
0.0
 11
-1.30841563811623
 21
-290.89085927580152
 31
0.0
  0
LINE
  8
DETAIL
  6
CONTINUOUS
 62
     5
 10
-1.30841563811623
 20
-290.89085927580152
 30
0.0
 11
-1.3173762281685411
 21
-290.8869654684662
 31
0.0
  0
LINE
  8
DETAIL
  6
CONTINUOUS
 62
     5
 10
-1.3173762281685411
 20
-290.8869654684662
 30
0.0
 11
-1.3173762281685411
 21
-290.8869654684662
 31
0.0
  0
LINE
  8
DETAIL
  6
CONTINUOUS
 62
     5
 10
-1.3173762281685411
 20
-290.8869654684662
 30
0.0
 11
-1.3252505861155439
 21
-290.88352470201488
 31
0.0
  0
LINE
  8
DETAIL
  6
CONTINUOUS
 62
     5
 10
-1.3252505861155439
 20
-290.88352470201488
 30
0.0
 11
-1.336090414600221
 21
-290.87874496614359
 31
0.0
  0
LINE
  8
DETAIL
  6
CONTINUOUS
 62
     5
 10
-1.336090414600221
 20
-290.87874496614359
 30
0.0
 11
-1.336090414600221
 21
-290.87874496614359
 31
0.0
  0
LINE
  8
DETAIL
  6
CONTINUOUS
 62
     5
 10
-1.336090414600221
 20
-290.87874496614359
 30
0.0
 11
-1.3533205805420041
 21
-290.87110819205623
 31
0.0
  0
LINE
  8
DETAIL
  6
CONTINUOUS
 62
     5
 10
-1.3533205805420041
 20
-290.87110819205623
 30
0.0
 11
-1.373516261661734
 21
-290.86212045459388
 31
0.0
  0
LINE
  8
DETAIL
  6
CONTINUOUS
 62
     5
 10
-1.373516261661734
 20
-290.86212045459388
 30
0.0
 11
-1.373516261661734
 21
-290.86212045459388
 31
0.0
  0
LINE
  8
DETAIL
  6
CONTINUOUS
 62
     5
 10
-1.373516261661734
 20
-290.86212045459388
 30
0.0
 11
-1.3926258418166531
 21
-290.85356774928903
 31
0.0
  0
LINE
  8
DETAIL
  6
CONTINUOUS
 62
     5
 10
-1.3926258418166531
 20
-290.85356774928903
 30
0.0
 11
-1.4109402186054469
 21
-290.84533161080248
 31
0.0
  0
LINE
  8
DETAIL
  6
CONTINUOUS
 62
     5
 10
-1.4109402186054469
 20
-290.84533161080248
 30
0.0
 11
-1.4109402186054469
 21
-290.84533161080248
 31
0.0
  0
LINE
  8
DETAIL
  6
CONTINUOUS
 62
     5
 10
-1.4109402186054469
 20
-290.84533161080248
 30
0.0
 11
-1.429545121718093
 21
-290.83694472742872
 31
0.0
  0
LINE
  8
DETAIL
  6
CONTINUOUS
 62
     5
 10
-1.429545121718093
 20
-290.83694472742872
 30
0.0
 11
-1.448363095466902
 21
-290.82844886287319
 31
0.0
  0
LINE
  8
DETAIL
  6
CONTINUOUS
 62
     5
 10
-1.448363095466902
 20
-290.82844886287319
 30
0.0
 11
-1.448363095466902
 21
-290.82844886287319
 31
0.0
  0
LINE
  8
DETAIL
  6
CONTINUOUS
 62
     5
 10
-1.448363095466902
 20
-290.82844886287319
 30
0.0
 11
-1.46710344476196
 21
-290.81998008950171
 31
0.0
  0
LINE
  8
DETAIL
  6
CONTINUOUS
 62
     5
 10
-1.46710344476196
 20
-290.81998008950171
 30
0.0
 11
-1.4857857022816461
 21
-290.81154263890909
 31
0.0
  0
LINE
  8
DETAIL
  6
CONTINUOUS
 62
     5
 10
-1.4857857022816461
 20
-290.81154263890909
 30
0.0
 11
-1.4857857022816461
 21
-290.81154263890909
 31
0.0
  0
LINE
  8
DETAIL
  6
CONTINUOUS
 62
     5
 10
-1.4857857022816461
 20
-290.81154263890909
 30
0.0
 11
-1.50448752622242
 21
-290.80311235441638
 31
0.0
  0
LINE
  8
DETAIL
  6
CONTINUOUS
 62
     5
 10
-1.50448752622242
 20
-290.80311235441638
 30
0.0
 11
-1.523208849085449
 21
-290.79468336701439
 31
0.0
  0
LINE
  8
DETAIL
  6
CONTINUOUS
 62
     5
 10
-86.165703275529722
 20
-225.4335260115605
 30
0.0
 11
-86.165703275529722
 21
-221.4258188824663
 31
0.0
  0
LINE
  8
DETAIL
  6
CONTINUOUS
 62
     5
 10
2.5048169556839639
 20
-213.4104046242775
 30
0.0
 11
-2.5048169556839639
 21
-213.4104046242775
 31
0.0
  0
LINE
  8
DETAIL
  6
CONTINUOUS
 62
     5
 10
-63.56947113424917
 20
-225.4335260115605
 30
0.0
 11
-63.56947113424917
 21
-221.4258188824663
 31
0.0
  0
LINE
  8
DETAIL
  6
CONTINUOUS
 62
     5
 10
-2.5048169556839639
 20
-213.4104046242775
 30
0.0
 11
-2.5048169556839639
 21
-221.4258188824663
 31
0.0
  0
LINE
  8
DETAIL
  6
CONTINUOUS
 62
     5
 10
2.5048169556839639
 20
-213.4104046242775
 30
0.0
 11
2.5048169556839639
 21
-221.4258188824663
 31
0.0
  0
LINE
  8
DETAIL
  6
CONTINUOUS
 62
     5
 10
238.33333333333329
 20
-99.591522157995882
 30
0.0
 11
206.53232368060429
 21
-99.591522157995882
 31
0.0
  0
LINE
  8
DETAIL
  6
CONTINUOUS
 62
     5
 10
-206.53232368060461
 20
-99.591522157995882
 30
0.0
 11
-238.33333333333351
 21
-99.591522157995882
 31
0.0
  0
ARC
  8
DETAIL
  6
CONTINUOUS
 62
     5
 10
-238.33333333333351
 20
-64.524084778419933
 30
0.0
 40
34.46628131021189
 50
295.68763667251
 51
337.3431083458018
  0
ARC
  8
DETAIL
  6
CONTINUOUS
 62
     5
 10
-233.3236994219653
 20
-49.495183044315809
 30
0.0
 40
29.456647398843931
 50
24.539341144897559
 51
90.0
  0
ARC
  8
DETAIL
  6
CONTINUOUS
 62
     5
 10
238.33333333333329
 20
-64.524084778419933
 30
0.0
 40
34.466281310212011
 50
202.6568916541982
 51
244.31236332749
  0
ARC
  8
DETAIL
  6
CONTINUOUS
 62
     5
 10
233.3236994219651
 20
-49.495183044315809
 30
0.0
 40
29.456647398843931
 50
91.044076173398295
 51
155.46065885510251
  0
LINE
  8
NOTE
  6
CONTINUOUS
 62
     4
 10
-230.4431599229288
 20
-34.681212037984778
 30
0.0
 11
-230.4431599229288
 21
14.486821293642491
 31
0.0
  0
LINE
  8
NOTE
  6
CONTINUOUS
 62
     4
 10
230.4431599229288
 20
-34.681212037984778
 30
0.0
 11
230.4431599229288
 21
14.486821293642491
 31
0.0
  0
LINE
  8
BASIS
  6
DASHDOT
 62
     6
 10
0.0
 20
-310.17828768981798
 30
0.0
 11
0.0
 21
69.886340601920892
 31
0.0
  0
LINE
  8
OUTLINE
  6
CONTINUOUS
 62
     3
 10
-256.99421965317919
 20
-3.0057803468209841
 30
0.0
 11
-258.49710982658962
 21
-3.0057803468209841
 31
0.0
  0
LINE
  8
OUTLINE
  6
CONTINUOUS
 62
     3
 10
-65.325626204239143
 20
-266.51252408477842
 30
0.0
 11
-89.672447013487499
 21
-266.51252408477842
 31
0.0
  0
LINE
  8
SIZE
  6
CONTINUOUS
 62
    30
 10
-65.325626204239143
 20
-301.24084778420018
 30
0.0
 11
-65.325626204239143
 21
-462.88094283804168
 31
0.0
  0
LINE
  8
SIZE
  6
CONTINUOUS
 62
    30
 10
65.325626204238915
 20
-301.24084778420018
 30
0.0
 11
65.325626204238915
 21
-462.88094283804168
 31
0.0
  0
LINE
  8
SIZE
  6
CONTINUOUS
 62
    30
 10
-53.325626204239143
 20
-442.88094283804168
 30
0.0
 11
53.325626204238922
 21
-442.88094283804168
 31
0.0
  0
LINE
  8
SIZE
  6
CONTINUOUS
 62
    30
 10
65.325626204238915
 20
-442.88094283804168
 30
0.0
 11
300.12562620423893
 21
-442.88094283804168
 31
0.0
  0
CIRCLE
  8
SIZE
  6
CONTINUOUS
 62
    30
 10
-65.325626204239143
 20
-442.88094283804168
 30
0.0
 40
6.0
  0
LINE
  8
SIZE
  6
CONTINUOUS
 62
    30
 10
-65.325626204239143
 20
-442.88094283804168
 30
0.0
 11
-53.325626204239143
 21
-442.88094283804168
 31
0.0
  0
CIRCLE
  8
SIZE
  6
CONTINUOUS
 62
    30
 10
65.325626204238915
 20
-442.88094283804168
 30
0.0
 40
6.0
  0
LINE
  8
SIZE
  6
CONTINUOUS
 62
    30
 10
65.325626204238915
 20
-442.88094283804168
 30
0.0
 11
53.325626204238922
 21
-442.88094283804168
 31
0.0
  0
TEXT
  8
SIZE
  6
CONTINUOUS
 62
    30
 10
92.177054775667358
 20
-407.21427617137522
 30
0.0
 40
64.0
  1
φ131
 41
0.9
 72
     1
 11
188.72562620423881
 21
-407.21427617137522
 31
0.0
  0
POINT
  8
DEFPOINTS
  6
CONTINUOUS
 62
    30
 10
-65.325626204239143
 20
-281.24084778420018
 30
0.0
  0
POINT
  8
DEFPOINTS
  6
CONTINUOUS
 62
    30
 10
65.325626204238915
 20
-281.24084778420018
 30
0.0
  0
POINT
  8
DEFPOINTS
  6
CONTINUOUS
 62
    30
 10
65.325626204238915
 20
-442.88094283804168
 30
0.0
  0
ARC
  8
DETAIL
  6
CONTINUOUS
 62
     5
 10
194.71600823209431
 20
-7.4346750959505243
 30
0.0
 40
2.5916927064155608
 50
274.24202891535191
 51
345.98509350748668
  0
ARC
  8
DETAIL
  6
CONTINUOUS
 62
     5
 10
210.59185320260991
 20
-10.541280470920359
 30
0.0
 40
13.58931915512612
 50
146.31138144914581
 51
169.48924874747041
  0
ARC
  8
DETAIL
  6
CONTINUOUS
 62
     5
 10
194.43226356615119
 20
-8.0794983657353896
 30
0.0
 40
6.4659440374839088
 50
274.2168590202055
 51
345.06085877076782
  0
ARC
  8
DETAIL
  6
CONTINUOUS
 62
     5
 10
205.85084148326811
 20
-9.8698550613510179
 30
0.0
 40
5.1726556254472236
 50
113.0403953827352
 51
178.63209907093179
  0
ARC
  8
DETAIL
  6
CONTINUOUS
 62
     5
 10
244.127670549231
 20
-8.2323180326802685
 30
0.0
 40
6.3066537963497042
 50
273.38967333439069
 51
343.5401388989585
  0
ARC
  8
DETAIL
  6
CONTINUOUS
 62
     5
 10
255.41019132464359
 20
-9.9511880313150414
 30
0.0
 40
5.2347660304861217
 50
112.3545959426619
 51
180.7451707800021
  0
ARC
  8
DETAIL
  6
CONTINUOUS
 62
     5
 10
-89.666922316650584
 20
-154.38185978349409
 30
0.0
 40
116.8689973559314
 50
180.4494676526817
 51
247.56487706937429
  0
ARC
  8
DETAIL
  6
CONTINUOUS
 62
     5
 10
-81.173375919390196
 20
-152.3352999645264
 30
0.0
 40
122.20677020469969
 50
181.38948246704899
 51
244.24847202923269
  0
ARC
  8
DETAIL
  6
CONTINUOUS
 62
     5
 10
-96.541190066246031
 20
-153.711417869824
 30
0.0
 40
84.146978042210193
 50
181.08081323577071
 51
245.76612143181501
  0
ARC
  8
DETAIL
  6
CONTINUOUS
 62
     5
 10
-194.71600823209431
 20
-7.4346750959505243
 30
0.0
 40
2.5916927064155608
 50
194.01490649251329
 51
265.75797108464809
  0
ARC
  8
DETAIL
  6
CONTINUOUS
 62
     5
 10
-210.59185320260991
 20
-10.541280470920359
 30
0.0
 40
13.58931915512612
 50
10.510751252529589
 51
33.688618550854159
  0
ARC
  8
DETAIL
  6
CONTINUOUS
 62
     5
 10
-194.43226356615119
 20
-8.0794983657353896
 30
0.0
 40
6.4659440374839088
 50
194.93914122923229
 51
265.7831409797945
  0
ARC
  8
DETAIL
  6
CONTINUOUS
 62
     5
 10
-205.8508414832686
 20
-9.8698550613510179
 30
0.0
 40
5.1726556254472236
 50
1.367900929068153
 51
66.959604617264773
  0
ARC
  8
DETAIL
  6
CONTINUOUS
 62
     5
 10
-244.127670549231
 20
-8.2323180326802685
 30
0.0
 40
6.3066537963497042
 50
196.4598611010415
 51
266.61032666560931
  0
ARC
  8
DETAIL
  6
CONTINUOUS
 62
     5
 10
-255.4101913246441
 20
-9.9511880313150414
 30
0.0
 40
5.2347660304861217
 50
359.25482921999787
 51
67.645404057338055
  0
ARC
  8
DETAIL
  6
CONTINUOUS
 62
     5
 10
92.605509029519908
 20
-155.27139710284459
 30
0.0
 40
113.92681791107751
 50
289.7377457448348
 51
359.98629329708189
  0
ARC
  8
DETAIL
  6
CONTINUOUS
 62
     5
 10
84.99809210794092
 20
-153.48407494030101
 30
0.0
 40
118.3600305158737
 50
292.91342019317688
 51
359.12156463603628
  0
ARC
  8
DETAIL
  6
CONTINUOUS
 62
     5
 10
106.9466517721758
 20
-160.5786722346534
 30
0.0
 40
73.915371231593156
 50
289.05674832556241
 51
4.0963170068503301
  0
ARC
  8
DETAIL
  6
CONTINUOUS
 62
     5
 10
-328.64140297877731
 20
-833.62586743707186
 30
0.0
 40
793.81504777217663
 50
54.792506590274613
 51
68.394410148288117
  0
ARC
  8
DETAIL
  6
CONTINUOUS
 62
     5
 10
111.1538988182465
 20
-216.35516647570381
 30
0.0
 40
61.204590061242577
 50
132.73765535333371
 51
138.48410131688661
  0
ARC
  8
DETAIL
  6
CONTINUOUS
 62
     5
 10
14.194319399809959
 20
28.780900025198889
 30
0.0
 40
221.45424574942029
 50
283.56263773725891
 51
292.69462051046912
  0
ARC
  8
DETAIL
  6
CONTINUOUS
 62
     5
 10
14.194319399809959
 20
28.780900025198889
 30
0.0
 40
221.45424574942029
 50
295.34887330092369
 51
318.74264253160209
  0
ARC
  8
DETAIL
  6
CONTINUOUS
 62
     5
 10
518.77583398478828
 20
827.04434941676118
 30
0.0
 40
1086.65909495139
 50
238.10851794432571
 51
248.90435773372309
  0
ARC
  8
DETAIL
  6
CONTINUOUS
 62
     5
 10
127.7693390299137
 20
-185.46302831521831
 30
0.0
 40
1.329391714538618
 50
265.24487534709851
 51
19.292885885180741
  0
ARC
  8
DETAIL
  6
CONTINUOUS
 62
     5
 10
16.23118179579183
 20
-154.07167773003599
 30
0.0
 40
56.129211215634513
 50
342.01529380527722
 51
350.49961812795681
  0
ARC
  8
DETAIL
  6
CONTINUOUS
 62
     5
 10
16.23118179579183
 20
-154.07167773003599
 30
0.0
 40
56.129211215634513
 50
5.8278926368380741
 51
76.078133740234279
  0
ARC
  8
DETAIL
  6
CONTINUOUS
 62
     5
 10
236.50781566323391
 20
-830.06701029076874
 30
0.0
 40
777.77967014165404
 50
110.972606412826
 51
122.2893168641494
  0
CIRCLE
  8
ARRANGE
  6
CONTINUOUS
 62
     1
 10
0.0
 20
0.0
 30
0.0
 40
40.0
  0
ARC
  8
OUTLINE
  6
CONTINUOUS
 62
     3
 10
244.127670549231
 20
-8.2323180326802685
 30
0.0
 40
6.3066537963497042
 50
273.38967333439069
 51
343.5401388989585
  0
ARC
  8
OUTLINE
  6
CONTINUOUS
 62
     3
 10
-89.666922316650584
 20
-154.38185978349409
 30
0.0
 40
116.8689973559314
 50
180.4494676526817
 51
247.56487706937429
  0
ARC
  8
OUTLINE
  6
CONTINUOUS
 62
     3
 10
-244.127670549231
 20
-8.2323180326802685
 30
0.0
 40
6.3066537963497042
 50
196.4598611010415
 51
266.61032666560931
  0
ARC
  8
OUTLINE
  6
CONTINUOUS
 62
     3
 10
92.605509029519908
 20
-155.2713971028445
 30
0.0
 40
113.92681791107751
 50
289.7377457448348
 51
359.98629329708189
  0
LINE
  8
DETAIL
  6
CONTINUOUS
 62
     5
 10
-40.077071290944332
 20
-260.50096339113679
 30
0.0
 11
-40.077071290944332
 21
-239.71249159062131
 31
0.0
  0
LINE
  8
DETAIL
  6
CONTINUOUS
 62
     5
 10
40.077071290944332
 20
-239.71249159062131
 30
0.0
 11
40.077071290944332
 21
-260.50096339113679
 31
0.0
  0
LINE
  8
DETAIL
  6
CONTINUOUS
 62
     5
 10
35.067437379575949
 20
-265.51059730250478
 30
0.0
 11
-35.067437379576397
 21
-265.51059730250478
 31
0.0
  0
ARC
  8
DETAIL
  6
CONTINUOUS
 62
     5
 10
-35.067437379576397
 20
-260.50096339113679
 30
0.0
 40
5.0096339113680974
 50
180.0
 51
270.0
  0
ARC
  8
DETAIL
  6
CONTINUOUS
 62
     5
 10
-35.067437379576397
 20
-239.71249159062131
 30
0.0
 40
5.0096339113681108
 50
100.6151078506843
 51
180.0
  0
ARC
  8
DETAIL
  6
CONTINUOUS
 62
     5
 10
35.067437379575949
 20
-239.71249159062131
 30
0.0
 40
5.0096339113680406
 50
0.0
 51
79.384892149315746
  0
ARC
  8
DETAIL
  6
CONTINUOUS
 62
     5
 10
35.067437379575949
 20
-260.50096339113679
 30
0.0
 40
5.0096339113680406
 50
270.0
 51
0.0
  0
ARC
  8
DETAIL
  6
CONTINUOUS
 62
     5
 10
0.0
 20
-426.82080924855518
 30
0.0
 40
195.37572254335251
 50
79.384892149315746
 51
100.6151078506843
  0
LINE
  8
DETAIL
  6
CONTINUOUS
 62
     5
 10
65.325626204239143
 20
-184.43314008437801
 30
0.0
 11
66.127167630057784
 21
-185.8214505583162
 31
0.0
  0
ENDSEC
  0
EOF
