  0
SECTION
  2
HEADER
  9
$ACADVER
  1
AC1009
  9
$DWGCODEPAGE
  3
dos932
  9
$INSBASE
 10
0.0
 20
0.0
 30
0.0
  9
$EXTMIN
 10
-687.93638488037686
 20
-402.14537398673752
 30
-0.0015258207003583
  9
$EXTMAX
 10
1243.542492289027
 20
678.68042804612742
 30
0.0000000349246037
  9
$LIMMIN
 10
-2970.0
 20
-2100.0
  9
$LIMMAX
 10
2970.0
 20
2100.0
  9
$ORTHOMODE
 70
     1
  9
$REGENMODE
 70
     1
  9
$FILLMODE
 70
     1
  9
$QTEXTMODE
 70
     0
  9
$MIRRTEXT
 70
     0
  9
$LTSCALE
 40
20.0
  9
$ATTMODE
 70
     1
  9
$TEXTSIZE
 40
64.0
  9
$TRACEWID
 40
0.05
  9
$TEXTSTYLE
  7
STANDARD
  9
$CLAYER
  8
SIZE
  9
$CELTYPE
  6
CONTINUOUS
  9
$CECOLOR
 62
     7
  9
$DIMSCALE
 40
1.0
  9
$DIMASZ
 40
12.0
  9
$DIMEXO
 40
20.0
  9
$DIMDLI
 40
200.0
  9
$DIMRND
 40
0.0
  9
$DIMDLE
 40
0.0
  9
$DIMEXE
 40
20.0
  9
$DIMTP
 40
0.0
  9
$DIMTM
 40
0.0
  9
$DIMTXT
 40
64.0
  9
$DIMCEN
 40
0.09
  9
$DIMTSZ
 40
0.0
  9
$DIMTOL
 70
     0
  9
$DIMLIM
 70
     0
  9
$DIMTIH
 70
     0
  9
$DIMTOH
 70
     0
  9
$DIMSE1
 70
     0
  9
$DIMSE2
 70
     0
  9
$DIMTAD
 70
     1
  9
$DIMZIN
 70
     8
  9
$DIMBLK
  1

  9
$DIMASO
 70
     1
  9
$DIMSHO
 70
     0
  9
$DIMPOST
  1

  9
$DIMAPOST
  1

  9
$DIMALT
 70
     0
  9
$DIMALTD
 70
     2
  9
$DIMALTF
 40
25.399999999999999
  9
$DIMLFAC
 40
1.0
  9
$DIMTOFL
 70
     1
  9
$DIMTVP
 40
0.0
  9
$DIMTIX
 70
     1
  9
$DIMSOXD
 70
     0
  9
$DIMSAH
 70
     0
  9
$DIMBLK1
  1

  9
$DIMBLK2
  1

  9
$DIMSTYLE
  2
STANDARD
  9
$DIMCLRD
 70
     7
  9
$DIMCLRE
 70
     7
  9
$DIMCLRT
 70
     7
  9
$DIMTFAC
 40
1.0
  9
$DIMGAP
 40
25.0
  9
$LUNITS
 70
     2
  9
$LUPREC
 70
     4
  9
$SKETCHINC
 40
0.1
  9
$FILLETRAD
 40
3.0
  9
$AUNITS
 70
     1
  9
$AUPREC
 70
     3
  9
$MENU
  1
ACAD
  9
$ELEVATION
 40
0.0
  9
$PELEVATION
 40
0.0
  9
$THICKNESS
 40
0.0
  9
$LIMCHECK
 70
     0
  9
$CHAMFERA
 40
0.0
  9
$CHAMFERB
 40
0.0
  9
$SKPOLY
 70
     0
  9
$TDCREATE
 40
2453019.62301037
  9
$TDUPDATE
 40
2458949.446622384
  9
$TDINDWG
 40
1.7129095023
  9
$TDUSRTIMER
 40
1.7129095023
  9
$USRTIMER
 70
     1
  9
$ANGBASE
 50
0.0
  9
$ANGDIR
 70
     0
  9
$PDMODE
 70
     3
  9
$PDSIZE
 40
-2.0
  9
$PLINEWID
 40
0.0
  9
$SPLFRAME
 70
     0
  9
$SPLINETYPE
 70
     6
  9
$SPLINESEGS
 70
     8
  9
$SURFTAB1
 70
     6
  9
$SURFTAB2
 70
     6
  9
$SURFTYPE
 70
     6
  9
$SURFU
 70
     6
  9
$SURFV
 70
     6
  9
$UCSNAME
  2

  9
$UCSORG
 10
0.0
 20
0.0
 30
0.0
  9
$UCSXDIR
 10
1.0
 20
0.0
 30
0.0
  9
$UCSYDIR
 10
0.0
 20
1.0
 30
0.0
  9
$PUCSNAME
  2

  9
$PUCSORG
 10
0.0
 20
0.0
 30
0.0
  9
$PUCSXDIR
 10
1.0
 20
0.0
 30
0.0
  9
$PUCSYDIR
 10
0.0
 20
1.0
 30
0.0
  9
$USERI1
 70
     0
  9
$USERI2
 70
     0
  9
$USERI3
 70
     0
  9
$USERI4
 70
     0
  9
$USERI5
 70
     0
  9
$USERR1
 40
20.0
  9
$USERR2
 40
0.0
  9
$USERR3
 40
0.0
  9
$USERR4
 40
0.0
  9
$USERR5
 40
0.0
  9
$WORLDVIEW
 70
     1
  9
$SHADEDGE
 70
     3
  9
$SHADEDIF
 70
    70
  9
$TILEMODE
 70
     1
  9
$MAXACTVP
 70
    48
  9
$PINSBASE
 10
0.0
 20
0.0
 30
0.0
  9
$PLIMCHECK
 70
     0
  9
$PEXTMIN
 10
-100000000000000000000.0
 20
-100000000000000000000.0
 30
-100000000000000000000.0
  9
$PEXTMAX
 10
100000000000000000000.0
 20
100000000000000000000.0
 30
100000000000000000000.0
  9
$PLIMMIN
 10
0.0
 20
0.0
  9
$PLIMMAX
 10
12.0
 20
9.0
  9
$UNITMODE
 70
     0
  9
$VISRETAIN
 70
     0
  9
$PLINEGEN
 70
     0
  9
$PSLTSCALE
 70
     0
  9
$TREEDEPTH
 70
  3020
  9
$ATTDIA
 70
     0
  9
$ATTREQ
 70
     1
  9
$BLIPMODE
 70
     1
  9
$COORDS
 70
     1
  9
$DRAGMODE
 70
     2
  9
$OSMODE
 70
     0
  9
$HANDLING
 70
     0
  9
$HANDSEED
  5
FF7D
  0
ENDSEC
  0
SECTION
  2
TABLES
  0
TABLE
  2
LTYPE
 70
     2
  0
LTYPE
  2
CONTINUOUS
 70
     0
  3
実線
 72
    65
 73
     0
 40
0.0
  0
LTYPE
  2
DASHDOT
 70
     0
  3
____ _ ____ _ ____ _ ____ _ ____ _ ____ _ ____
 72
    65
 73
     4
 40
5.5
 49
4.0
 49
-0.6
 49
0.3
 49
-0.6
  0
ENDTAB
  0
TABLE
  2
LAYER
 70
    12
  0
LAYER
  2
0
 70
     0
 62
     7
  6
CONTINUOUS
  0
LAYER
  2
BASIS
 70
     0
 62
     6
  6
DASHDOT
  0
LAYER
  2
OUTLINE
 70
     0
 62
     3
  6
CONTINUOUS
  0
LAYER
  2
DETAIL
 70
     0
 62
     5
  6
CONTINUOUS
  0
LAYER
  2
SIZE
 70
     0
 62
    30
  6
CONTINUOUS
  0
LAYER
  2
ARRANGE
 70
     0
 62
     1
  6
CONTINUOUS
  0
LAYER
  2
DEFPOINTS
 70
     0
 62
     7
  6
CONTINUOUS
  0
LAYER
  2
ETC
 70
     0
 62
    61
  6
CONTINUOUS
  0
LAYER
  2
FIX
 70
     0
 62
    11
  6
CONTINUOUS
  0
LAYER
  2
NOTE
 70
     0
 62
     4
  6
CONTINUOUS
  0
LAYER
  2
SERVICESPACE
 70
    64
 62
     2
  6
DASHDOT
  0
LAYER
  2
SYMBOLLINE
 70
    64
 62
    15
  6
CONTINUOUS
  0
ENDTAB
  0
TABLE
  2
STYLE
 70
     1
  0
STYLE
  2
STANDARD
 70
     0
 40
64.0
 41
0.9
 50
0.0
 71
     0
 42
64.0
  3
SIMPLEX.shx
  4
BIGFONT.shx
  0
ENDTAB
  0
TABLE
  2
APPID
 70
    19
  0
APPID
  2
ACAD
 70
     0
  0
APPID
  2
AUTOCAD_POSTSCRIPT_FIGURE
 70
     0
  0
APPID
  2
ACAD_EXEMPT_FROM_CAD_STANDARDS
 70
     0
  0
APPID
  2
ACAD_PSEXT
 70
     0
  0
APPID
  2
ACAUTHENVIRON
 70
     0
  0
APPID
  2
GENIUS_GENOENT_13
 70
     0
  0
APPID
  2
GENIUS_GENCFG_13
 70
     0
  0
APPID
  2
GENIUS_GENCFG0_13
 70
     0
  0
APPID
  2
GENIUS_GENCFG1_13
 70
     0
  0
APPID
  2
GENIUS_GENCFG2_13
 70
     0
  0
APPID
  2
GENIUS_GENCFG3_13
 70
     0
  0
APPID
  2
GENIUS_GENCFG4_13
 70
     0
  0
APPID
  2
GENIUS_GEVCFG0_13
 70
     0
  0
APPID
  2
CONTENTBLOCKICON
 70
     0
  0
APPID
  2
CONTENTBLOCKDESCRIPTION
 70
     0
  0
APPID
  2
ACAD_NAV_VCDISPLAY
 70
     0
  0
APPID
  2
ACAD_MLEADERVER
 70
     0
  0
APPID
  2
ACDBDYNAMICBLOCKTRUENAME
 70
     0
  0
APPID
  2
ACDBDYNAMICBLOCKGUID
 70
     0
  0
ENDTAB
  0
TABLE
  2
DIMSTYLE
 70
     1
  0
DIMSTYLE
  2
STANDARD
 70
     0
  3

  4

  5
_ORIGIN
  6

  7

 40
1.0
 41
12.0
 42
20.0
 43
200.0
 44
20.0
 45
0.0
 46
0.0
 47
0.0
 48
0.0
140
64.0
141
0.09
142
0.0
143
25.399999999999999
144
1.0
145
0.0
146
1.0
147
25.0
 71
     0
 72
     0
 73
     0
 74
     0
 75
     0
 76
     0
 77
     1
 78
     8
170
     0
171
     2
172
     1
173
     0
174
     1
175
     0
176
     7
177
     7
178
     7
  0
ENDTAB
  0
TABLE
  2
VIEW
 70
     1
  0
VIEW
  2
ALL
 70
     0
 40
4282.6198079999986
 10
0.0
 20
41.309904000000003
 41
5940.0
 11
0.0
 21
0.0
 31
1.0
 12
0.0
 22
0.0
 32
0.0
 42
50.0
 43
0.0
 44
0.0
 50
0.0
 71
     0
  0
ENDTAB
  0
TABLE
  2
UCS
 70
     0
  0
ENDTAB
  0
TABLE
  2
VPORT
 70
     1
  0
VPORT
  2
*ACTIVE
 70
     0
 10
0.0
 20
0.0
 11
1.0
 21
1.0
 12
277.80305370432512
 22
138.267527029695
 13
0.0
 23
0.0
 14
1.0
 24
1.0
 15
0.0
 25
0.0
 16
0.0
 26
0.0
 36
1.0
 17
0.0
 27
0.0
 37
0.0
 40
1109.2912494794471
 41
1.747787610619469
 42
50.0
 43
0.0
 44
0.0
 50
0.0
 51
0.0
 71
     0
 72
  1000
 73
     1
 74
     3
 75
     0
 76
     0
 77
     0
 78
     0
  0
ENDTAB
  0
ENDSEC
  0
SECTION
  2
BLOCKS
  0
BLOCK
  8
0
  2
_ORIGIN
 70
     0
 10
0.0
 20
0.0
 30
0.0
  3
_ORIGIN
  1
_ORIGIN
  0
CIRCLE
  8
0
  6
CONTINUOUS
 62
     7
 10
0.0
 20
0.0
 30
0.0
 40
0.5
  0
LINE
  8
0
  6
CONTINUOUS
 62
     7
 10
0.0
 20
0.0
 30
0.0
 11
-1.0
 21
0.0
 31
0.0
  0
ENDBLK
  8
0
  0
ENDSEC
  0
SECTION
  2
ENTITIES
  0
CIRCLE
  8
ARRANGE
  6
CONTINUOUS
 62
     1
 10
0.0
 20
0.0
 30
0.0
 40
40.0
  0
POINT
  8
ARRANGE
  6
CONTINUOUS
 62
     1
 10
0.0
 20
0.0
 30
0.0
  0
TEXT
  8
ETC
  6
CONTINUOUS
 62
    61
 10
491.70080710425918
 20
614.51412067233741
 30
0.0
 40
64.0
  1
EWF-45ESA2-Q_2
 41
0.9
  0
TEXT
  8
ETC
  6
CONTINUOUS
 62
    61
 10
487.51481310425879
 20
496.55881065750577
 30
0.0
 40
64.0
  1
産業扇
 41
0.9
  0
TEXT
  8
ETC
  6
CONTINUOUS
 62
    61
 10
538.21621135281475
 20
388.41003777128071
 30
0.0
 40
40.0
  1
EWF-45ESA2-Q
 41
0.9
  0
CIRCLE
  8
FIX
  6
CONTINUOUS
 62
    11
 10
-280.45234248788358
 20
280.45234248788358
 30
0.0
 40
7.0
  0
CIRCLE
  8
FIX
  6
CONTINUOUS
 62
    11
 10
-280.45234248788358
 20
-280.45234248788381
 30
0.0
 40
7.0
  0
CIRCLE
  8
FIX
  6
CONTINUOUS
 62
    11
 10
280.45234248788358
 20
-280.45234248788381
 30
0.0
 40
7.0
  0
CIRCLE
  8
FIX
  6
CONTINUOUS
 62
    11
 10
280.45234248788358
 20
280.45234248788358
 30
0.0
 40
7.0
  0
LINE
  8
SIZE
  6
CONTINUOUS
 62
    30
 10
-310.00000000000011
 20
289.93537964458801
 30
0.0
 11
-310.00000000000011
 21
496.98818270582802
 31
0.0
  0
LINE
  8
SIZE
  6
CONTINUOUS
 62
    30
 10
309.99999999999989
 20
289.93537964458801
 30
0.0
 11
309.99999999999989
 21
496.98818270582802
 31
0.0
  0
LINE
  8
SIZE
  6
CONTINUOUS
 62
    30
 10
-298.00000000000011
 20
476.98818270582802
 30
0.0
 11
297.99999999999989
 21
476.98818270582802
 31
0.0
  0
CIRCLE
  8
SIZE
  6
CONTINUOUS
 62
    30
 10
-310.00000000000011
 20
476.98818270582802
 30
0.0
 40
6.0
  0
LINE
  8
SIZE
  6
CONTINUOUS
 62
    30
 10
-310.00000000000011
 20
476.98818270582802
 30
0.0
 11
-298.00000000000011
 21
476.98818270582802
 31
0.0
  0
CIRCLE
  8
SIZE
  6
CONTINUOUS
 62
    30
 10
309.99999999999989
 20
476.98818270582802
 30
0.0
 40
6.0
  0
LINE
  8
SIZE
  6
CONTINUOUS
 62
    30
 10
309.99999999999989
 20
476.98818270582802
 30
0.0
 11
297.99999999999989
 21
476.98818270582802
 31
0.0
  0
TEXT
  8
SIZE
  6
CONTINUOUS
 62
    30
 10
-74.05714285714285
 20
501.98818270582802
 30
0.0
 40
64.0
  1
620
 41
0.9
 72
     1
 11
0.0
 21
501.98818270582802
 31
0.0
  0
POINT
  8
DEFPOINTS
  6
CONTINUOUS
 62
    30
 10
-310.00000000000011
 20
269.93537964458801
 30
0.0
  0
POINT
  8
DEFPOINTS
  6
CONTINUOUS
 62
    30
 10
309.99999999999989
 20
269.93537964458801
 30
0.0
  0
POINT
  8
DEFPOINTS
  6
CONTINUOUS
 62
    30
 10
309.99999999999989
 20
476.98818270582802
 30
0.0
  0
LINE
  8
SIZE
  6
CONTINUOUS
 62
    30
 10
-280.45234248788358
 20
331.51018772463698
 30
0.0
 11
-280.45234248788358
 21
391.28524152930049
 31
0.0
  0
LINE
  8
SIZE
  6
CONTINUOUS
 62
    30
 10
280.45234248788358
 20
331.51018772463698
 30
0.0
 11
280.45234248788358
 21
391.28524152930049
 31
0.0
  0
LINE
  8
SIZE
  6
CONTINUOUS
 62
    30
 10
-268.45234248788358
 20
371.28524152930049
 30
0.0
 11
268.45234248788358
 21
371.28524152930049
 31
0.0
  0
CIRCLE
  8
SIZE
  6
CONTINUOUS
 62
    30
 10
-280.45234248788358
 20
371.28524152930049
 30
0.0
 40
6.0
  0
LINE
  8
SIZE
  6
CONTINUOUS
 62
    30
 10
-280.45234248788358
 20
371.28524152930049
 30
0.0
 11
-268.45234248788358
 21
371.28524152930049
 31
0.0
  0
CIRCLE
  8
SIZE
  6
CONTINUOUS
 62
    30
 10
280.45234248788358
 20
371.28524152930049
 30
0.0
 40
6.0
  0
LINE
  8
SIZE
  6
CONTINUOUS
 62
    30
 10
280.45234248788358
 20
371.28524152930049
 30
0.0
 11
268.45234248788358
 21
371.28524152930049
 31
0.0
  0
TEXT
  8
SIZE
  6
CONTINUOUS
 62
    30
 10
-74.057142856880233
 20
396.28524152930049
 30
0.0
 40
64.0
  1
560
 41
0.9
 72
     1
 11
0.0000000002626166
 21
396.28524152930049
 31
0.0
  0
POINT
  8
DEFPOINTS
  6
CONTINUOUS
 62
    30
 10
-280.45234248788358
 20
311.51018772463698
 30
0.0
  0
POINT
  8
DEFPOINTS
  6
CONTINUOUS
 62
    30
 10
280.45234248788358
 20
311.51018772463698
 30
0.0
  0
POINT
  8
DEFPOINTS
  6
CONTINUOUS
 62
    30
 10
280.45234248788358
 20
371.28524152930049
 30
0.0
  0
LINE
  8
SIZE
  6
CONTINUOUS
 62
    30
 10
-289.93537964458801
 20
309.99999999999989
 30
0.0
 11
-618.63796098190176
 21
309.99999999999989
 31
0.0
  0
LINE
  8
SIZE
  6
CONTINUOUS
 62
    30
 10
-289.93537964458801
 20
-310.00000000000011
 30
0.0
 11
-618.63796098190198
 21
-309.99999999999989
 31
0.0
  0
LINE
  8
SIZE
  6
CONTINUOUS
 62
    30
 10
-598.63796098190176
 20
297.99999999999989
 30
0.0
 11
-598.63796098190198
 21
-297.99999999999989
 31
0.0
  0
CIRCLE
  8
SIZE
  6
CONTINUOUS
 62
    30
 10
-598.63796098190176
 20
309.99999999999989
 30
0.0
 40
6.0
  0
LINE
  8
SIZE
  6
CONTINUOUS
 62
    30
 10
-598.63796098190176
 20
309.99999999999989
 30
0.0
 11
-598.63796098190176
 21
297.99999999999989
 31
0.0
  0
CIRCLE
  8
SIZE
  6
CONTINUOUS
 62
    30
 10
-598.63796098190198
 20
-309.99999999999989
 30
0.0
 40
6.0
  0
LINE
  8
SIZE
  6
CONTINUOUS
 62
    30
 10
-598.63796098190198
 20
-309.99999999999989
 30
0.0
 11
-598.63796098190198
 21
-297.99999999999989
 31
0.0
  0
TEXT
  8
SIZE
  6
CONTINUOUS
 62
    30
 10
-623.63796098190187
 20
-80.859766315696021
 30
0.0
 40
64.0
  1
620
 50
90.0
 41
0.9
 72
     1
 11
-623.63796098190187
 21
-6.8026234585531711
 31
0.0
  0
POINT
  8
DEFPOINTS
  6
CONTINUOUS
 62
    30
 10
-269.93537964458801
 20
309.99999999999989
 30
0.0
  0
POINT
  8
DEFPOINTS
  6
CONTINUOUS
 62
    30
 10
-269.93537964458801
 20
-310.00000000000011
 30
0.0
  0
POINT
  8
DEFPOINTS
  6
CONTINUOUS
 62
    30
 10
-598.63796098190198
 20
-309.99999999999989
 30
0.0
  0
LINE
  8
SIZE
  6
CONTINUOUS
 62
    30
 10
-331.51018772463698
 20
280.45234248788358
 30
0.0
 11
-511.35754604625328
 21
280.45234248788381
 31
0.0
  0
LINE
  8
SIZE
  6
CONTINUOUS
 62
    30
 10
-331.51018772463698
 20
-280.45234248788381
 30
0.0
 11
-511.3575460462535
 21
-280.45234248788358
 31
0.0
  0
LINE
  8
SIZE
  6
CONTINUOUS
 62
    30
 10
-491.35754604625328
 20
268.45234248788381
 30
0.0
 11
-491.3575460462535
 21
-268.45234248788358
 31
0.0
  0
CIRCLE
  8
SIZE
  6
CONTINUOUS
 62
    30
 10
-491.35754604625328
 20
280.45234248788381
 30
0.0
 40
6.0
  0
LINE
  8
SIZE
  6
CONTINUOUS
 62
    30
 10
-491.35754604625328
 20
280.45234248788381
 30
0.0
 11
-491.35754604625328
 21
268.45234248788381
 31
0.0
  0
CIRCLE
  8
SIZE
  6
CONTINUOUS
 62
    30
 10
-491.3575460462535
 20
-280.45234248788358
 30
0.0
 40
6.0
  0
LINE
  8
SIZE
  6
CONTINUOUS
 62
    30
 10
-491.3575460462535
 20
-280.45234248788358
 30
0.0
 11
-491.3575460462535
 21
-268.45234248788358
 31
0.0
  0
TEXT
  8
SIZE
  6
CONTINUOUS
 62
    30
 10
-516.35754604625367
 20
-74.05714285714285
 30
0.0
 40
64.0
  1
560
 50
90.0
 41
0.9
 72
     1
 11
-516.35754604625367
 21
0.0
 31
0.0
  0
POINT
  8
DEFPOINTS
  6
CONTINUOUS
 62
    30
 10
-311.51018772463698
 20
280.45234248788358
 30
0.0
  0
POINT
  8
DEFPOINTS
  6
CONTINUOUS
 62
    30
 10
-311.51018772463698
 20
-280.45234248788381
 30
0.0
  0
POINT
  8
DEFPOINTS
  6
CONTINUOUS
 62
    30
 10
-491.3575460462535
 20
-280.45234248788358
 30
0.0
  0
LINE
  8
SIZE
  6
CONTINUOUS
 62
    30
 10
-20.0
 20
88.018444920564434
 30
0.0
 11
-393.98015678251647
 21
88.018444920564548
 31
0.0
  0
LINE
  8
SIZE
  6
CONTINUOUS
 62
    30
 10
-20.0
 20
-123.57580389568081
 30
0.0
 11
-393.98015678251647
 21
-123.57580389568071
 31
0.0
  0
LINE
  8
SIZE
  6
CONTINUOUS
 62
    30
 10
-373.98015678251647
 20
76.018444920564548
 30
0.0
 11
-373.98015678251647
 21
-111.57580389568071
 31
0.0
  0
CIRCLE
  8
SIZE
  6
CONTINUOUS
 62
    30
 10
-373.98015678251647
 20
88.018444920564548
 30
0.0
 40
6.0
  0
LINE
  8
SIZE
  6
CONTINUOUS
 62
    30
 10
-373.98015678251647
 20
88.018444920564548
 30
0.0
 11
-373.98015678251647
 21
76.018444920564548
 31
0.0
  0
CIRCLE
  8
SIZE
  6
CONTINUOUS
 62
    30
 10
-373.98015678251647
 20
-123.57580389568071
 30
0.0
 40
6.0
  0
LINE
  8
SIZE
  6
CONTINUOUS
 62
    30
 10
-373.98015678251647
 20
-123.57580389568071
 30
0.0
 11
-373.98015678251647
 21
-111.57580389568071
 31
0.0
  0
TEXT
  8
SIZE
  6
CONTINUOUS
 62
    30
 10
-398.98015678251647
 20
-66.2344504184871
 30
0.0
 40
64.0
  1
211
 50
90.0
 41
0.9
 72
     1
 11
-398.98015678251647
 21
-10.00587898991569
 31
0.0
  0
POINT
  8
DEFPOINTS
  6
CONTINUOUS
 62
    30
 10
0.0
 20
88.018444920564434
 30
0.0
  0
POINT
  8
DEFPOINTS
  6
CONTINUOUS
 62
    30
 10
0.0
 20
-123.57580389568081
 30
0.0
  0
POINT
  8
DEFPOINTS
  6
CONTINUOUS
 62
    30
 10
-373.98015678251647
 20
-123.57580389568071
 30
0.0
  0
TEXT
  8
NOTE
  6
CONTINUOUS
 62
     4
 10
-627.91141437069962
 20
370.5871302558312
 30
0.0
 40
64.0
  1
4-φ14
 41
0.9
  0
TEXT
  8
NOTE
  6
CONTINUOUS
 62
     4
 10
378.87945091887809
 20
-378.18630814841168
 30
0.0
 40
64.0
  1
EL
 41
0.9
  0
LINE
  8
NOTE
  6
CONTINUOUS
 62
     4
 10
280.45234248788358
 20
-249.3944972511301
 30
0.0
 11
280.45234248788358
 21
-311.51018772463709
 31
0.0
  0
LINE
  8
NOTE
  6
CONTINUOUS
 62
     4
 10
249.39449725112979
 20
-280.45234248788381
 30
0.0
 11
311.51018772463681
 21
-280.45234248788381
 31
0.0
  0
LINE
  8
NOTE
  6
CONTINUOUS
 62
     4
 10
-280.45234248788358
 20
-249.3944972511301
 30
0.0
 11
-280.45234248788358
 21
-311.51018772463709
 31
0.0
  0
LINE
  8
NOTE
  6
CONTINUOUS
 62
     4
 10
-249.39449725113039
 20
-280.45234248788381
 30
0.0
 11
-311.51018772463698
 21
-280.45234248788381
 31
0.0
  0
LINE
  8
NOTE
  6
CONTINUOUS
 62
     4
 10
-280.45234248788358
 20
249.3944972511301
 30
0.0
 11
-280.45234248788358
 21
311.51018772463698
 31
0.0
  0
LINE
  8
NOTE
  6
CONTINUOUS
 62
     4
 10
-249.39449725113039
 20
280.45234248788358
 30
0.0
 11
-311.51018772463698
 21
280.45234248788358
 31
0.0
  0
LINE
  8
NOTE
  6
CONTINUOUS
 62
     4
 10
280.45234248788358
 20
249.3944972511301
 30
0.0
 11
280.45234248788358
 21
311.51018772463698
 31
0.0
  0
LINE
  8
NOTE
  6
CONTINUOUS
 62
     4
 10
249.39449725112979
 20
280.45234248788358
 30
0.0
 11
311.51018772463681
 21
280.45234248788358
 31
0.0
  0
LINE
  8
SIZE
  6
CONTINUOUS
 62
    30
 10
604.52464989543432
 20
-72.068259807121535
 30
0.0
 11
238.67825318793501
 21
-28.453970179765861
 31
0.0
  0
LINE
  8
SIZE
  6
CONTINUOUS
 62
    30
 10
-238.67825318793501
 20
28.453970179765751
 30
0.0
 11
-250.59387853863521
 21
29.874488571674419
 31
0.0
  0
TEXT
  8
SIZE
  6
CONTINUOUS
 62
    30
 10
372.40012325721523
 20
-19.218565328797901
 30
0.0
 40
64.0
  1
φ456
 50
353.20158308038378
 41
0.9
 72
     1
 11
484.61126941695193
 21
-32.595789956600363
 31
0.0
  0
LINE
  8
SIZE
  6
CONTINUOUS
 62
    30
 10
-226.76262783723479
 20
27.033451787857079
 30
0.0
 11
226.7626278372347
 21
-27.033451787857299
 31
0.0
  0
CIRCLE
  8
SIZE
  6
CONTINUOUS
 62
    30
 10
-226.76262783723479
 20
27.033451787857079
 30
0.0
 40
6.0
  0
LINE
  8
SIZE
  6
CONTINUOUS
 62
    30
 10
-226.76262783723479
 20
27.033451787857079
 30
0.0
 11
-238.67825318793501
 21
28.453970179765751
 31
0.0
  0
CIRCLE
  8
SIZE
  6
CONTINUOUS
 62
    30
 10
226.7626278372347
 20
-27.033451787857299
 30
0.0
 40
6.0
  0
LINE
  8
SIZE
  6
CONTINUOUS
 62
    30
 10
226.7626278372347
 20
-27.033451787857299
 30
0.0
 11
238.67825318793501
 21
-28.453970179765971
 31
0.0
  0
POINT
  8
DEFPOINTS
  6
CONTINUOUS
 62
    30
 10
226.7626278372347
 20
-27.033451787857299
 30
0.0
  0
POINT
  8
DEFPOINTS
  6
CONTINUOUS
 62
    30
 10
-226.76262783723479
 20
27.033451787857079
 30
0.0
  0
LINE
  8
SIZE
  6
CONTINUOUS
 62
    30
 10
572.65441533483227
 20
-260.30770865723252
 30
0.0
 11
216.0863071667369
 21
-98.224915384416249
 31
0.0
  0
LINE
  8
SIZE
  6
CONTINUOUS
 62
    30
 10
-216.0863071667369
 20
98.224915384416136
 30
0.0
 11
-227.01063125496049
 21
103.1907127237624
 31
0.0
  0
TEXT
  8
SIZE
  6
CONTINUOUS
 62
    30
 10
364.97632795297437
 20
-138.44320857375061
 30
0.0
 40
64.0
  1
φ450
 50
335.55519552600771
 41
0.9
 72
     1
 11
469.1007426910146
 21
-185.77435121391781
 31
0.0
  0
LINE
  8
SIZE
  6
CONTINUOUS
 62
    30
 10
-205.16198307851329
 20
93.259118045070181
 30
0.0
 11
205.1619830785132
 21
-93.259118045070181
 31
0.0
  0
CIRCLE
  8
SIZE
  6
CONTINUOUS
 62
    30
 10
-205.16198307851329
 20
93.259118045070181
 30
0.0
 40
6.0
  0
LINE
  8
SIZE
  6
CONTINUOUS
 62
    30
 10
-205.16198307851329
 20
93.259118045070181
 30
0.0
 11
-216.0863071667369
 21
98.224915384416136
 31
0.0
  0
CIRCLE
  8
SIZE
  6
CONTINUOUS
 62
    30
 10
205.1619830785132
 20
-93.259118045070181
 30
0.0
 40
6.0
  0
LINE
  8
SIZE
  6
CONTINUOUS
 62
    30
 10
205.1619830785132
 20
-93.259118045070181
 30
0.0
 11
216.0863071667369
 21
-98.224915384416249
 31
0.0
  0
POINT
  8
DEFPOINTS
  6
CONTINUOUS
 62
    30
 10
205.1619830785132
 20
-93.259118045070181
 30
0.0
  0
POINT
  8
DEFPOINTS
  6
CONTINUOUS
 62
    30
 10
-205.16198307851329
 20
93.259118045070181
 30
0.0
  0
LINE
  8
DETAIL
  6
CONTINUOUS
 62
     4
 10
-283.82610848968199
 20
286.51758690474048
 30
0.0
 11
-281.06270985004988
 21
280.95446482730239
 31
0.0
  0
LINE
  8
DETAIL
  6
CONTINUOUS
 62
     4
 10
-281.06270985004988
 20
280.95446482730239
 30
0.0
 11
-286.23744948948581
 21
284.39056275286413
 31
0.0
  0
LINE
  8
DETAIL
  6
CONTINUOUS
 62
     4
 10
-281.06270985004988
 20
280.95446482730239
 30
0.0
 11
-289.00084812911808
 21
289.95368483030222
 31
0.0
  0
LINE
  8
NOTE
  6
CONTINUOUS
 62
     4
 10
-289.00084812911808
 20
289.95368483030222
 30
0.0
 11
-337.16630272955138
 21
344.55735980491801
 31
0.0
  0
LINE
  8
NOTE
  6
CONTINUOUS
 62
     4
 10
-337.16630272955138
 20
344.55735980491801
 30
0.0
 11
-635.03486497458528
 21
344.71881465409842
 31
0.0
  0
LINE
  8
DETAIL
  6
CONTINUOUS
 62
     4
 10
235.05862309084441
 20
-248.10632590462271
 30
0.0
 11
232.44528827776711
 21
-242.47115239844231
 31
0.0
  0
LINE
  8
DETAIL
  6
CONTINUOUS
 62
     4
 10
232.44528827776711
 20
-242.47115239844231
 30
0.0
 11
237.52609475268861
 21
-246.0446807465033
 31
0.0
  0
LINE
  8
DETAIL
  6
CONTINUOUS
 62
     4
 10
232.44528827776711
 20
-242.47115239844231
 30
0.0
 11
240.13942956576599
 21
-251.6798542526839
 31
0.0
  0
LINE
  8
NOTE
  6
CONTINUOUS
 62
     4
 10
240.13942956576599
 20
-251.6798542526839
 30
0.0
 11
365.77137798942931
 21
-402.12891727268652
 31
0.0
  0
LINE
  8
NOTE
  6
CONTINUOUS
 62
     4
 10
365.77137798942931
 20
-402.12891727268652
 30
0.0
 11
465.61808598112839
 21
-402.04154086105427
 31
0.0
  0
LINE
  8
OUTLINE
  6
CONTINUOUS
 62
     3
 10
-269.93537964458852
 20
309.99999999999989
 30
0.0
 11
269.93537964458852
 21
309.99999999999989
 31
0.0
  0
ARC
  8
OUTLINE
  6
CONTINUOUS
 62
     3
 10
-269.93537964458852
 20
269.93537964458801
 30
0.0
 40
40.064620355411989
 50
90.0
 51
180.0
  0
LINE
  8
OUTLINE
  6
CONTINUOUS
 62
     3
 10
-310.0
 20
-269.93537964458812
 30
0.0
 11
-310.0
 21
269.93537964458801
 31
0.0
  0
ARC
  8
OUTLINE
  6
CONTINUOUS
 62
     3
 10
-269.93537964458852
 20
-269.93537964458812
 30
0.0
 40
40.064620355411989
 50
180.0
 51
270.0
  0
LINE
  8
OUTLINE
  6
CONTINUOUS
 62
     3
 10
269.93537964458852
 20
-310.00000000000011
 30
0.0
 11
-269.93537964458852
 21
-310.00000000000011
 31
0.0
  0
ARC
  8
OUTLINE
  6
CONTINUOUS
 62
     3
 10
269.93537964458852
 20
-269.93537964458812
 30
0.0
 40
40.064620355411961
 50
270.0
 51
0.0
  0
LINE
  8
OUTLINE
  6
CONTINUOUS
 62
     3
 10
310.00000000000051
 20
269.93537964458801
 30
0.0
 11
310.00000000000051
 21
-269.93537964458812
 31
0.0
  0
ARC
  8
OUTLINE
  6
CONTINUOUS
 62
     3
 10
269.93537964458852
 20
269.93537964458801
 30
0.0
 40
40.064620355411527
 50
0.0
 51
90.0
  0
LINE
  8
DETAIL
  6
CONTINUOUS
 62
     5
 10
-258.57429140950052
 20
-275.89216139740267
 30
0.0
 11
-252.12237774830621
 21
-301.69981604140207
 31
0.0
  0
LINE
  8
DETAIL
  6
CONTINUOUS
 62
     5
 10
-255.4088117234603
 20
-274.09989725421087
 30
0.0
 11
-249.2315411706808
 21
-298.80897946455269
 31
0.0
  0
LINE
  8
DETAIL
  6
CONTINUOUS
 62
     5
 10
-252.12237774830621
 20
301.69981604217861
 30
0.0
 11
-258.57429140950052
 21
275.89216139817898
 31
0.0
  0
LINE
  8
DETAIL
  6
CONTINUOUS
 62
     5
 10
-249.2315411706808
 20
298.80897946455269
 30
0.0
 11
-255.4088117234603
 21
274.09989725498758
 31
0.0
  0
LINE
  8
DETAIL
  6
CONTINUOUS
 62
     5
 10
-271.53141769951537
 20
-261.0433025366745
 30
0.0
 11
-261.04330253667479
 21
-271.53141769951532
 31
0.0
  0
LINE
  8
DETAIL
  6
CONTINUOUS
 62
     5
 10
-269.73915355632391
 20
-257.87782285063417
 30
0.0
 11
-257.87782285063457
 21
-269.73915355632357
 31
0.0
  0
LINE
  8
DETAIL
  6
CONTINUOUS
 62
     5
 10
-89.020070914578582
 20
69.212859413983551
 30
0.0
 11
-89.020070914578582
 21
-74.296158399594106
 31
0.0
  0
LINE
  8
DETAIL
  6
CONTINUOUS
 62
     5
 10
-79.003915825725585
 20
61.565403451779048
 30
0.0
 11
-79.003915825725585
 21
-68.513328562447668
 31
0.0
  0
LINE
  8
DETAIL
  6
CONTINUOUS
 62
     5
 10
-69.358360587870038
 20
-92.223502075465376
 30
0.0
 11
-55.236990754680733
 21
-116.6824320982581
 31
0.0
  0
LINE
  8
DETAIL
  6
CONTINUOUS
 62
     5
 10
-62.026026166059523
 20
-84.891167653654747
 30
0.0
 11
-48.93230184811739
 21
-107.5701634325932
 31
0.0
  0
LINE
  8
DETAIL
  6
CONTINUOUS
 62
     5
 10
79.003915826501725
 20
-68.513328562447668
 30
0.0
 11
79.003915826501725
 21
61.565403451779048
 31
0.0
  0
LINE
  8
DETAIL
  6
CONTINUOUS
 62
     5
 10
89.020070915354609
 20
-74.296158399594106
 30
0.0
 11
89.020070915354609
 21
69.212859413983551
 31
0.0
  0
LINE
  8
DETAIL
  6
CONTINUOUS
 62
     5
 10
-261.04330253667479
 20
271.53141770029202
 30
0.0
 11
-271.53141769951537
 21
261.04330253745121
 31
0.0
  0
LINE
  8
DETAIL
  6
CONTINUOUS
 62
     5
 10
-257.87782285063457
 20
269.73915355710028
 30
0.0
 11
-269.73915355632391
 21
257.87782285141088
 31
0.0
  0
LINE
  8
DETAIL
  6
CONTINUOUS
 62
     5
 10
-301.69981604140253
 20
-252.12237774830621
 30
0.0
 11
-275.89216139740279
 21
-258.57429140950012
 31
0.0
  0
LINE
  8
DETAIL
  6
CONTINUOUS
 62
     5
 10
-298.80897946455269
 20
-249.2315411706804
 30
0.0
 11
-274.09989725421099
 21
-255.40881172345971
 31
0.0
  0
LINE
  8
DETAIL
  6
CONTINUOUS
 62
     5
 10
-85.367421231719391
 20
-80.622733233948111
 30
0.0
 11
-74.937290839989828
 21
-86.644571822569333
 31
0.0
  0
LINE
  8
DETAIL
  6
CONTINUOUS
 62
     5
 10
-75.351266142866393
 20
-74.839903396801446
 30
0.0
 11
-67.604956418955567
 21
-79.312237401535413
 31
0.0
  0
LINE
  8
DETAIL
  6
CONTINUOUS
 62
     5
 10
48.932301848893303
 20
-107.5701634325932
 30
0.0
 11
62.026026166835443
 21
-84.891167653654747
 31
0.0
  0
LINE
  8
DETAIL
  6
CONTINUOUS
 62
     5
 10
55.236990755456759
 20
-116.6824320982581
 30
0.0
 11
69.358360588646065
 21
-92.223502075465376
 31
0.0
  0
LINE
  8
DETAIL
  6
CONTINUOUS
 62
     5
 10
255.4088117242361
 20
274.09989725498758
 30
0.0
 11
249.2315411714566
 21
298.80897946455269
 31
0.0
  0
LINE
  8
DETAIL
  6
CONTINUOUS
 62
     5
 10
258.57429141027637
 20
275.89216139817898
 30
0.0
 11
252.12237774908249
 21
301.69981604217861
 31
0.0
  0
LINE
  8
DETAIL
  6
CONTINUOUS
 62
     5
 10
250.39631999736989
 20
-294.14986416245267
 30
0.0
 11
255.4088117242361
 21
-274.09989725421087
 31
0.0
  0
LINE
  8
DETAIL
  6
CONTINUOUS
 62
     5
 10
252.12237774908249
 20
-301.69981604140207
 30
0.0
 11
258.57429141027637
 21
-275.89216139740267
 31
0.0
  0
LINE
  8
DETAIL
  6
CONTINUOUS
 62
     5
 10
275.89216139817881
 20
-258.57429140950012
 30
0.0
 11
301.69981604217833
 21
-252.12237774830621
 31
0.0
  0
LINE
  8
DETAIL
  6
CONTINUOUS
 62
     5
 10
274.09989725498713
 20
-255.40881172345971
 30
0.0
 11
298.80897946455252
 21
-249.2315411706804
 31
0.0
  0
LINE
  8
DETAIL
  6
CONTINUOUS
 62
     5
 10
269.73915355709983
 20
257.87782285141088
 30
0.0
 11
257.87782285063417
 21
269.73915355710028
 31
0.0
  0
LINE
  8
DETAIL
  6
CONTINUOUS
 62
     5
 10
271.53141770029163
 20
261.04330253745121
 30
0.0
 11
261.0433025374507
 21
271.53141770029202
 31
0.0
  0
LINE
  8
DETAIL
  6
CONTINUOUS
 62
     5
 10
67.604956418955226
 20
-79.312237401535413
 30
0.0
 11
75.351266142865825
 21
-74.839903396801446
 31
0.0
  0
LINE
  8
DETAIL
  6
CONTINUOUS
 62
     5
 10
74.937290840765627
 20
-86.644571822569333
 30
0.0
 11
85.367421231718822
 21
-80.622733233948111
 31
0.0
  0
LINE
  8
DETAIL
  6
CONTINUOUS
 62
     5
 10
298.80897946455252
 20
249.23154117145691
 30
0.0
 11
274.09989725498713
 21
255.4088117242363
 31
0.0
  0
LINE
  8
DETAIL
  6
CONTINUOUS
 62
     5
 10
301.69981604217833
 20
252.12237774908269
 30
0.0
 11
275.89216139817881
 21
258.57429141027671
 31
0.0
  0
LINE
  8
DETAIL
  6
CONTINUOUS
 62
     5
 10
257.87782285063417
 20
-269.73915355632357
 30
0.0
 11
269.73915355709983
 21
-257.87782285063417
 31
0.0
  0
LINE
  8
DETAIL
  6
CONTINUOUS
 62
     5
 10
261.0433025374507
 20
-271.53141769951532
 30
0.0
 11
271.53141770029163
 21
-261.0433025366745
 31
0.0
  0
LINE
  8
DETAIL
  6
CONTINUOUS
 62
     5
 10
-274.09989725421099
 20
255.4088117242363
 30
0.0
 11
-298.80897946455269
 21
249.23154117145691
 31
0.0
  0
LINE
  8
DETAIL
  6
CONTINUOUS
 62
     5
 10
-275.89216139740279
 20
258.57429141027671
 30
0.0
 11
-301.69981604140253
 21
252.12237774908269
 31
0.0
  0
LINE
  8
DETAIL
  6
CONTINUOUS
 62
     5
 10
-281.26125903617998
 20
300.89089949388239
 30
0.0
 11
-300.8908994931063
 21
281.26125903695629
 31
0.0
  0
LINE
  8
DETAIL
  6
CONTINUOUS
 62
     5
 10
-300.8908994931063
 20
-281.26125903617992
 30
0.0
 11
-281.26125903617998
 21
-300.89089949310568
 31
0.0
  0
LINE
  8
DETAIL
  6
CONTINUOUS
 62
     5
 10
-257.08012157753831
 20
261.32961628963938
 30
0.0
 11
-261.32961628886329
 21
257.08012157831467
 31
0.0
  0
LINE
  8
DETAIL
  6
CONTINUOUS
 62
     5
 10
-230.16665507610449
 20
267.11244612600967
 30
0.0
 11
-235.17473262053099
 21
264.22103120782458
 31
0.0
  0
LINE
  8
DETAIL
  6
CONTINUOUS
 62
     5
 10
-257.08012157753831
 20
-261.32961628886312
 30
0.0
 11
-261.32961628886329
 21
-257.08012157753808
 31
0.0
  0
LINE
  8
DETAIL
  6
CONTINUOUS
 62
     5
 10
-248.48046472605259
 20
216.10234013748109
 30
0.0
 11
-234.41614978665291
 21
230.16665507688069
 31
0.0
  0
LINE
  8
DETAIL
  6
CONTINUOUS
 62
     5
 10
-230.16665507610449
 20
234.41614978742919
 30
0.0
 11
-216.10234013670481
 21
248.48046472682859
 31
0.0
  0
LINE
  8
DETAIL
  6
CONTINUOUS
 62
     5
 10
-206.99576902653729
 20
246.25504994116559
 30
0.0
 11
-224.50066212818891
 21
228.75015683951361
 31
0.0
  0
LINE
  8
DETAIL
  6
CONTINUOUS
 62
     5
 10
-228.7501568387373
 20
224.50066212896539
 30
0.0
 11
-246.2550499403892
 21
206.9957690273134
 31
0.0
  0
LINE
  8
DETAIL
  6
CONTINUOUS
 62
     5
 10
-230.16665507610449
 20
255.5467864524928
 30
0.0
 11
-225.15857753167791
 21
258.43820137067792
 31
0.0
  0
LINE
  8
DETAIL
  6
CONTINUOUS
 62
     5
 10
-310.00000000000028
 20
269.93537964458801
 30
0.0
 11
-310.00000000000028
 21
-269.93537964458812
 31
0.0
  0
LINE
  8
DETAIL
  6
CONTINUOUS
 62
     5
 10
-306.99515347334437
 20
269.93537964458801
 30
0.0
 11
-306.99515347334437
 21
227.89090657602279
 31
0.0
  0
LINE
  8
DETAIL
  6
CONTINUOUS
 62
     5
 10
-306.99515347334437
 20
227.89090657602279
 30
0.0
 11
-306.99515347334437
 21
-227.89090657524639
 31
0.0
  0
LINE
  8
DETAIL
  6
CONTINUOUS
 62
     5
 10
-306.99515347334437
 20
-227.89090657524639
 30
0.0
 11
-306.99515347334437
 21
-269.93537964458812
 31
0.0
  0
LINE
  8
DETAIL
  6
CONTINUOUS
 62
     5
 10
-303.82456339745289
 20
274.17876785245028
 30
0.0
 11
-303.82456339745289
 21
254.2471251043568
 31
0.0
  0
LINE
  8
DETAIL
  6
CONTINUOUS
 62
     5
 10
-303.82456339745289
 20
-254.24712510358049
 30
0.0
 11
-303.82456339745289
 21
-274.17876785167368
 31
0.0
  0
LINE
  8
DETAIL
  6
CONTINUOUS
 62
     5
 10
-296.97899838449138
 20
171.0799759528372
 30
0.0
 11
-296.97899838449138
 21
-171.07997595206069
 31
0.0
  0
LINE
  8
DETAIL
  6
CONTINUOUS
 62
     5
 10
-266.33769383328968
 20
-233.05806999428941
 30
0.0
 11
-261.32961628886329
 21
-235.94948491247439
 31
0.0
  0
LINE
  8
DETAIL
  6
CONTINUOUS
 62
     5
 10
-256.32153874443679
 20
-227.27524015714269
 30
0.0
 11
-261.32961628886329
 21
-224.38382523895729
 31
0.0
  0
LINE
  8
DETAIL
  6
CONTINUOUS
 62
     5
 10
-216.10234013670481
 20
-248.48046472605219
 30
0.0
 11
-230.16665507610449
 21
-234.41614978665271
 31
0.0
  0
LINE
  8
DETAIL
  6
CONTINUOUS
 62
     5
 10
-234.41614978665291
 20
-230.16665507610429
 30
0.0
 11
-248.48046472605259
 21
-216.1023401367045
 31
0.0
  0
LINE
  8
DETAIL
  6
CONTINUOUS
 62
     5
 10
-246.2550499403892
 20
-206.99576902653689
 30
0.0
 11
-228.7501568387373
 21
-224.50066212818879
 31
0.0
  0
LINE
  8
DETAIL
  6
CONTINUOUS
 62
     5
 10
-224.50066212818891
 20
-228.75015683873721
 30
0.0
 11
-206.99576902653729
 21
-246.255049940389
 31
0.0
  0
LINE
  8
DETAIL
  6
CONTINUOUS
 62
     5
 10
-266.33769383328968
 20
-227.27524015714269
 30
0.0
 11
-266.33769383328968
 21
-233.05806999428941
 31
0.0
  0
LINE
  8
DETAIL
  6
CONTINUOUS
 62
     5
 10
-269.93537964458818
 20
-310.00000000000011
 30
0.0
 11
242.2441379717221
 21
-310.00000000000011
 31
0.0
  0
LINE
  8
DETAIL
  6
CONTINUOUS
 62
     5
 10
250.45709140336351
 20
-310.00000000000011
 30
0.0
 11
269.9353796445879
 21
-310.00000000000011
 31
0.0
  0
LINE
  8
DETAIL
  6
CONTINUOUS
 62
     5
 10
-269.93537964458818
 20
-306.99515347334409
 30
0.0
 11
-227.8909065752465
 21
-306.99515347334409
 31
0.0
  0
LINE
  8
DETAIL
  6
CONTINUOUS
 62
     5
 10
-227.8909065752465
 20
-306.99515347334409
 30
0.0
 11
227.8909065760225
 21
-306.99515347334409
 31
0.0
  0
LINE
  8
DETAIL
  6
CONTINUOUS
 62
     5
 10
227.8909065760225
 20
-306.99515347334409
 30
0.0
 11
242.2270468783106
 21
-306.99515347334409
 31
0.0
  0
LINE
  8
DETAIL
  6
CONTINUOUS
 62
     5
 10
250.439995828305
 20
-306.99515347334409
 30
0.0
 11
269.9353796445879
 21
-306.99515347334409
 31
0.0
  0
LINE
  8
DETAIL
  6
CONTINUOUS
 62
     5
 10
-274.17876785167402
 20
-303.82456339745278
 30
0.0
 11
-254.24712510435711
 21
-303.82456339745278
 31
0.0
  0
LINE
  8
DETAIL
  6
CONTINUOUS
 62
     5
 10
254.2471251043568
 20
-303.82456339745278
 30
0.0
 11
274.17876785244988
 21
-303.82456339745278
 31
0.0
  0
LINE
  8
DETAIL
  6
CONTINUOUS
 62
     5
 10
-171.07997595206089
 20
-296.97899838449092
 30
0.0
 11
171.079975952837
 21
-296.97899838449092
 31
0.0
  0
LINE
  8
DETAIL
  6
CONTINUOUS
 62
     5
 10
-256.32153874443679
 20
-233.05806999428941
 30
0.0
 11
-256.32153874443679
 21
-227.27524015714269
 31
0.0
  0
LINE
  8
DETAIL
  6
CONTINUOUS
 62
     5
 10
242.10255770171929
 20
-261.72608838556812
 30
0.0
 11
256.29683386374597
 21
-262.14139957565948
 31
0.0
  0
LINE
  8
DETAIL
  6
CONTINUOUS
 62
     5
 10
256.33198641489747
 20
-260.93997512063709
 30
0.0
 11
242.13771025287039
 21
-260.52466392976908
 31
0.0
  0
LINE
  8
DETAIL
  6
CONTINUOUS
 62
     5
 10
-235.17473262053099
 20
264.22103120782458
 30
0.0
 11
-235.17473262053099
 21
258.43820137067792
 31
0.0
  0
LINE
  8
DETAIL
  6
CONTINUOUS
 62
     5
 10
-225.15857753167791
 20
258.43820137067792
 30
0.0
 11
-225.15857753167791
 21
264.22103120782458
 31
0.0
  0
LINE
  8
DETAIL
  6
CONTINUOUS
 62
     5
 10
-213.16867623235791
 20
-262.74611452545338
 30
0.0
 11
-213.16867623235791
 21
-255.56295591055849
 31
0.0
  0
LINE
  8
DETAIL
  6
CONTINUOUS
 62
     5
 10
-213.16867623235791
 20
255.56295591133491
 30
0.0
 11
-213.16867623235791
 21
262.74611452623031
 31
0.0
  0
LINE
  8
DETAIL
  6
CONTINUOUS
 62
     5
 10
-201.12844121861991
 20
266.93053311793221
 30
0.0
 11
-201.12844121861991
 21
260.42003231017787
 31
0.0
  0
LINE
  8
DETAIL
  6
CONTINUOUS
 62
     5
 10
-201.12844121861991
 20
-260.42003231017782
 30
0.0
 11
-201.12844121861991
 21
-266.93053311793221
 31
0.0
  0
LINE
  8
DETAIL
  6
CONTINUOUS
 62
     5
 10
262.74611452622992
 20
-213.16867623235771
 30
0.0
 11
255.56295591133471
 21
-213.16867623235771
 31
0.0
  0
LINE
  8
DETAIL
  6
CONTINUOUS
 62
     5
 10
-255.56295591055849
 20
-213.16867623235771
 30
0.0
 11
-262.74611452545389
 21
-213.16867623235771
 31
0.0
  0
LINE
  8
DETAIL
  6
CONTINUOUS
 62
     5
 10
-266.93053311793238
 20
-201.1284412186196
 30
0.0
 11
-260.42003231017787
 21
-201.1284412186196
 31
0.0
  0
LINE
  8
DETAIL
  6
CONTINUOUS
 62
     5
 10
260.42003231017748
 20
-201.1284412186196
 30
0.0
 11
266.93053311793199
 21
-201.1284412186196
 31
0.0
  0
LINE
  8
DETAIL
  6
CONTINUOUS
 62
     5
 10
-4.7075928917612373
 20
-131.81260096930541
 30
0.0
 11
4.7075928917606689
 21
-131.81260096930541
 31
0.0
  0
LINE
  8
DETAIL
  6
CONTINUOUS
 62
     5
 10
-4.7075928917612373
 20
-131.31179321486269
 30
0.0
 11
4.7075928917606689
 21
-131.31179321486269
 31
0.0
  0
LINE
  8
DETAIL
  6
CONTINUOUS
 62
     5
 10
-95.654281098546335
 20
-88.915490018659739
 30
0.0
 11
-95.654281098546335
 21
-79.713014122578215
 31
0.0
  0
LINE
  8
DETAIL
  6
CONTINUOUS
 62
     5
 10
-95.654281098546335
 20
74.523403814379435
 30
0.0
 11
-95.654281098546335
 21
88.915490019436447
 31
0.0
  0
LINE
  8
DETAIL
  6
CONTINUOUS
 62
     5
 10
-89.644588045234514
 20
88.915490019436447
 30
0.0
 11
-89.644588045234514
 21
81.874642201650545
 31
0.0
  0
LINE
  8
DETAIL
  6
CONTINUOUS
 62
     5
 10
-89.644588045234514
 20
-87.060932125709087
 30
0.0
 11
-89.644588045234514
 21
-88.915490018659739
 31
0.0
  0
LINE
  8
DETAIL
  6
CONTINUOUS
 62
     5
 10
261.32961628963932
 20
235.94948491325101
 30
0.0
 11
256.32153874521271
 21
233.05806999506581
 31
0.0
  0
LINE
  8
DETAIL
  6
CONTINUOUS
 62
     5
 10
225.15857753245399
 20
-264.22103120704821
 30
0.0
 11
230.16665507688049
 21
-267.11244612523319
 31
0.0
  0
LINE
  8
DETAIL
  6
CONTINUOUS
 62
     5
 10
235.1747326213069
 20
-258.43820137067797
 30
0.0
 11
230.16665507688049
 21
-255.5467864517162
 31
0.0
  0
LINE
  8
DETAIL
  6
CONTINUOUS
 62
     5
 10
261.32961628963932
 20
224.38382523973411
 30
0.0
 11
266.3376938340657
 21
227.27524015791909
 31
0.0
  0
LINE
  8
DETAIL
  6
CONTINUOUS
 62
     5
 10
-40.064620355412217
 20
27.043618739903081
 30
0.0
 11
-40.064620355412217
 21
-37.059773828755851
 31
0.0
  0
LINE
  8
DETAIL
  6
CONTINUOUS
 62
     5
 10
-303.82456339745289
 20
-254.24712510358049
 30
0.0
 11
-262.74611452545389
 21
-213.16867623235771
 31
0.0
  0
LINE
  8
DETAIL
  6
CONTINUOUS
 62
     5
 10
213.16867623313399
 20
262.74611452623031
 30
0.0
 11
254.2471251043568
 21
303.82456339822909
 31
0.0
  0
LINE
  8
DETAIL
  6
CONTINUOUS
 62
     5
 10
-4.7075928917612373
 20
96.255250403877426
 30
0.0
 11
-4.7075928917612373
 21
95.754442649434623
 31
0.0
  0
LINE
  8
DETAIL
  6
CONTINUOUS
 62
     5
 10
-4.7075928917612373
 20
-131.81260096930541
 30
0.0
 11
-4.7075928917612373
 21
-131.31179321486269
 31
0.0
  0
LINE
  8
DETAIL
  6
CONTINUOUS
 62
     5
 10
-4.5072697899840932
 20
-131.26169988583729
 30
0.0
 11
-4.5072697899840932
 21
-131.31179321486269
 31
0.0
  0
LINE
  8
DETAIL
  6
CONTINUOUS
 62
     5
 10
-261.32961628886329
 20
-257.08012157753808
 30
0.0
 11
-97.414479440533341
 21
-93.164984729984553
 31
0.0
  0
LINE
  8
DETAIL
  6
CONTINUOUS
 62
     5
 10
93.164984730760807
 20
97.414479441309595
 30
0.0
 11
257.08012157831422
 21
261.32961628963938
 31
0.0
  0
LINE
  8
DETAIL
  6
CONTINUOUS
 62
     5
 10
261.32961628963932
 20
257.08012157831467
 30
0.0
 11
97.41447944130914
 21
93.164984730760921
 31
0.0
  0
LINE
  8
DETAIL
  6
CONTINUOUS
 62
     5
 10
-93.164984729984781
 20
-97.414479440532887
 30
0.0
 11
-257.08012157753831
 21
-261.32961628886312
 31
0.0
  0
LINE
  8
DETAIL
  6
CONTINUOUS
 62
     5
 10
-37.059773828756313
 20
-40.064620355411762
 30
0.0
 11
37.059773828755851
 21
-40.064620355411762
 31
0.0
  0
LINE
  8
DETAIL
  6
CONTINUOUS
 62
     5
 10
223.90034314851391
 20
-239.09642583371519
 30
0.0
 11
224.41858167446841
 21
-239.53730375038509
 31
0.0
  0
LINE
  8
DETAIL
  6
CONTINUOUS
 62
     5
 10
224.41858167446841
 20
-239.53730375038509
 30
0.0
 11
224.9985218416798
 21
-239.89273069794999
 31
0.0
  0
LINE
  8
DETAIL
  6
CONTINUOUS
 62
     5
 10
224.9985218416798
 20
-239.89273069794999
 30
0.0
 11
225.64437884885569
 21
-240.16413108547189
 31
0.0
  0
LINE
  8
DETAIL
  6
CONTINUOUS
 62
     5
 10
225.64437884885569
 20
-240.16413108547189
 30
0.0
 11
226.34350709987319
 21
-240.34723168110611
 31
0.0
  0
LINE
  8
DETAIL
  6
CONTINUOUS
 62
     5
 10
226.34350709987319
 20
-240.34723168110611
 30
0.0
 11
227.08803832412841
 21
-240.43804101909811
 31
0.0
  0
LINE
  8
DETAIL
  6
CONTINUOUS
 62
     5
 10
227.08803832412841
 20
-240.43804101909811
 30
0.0
 11
227.8678557445489
 21
-240.43713820635949
 31
0.0
  0
LINE
  8
DETAIL
  6
CONTINUOUS
 62
     5
 10
227.8678557445489
 20
-240.43713820635949
 30
0.0
 11
228.67372728231319
 21
-240.3428029348662
 31
0.0
  0
LINE
  8
DETAIL
  6
CONTINUOUS
 62
     5
 10
228.67372728231319
 20
-240.3428029348662
 30
0.0
 11
229.4951305712888
 21
-240.15794198522249
 31
0.0
  0
LINE
  8
DETAIL
  6
CONTINUOUS
 62
     5
 10
229.4951305712888
 20
-240.15794198522249
 30
0.0
 11
230.32193265792509
 21
-239.88319246952449
 31
0.0
  0
LINE
  8
DETAIL
  6
CONTINUOUS
 62
     5
 10
230.32193265792509
 20
-239.88319246952449
 30
0.0
 11
231.14373322410461
 21
-239.52364308294199
 31
0.0
  0
LINE
  8
DETAIL
  6
CONTINUOUS
 62
     5
 10
231.14373322410461
 20
-239.52364308294199
 30
0.0
 11
231.9500065510008
 21
-239.0822564100387
 31
0.0
  0
LINE
  8
DETAIL
  6
CONTINUOUS
 62
     5
 10
231.9500065510008
 20
-239.0822564100387
 30
0.0
 11
232.73099588175461
 21
-238.56604789395249
 31
0.0
  0
LINE
  8
DETAIL
  6
CONTINUOUS
 62
     5
 10
232.73099588175461
 20
-238.56604789395249
 30
0.0
 11
233.47631053782649
 21
-237.98015703505291
 31
0.0
  0
LINE
  8
DETAIL
  6
CONTINUOUS
 62
     5
 10
233.47631053782649
 20
-237.98015703505291
 30
0.0
 11
234.17732656853369
 21
-237.33317423922051
 31
0.0
  0
LINE
  8
DETAIL
  6
CONTINUOUS
 62
     5
 10
234.17732656853369
 20
-237.33317423922051
 30
0.0
 11
234.82430936358949
 21
-236.63215820928991
 31
0.0
  0
LINE
  8
DETAIL
  6
CONTINUOUS
 62
     5
 10
234.82430936358949
 20
-236.63215820928991
 30
0.0
 11
235.41020022248929
 21
-235.88684355321789
 31
0.0
  0
LINE
  8
DETAIL
  6
CONTINUOUS
 62
     5
 10
235.41020022248929
 20
-235.88684355321789
 30
0.0
 11
235.92640873935181
 21
-235.1058542224641
 31
0.0
  0
LINE
  8
DETAIL
  6
CONTINUOUS
 62
     5
 10
235.92640873935181
 20
-235.1058542224641
 30
0.0
 11
236.36779541147871
 21
-234.29958089479149
 31
0.0
  0
LINE
  8
DETAIL
  6
CONTINUOUS
 62
     5
 10
236.36779541147871
 20
-234.29958089479149
 30
0.0
 11
236.72734479883749
 21
-233.47778032938851
 31
0.0
  0
LINE
  8
DETAIL
  6
CONTINUOUS
 62
     5
 10
236.72734479883749
 20
-233.47778032938851
 30
0.0
 11
237.00209431453561
 21
-232.65097824197559
 31
0.0
  0
LINE
  8
DETAIL
  6
CONTINUOUS
 62
     5
 10
237.00209431453561
 20
-232.65097824197559
 30
0.0
 11
237.1869552641792
 21
-231.82957495377639
 31
0.0
  0
LINE
  8
DETAIL
  6
CONTINUOUS
 62
     5
 10
237.1869552641792
 20
-231.82957495377639
 30
0.0
 11
237.28129053489599
 21
-231.02370341601241
 31
0.0
  0
LINE
  8
DETAIL
  6
CONTINUOUS
 62
     5
 10
237.28129053489599
 20
-231.02370341601241
 30
0.0
 11
237.28219334763469
 21
-230.2438859955918
 31
0.0
  0
LINE
  8
DETAIL
  6
CONTINUOUS
 62
     5
 10
237.28219334763469
 20
-230.2438859955918
 30
0.0
 11
237.19138400964289
 21
-229.49935477056019
 31
0.0
  0
LINE
  8
DETAIL
  6
CONTINUOUS
 62
     5
 10
237.19138400964289
 20
-229.49935477056019
 30
0.0
 11
237.0082834140085
 21
-228.800226520319
 31
0.0
  0
LINE
  8
DETAIL
  6
CONTINUOUS
 62
     5
 10
237.0082834140085
 20
-228.800226520319
 30
0.0
 11
236.73688302648671
 21
-228.15436951314319
 31
0.0
  0
LINE
  8
DETAIL
  6
CONTINUOUS
 62
     5
 10
236.73688302648671
 20
-228.15436951314319
 30
0.0
 11
236.38145607969821
 21
-227.57442934593189
 31
0.0
  0
LINE
  8
DETAIL
  6
CONTINUOUS
 62
     5
 10
236.38145607969821
 20
-227.57442934593189
 30
0.0
 11
235.940578162252
 21
-227.05619081997699
 31
0.0
  0
LINE
  8
DETAIL
  6
CONTINUOUS
 62
     5
 10
225.67401919617771
 20
-216.7896318539029
 30
0.0
 11
225.1364662574795
 21
-216.3272008812163
 31
0.0
  0
LINE
  8
DETAIL
  6
CONTINUOUS
 62
     5
 10
225.1364662574795
 20
-216.3272008812163
 30
0.0
 11
224.53781226637091
 21
-215.94748683067209
 31
0.0
  0
LINE
  8
DETAIL
  6
CONTINUOUS
 62
     5
 10
224.53781226637091
 20
-215.94748683067209
 30
0.0
 11
223.87428601312419
 21
-215.6490931225909
 31
0.0
  0
LINE
  8
DETAIL
  6
CONTINUOUS
 62
     5
 10
223.87428601312419
 20
-215.6490931225909
 30
0.0
 11
223.1572011230414
 21
-215.43620949445841
 31
0.0
  0
LINE
  8
DETAIL
  6
CONTINUOUS
 62
     5
 10
223.1572011230414
 20
-215.43620949445841
 30
0.0
 11
222.3935972302161
 21
-215.3125939253608
 31
0.0
  0
LINE
  8
DETAIL
  6
CONTINUOUS
 62
     5
 10
222.3935972302161
 20
-215.3125939253608
 30
0.0
 11
221.59252509854579
 21
-215.2781451178069
 31
0.0
  0
LINE
  8
DETAIL
  6
CONTINUOUS
 62
     5
 10
221.59252509854579
 20
-215.2781451178069
 30
0.0
 11
220.7622167209424
 21
-215.33471028139891
 31
0.0
  0
LINE
  8
DETAIL
  6
CONTINUOUS
 62
     5
 10
220.7622167209424
 20
-215.33471028139891
 30
0.0
 11
219.91216804368079
 21
-215.48020187238751
 31
0.0
  0
LINE
  8
DETAIL
  6
CONTINUOUS
 62
     5
 10
219.91216804368079
 20
-215.48020187238751
 30
0.0
 11
219.76873616550799
 21
-215.5192414541834
 31
0.0
  0
LINE
  8
DETAIL
  6
CONTINUOUS
 62
     5
 10
223.92119205562841
 20
-215.0368047133536
 30
0.0
 11
223.38363911693
 21
-214.57437374066691
 31
0.0
  0
LINE
  8
DETAIL
  6
CONTINUOUS
 62
     5
 10
223.38363911693
 20
-214.57437374066691
 30
0.0
 11
222.78498512582141
 21
-214.19465969012279
 31
0.0
  0
LINE
  8
DETAIL
  6
CONTINUOUS
 62
     5
 10
222.78498512582141
 20
-214.19465969012279
 30
0.0
 11
222.121458872575
 21
-213.8962659820416
 31
0.0
  0
LINE
  8
DETAIL
  6
CONTINUOUS
 62
     5
 10
222.121458872575
 20
-213.8962659820416
 30
0.0
 11
221.40437398249219
 21
-213.6833823539092
 31
0.0
  0
LINE
  8
DETAIL
  6
CONTINUOUS
 62
     5
 10
221.40437398249219
 20
-213.6833823539092
 30
0.0
 11
220.6407700896666
 21
-213.55976678481181
 31
0.0
  0
LINE
  8
DETAIL
  6
CONTINUOUS
 62
     5
 10
220.6407700896666
 20
-213.55976678481181
 30
0.0
 11
219.83969795799649
 21
-213.5253179772576
 31
0.0
  0
LINE
  8
DETAIL
  6
CONTINUOUS
 62
     5
 10
219.83969795799649
 20
-213.5253179772576
 30
0.0
 11
219.00938958039319
 21
-213.58188314085001
 31
0.0
  0
LINE
  8
DETAIL
  6
CONTINUOUS
 62
     5
 10
219.00938958039319
 20
-213.58188314085001
 30
0.0
 11
218.15934090313181
 21
-213.72737473183801
 31
0.0
  0
LINE
  8
DETAIL
  6
CONTINUOUS
 62
     5
 10
218.15934090313181
 20
-213.72737473183801
 30
0.0
 11
218.0159090249588
 21
-213.76641431363419
 31
0.0
  0
LINE
  8
DETAIL
  6
CONTINUOUS
 62
     5
 10
254.2471251043568
 20
-303.82456339745278
 30
0.0
 11
250.3857971172306
 21
-299.96323540955018
 31
0.0
  0
LINE
  8
DETAIL
  6
CONTINUOUS
 62
     5
 10
213.16867623313399
 20
-262.74611452545338
 30
0.0
 11
242.07558700214119
 21
-291.65302529523723
 31
0.0
  0
LINE
  8
DETAIL
  6
CONTINUOUS
 62
     5
 10
-262.74611452545389
 20
213.16867623313411
 30
0.0
 11
-303.82456339745289
 21
254.2471251043568
 31
0.0
  0
LINE
  8
DETAIL
  6
CONTINUOUS
 62
     5
 10
100.753674751825
 20
-121.7178486580256
 30
0.0
 11
107.8361659363312
 21
-128.80033984253171
 31
0.0
  0
LINE
  8
DETAIL
  6
CONTINUOUS
 62
     5
 10
218.8637925550083
 20
-239.72586818812539
 30
0.0
 11
213.0043418280294
 21
-233.8664174611464
 31
0.0
  0
LINE
  8
DETAIL
  6
CONTINUOUS
 62
     5
 10
213.5709411226658
 20
-233.29981816651011
 30
0.0
 11
209.61455986256871
 21
-229.34343690641319
 31
0.0
  0
LINE
  8
DETAIL
  6
CONTINUOUS
 62
     5
 10
217.0014742405979
 20
-236.73035128444221
 30
0.0
 11
220.8827343375284
 21
-240.61161138137291
 31
0.0
  0
LINE
  8
DETAIL
  6
CONTINUOUS
 62
     5
 10
210.46445880452299
 20
-228.4935379644588
 30
0.0
 11
214.42084006462019
 21
-232.44991922455591
 31
0.0
  0
LINE
  8
DETAIL
  6
CONTINUOUS
 62
     5
 10
217.85137318255221
 20
-235.8804523424879
 30
0.0
 11
221.7326332794828
 21
-239.76171243941849
 31
0.0
  0
LINE
  8
DETAIL
  6
CONTINUOUS
 62
     5
 10
218.41797247796501
 20
-235.3138530470751
 30
0.0
 11
224.80327134710879
 21
-241.69915191621891
 31
0.0
  0
LINE
  8
DETAIL
  6
CONTINUOUS
 62
     5
 10
213.84773879921329
 20
-230.5729567711862
 30
0.0
 11
218.4814985975878
 21
-235.25696943031409
 31
0.0
  0
LINE
  8
DETAIL
  6
CONTINUOUS
 62
     5
 10
210.91036294290311
 20
-227.60089885113359
 30
0.0
 11
213.84773879921329
 21
-230.5729567711862
 31
0.0
  0
LINE
  8
DETAIL
  6
CONTINUOUS
 62
     5
 10
4.5072697899836376
 20
-131.26169988583729
 30
0.0
 11
4.5072697899836376
 21
-131.31179321486269
 31
0.0
  0
LINE
  8
DETAIL
  6
CONTINUOUS
 62
     5
 10
4.7075928917606689
 20
96.255250403877426
 30
0.0
 11
4.7075928917606689
 21
95.754442649434623
 31
0.0
  0
LINE
  8
DETAIL
  6
CONTINUOUS
 62
     5
 10
4.7075928917606689
 20
-131.81260096930541
 30
0.0
 11
4.7075928917606689
 21
-131.31179321486269
 31
0.0
  0
LINE
  8
DETAIL
  6
CONTINUOUS
 62
     5
 10
-254.24712510435711
 20
-303.82456339745278
 30
0.0
 11
-213.16867623235791
 21
-262.74611452545338
 31
0.0
  0
LINE
  8
DETAIL
  6
CONTINUOUS
 62
     5
 10
262.74611452622992
 20
213.16867623313411
 30
0.0
 11
303.82456339822897
 21
254.2471251043568
 31
0.0
  0
LINE
  8
DETAIL
  6
CONTINUOUS
 62
     5
 10
257.08012157831422
 20
-261.32961628886312
 30
0.0
 11
235.9639833016241
 21
-240.21347801139629
 31
0.0
  0
LINE
  8
DETAIL
  6
CONTINUOUS
 62
     5
 10
233.60858415446251
 20
-237.85807886501121
 30
0.0
 11
93.164984730760807
 21
-97.414479440532887
 31
0.0
  0
LINE
  8
DETAIL
  6
CONTINUOUS
 62
     5
 10
-97.414479440533341
 20
93.164984730760921
 30
0.0
 11
-261.32961628886329
 21
257.08012157831467
 31
0.0
  0
LINE
  8
DETAIL
  6
CONTINUOUS
 62
     5
 10
-257.08012157753831
 20
261.32961628963938
 30
0.0
 11
-93.164984729984781
 21
97.414479441309595
 31
0.0
  0
LINE
  8
DETAIL
  6
CONTINUOUS
 62
     5
 10
97.41447944130914
 20
-93.164984729984553
 30
0.0
 11
236.9767478672776
 21
-232.72725315517641
 31
0.0
  0
LINE
  8
DETAIL
  6
CONTINUOUS
 62
     5
 10
239.45994133586279
 20
-235.21044662453809
 30
0.0
 11
261.32961628963932
 21
-257.08012157753808
 31
0.0
  0
LINE
  8
DETAIL
  6
CONTINUOUS
 62
     5
 10
243.05678903257291
 20
-238.09904520256461
 30
0.0
 11
239.66697201134591
 21
-234.70922818133769
 31
0.0
  0
LINE
  8
DETAIL
  6
CONTINUOUS
 62
     5
 10
237.11353798797759
 20
-232.15579415796921
 30
0.0
 11
236.39924731943211
 21
-231.44150348942389
 31
0.0
  0
LINE
  8
DETAIL
  6
CONTINUOUS
 62
     5
 10
249.5437326813437
 20
-244.36380508344291
 30
0.0
 11
259.28215806013679
 21
-254.10223046223589
 31
0.0
  0
LINE
  8
DETAIL
  6
CONTINUOUS
 62
     5
 10
117.1142293889116
 20
-110.3150378509475
 30
0.0
 11
119.23897674418571
 21
-112.4397852062216
 31
0.0
  0
LINE
  8
DETAIL
  6
CONTINUOUS
 62
     5
 10
260.13205700209119
 20
-253.25233152028139
 30
0.0
 11
254.28900177528109
 21
-247.4092762926951
 31
0.0
  0
LINE
  8
DETAIL
  6
CONTINUOUS
 62
     5
 10
243.70067745375741
 20
-235.68775338189889
 30
0.0
 11
250.96023091793441
 21
-242.94730684607589
 31
0.0
  0
LINE
  8
DETAIL
  6
CONTINUOUS
 62
     5
 10
254.8556010699175
 20
-246.84267699805889
 30
0.0
 11
258.57390894145328
 21
-250.56098486959439
 31
0.0
  0
LINE
  8
DETAIL
  6
CONTINUOUS
 62
     5
 10
235.940578162252
 20
-227.05619081997699
 30
0.0
 11
223.92119205562841
 21
-215.0368047133536
 31
0.0
  0
LINE
  8
DETAIL
  6
CONTINUOUS
 62
     5
 10
251.8101298598888
 20
-242.0974079041215
 30
0.0
 11
244.5505763957118
 21
-234.83785443994429
 31
0.0
  0
LINE
  8
DETAIL
  6
CONTINUOUS
 62
     5
 10
255.70550001187189
 20
-245.99277805532799
 30
0.0
 11
259.42380788418399
 21
-249.71108592764031
 31
0.0
  0
LINE
  8
DETAIL
  6
CONTINUOUS
 62
     5
 10
224.77109099835911
 20
-214.1869057706229
 30
0.0
 11
238.54330424553211
 21
-227.9591190177955
 31
0.0
  0
LINE
  8
DETAIL
  6
CONTINUOUS
 62
     5
 10
252.37672915530149
 20
-241.53080860948509
 30
0.0
 11
256.27209930650821
 21
-245.42617876069181
 31
0.0
  0
LINE
  8
DETAIL
  6
CONTINUOUS
 62
     5
 10
209.61455986256871
 20
-229.34343690641319
 30
0.0
 11
209.09371655706241
 21
-228.73798254386301
 31
0.0
  0
LINE
  8
DETAIL
  6
CONTINUOUS
 62
     5
 10
209.09371655706241
 20
-228.73798254386301
 30
0.0
 11
208.6660386268172
 21
-228.06370910062489
 31
0.0
  0
LINE
  8
DETAIL
  6
CONTINUOUS
 62
     5
 10
208.6660386268172
 20
-228.06370910062489
 30
0.0
 11
208.32995308126351
 21
-227.31636900484659
 31
0.0
  0
LINE
  8
DETAIL
  6
CONTINUOUS
 62
     5
 10
208.32995308126351
 20
-227.31636900484659
 30
0.0
 11
208.0901788897819
 21
-226.50870497053259
 31
0.0
  0
LINE
  8
DETAIL
  6
CONTINUOUS
 62
     5
 10
208.0901788897819
 20
-226.50870497053259
 30
0.0
 11
207.9509487226708
 21
-225.64864584972011
 31
0.0
  0
LINE
  8
DETAIL
  6
CONTINUOUS
 62
     5
 10
207.9509487226708
 20
-225.64864584972011
 30
0.0
 11
208.01930496130021
 21
-223.1734578695409
 31
0.0
  0
LINE
  8
DETAIL
  6
CONTINUOUS
 62
     5
 10
207.9121484866059
 20
-224.74638565878931
 30
0.0
 11
207.9236095458289
 21
-224.57815113448791
 31
0.0
  0
LINE
  8
DETAIL
  6
CONTINUOUS
 62
     5
 10
40.064620355411762
 20
-37.059773828755851
 30
0.0
 11
40.064620355411762
 21
27.043618739903081
 31
0.0
  0
LINE
  8
DETAIL
  6
CONTINUOUS
 62
     5
 10
-261.32961628886329
 20
-224.38382523895729
 30
0.0
 11
-266.33769383328968
 21
-227.27524015714269
 31
0.0
  0
LINE
  8
DETAIL
  6
CONTINUOUS
 62
     5
 10
-261.32961628886329
 20
-235.94948491247439
 30
0.0
 11
-256.32153874443679
 21
-233.05806999428941
 31
0.0
  0
LINE
  8
DETAIL
  6
CONTINUOUS
 62
     5
 10
37.059773828755851
 20
30.048465266559109
 30
0.0
 11
-37.059773828756313
 21
30.048465266559109
 31
0.0
  0
LINE
  8
DETAIL
  6
CONTINUOUS
 62
     5
 10
262.74611452622992
 20
-213.16867623235771
 30
0.0
 11
303.82456339822897
 21
-254.24712510358049
 31
0.0
  0
LINE
  8
DETAIL
  6
CONTINUOUS
 62
     5
 10
-213.16867623235791
 20
262.74611452623031
 30
0.0
 11
-254.24712510435711
 21
303.82456339822909
 31
0.0
  0
LINE
  8
DETAIL
  6
CONTINUOUS
 62
     5
 10
236.79047710498281
 20
-226.20629187724629
 30
0.0
 11
237.26264346595511
 21
-226.75516172017899
 31
0.0
  0
LINE
  8
DETAIL
  6
CONTINUOUS
 62
     5
 10
237.26264346595511
 20
-226.75516172017899
 30
0.0
 11
237.65035149606109
 21
-227.36641895382661
 31
0.0
  0
LINE
  8
DETAIL
  6
CONTINUOUS
 62
     5
 10
237.65035149606109
 20
-227.36641895382661
 30
0.0
 11
237.95502717744279
 21
-228.04391418108739
 31
0.0
  0
LINE
  8
DETAIL
  6
CONTINUOUS
 62
     5
 10
237.95502717744279
 20
-228.04391418108739
 30
0.0
 11
238.17239256600399
 21
-228.77609559482039
 31
0.0
  0
LINE
  8
DETAIL
  6
CONTINUOUS
 62
     5
 10
238.17239256600399
 20
-228.77609559482039
 30
0.0
 11
238.29861056823299
 21
-229.55577535910629
 31
0.0
  0
LINE
  8
DETAIL
  6
CONTINUOUS
 62
     5
 10
238.29861056823299
 20
-229.55577535910629
 30
0.0
 11
238.33378461374289
 21
-230.37371216706109
 31
0.0
  0
LINE
  8
DETAIL
  6
CONTINUOUS
 62
     5
 10
238.33378461374289
 20
-230.37371216706109
 30
0.0
 11
238.27602860462571
 21
-231.22150072066719
 31
0.0
  0
LINE
  8
DETAIL
  6
CONTINUOUS
 62
     5
 10
238.27602860462571
 20
-231.22150072066719
 30
0.0
 11
238.12747403303641
 21
-232.08944515973491
 31
0.0
  0
LINE
  8
DETAIL
  6
CONTINUOUS
 62
     5
 10
238.12747403303641
 20
-232.08944515973491
 30
0.0
 11
237.88826822729811
 21
-232.9682900755657
 31
0.0
  0
LINE
  8
DETAIL
  6
CONTINUOUS
 62
     5
 10
237.88826822729811
 20
-232.9682900755657
 30
0.0
 11
237.56247758642951
 21
-233.84830880868131
 31
0.0
  0
LINE
  8
DETAIL
  6
CONTINUOUS
 62
     5
 10
237.56247758642951
 20
-233.84830880868131
 30
0.0
 11
237.15227642514151
 21
-234.7198003463952
 31
0.0
  0
LINE
  8
DETAIL
  6
CONTINUOUS
 62
     5
 10
237.15227642514151
 20
-234.7198003463952
 30
0.0
 11
236.66348832933821
 21
-235.57343233186819
 31
0.0
  0
LINE
  8
DETAIL
  6
CONTINUOUS
 62
     5
 10
236.66348832933821
 20
-235.57343233186819
 30
0.0
 11
236.10021957165191
 21
-236.39948212994179
 31
0.0
  0
LINE
  8
DETAIL
  6
CONTINUOUS
 62
     5
 10
236.10021957165191
 20
-236.39948212994179
 30
0.0
 11
235.46979640583061
 21
-237.18941955279209
 31
0.0
  0
LINE
  8
DETAIL
  6
CONTINUOUS
 62
     5
 10
235.46979640583061
 20
-237.18941955279209
 30
0.0
 11
234.77807760010501
 21
-237.93392527156831
 31
0.0
  0
LINE
  8
DETAIL
  6
CONTINUOUS
 62
     5
 10
234.77807760010501
 20
-237.93392527156831
 30
0.0
 11
234.03357188210521
 21
-238.62564407729391
 31
0.0
  0
LINE
  8
DETAIL
  6
CONTINUOUS
 62
     5
 10
234.03357188210521
 20
-238.62564407729391
 30
0.0
 11
233.24363445847871
 21
-239.25606724311521
 31
0.0
  0
LINE
  8
DETAIL
  6
CONTINUOUS
 62
     5
 10
233.24363445847871
 20
-239.25606724311521
 30
0.0
 11
232.41758466040471
 21
-239.8193360008016
 31
0.0
  0
LINE
  8
DETAIL
  6
CONTINUOUS
 62
     5
 10
232.41758466040471
 20
-239.8193360008016
 30
0.0
 11
231.56395267570829
 21
-240.30812409660501
 31
0.0
  0
LINE
  8
DETAIL
  6
CONTINUOUS
 62
     5
 10
231.56395267570829
 20
-240.30812409660501
 30
0.0
 11
230.6924611372178
 21
-240.7183252578927
 31
0.0
  0
LINE
  8
DETAIL
  6
CONTINUOUS
 62
     5
 10
230.6924611372178
 20
-240.7183252578927
 30
0.0
 11
229.81244240487891
 21
-241.04411589798499
 31
0.0
  0
LINE
  8
DETAIL
  6
CONTINUOUS
 62
     5
 10
229.81244240487891
 20
-241.04411589798499
 30
0.0
 11
228.93359748827169
 21
-241.2833217044996
 31
0.0
  0
LINE
  8
DETAIL
  6
CONTINUOUS
 62
     5
 10
228.93359748827169
 20
-241.2833217044996
 30
0.0
 11
228.0656530499804
 21
-241.43187627531259
 31
0.0
  0
LINE
  8
DETAIL
  6
CONTINUOUS
 62
     5
 10
228.0656530499804
 20
-241.43187627531259
 30
0.0
 11
227.21786449559781
 21
-241.48963228520631
 31
0.0
  0
LINE
  8
DETAIL
  6
CONTINUOUS
 62
     5
 10
227.21786449559781
 20
-241.48963228520631
 30
0.0
 11
226.39992768764299
 21
-241.45445823892001
 31
0.0
  0
LINE
  8
DETAIL
  6
CONTINUOUS
 62
     5
 10
226.39992768764299
 20
-241.45445823892001
 30
0.0
 11
225.62024792335711
 21
-241.3282402366909
 31
0.0
  0
LINE
  8
DETAIL
  6
CONTINUOUS
 62
     5
 10
225.62024792335711
 20
-241.3282402366909
 30
0.0
 11
224.888066509624
 21
-241.11087484890601
 31
0.0
  0
LINE
  8
DETAIL
  6
CONTINUOUS
 62
     5
 10
224.888066509624
 20
-241.11087484890601
 30
0.0
 11
224.21057128236319
 21
-240.80619916752451
 31
0.0
  0
LINE
  8
DETAIL
  6
CONTINUOUS
 62
     5
 10
224.21057128236319
 20
-240.80619916752451
 30
0.0
 11
223.59931404871551
 21
-240.41849113664199
 31
0.0
  0
LINE
  8
DETAIL
  6
CONTINUOUS
 62
     5
 10
223.59931404871551
 20
-240.41849113664199
 30
0.0
 11
223.05044420655949
 21
-239.94632477566961
 31
0.0
  0
LINE
  8
DETAIL
  6
CONTINUOUS
 62
     5
 10
238.54330424553211
 20
-227.9591190177955
 30
0.0
 11
239.01547060650441
 21
-228.5079888607282
 31
0.0
  0
LINE
  8
DETAIL
  6
CONTINUOUS
 62
     5
 10
239.01547060650441
 20
-228.5079888607282
 30
0.0
 11
239.40317863661039
 21
-229.11924609437571
 31
0.0
  0
LINE
  8
DETAIL
  6
CONTINUOUS
 62
     5
 10
239.40317863661039
 20
-229.11924609437571
 30
0.0
 11
239.707854317992
 21
-229.7967413216364
 31
0.0
  0
LINE
  8
DETAIL
  6
CONTINUOUS
 62
     5
 10
239.707854317992
 20
-229.7967413216364
 30
0.0
 11
239.92521970655321
 21
-230.52892273536949
 31
0.0
  0
LINE
  8
DETAIL
  6
CONTINUOUS
 62
     5
 10
239.92521970655321
 20
-230.52892273536949
 30
0.0
 11
240.05143770878249
 21
-231.30860249965559
 31
0.0
  0
LINE
  8
DETAIL
  6
CONTINUOUS
 62
     5
 10
240.05143770878249
 20
-231.30860249965559
 30
0.0
 11
240.08661175429211
 21
-232.12653930761039
 31
0.0
  0
LINE
  8
DETAIL
  6
CONTINUOUS
 62
     5
 10
240.08661175429211
 20
-232.12653930761039
 30
0.0
 11
240.02885574517521
 21
-232.97432786121661
 31
0.0
  0
LINE
  8
DETAIL
  6
CONTINUOUS
 62
     5
 10
240.02885574517521
 20
-232.97432786121661
 30
0.0
 11
239.88030117358559
 21
-233.84227230028421
 31
0.0
  0
LINE
  8
DETAIL
  6
CONTINUOUS
 62
     5
 10
239.88030117358559
 20
-233.84227230028421
 30
0.0
 11
239.64109536784741
 21
-234.72111721611489
 31
0.0
  0
LINE
  8
DETAIL
  6
CONTINUOUS
 62
     5
 10
239.64109536784741
 20
-234.72111721611489
 30
0.0
 11
239.31530472697889
 21
-235.6011359492305
 31
0.0
  0
LINE
  8
DETAIL
  6
CONTINUOUS
 62
     5
 10
239.31530472697889
 20
-235.6011359492305
 30
0.0
 11
238.90510356569089
 21
-236.47262748694411
 31
0.0
  0
LINE
  8
DETAIL
  6
CONTINUOUS
 62
     5
 10
238.90510356569089
 20
-236.47262748694411
 30
0.0
 11
238.41631546988739
 21
-237.32625947241721
 31
0.0
  0
LINE
  8
DETAIL
  6
CONTINUOUS
 62
     5
 10
238.41631546988739
 20
-237.32625947241721
 30
0.0
 11
237.85304671220129
 21
-238.15230927049129
 31
0.0
  0
LINE
  8
DETAIL
  6
CONTINUOUS
 62
     5
 10
237.85304671220129
 20
-238.15230927049129
 30
0.0
 11
237.22262354637999
 21
-238.94224669334139
 31
0.0
  0
LINE
  8
DETAIL
  6
CONTINUOUS
 62
     5
 10
237.22262354637999
 20
-238.94224669334139
 30
0.0
 11
236.53090474065411
 21
-239.68675241211761
 31
0.0
  0
LINE
  8
DETAIL
  6
CONTINUOUS
 62
     5
 10
236.53090474065411
 20
-239.68675241211761
 30
0.0
 11
235.78639902265431
 21
-240.37847121784321
 31
0.0
  0
LINE
  8
DETAIL
  6
CONTINUOUS
 62
     5
 10
235.78639902265431
 20
-240.37847121784321
 30
0.0
 11
234.99646159902801
 21
-241.00889438366451
 31
0.0
  0
LINE
  8
DETAIL
  6
CONTINUOUS
 62
     5
 10
234.99646159902801
 20
-241.00889438366451
 30
0.0
 11
234.1704118009541
 21
-241.5721631413509
 31
0.0
  0
LINE
  8
DETAIL
  6
CONTINUOUS
 62
     5
 10
234.1704118009541
 20
-241.5721631413509
 30
0.0
 11
233.31677981625751
 21
-242.06095123715409
 31
0.0
  0
LINE
  8
DETAIL
  6
CONTINUOUS
 62
     5
 10
233.31677981625751
 20
-242.06095123715409
 30
0.0
 11
232.44528827776711
 21
-242.47115239844231
 31
0.0
  0
LINE
  8
DETAIL
  6
CONTINUOUS
 62
     5
 10
232.44528827776711
 20
-242.47115239844231
 30
0.0
 11
231.56526954542821
 21
-242.79694303853429
 31
0.0
  0
LINE
  8
DETAIL
  6
CONTINUOUS
 62
     5
 10
231.56526954542821
 20
-242.79694303853429
 30
0.0
 11
230.68642462882099
 21
-243.0361488450491
 31
0.0
  0
LINE
  8
DETAIL
  6
CONTINUOUS
 62
     5
 10
230.68642462882099
 20
-243.0361488450491
 30
0.0
 11
229.8184801905297
 21
-243.18470341586209
 31
0.0
  0
LINE
  8
DETAIL
  6
CONTINUOUS
 62
     5
 10
229.8184801905297
 20
-243.18470341586209
 30
0.0
 11
228.97069163614711
 21
-243.2424594257555
 31
0.0
  0
LINE
  8
DETAIL
  6
CONTINUOUS
 62
     5
 10
228.97069163614711
 20
-243.2424594257555
 30
0.0
 11
228.15275482819229
 21
-243.2072853794692
 31
0.0
  0
LINE
  8
DETAIL
  6
CONTINUOUS
 62
     5
 10
228.15275482819229
 20
-243.2072853794692
 30
0.0
 11
227.3730750639063
 21
-243.0810673772402
 31
0.0
  0
LINE
  8
DETAIL
  6
CONTINUOUS
 62
     5
 10
227.3730750639063
 20
-243.0810673772402
 30
0.0
 11
226.64089365017321
 21
-242.86370198945531
 31
0.0
  0
LINE
  8
DETAIL
  6
CONTINUOUS
 62
     5
 10
226.64089365017321
 20
-242.86370198945531
 30
0.0
 11
225.96339842291241
 21
-242.55902630807381
 31
0.0
  0
LINE
  8
DETAIL
  6
CONTINUOUS
 62
     5
 10
225.96339842291241
 20
-242.55902630807381
 30
0.0
 11
225.35214118926481
 21
-242.17131827719129
 31
0.0
  0
LINE
  8
DETAIL
  6
CONTINUOUS
 62
     5
 10
225.35214118926481
 20
-242.17131827719129
 30
0.0
 11
224.80327134710879
 21
-241.69915191621891
 31
0.0
  0
LINE
  8
DETAIL
  6
CONTINUOUS
 62
     5
 10
89.644588045234059
 20
-88.915490018659739
 30
0.0
 11
89.644588045234059
 21
-87.058993465504386
 31
0.0
  0
LINE
  8
DETAIL
  6
CONTINUOUS
 62
     5
 10
89.644588045234059
 20
81.874632763171348
 30
0.0
 11
89.644588045234059
 21
88.915490019436447
 31
0.0
  0
LINE
  8
DETAIL
  6
CONTINUOUS
 62
     5
 10
95.65428109854588
 20
88.915490019436447
 30
0.0
 11
95.65428109854588
 21
74.523399637099146
 31
0.0
  0
LINE
  8
DETAIL
  6
CONTINUOUS
 62
     5
 10
95.65428109854588
 20
-79.719610054201098
 30
0.0
 11
95.65428109854588
 21
-88.915490018659739
 31
0.0
  0
LINE
  8
DETAIL
  6
CONTINUOUS
 62
     5
 10
4.7075928917606689
 20
95.754442649434623
 30
0.0
 11
-4.7075928917612373
 21
95.754442649434623
 31
0.0
  0
LINE
  8
DETAIL
  6
CONTINUOUS
 62
     5
 10
4.7075928917606689
 20
96.255250403877426
 30
0.0
 11
-4.7075928917612373
 21
96.255250403877426
 31
0.0
  0
LINE
  8
DETAIL
  6
CONTINUOUS
 62
     5
 10
-235.17473262053099
 20
258.43820137067792
 30
0.0
 11
-230.16665507610449
 21
255.5467864524928
 31
0.0
  0
LINE
  8
DETAIL
  6
CONTINUOUS
 62
     5
 10
109.111014349651
 20
-113.3605090601995
 30
0.0
 11
100.7537036627967
 21
-121.71781974705389
 31
0.0
  0
LINE
  8
DETAIL
  6
CONTINUOUS
 62
     5
 10
115.83938097559179
 20
-111.5898862634907
 30
0.0
 11
117.1142293889116
 21
-110.3150378509475
 31
0.0
  0
LINE
  8
DETAIL
  6
CONTINUOUS
 62
     5
 10
117.9641283308661
 20
-113.7146336195412
 30
0.0
 11
119.23897674418571
 21
-112.4397852062216
 31
0.0
  0
LINE
  8
DETAIL
  6
CONTINUOUS
 62
     5
 10
92.90720100093904
 20
97.997162046536801
 30
0.0
 11
93.501027161813681
 21
97.750521872362356
 31
0.0
  0
LINE
  8
DETAIL
  6
CONTINUOUS
 62
     5
 10
93.888250312181185
 20
98.628829265406807
 30
0.0
 11
94.231983880076427
 21
98.481478591401583
 31
0.0
  0
LINE
  8
DETAIL
  6
CONTINUOUS
 62
     5
 10
-225.15857753167791
 20
264.22103120782458
 30
0.0
 11
-230.16665507610449
 21
267.11244612600967
 31
0.0
  0
LINE
  8
DETAIL
  6
CONTINUOUS
 62
     5
 10
116.19350553493361
 20
-120.4430002447057
 30
0.0
 11
107.8361948480793
 21
-128.80031093155981
 31
0.0
  0
LINE
  8
DETAIL
  6
CONTINUOUS
 62
     5
 10
241.96306995792131
 20
-234.6886959081788
 30
0.0
 11
241.9592307253007
 21
-234.67742544008209
 31
0.0
  0
LINE
  8
DETAIL
  6
CONTINUOUS
 62
     5
 10
209.07293767451861
 20
-225.74137436921251
 30
0.0
 11
209.11103644585509
 21
-225.97671989054621
 31
0.0
  0
LINE
  8
DETAIL
  6
CONTINUOUS
 62
     5
 10
208.77947268177971
 20
-223.9285686201965
 30
0.0
 11
209.32392007398741
 21
-226.69380478062891
 31
0.0
  0
LINE
  8
DETAIL
  6
CONTINUOUS
 62
     5
 10
209.32392007398741
 20
-226.69380478062891
 30
0.0
 11
209.62231378206889
 21
-227.35733103387551
 31
0.0
  0
LINE
  8
DETAIL
  6
CONTINUOUS
 62
     5
 10
209.62231378206889
 20
-227.35733103387551
 30
0.0
 11
210.00202783261309
 21
-227.9559850257605
 31
0.0
  0
LINE
  8
DETAIL
  6
CONTINUOUS
 62
     5
 10
210.00202783261309
 20
-227.9559850257605
 30
0.0
 11
210.46445880452299
 21
-228.4935379644588
 31
0.0
  0
LINE
  8
DETAIL
  6
CONTINUOUS
 62
     5
 10
210.530293054228
 20
-225.66899945568639
 30
0.0
 11
211.07674721453679
 21
-228.44663192117821
 31
0.0
  0
LINE
  8
DETAIL
  6
CONTINUOUS
 62
     5
 10
211.07674721453679
 20
-228.44663192117821
 30
0.0
 11
211.3751409226181
 21
-229.11015817442501
 31
0.0
  0
LINE
  8
DETAIL
  6
CONTINUOUS
 62
     5
 10
211.3751409226181
 20
-229.11015817442501
 30
0.0
 11
211.75485497316231
 21
-229.70881216630971
 31
0.0
  0
LINE
  8
DETAIL
  6
CONTINUOUS
 62
     5
 10
211.75485497316231
 20
-229.70881216630971
 30
0.0
 11
212.21728594507249
 21
-230.2463651050081
 31
0.0
  0
LINE
  8
DETAIL
  6
CONTINUOUS
 62
     5
 10
201.12844121939591
 20
-266.93053311793221
 30
0.0
 11
201.12844121939591
 21
-260.42003231017782
 31
0.0
  0
LINE
  8
DETAIL
  6
CONTINUOUS
 62
     5
 10
201.12844121939591
 20
260.42003231017787
 30
0.0
 11
201.12844121939591
 21
266.93053311793221
 31
0.0
  0
LINE
  8
DETAIL
  6
CONTINUOUS
 62
     5
 10
213.16867623313399
 20
262.74611452623031
 30
0.0
 11
213.16867623313399
 21
255.56295591133491
 31
0.0
  0
LINE
  8
DETAIL
  6
CONTINUOUS
 62
     5
 10
213.16867623313399
 20
-255.56295591055849
 30
0.0
 11
213.16867623313399
 21
-262.74611452545338
 31
0.0
  0
LINE
  8
DETAIL
  6
CONTINUOUS
 62
     5
 10
236.0050011012257
 20
-252.75880896111491
 30
0.0
 11
236.0760093578036
 21
-255.6701474761492
 31
0.0
  0
LINE
  8
DETAIL
  6
CONTINUOUS
 62
     5
 10
237.27759062078101
 20
-255.64084061632309
 30
0.0
 11
237.22326789961289
 21
-253.41360905541569
 31
0.0
  0
LINE
  8
DETAIL
  6
CONTINUOUS
 62
     5
 10
225.15857753245399
 20
-258.43820137067797
 30
0.0
 11
225.15857753245399
 21
-264.22103120704821
 31
0.0
  0
LINE
  8
DETAIL
  6
CONTINUOUS
 62
     5
 10
235.1747326213069
 20
-264.22103120704821
 30
0.0
 11
235.1747326213069
 21
-258.43820137067797
 31
0.0
  0
LINE
  8
DETAIL
  6
CONTINUOUS
 62
     5
 10
266.93053311793199
 20
201.12844121939611
 30
0.0
 11
260.42003231017748
 21
201.12844121939611
 31
0.0
  0
LINE
  8
DETAIL
  6
CONTINUOUS
 62
     5
 10
-260.42003231017787
 20
201.12844121939611
 30
0.0
 11
-266.93053311793238
 21
201.12844121939611
 31
0.0
  0
LINE
  8
DETAIL
  6
CONTINUOUS
 62
     5
 10
-262.74611452545389
 20
213.16867623313411
 30
0.0
 11
-255.56295591055849
 21
213.16867623313411
 31
0.0
  0
LINE
  8
DETAIL
  6
CONTINUOUS
 62
     5
 10
255.56295591133471
 20
213.16867623313411
 30
0.0
 11
262.74611452622992
 21
213.16867623313411
 31
0.0
  0
LINE
  8
DETAIL
  6
CONTINUOUS
 62
     5
 10
256.32153874521271
 20
233.05806999506581
 30
0.0
 11
256.32153874521271
 21
227.27524015791909
 31
0.0
  0
LINE
  8
DETAIL
  6
CONTINUOUS
 62
     5
 10
266.3376938340657
 20
227.27524015791909
 30
0.0
 11
266.3376938340657
 21
233.05806999506581
 31
0.0
  0
LINE
  8
DETAIL
  6
CONTINUOUS
 62
     5
 10
217.24881799221021
 20
-212.99932328010911
 30
0.0
 11
217.31197958357421
 21
-212.9759403059447
 31
0.0
  0
LINE
  8
DETAIL
  6
CONTINUOUS
 62
     5
 10
217.31197958357421
 20
-212.9759403059447
 30
0.0
 11
218.2814270682394
 21
-212.71207410755039
 31
0.0
  0
LINE
  8
DETAIL
  6
CONTINUOUS
 62
     5
 10
218.2814270682394
 20
-212.71207410755039
 30
0.0
 11
219.23885031478611
 21
-212.5482046321774
 31
0.0
  0
LINE
  8
DETAIL
  6
CONTINUOUS
 62
     5
 10
219.23885031478611
 20
-212.5482046321774
 30
0.0
 11
220.1740397507356
 21
-212.48449439466009
 31
0.0
  0
LINE
  8
DETAIL
  6
CONTINUOUS
 62
     5
 10
220.1740397507356
 20
-212.48449439466009
 30
0.0
 11
221.07629994088961
 21
-212.52329463072451
 31
0.0
  0
LINE
  8
DETAIL
  6
CONTINUOUS
 62
     5
 10
221.07629994088961
 20
-212.52329463072451
 30
0.0
 11
221.93635906247869
 21
-212.66252479861251
 31
0.0
  0
LINE
  8
DETAIL
  6
CONTINUOUS
 62
     5
 10
221.93635906247869
 20
-212.66252479861251
 30
0.0
 11
222.74402309679249
 21
-212.90229898931759
 31
0.0
  0
LINE
  8
DETAIL
  6
CONTINUOUS
 62
     5
 10
222.74402309679249
 20
-212.90229898931759
 30
0.0
 11
223.4913631925709
 21
-213.23838453487119
 31
0.0
  0
LINE
  8
DETAIL
  6
CONTINUOUS
 62
     5
 10
223.4913631925709
 20
-213.23838453487119
 30
0.0
 11
224.1656366358088
 21
-213.6660624651164
 31
0.0
  0
LINE
  8
DETAIL
  6
CONTINUOUS
 62
     5
 10
224.1656366358088
 20
-213.6660624651164
 30
0.0
 11
224.77109099835911
 21
-214.1869057706229
 31
0.0
  0
LINE
  8
DETAIL
  6
CONTINUOUS
 62
     5
 10
296.97899838449092
 20
-171.07997595206069
 30
0.0
 11
296.97899838449092
 21
171.0799759528372
 31
0.0
  0
LINE
  8
DETAIL
  6
CONTINUOUS
 62
     5
 10
211.62199080169299
 20
-216.63541286087849
 30
0.0
 11
211.8344232338728
 21
-216.4067691419269
 31
0.0
  0
LINE
  8
DETAIL
  6
CONTINUOUS
 62
     5
 10
211.8344232338728
 20
-216.4067691419269
 30
0.0
 11
212.0017818601643
 21
-216.25127656993649
 31
0.0
  0
LINE
  8
DETAIL
  6
CONTINUOUS
 62
     5
 10
212.602724162252
 20
-216.85221887202431
 30
0.0
 11
212.4353655359605
 21
-217.00771144401449
 31
0.0
  0
LINE
  8
DETAIL
  6
CONTINUOUS
 62
     5
 10
212.4353655359605
 20
-217.00771144401449
 30
0.0
 11
212.21947631358381
 21
-217.24007575073591
 31
0.0
  0
LINE
  8
DETAIL
  6
CONTINUOUS
 62
     5
 10
214.3555513028011
 20
-218.60504601257341
 30
0.0
 11
214.18819267650969
 21
-218.76053858456359
 31
0.0
  0
LINE
  8
DETAIL
  6
CONTINUOUS
 62
     5
 10
214.18819267650969
 20
-218.76053858456359
 30
0.0
 11
213.96217560105671
 21
-219.0038036281575
 31
0.0
  0
LINE
  8
DETAIL
  6
CONTINUOUS
 62
     5
 10
303.82456339822897
 20
-274.17876785167368
 30
0.0
 11
303.82456339822897
 21
-254.24712510358049
 31
0.0
  0
LINE
  8
DETAIL
  6
CONTINUOUS
 62
     5
 10
303.82456339822897
 20
254.2471251043568
 30
0.0
 11
303.82456339822897
 21
274.17876785245028
 31
0.0
  0
LINE
  8
DETAIL
  6
CONTINUOUS
 62
     5
 10
306.99515347334392
 20
-269.93537964458812
 30
0.0
 11
306.99515347334392
 21
-227.89090657524639
 31
0.0
  0
LINE
  8
DETAIL
  6
CONTINUOUS
 62
     5
 10
306.99515347334392
 20
-227.89090657524639
 30
0.0
 11
306.99515347334392
 21
227.89090657602279
 31
0.0
  0
LINE
  8
DETAIL
  6
CONTINUOUS
 62
     5
 10
306.99515347334392
 20
227.89090657602279
 30
0.0
 11
306.99515347334392
 21
269.93537964458801
 31
0.0
  0
LINE
  8
DETAIL
  6
CONTINUOUS
 62
     5
 10
309.99999999999977
 20
-269.93537964458812
 30
0.0
 11
309.99999999999977
 21
269.93537964458801
 31
0.0
  0
LINE
  8
DETAIL
  6
CONTINUOUS
 62
     5
 10
213.0043418280294
 20
-233.8664174611464
 30
0.0
 11
215.0658529871132
 21
-231.80490630206259
 31
0.0
  0
LINE
  8
DETAIL
  6
CONTINUOUS
 62
     5
 10
215.75878447746399
 20
-236.62086011058079
 30
0.0
 11
218.59178095142181
 21
-233.78786363662309
 31
0.0
  0
LINE
  8
DETAIL
  6
CONTINUOUS
 62
     5
 10
206.99576902731309
 20
-246.255049940389
 30
0.0
 11
216.19437166690429
 21
-237.05644730002129
 31
0.0
  0
LINE
  8
DETAIL
  6
CONTINUOUS
 62
     5
 10
224.04674683465419
 20
-229.2040721330477
 30
0.0
 11
224.5006621289649
 21
-228.75015683873721
 31
0.0
  0
LINE
  8
DETAIL
  6
CONTINUOUS
 62
     5
 10
228.75015683951321
 20
-224.50066212818879
 30
0.0
 11
231.0676031553767
 21
-222.1832158123253
 31
0.0
  0
LINE
  8
DETAIL
  6
CONTINUOUS
 62
     5
 10
231.9175020973311
 20
-221.33331687037079
 30
0.0
 11
246.2550499411652
 21
-206.99576902653689
 31
0.0
  0
LINE
  8
DETAIL
  6
CONTINUOUS
 62
     5
 10
217.0014742405979
 20
-236.73035128444221
 30
0.0
 11
217.85137318255221
 21
-235.8804523424879
 31
0.0
  0
LINE
  8
DETAIL
  6
CONTINUOUS
 62
     5
 10
219.12990719697879
 20
-238.85878424082361
 30
0.0
 11
219.97980613893361
 21
-238.00888529886899
 31
0.0
  0
LINE
  8
DETAIL
  6
CONTINUOUS
 62
     5
 10
218.8637925550083
 20
-239.72586818812539
 30
0.0
 11
219.43039184964471
 21
-239.1592688934891
 31
0.0
  0
LINE
  8
DETAIL
  6
CONTINUOUS
 62
     5
 10
220.2802907915991
 20
-238.30936995153459
 30
0.0
 11
220.84689008701159
 21
-237.7427706561221
 31
0.0
  0
LINE
  8
DETAIL
  6
CONTINUOUS
 62
     5
 10
220.1315227058644
 20
-239.86039974970879
 30
0.0
 11
220.98142164781879
 21
-239.01050080775451
 31
0.0
  0
LINE
  8
DETAIL
  6
CONTINUOUS
 62
     5
 10
221.7326332794828
 20
-239.76171243941849
 30
0.0
 11
220.8827343375284
 21
-240.61161138137291
 31
0.0
  0
LINE
  8
DETAIL
  6
CONTINUOUS
 62
     5
 10
248.4804647268285
 20
-216.1023401367045
 30
0.0
 11
237.58349504524651
 21
-226.99930981828649
 31
0.0
  0
LINE
  8
DETAIL
  6
CONTINUOUS
 62
     5
 10
236.61967704970479
 20
-227.96312781305161
 30
0.0
 11
234.41614978742879
 21
-230.16665507610429
 31
0.0
  0
LINE
  8
DETAIL
  6
CONTINUOUS
 62
     5
 10
230.16665507688049
 20
-234.41614978665271
 30
0.0
 11
229.69007126307719
 21
-234.89273359967939
 31
0.0
  0
LINE
  8
DETAIL
  6
CONTINUOUS
 62
     5
 10
223.84346214682321
 20
-240.73934271671001
 30
0.0
 11
216.10234013748101
 21
-248.48046472605219
 31
0.0
  0
LINE
  8
DETAIL
  6
CONTINUOUS
 62
     5
 10
236.39924731943211
 20
-231.44150348942389
 30
0.0
 11
236.04512276009049
 21
-231.79562804798931
 31
0.0
  0
LINE
  8
DETAIL
  6
CONTINUOUS
 62
     5
 10
243.05678903257291
 20
-238.09904520256461
 30
0.0
 11
242.70266447323121
 21
-238.45316976190659
 31
0.0
  0
LINE
  8
DETAIL
  6
CONTINUOUS
 62
     5
 10
230.16665507688049
 20
-255.5467864517162
 30
0.0
 11
225.15857753245399
 21
-258.43820137067797
 31
0.0
  0
LINE
  8
DETAIL
  6
CONTINUOUS
 62
     5
 10
230.16665507688049
 20
-267.11244612523319
 30
0.0
 11
235.1747326213069
 21
-264.22103120704821
 31
0.0
  0
LINE
  8
DETAIL
  6
CONTINUOUS
 62
     5
 10
171.079975952837
 20
296.97899838449109
 30
0.0
 11
-171.07997595206089
 21
296.97899838449109
 31
0.0
  0
LINE
  8
DETAIL
  6
CONTINUOUS
 62
     5
 10
274.17876785244988
 20
303.82456339822909
 30
0.0
 11
254.2471251043568
 21
303.82456339822909
 31
0.0
  0
LINE
  8
DETAIL
  6
CONTINUOUS
 62
     5
 10
-254.24712510435711
 20
303.82456339822909
 30
0.0
 11
-274.17876785167402
 21
303.82456339822909
 31
0.0
  0
LINE
  8
DETAIL
  6
CONTINUOUS
 62
     5
 10
269.9353796445879
 20
306.99515347334432
 30
0.0
 11
227.8909065760225
 21
306.99515347334432
 31
0.0
  0
LINE
  8
DETAIL
  6
CONTINUOUS
 62
     5
 10
227.8909065760225
 20
306.99515347334432
 30
0.0
 11
-227.8909065752465
 21
306.99515347334432
 31
0.0
  0
LINE
  8
DETAIL
  6
CONTINUOUS
 62
     5
 10
-227.8909065752465
 20
306.99515347334432
 30
0.0
 11
-269.93537964458818
 21
306.99515347334432
 31
0.0
  0
LINE
  8
DETAIL
  6
CONTINUOUS
 62
     5
 10
269.9353796445879
 20
309.99999999999989
 30
0.0
 11
-269.93537964458818
 21
309.99999999999989
 31
0.0
  0
LINE
  8
DETAIL
  6
CONTINUOUS
 62
     5
 10
246.2550499411652
 20
206.9957690273134
 30
0.0
 11
228.75015683951321
 21
224.50066212896539
 31
0.0
  0
LINE
  8
DETAIL
  6
CONTINUOUS
 62
     5
 10
224.5006621289649
 20
228.75015683951361
 30
0.0
 11
206.99576902731309
 21
246.25504994116559
 31
0.0
  0
LINE
  8
DETAIL
  6
CONTINUOUS
 62
     5
 10
252.37672915530149
 20
-241.53080860948509
 30
0.0
 11
249.5437326813437
 21
-244.36380508344291
 31
0.0
  0
LINE
  8
DETAIL
  6
CONTINUOUS
 62
     5
 10
256.27209930650821
 20
-245.42617876069181
 30
0.0
 11
253.43910283255039
 21
-248.2591752346494
 31
0.0
  0
LINE
  8
DETAIL
  6
CONTINUOUS
 62
     5
 10
257.86565982354608
 20
-249.85273575168731
 30
0.0
 11
258.71555876550042
 21
-249.0028368089564
 31
0.0
  0
LINE
  8
DETAIL
  6
CONTINUOUS
 62
     5
 10
258.57390894145328
 20
-250.56098486959439
 30
0.0
 11
259.42380788418399
 21
-249.71108592764031
 31
0.0
  0
LINE
  8
DETAIL
  6
CONTINUOUS
 62
     5
 10
261.32961628963932
 20
-257.08012157753808
 30
0.0
 11
257.08012157831422
 21
-261.32961628886312
 31
0.0
  0
LINE
  8
DETAIL
  6
CONTINUOUS
 62
     5
 10
256.32153874521271
 20
227.27524015791909
 30
0.0
 11
261.32961628963932
 21
224.38382523973411
 31
0.0
  0
LINE
  8
DETAIL
  6
CONTINUOUS
 62
     5
 10
266.3376938340657
 20
233.05806999506581
 30
0.0
 11
261.32961628963932
 21
235.94948491325101
 31
0.0
  0
LINE
  8
DETAIL
  6
CONTINUOUS
 62
     5
 10
216.10234013748101
 20
248.48046472682859
 30
0.0
 11
230.16665507688049
 21
234.41614978742919
 31
0.0
  0
LINE
  8
DETAIL
  6
CONTINUOUS
 62
     5
 10
234.41614978742879
 20
230.16665507688069
 30
0.0
 11
248.4804647268285
 21
216.10234013748109
 31
0.0
  0
LINE
  8
DETAIL
  6
CONTINUOUS
 62
     5
 10
257.08012157831422
 20
261.32961628963938
 30
0.0
 11
261.32961628963932
 21
257.08012157831467
 31
0.0
  0
LINE
  8
DETAIL
  6
CONTINUOUS
 62
     5
 10
281.26125903695612
 20
-300.89089949310568
 30
0.0
 11
300.89089949388222
 21
-281.26125903617992
 31
0.0
  0
LINE
  8
DETAIL
  6
CONTINUOUS
 62
     5
 10
300.89089949388222
 20
281.26125903695629
 30
0.0
 11
281.26125903695612
 21
300.89089949388239
 31
0.0
  0
ARC
  8
DETAIL
  6
CONTINUOUS
 62
     5
 10
-0.0000000000002274
 20
179.78998384491109
 30
0.0
 40
303.36578774059188
 50
260.18304642599912
 51
279.81695357400082
  0
ARC
  8
DETAIL
  6
CONTINUOUS
 62
     5
 10
-0.0000000000002274
 20
-215.34733441033941
 30
0.0
 40
303.36577933090382
 50
73.977964902097568
 51
106.0220350979024
  0
ARC
  8
DETAIL
  6
CONTINUOUS
 62
     5
 10
-0.0000000000002274
 20
179.78998384491109
 30
0.0
 40
293.3496327200661
 50
261.10894839469779
 51
278.89105160540117
  0
ARC
  8
DETAIL
  6
CONTINUOUS
 62
     5
 10
-0.0000000000002274
 20
-215.34733441033941
 30
0.0
 40
293.34962458912219
 50
75.483688485498291
 51
104.5163115147031
  0
ARC
  8
DETAIL
  6
CONTINUOUS
 62
     5
 10
-269.93537964458818
 20
-269.93537964458812
 30
0.0
 40
40.064620355411989
 50
180.0
 51
270.0
  0
ARC
  8
DETAIL
  6
CONTINUOUS
 62
     5
 10
-269.93537964458818
 20
-269.93537964458812
 30
0.0
 40
37.059773828756079
 50
180.0
 51
270.0
  0
ARC
  8
DETAIL
  6
CONTINUOUS
 62
     5
 10
-274.17876785167402
 20
-293.80840830859972
 30
0.0
 40
10.016155088853001
 50
225.0
 51
270.0
  0
ARC
  8
DETAIL
  6
CONTINUOUS
 62
     5
 10
-293.80840830860001
 20
-274.17876785167368
 30
0.0
 40
10.016155088853001
 50
180.0
 51
225.0
  0
ARC
  8
DETAIL
  6
CONTINUOUS
 62
     5
 10
-266.93053311793238
 20
-171.07997595206069
 30
0.0
 40
30.048465266559109
 50
180.0
 51
270.0
  0
ARC
  8
DETAIL
  6
CONTINUOUS
 62
     5
 10
-260.42003231017787
 20
-221.16075139632571
 30
0.0
 40
20.032310177706108
 50
45.0
 51
90.0
  0
ARC
  8
DETAIL
  6
CONTINUOUS
 62
     5
 10
-291.97092084006488
 20
-227.89090657524639
 30
0.0
 40
15.024232633279439
 50
180.0
 51
268.05249548290192
  0
ARC
  8
DETAIL
  6
CONTINUOUS
 62
     5
 10
-255.56295591055849
 20
-223.18483132121059
 30
0.0
 40
10.016155088852919
 50
45.0
 51
90.0
  0
CIRCLE
  8
DETAIL
  6
CONTINUOUS
 62
     5
 10
-261.32961628886329
 20
-230.16665507610429
 30
0.0
 40
5.0080775444264409
  0
ARC
  8
DETAIL
  6
CONTINUOUS
 62
     5
 10
-171.07997595206089
 20
-266.93053311793221
 30
0.0
 40
30.048465266558878
 50
180.0
 51
270.0
  0
ARC
  8
DETAIL
  6
CONTINUOUS
 62
     5
 10
-221.16075139632571
 20
-260.42003231017782
 30
0.0
 40
20.032310177705991
 50
0.0
 51
45.0
  0
ARC
  8
DETAIL
  6
CONTINUOUS
 62
     5
 10
-227.8909065752465
 20
-291.97092084006448
 30
0.0
 40
15.024232633279709
 50
181.94750657439241
 51
270.0
  0
ARC
  8
DETAIL
  6
CONTINUOUS
 62
     5
 10
-223.18483132121119
 20
-255.56295591055849
 30
0.0
 40
10.016155088853001
 50
0.0
 51
45.0
  0
ARC
  8
DETAIL
  6
CONTINUOUS
 62
     5
 10
-101.663974151858
 20
-88.915490018659739
 30
0.0
 40
12.019386106623649
 50
315.0
 51
0.0
  0
ARC
  8
DETAIL
  6
CONTINUOUS
 62
     5
 10
-101.663974151858
 20
-88.915490018659739
 30
0.0
 40
6.0096930533118273
 50
315.0
 51
0.0
  0
ARC
  8
DETAIL
  6
CONTINUOUS
 62
     5
 10
-37.059773828756313
 20
-37.059773828755851
 30
0.0
 40
3.004846526655911
 50
180.0
 51
270.0
  0
CIRCLE
  8
DETAIL
  6
CONTINUOUS
 62
     5
 10
-35.056542810985768
 20
-47.075928917609083
 30
0.0
 40
1.5024232633279551
  0
ARC
  8
DETAIL
  6
CONTINUOUS
 62
     5
 10
-266.93053311793238
 20
171.0799759528372
 30
0.0
 40
30.048465266558988
 50
90.0
 51
180.0
  0
ARC
  8
DETAIL
  6
CONTINUOUS
 62
     5
 10
-260.42003231017787
 20
221.16075139710199
 30
0.0
 40
20.03231017770597
 50
270.0
 51
315.0
  0
ARC
  8
DETAIL
  6
CONTINUOUS
 62
     5
 10
-291.97092084006488
 20
227.89090657602279
 30
0.0
 40
15.02423263327943
 50
91.947506574398957
 51
180.0
  0
ARC
  8
DETAIL
  6
CONTINUOUS
 62
     5
 10
-255.56295591055849
 20
223.1848313219871
 30
0.0
 40
10.016155088853029
 50
270.0
 51
315.0
  0
ARC
  8
DETAIL
  6
CONTINUOUS
 62
     5
 10
-269.93537964458818
 20
269.93537964458801
 30
0.0
 40
40.064620355411989
 50
90.0
 51
180.0
  0
ARC
  8
DETAIL
  6
CONTINUOUS
 62
     5
 10
-269.93537964458818
 20
269.93537964458801
 30
0.0
 40
37.059773828756079
 50
90.0
 51
180.0
  0
ARC
  8
DETAIL
  6
CONTINUOUS
 62
     5
 10
-293.80840830860001
 20
274.17876785245028
 30
0.0
 40
10.01615508885296
 50
135.0
 51
180.0
  0
ARC
  8
DETAIL
  6
CONTINUOUS
 62
     5
 10
-274.17876785167402
 20
293.80840830937632
 30
0.0
 40
10.016155088853059
 50
90.0
 51
135.0
  0
ARC
  8
DETAIL
  6
CONTINUOUS
 62
     5
 10
-171.07997595206089
 20
266.93053311793221
 30
0.0
 40
30.048465266559049
 50
90.0
 51
180.0
  0
ARC
  8
DETAIL
  6
CONTINUOUS
 62
     5
 10
-221.16075139632571
 20
260.42003231017787
 30
0.0
 40
20.03231017770592
 50
315.0
 51
0.0
  0
ARC
  8
DETAIL
  6
CONTINUOUS
 62
     5
 10
-227.8909065752465
 20
291.97092084006482
 30
0.0
 40
15.024232633279549
 50
90.0
 51
178.05249548289541
  0
ARC
  8
DETAIL
  6
CONTINUOUS
 62
     5
 10
-223.18483132121119
 20
255.56295591133491
 30
0.0
 40
10.01615508885304
 50
315.0
 51
0.0
  0
CIRCLE
  8
DETAIL
  6
CONTINUOUS
 62
     5
 10
-230.16665507610449
 20
261.32961628963938
 30
0.0
 40
5.0080775444264409
  0
ARC
  8
DETAIL
  6
CONTINUOUS
 62
     5
 10
-101.663974151858
 20
88.915490019436447
 30
0.0
 40
12.019386106623591
 50
0.0
 51
45.0
  0
ARC
  8
DETAIL
  6
CONTINUOUS
 62
     5
 10
-101.663974151858
 20
88.915490019436447
 30
0.0
 40
6.0096930533118211
 50
0.0
 51
45.0
  0
ARC
  8
DETAIL
  6
CONTINUOUS
 62
     5
 10
-37.059773828756313
 20
27.043618739903081
 30
0.0
 40
3.0048465266559039
 50
90.0
 51
180.0
  0
CIRCLE
  8
DETAIL
  6
CONTINUOUS
 62
     5
 10
-35.056542810985768
 20
34.054927302100168
 30
0.0
 40
1.5024232633279551
  0
ARC
  8
DETAIL
  6
CONTINUOUS
 62
     5
 10
101.6639741518576
 20
-88.915490018659739
 30
0.0
 40
12.019386106623591
 50
180.0
 51
225.0
  0
ARC
  8
DETAIL
  6
CONTINUOUS
 62
     5
 10
-0.0000000000002274
 20
-127.2827948303716
 30
0.0
 40
6.5330371567043244
 50
223.89739816709701
 51
316.10260183290302
  0
ARC
  8
DETAIL
  6
CONTINUOUS
 62
     5
 10
101.6639741518576
 20
-88.915490018659739
 30
0.0
 40
6.0096930533117643
 50
180.0
 51
225.0
  0
CIRCLE
  8
DETAIL
  6
CONTINUOUS
 62
     5
 10
-0.0000000000002274
 20
-89.444264943457028
 30
0.0
 40
4.5072697899838658
  0
ARC
  8
DETAIL
  6
CONTINUOUS
 62
     5
 10
37.059773828755851
 20
-37.059773828755851
 30
0.0
 40
3.0048465266558999
 50
270.0
 51
0.0
  0
CIRCLE
  8
DETAIL
  6
CONTINUOUS
 62
     5
 10
-0.0000000000002274
 20
-89.444264943457028
 30
0.0
 40
1.5024232633279551
  0
CIRCLE
  8
DETAIL
  6
CONTINUOUS
 62
     5
 10
35.056542810985214
 20
-47.075928917609083
 30
0.0
 40
1.5024232633279551
  0
ARC
  8
DETAIL
  6
CONTINUOUS
 62
     5
 10
171.079975952837
 20
-266.93053311793221
 30
0.0
 40
30.048465266558932
 50
270.0
 51
0.0
  0
ARC
  8
DETAIL
  6
CONTINUOUS
 62
     5
 10
221.1607513971019
 20
-260.42003231017782
 30
0.0
 40
20.032310177705991
 50
135.0
 51
180.0
  0
ARC
  8
DETAIL
  6
CONTINUOUS
 62
     5
 10
227.8909065760225
 20
-291.97092084006448
 30
0.0
 40
15.0242326332795
 50
270.0
 51
341.54622418100121
  0
ARC
  8
DETAIL
  6
CONTINUOUS
 62
     5
 10
223.18483132198699
 20
-255.56295591055849
 30
0.0
 40
10.01615508885304
 50
135.0
 51
180.0
  0
CIRCLE
  8
DETAIL
  6
CONTINUOUS
 62
     5
 10
230.16665507688049
 20
-261.32961628886312
 30
0.0
 40
5.0080775444264987
  0
ARC
  8
DETAIL
  6
CONTINUOUS
 62
     5
 10
269.9353796445879
 20
-269.93537964458812
 30
0.0
 40
40.064620355411961
 50
270.0
 51
0.0
  0
ARC
  8
DETAIL
  6
CONTINUOUS
 62
     5
 10
269.9353796445879
 20
-269.93537964458812
 30
0.0
 40
37.059773828756043
 50
270.0
 51
0.0
  0
ARC
  8
DETAIL
  6
CONTINUOUS
 62
     5
 10
293.80840830937598
 20
-274.17876785167368
 30
0.0
 40
10.01615508885301
 50
315.0
 51
0.0
  0
ARC
  8
DETAIL
  6
CONTINUOUS
 62
     5
 10
274.17876785244988
 20
-293.80840830859972
 30
0.0
 40
10.016155088853001
 50
270.0
 51
315.0
  0
ARC
  8
DETAIL
  6
CONTINUOUS
 62
     5
 10
236.5249615377891
 20
-237.97333098420799
 30
0.0
 40
6.5330371567043484
 50
358.89739816709272
 51
29.614225672394898
  0
ARC
  8
DETAIL
  6
CONTINUOUS
 62
     5
 10
236.5249615377891
 20
-237.97333098420799
 30
0.0
 40
6.5330371567043422
 50
45.32097994850168
 51
57.145292157703572
  0
ARC
  8
DETAIL
  6
CONTINUOUS
 62
     5
 10
236.5249615377891
 20
-237.97333098420799
 30
0.0
 40
6.5330371567043422
 50
83.822799696701736
 51
91.102601832900817
  0
ARC
  8
DETAIL
  6
CONTINUOUS
 62
     5
 10
242.2841792163903
 20
-255.51872869882649
 30
0.0
 40
6.2100161550888231
 50
181.39718102730021
 51
268.32405744219727
  0
ARC
  8
DETAIL
  6
CONTINUOUS
 62
     5
 10
240.86768097979959
 20
-238.52074985585651
 30
0.0
 40
5.2084006462034909
 50
45.0
 51
100.1172355396029
  0
ARC
  8
DETAIL
  6
CONTINUOUS
 62
     5
 10
256.44916158617889
 20
-256.93522693619383
 30
0.0
 40
5.2084006462035584
 50
268.32405744219727
 51
45.0
  0
ARC
  8
DETAIL
  6
CONTINUOUS
 62
     5
 10
242.2841792163903
 20
-255.51872869882649
 30
0.0
 40
5.0080775444264756
 50
181.39718102730021
 51
268.32405744219727
  0
ARC
  8
DETAIL
  6
CONTINUOUS
 62
     5
 10
256.44916158617889
 20
-256.93522693619383
 30
0.0
 40
4.0064620355412481
 50
11.787836377905929
 51
45.0
  0
ARC
  8
DETAIL
  6
CONTINUOUS
 62
     5
 10
256.44916158617889
 20
-256.93522693619383
 30
0.0
 40
4.006462035541178
 50
287.72138263449853
 51
342.19506581169929
  0
ARC
  8
DETAIL
  6
CONTINUOUS
 62
     5
 10
256.44916158617889
 20
-256.93522693619383
 30
0.0
 40
4.0064620355411584
 50
268.32405744219727
 51
273.26301136659907
  0
ARC
  8
DETAIL
  6
CONTINUOUS
 62
     5
 10
240.86768097979959
 20
-238.52074985585651
 30
0.0
 40
4.0064620355412153
 50
45.0
 51
107.8855642674979
  0
ARC
  8
DETAIL
  6
CONTINUOUS
 62
     5
 10
266.93053311793199
 20
-171.07997595206069
 30
0.0
 40
30.048465266558932
 50
270.0
 51
0.0
  0
ARC
  8
DETAIL
  6
CONTINUOUS
 62
     5
 10
260.42003231017748
 20
-221.16075139632571
 30
0.0
 40
20.03231017770597
 50
90.0
 51
135.0
  0
ARC
  8
DETAIL
  6
CONTINUOUS
 62
     5
 10
291.97092084006431
 20
-227.89090657524639
 30
0.0
 40
15.024232633279491
 50
271.94750657439897
 51
0.0
  0
ARC
  8
DETAIL
  6
CONTINUOUS
 62
     5
 10
255.56295591133471
 20
-223.18483132121059
 30
0.0
 40
10.016155088852971
 50
90.0
 51
135.0
  0
ARC
  8
DETAIL
  6
CONTINUOUS
 62
     5
 10
-0.0000000000002274
 20
0.0
 30
0.0
 40
236.88206785137319
 50
45.726833947199893
 51
134.27316605280009
  0
ARC
  8
DETAIL
  6
CONTINUOUS
 62
     5
 10
-0.0000000000002274
 20
0.0
 30
0.0
 40
236.88206785137331
 50
315.72683394719519
 51
44.273166052804712
  0
ARC
  8
DETAIL
  6
CONTINUOUS
 62
     5
 10
-0.0000000000002274
 20
0.0
 30
0.0
 40
236.88206785137319
 50
225.72683394719991
 51
312.1914231490008
  0
ARC
  8
DETAIL
  6
CONTINUOUS
 62
     5
 10
-0.0000000000002274
 20
0.0
 30
0.0
 40
236.88206785137319
 50
135.7268339471953
 51
224.2731660528047
  0
ARC
  8
DETAIL
  6
CONTINUOUS
 62
     5
 10
-0.0000000000002274
 20
0.0
 30
0.0
 40
228.36833602584809
 50
45.753955108602973
 51
134.24604489139699
  0
ARC
  8
DETAIL
  6
CONTINUOUS
 62
     5
 10
-0.0000000000002274
 20
0.0
 30
0.0
 40
228.36833602584821
 50
315.75395511030268
 51
44.246044889697302
  0
ARC
  8
DETAIL
  6
CONTINUOUS
 62
     5
 10
-0.0000000000002274
 20
0.0
 30
0.0
 40
228.36833602584809
 50
225.75395510860301
 51
312.07507803300138
  0
ARC
  8
DETAIL
  6
CONTINUOUS
 62
     5
 10
-0.0000000000002274
 20
0.0
 30
0.0
 40
228.36833602584809
 50
135.75395511030271
 51
224.24604488969729
  0
ARC
  8
DETAIL
  6
CONTINUOUS
 62
     5
 10
101.6639741518576
 20
88.915490019436447
 30
0.0
 40
12.019386106623561
 50
135.0
 51
180.0
  0
ARC
  8
DETAIL
  6
CONTINUOUS
 62
     5
 10
-0.0000000000002274
 20
91.725444264943462
 30
0.0
 40
6.5330371567043759
 50
43.897398167092412
 51
136.10260183290299
  0
ARC
  8
DETAIL
  6
CONTINUOUS
 62
     5
 10
101.6639741518576
 20
88.915490019436447
 30
0.0
 40
6.0096930533117821
 50
135.0
 51
180.0
  0
ARC
  8
DETAIL
  6
CONTINUOUS
 62
     5
 10
37.059773828755851
 20
27.043618739903081
 30
0.0
 40
3.004846526655911
 50
0.0
 51
90.0
  0
CIRCLE
  8
DETAIL
  6
CONTINUOUS
 62
     5
 10
35.056542810985214
 20
34.054927302100168
 30
0.0
 40
1.5024232633279551
  0
ARC
  8
DETAIL
  6
CONTINUOUS
 62
     5
 10
171.079975952837
 20
266.93053311793221
 30
0.0
 40
30.048465266558988
 50
0.0
 51
90.0
  0
ARC
  8
DETAIL
  6
CONTINUOUS
 62
     5
 10
221.1607513971019
 20
260.42003231017787
 30
0.0
 40
20.03231017770597
 50
180.0
 51
225.0
  0
ARC
  8
DETAIL
  6
CONTINUOUS
 62
     5
 10
227.8909065760225
 20
291.97092084006482
 30
0.0
 40
15.024232633279491
 50
1.947506574392446
 51
90.0
  0
ARC
  8
DETAIL
  6
CONTINUOUS
 62
     5
 10
223.18483132198699
 20
255.56295591133491
 30
0.0
 40
10.016155088853059
 50
180.0
 51
225.0
  0
ARC
  8
DETAIL
  6
CONTINUOUS
 62
     5
 10
266.93053311793199
 20
171.0799759528372
 30
0.0
 40
30.04846526655901
 50
0.0
 51
90.0
  0
ARC
  8
DETAIL
  6
CONTINUOUS
 62
     5
 10
260.42003231017748
 20
221.16075139710199
 30
0.0
 40
20.03231017770603
 50
225.0
 51
270.0
  0
ARC
  8
DETAIL
  6
CONTINUOUS
 62
     5
 10
291.97092084006431
 20
227.89090657602279
 30
0.0
 40
15.02423263327951
 50
0.0
 51
88.052495482901875
  0
ARC
  8
DETAIL
  6
CONTINUOUS
 62
     5
 10
255.56295591133471
 20
223.1848313219871
 30
0.0
 40
10.016155088853001
 50
225.0
 51
270.0
  0
CIRCLE
  8
DETAIL
  6
CONTINUOUS
 62
     5
 10
261.32961628963932
 20
230.16665507688069
 30
0.0
 40
5.0080775444264987
  0
ARC
  8
DETAIL
  6
CONTINUOUS
 62
     5
 10
269.9353796445879
 20
269.93537964458801
 30
0.0
 40
40.064620355411918
 50
0.0
 51
90.0
  0
ARC
  8
DETAIL
  6
CONTINUOUS
 62
     5
 10
269.9353796445879
 20
269.93537964458801
 30
0.0
 40
37.059773828756008
 50
0.0
 51
90.0
  0
ARC
  8
DETAIL
  6
CONTINUOUS
 62
     5
 10
274.17876785244988
 20
293.80840830937632
 30
0.0
 40
10.01615508885304
 50
45.0
 51
90.0
  0
ARC
  8
DETAIL
  6
CONTINUOUS
 62
     5
 10
293.80840830937598
 20
274.17876785245028
 30
0.0
 40
10.016155088853029
 50
0.0
 51
45.0
  0
LINE
  8
DETAIL
  6
CONTINUOUS
 62
     5
 10
-275.89216139740279
 20
258.57429141027671
 30
0.0
 11
-275.76916221319283
 21
258.60624515547443
 31
0.0
  0
LINE
  8
DETAIL
  6
CONTINUOUS
 62
     5
 10
-275.76916221319283
 20
258.60624515547443
 30
0.0
 11
-275.64643312424488
 21
258.63924882059843
 31
0.0
  0
LINE
  8
DETAIL
  6
CONTINUOUS
 62
     5
 10
-275.64643312424488
 20
258.63924882059843
 30
0.0
 11
-275.64643312424488
 21
258.63924882059843
 31
0.0
  0
LINE
  8
DETAIL
  6
CONTINUOUS
 62
     5
 10
-275.64643312424488
 20
258.63924882059843
 30
0.0
 11
-275.52419178419598
 21
258.67412952098971
 31
0.0
  0
LINE
  8
DETAIL
  6
CONTINUOUS
 62
     5
 10
-275.52419178419598
 20
258.67412952098971
 30
0.0
 11
-275.40244608018878
 21
258.71082315364492
 31
0.0
  0
LINE
  8
DETAIL
  6
CONTINUOUS
 62
     5
 10
-275.40244608018878
 20
258.71082315364492
 30
0.0
 11
-275.40244608018878
 21
258.71082315364492
 31
0.0
  0
LINE
  8
DETAIL
  6
CONTINUOUS
 62
     5
 10
-275.40244608018878
 20
258.71082315364492
 30
0.0
 11
-275.28117023534008
 21
258.74910053765598
 31
0.0
  0
LINE
  8
DETAIL
  6
CONTINUOUS
 62
     5
 10
-275.28117023534008
 20
258.74910053765598
 30
0.0
 11
-275.16041358316238
 21
258.78896339883772
 31
0.0
  0
LINE
  8
DETAIL
  6
CONTINUOUS
 62
     5
 10
-275.16041358316238
 20
258.78896339883772
 30
0.0
 11
-275.16041358316238
 21
258.78896339883772
 31
0.0
  0
LINE
  8
DETAIL
  6
CONTINUOUS
 62
     5
 10
-275.16041358316238
 20
258.78896339883772
 30
0.0
 11
-275.04022156599581
 21
258.83046308754888
 31
0.0
  0
LINE
  8
DETAIL
  6
CONTINUOUS
 62
     5
 10
-275.04022156599581
 20
258.83046308754888
 30
0.0
 11
-274.92054895109288
 21
258.8736185455989
 31
0.0
  0
LINE
  8
DETAIL
  6
CONTINUOUS
 62
     5
 10
-274.92054895109288
 20
258.8736185455989
 30
0.0
 11
-274.92054895109288
 21
258.8736185455989
 31
0.0
  0
LINE
  8
DETAIL
  6
CONTINUOUS
 62
     5
 10
-274.92054895109288
 20
258.8736185455989
 30
0.0
 11
-274.80139973442209
 21
258.91841529452847
 31
0.0
  0
LINE
  8
DETAIL
  6
CONTINUOUS
 62
     5
 10
-274.80139973442209
 20
258.91841529452847
 30
0.0
 11
-274.68306550190738
 21
258.96473758335043
 31
0.0
  0
LINE
  8
DETAIL
  6
CONTINUOUS
 62
     5
 10
-274.68306550190738
 20
258.96473758335043
 30
0.0
 11
-274.68306550190738
 21
258.96473758335043
 31
0.0
  0
LINE
  8
DETAIL
  6
CONTINUOUS
 62
     5
 10
-274.68306550190738
 20
258.96473758335043
 30
0.0
 11
-274.56579584427249
 21
259.01248763739318
 31
0.0
  0
LINE
  8
DETAIL
  6
CONTINUOUS
 62
     5
 10
-274.56579584427249
 20
259.01248763739318
 30
0.0
 11
-274.44938478148839
 21
259.06174085978108
 31
0.0
  0
LINE
  8
DETAIL
  6
CONTINUOUS
 62
     5
 10
-274.44938478148839
 20
259.06174085978108
 30
0.0
 11
-274.44938478148839
 21
259.06174085978108
 31
0.0
  0
LINE
  8
DETAIL
  6
CONTINUOUS
 62
     5
 10
-274.44938478148839
 20
259.06174085978108
 30
0.0
 11
-274.33358432824957
 21
259.11258887330553
 31
0.0
  0
LINE
  8
DETAIL
  6
CONTINUOUS
 62
     5
 10
-274.33358432824957
 20
259.11258887330553
 30
0.0
 11
-274.21843404889131
 21
259.16501500163918
 31
0.0
  0
LINE
  8
DETAIL
  6
CONTINUOUS
 62
     5
 10
-274.21843404889131
 20
259.16501500163918
 30
0.0
 11
-274.21843404889131
 21
259.16501500163918
 31
0.0
  0
LINE
  8
DETAIL
  6
CONTINUOUS
 62
     5
 10
-274.21843404889131
 20
259.16501500163918
 30
0.0
 11
-274.10402613578327
 21
259.21898274555912
 31
0.0
  0
LINE
  8
DETAIL
  6
CONTINUOUS
 62
     5
 10
-274.10402613578327
 20
259.21898274555912
 30
0.0
 11
-273.99037574378752
 21
259.27448461338241
 31
0.0
  0
LINE
  8
DETAIL
  6
CONTINUOUS
 62
     5
 10
-273.99037574378752
 20
259.27448461338241
 30
0.0
 11
-273.99037574378752
 21
259.27448461338241
 31
0.0
  0
LINE
  8
DETAIL
  6
CONTINUOUS
 62
     5
 10
-273.99037574378752
 20
259.27448461338241
 30
0.0
 11
-273.87748391848481
 21
259.33151843255132
 31
0.0
  0
LINE
  8
DETAIL
  6
CONTINUOUS
 62
     5
 10
-273.87748391848481
 20
259.33151843255132
 30
0.0
 11
-273.76537230585001
 21
259.39007429946969
 31
0.0
  0
LINE
  8
DETAIL
  6
CONTINUOUS
 62
     5
 10
-273.76537230585001
 20
259.39007429946969
 30
0.0
 11
-273.76537230585001
 21
259.39007429946969
 31
0.0
  0
LINE
  8
DETAIL
  6
CONTINUOUS
 62
     5
 10
-273.76537230585001
 20
259.39007429946969
 30
0.0
 11
-273.65406636094019
 21
259.45014085693367
 31
0.0
  0
LINE
  8
DETAIL
  6
CONTINUOUS
 62
     5
 10
-273.65406636094019
 20
259.45014085693367
 30
0.0
 11
-273.54358617475089
 21
259.51170866435922
 31
0.0
  0
LINE
  8
DETAIL
  6
CONTINUOUS
 62
     5
 10
-273.54358617475089
 20
259.51170866435922
 30
0.0
 11
-273.54358617475089
 21
259.51170866435922
 31
0.0
  0
LINE
  8
DETAIL
  6
CONTINUOUS
 62
     5
 10
-273.54358617475089
 20
259.51170866435922
 30
0.0
 11
-273.43395032694048
 21
259.57476830656952
 31
0.0
  0
LINE
  8
DETAIL
  6
CONTINUOUS
 62
     5
 10
-273.43395032694048
 20
259.57476830656952
 30
0.0
 11
-273.32517671588732
 21
259.63930855339999
 31
0.0
  0
LINE
  8
DETAIL
  6
CONTINUOUS
 62
     5
 10
-273.32517671588732
 20
259.63930855339999
 30
0.0
 11
-273.32517671588732
 21
259.63930855339999
 31
0.0
  0
LINE
  8
DETAIL
  6
CONTINUOUS
 62
     5
 10
-273.32517671588732
 20
259.63930855339999
 30
0.0
 11
-273.21728408673363
 21
259.70531686321709
 31
0.0
  0
LINE
  8
DETAIL
  6
CONTINUOUS
 62
     5
 10
-273.21728408673363
 20
259.70531686321709
 30
0.0
 11
-273.11029525295629
 21
259.77277726349138
 31
0.0
  0
LINE
  8
DETAIL
  6
CONTINUOUS
 62
     5
 10
-273.11029525295629
 20
259.77277726349138
 30
0.0
 11
-273.11029525295629
 21
259.77277726349138
 31
0.0
  0
LINE
  8
DETAIL
  6
CONTINUOUS
 62
     5
 10
-273.11029525295629
 20
259.77277726349138
 30
0.0
 11
-273.00422976006769
 21
259.84167633386409
 31
0.0
  0
LINE
  8
DETAIL
  6
CONTINUOUS
 62
     5
 10
-273.00422976006769
 20
259.84167633386409
 30
0.0
 11
-272.8990900133756
 21
259.9120142935592
 31
0.0
  0
LINE
  8
DETAIL
  6
CONTINUOUS
 62
     5
 10
-272.8990900133756
 20
259.9120142935592
 30
0.0
 11
-272.8990900133756
 21
259.9120142935592
 31
0.0
  0
LINE
  8
DETAIL
  6
CONTINUOUS
 62
     5
 10
-272.8990900133756
 20
259.9120142935592
 30
0.0
 11
-272.79489025625799
 21
259.98378198983801
 31
0.0
  0
LINE
  8
DETAIL
  6
CONTINUOUS
 62
     5
 10
-272.79489025625799
 20
259.98378198983801
 30
0.0
 11
-272.69170922456328
 21
260.05691914252952
 31
0.0
  0
LINE
  8
DETAIL
  6
CONTINUOUS
 62
     5
 10
-272.69170922456328
 20
260.05691914252952
 30
0.0
 11
-272.69170922456328
 21
260.05691914252952
 31
0.0
  0
LINE
  8
DETAIL
  6
CONTINUOUS
 62
     5
 10
-272.69170922456328
 20
260.05691914252952
 30
0.0
 11
-272.58958156983698
 21
260.13140040714262
 31
0.0
  0
LINE
  8
DETAIL
  6
CONTINUOUS
 62
     5
 10
-272.58958156983698
 20
260.13140040714262
 30
0.0
 11
-272.48830111393659
 21
260.20739130932839
 31
0.0
  0
LINE
  8
DETAIL
  6
CONTINUOUS
 62
     5
 10
-272.48830111393659
 20
260.20739130932839
 30
0.0
 11
-272.48830111393659
 21
260.20739130932839
 31
0.0
  0
LINE
  8
DETAIL
  6
CONTINUOUS
 62
     5
 10
-272.48830111393659
 20
260.20739130932839
 30
0.0
 11
-272.38769720376303
 21
260.28502969689782
 31
0.0
  0
LINE
  8
DETAIL
  6
CONTINUOUS
 62
     5
 10
-272.38769720376303
 20
260.28502969689782
 30
0.0
 11
-272.28798211607977
 21
260.36415183614281
 31
0.0
  0
LINE
  8
DETAIL
  6
CONTINUOUS
 62
     5
 10
-272.28798211607977
 20
260.36415183614281
 30
0.0
 11
-272.28798211607977
 21
260.36415183614281
 31
0.0
  0
LINE
  8
DETAIL
  6
CONTINUOUS
 62
     5
 10
-272.28798211607977
 20
260.36415183614281
 30
0.0
 11
-272.18940515217798
 21
260.44456722855762
 31
0.0
  0
LINE
  8
DETAIL
  6
CONTINUOUS
 62
     5
 10
-272.18940515217798
 20
260.44456722855762
 30
0.0
 11
-272.09198078160568
 21
260.52627989795627
 31
0.0
  0
LINE
  8
DETAIL
  6
CONTINUOUS
 62
     5
 10
-272.09198078160568
 20
260.52627989795627
 30
0.0
 11
-272.09198078160568
 21
260.52627989795627
 31
0.0
  0
LINE
  8
DETAIL
  6
CONTINUOUS
 62
     5
 10
-272.09198078160568
 20
260.52627989795627
 30
0.0
 11
-271.99566948318949
 21
260.60931889047038
 31
0.0
  0
LINE
  8
DETAIL
  6
CONTINUOUS
 62
     5
 10
-271.99566948318949
 20
260.60931889047038
 30
0.0
 11
-271.9004506046183
 21
260.69361881917479
 31
0.0
  0
LINE
  8
DETAIL
  6
CONTINUOUS
 62
     5
 10
-271.9004506046183
 20
260.69361881917479
 30
0.0
 11
-271.9004506046183
 21
260.69361881917479
 31
0.0
  0
LINE
  8
DETAIL
  6
CONTINUOUS
 62
     5
 10
-271.9004506046183
 20
260.69361881917479
 30
0.0
 11
-271.80634804987028
 21
260.77913649135638
 31
0.0
  0
LINE
  8
DETAIL
  6
CONTINUOUS
 62
     5
 10
-271.80634804987028
 20
260.77913649135638
 30
0.0
 11
-271.71354507922018
 21
260.86601192420432
 31
0.0
  0
LINE
  8
DETAIL
  6
CONTINUOUS
 62
     5
 10
-271.71354507922018
 20
260.86601192420432
 30
0.0
 11
-271.71354507922018
 21
260.86601192420432
 31
0.0
  0
LINE
  8
DETAIL
  6
CONTINUOUS
 62
     5
 10
-271.71354507922018
 20
260.86601192420432
 30
0.0
 11
-271.62210071850598
 21
260.95427133574498
 31
0.0
  0
LINE
  8
DETAIL
  6
CONTINUOUS
 62
     5
 10
-271.62210071850598
 20
260.95427133574498
 30
0.0
 11
-271.53141769951537
 21
261.04330253745121
 31
0.0
  0
LINE
  8
DETAIL
  6
CONTINUOUS
 62
     5
 10
-261.04330253667479
 20
271.53141770029202
 30
0.0
 11
-260.95427167260073
 21
271.62210036894652
 31
0.0
  0
LINE
  8
DETAIL
  6
CONTINUOUS
 62
     5
 10
-260.95427167260073
 20
271.62210036894652
 30
0.0
 11
-260.86601259264648
 21
271.71354437363408
 31
0.0
  0
LINE
  8
DETAIL
  6
CONTINUOUS
 62
     5
 10
-260.86601259264648
 20
271.71354437363408
 30
0.0
 11
-260.86601259264648
 21
271.71354437363408
 31
0.0
  0
LINE
  8
DETAIL
  6
CONTINUOUS
 62
     5
 10
-260.86601259264648
 20
271.71354437363408
 30
0.0
 11
-260.77913748059689
 21
271.80634697802702
 31
0.0
  0
LINE
  8
DETAIL
  6
CONTINUOUS
 62
     5
 10
-260.77913748059689
 20
271.80634697802702
 30
0.0
 11
-260.69362011889831
 21
271.90044915635781
 31
0.0
  0
LINE
  8
DETAIL
  6
CONTINUOUS
 62
     5
 10
-260.69362011889831
 20
271.90044915635781
 30
0.0
 11
-260.69362011889831
 21
271.90044915635781
 31
0.0
  0
LINE
  8
DETAIL
  6
CONTINUOUS
 62
     5
 10
-260.69362011889831
 20
271.90044915635781
 30
0.0
 11
-260.60932049145362
 21
271.99566764972309
 31
0.0
  0
LINE
  8
DETAIL
  6
CONTINUOUS
 62
     5
 10
-260.60932049145362
 20
271.99566764972309
 30
0.0
 11
-260.52628178932559
 21
272.09197855611802
 31
0.0
  0
LINE
  8
DETAIL
  6
CONTINUOUS
 62
     5
 10
-260.52628178932559
 20
272.09197855611802
 30
0.0
 11
-260.52628178932559
 21
272.09197855611802
 31
0.0
  0
LINE
  8
DETAIL
  6
CONTINUOUS
 62
     5
 10
-260.52628178932559
 20
272.09197855611802
 30
0.0
 11
-260.44456939854223
 21
272.18940252822432
 31
0.0
  0
LINE
  8
DETAIL
  6
CONTINUOUS
 62
     5
 10
-260.44456939854223
 20
272.18940252822432
 30
0.0
 11
-260.36415427782362
 21
272.28797908056998
 31
0.0
  0
LINE
  8
DETAIL
  6
CONTINUOUS
 62
     5
 10
-260.36415427782362
 20
272.28797908056998
 30
0.0
 11
-260.36415427782362
 21
272.28797908056998
 31
0.0
  0
LINE
  8
DETAIL
  6
CONTINUOUS
 62
     5
 10
-260.36415427782362
 20
272.28797908056998
 30
0.0
 11
-260.28503240458002
 21
272.38769374207442
 31
0.0
  0
LINE
  8
DETAIL
  6
CONTINUOUS
 62
     5
 10
-260.28503240458002
 20
272.38769374207442
 30
0.0
 11
-260.20739425828759
 21
272.4882972373689
 31
0.0
  0
LINE
  8
DETAIL
  6
CONTINUOUS
 62
     5
 10
-260.20739425828759
 20
272.4882972373689
 30
0.0
 11
-260.20739425828759
 21
272.4882972373689
 31
0.0
  0
LINE
  8
DETAIL
  6
CONTINUOUS
 62
     5
 10
-260.20739425828759
 20
272.4882972373689
 30
0.0
 11
-260.13140355657367
 21
272.58957731199962
 31
0.0
  0
LINE
  8
DETAIL
  6
CONTINUOUS
 62
     5
 10
-260.13140355657367
 20
272.58957731199962
 30
0.0
 11
-260.05692246760782
 21
272.69170459946031
 31
0.0
  0
LINE
  8
DETAIL
  6
CONTINUOUS
 62
     5
 10
-260.05692246760782
 20
272.69170459946031
 30
0.0
 11
-260.05692246760782
 21
272.69170459946031
 31
0.0
  0
LINE
  8
DETAIL
  6
CONTINUOUS
 62
     5
 10
-260.05692246760782
 20
272.69170459946031
 30
0.0
 11
-259.98378548528092
 21
272.79488525303123
 31
0.0
  0
LINE
  8
DETAIL
  6
CONTINUOUS
 62
     5
 10
-259.98378548528092
 20
272.79488525303123
 30
0.0
 11
-259.91201795583112
 21
272.89908461719409
 31
0.0
  0
LINE
  8
DETAIL
  6
CONTINUOUS
 62
     5
 10
-259.91201795583112
 20
272.89908461719409
 30
0.0
 11
-259.91201795583112
 21
272.89908461719409
 31
0.0
  0
LINE
  8
DETAIL
  6
CONTINUOUS
 62
     5
 10
-259.91201795583112
 20
272.89908461719409
 30
0.0
 11
-259.84168015486739
 21
273.00422396153817
 31
0.0
  0
LINE
  8
DETAIL
  6
CONTINUOUS
 62
     5
 10
-259.84168015486739
 20
273.00422396153817
 30
0.0
 11
-259.77278122313669
 21
273.11028906488377
 31
0.0
  0
LINE
  8
DETAIL
  6
CONTINUOUS
 62
     5
 10
-259.77278122313669
 20
273.11028906488377
 30
0.0
 11
-259.77278122313669
 21
273.11028906488377
 31
0.0
  0
LINE
  8
DETAIL
  6
CONTINUOUS
 62
     5
 10
-259.77278122313669
 20
273.11028906488377
 30
0.0
 11
-259.70532093944519
 21
273.21727752632722
 31
0.0
  0
LINE
  8
DETAIL
  6
CONTINUOUS
 62
     5
 10
-259.70532093944519
 20
273.21727752632722
 30
0.0
 11
-259.63931276970447
 21
273.32516971684038
 31
0.0
  0
LINE
  8
DETAIL
  6
CONTINUOUS
 62
     5
 10
-259.63931276970447
 20
273.32516971684038
 30
0.0
 11
-259.63931276970447
 21
273.32516971684038
 31
0.0
  0
LINE
  8
DETAIL
  6
CONTINUOUS
 62
     5
 10
-259.63931276970447
 20
273.32516971684038
 30
0.0
 11
-259.57477269821271
 21
273.43394280118008
 31
0.0
  0
LINE
  8
DETAIL
  6
CONTINUOUS
 62
     5
 10
-259.57477269821271
 20
273.43394280118008
 30
0.0
 11
-259.51171309571401
 21
273.54357834737772
 31
0.0
  0
LINE
  8
DETAIL
  6
CONTINUOUS
 62
     5
 10
-259.51171309571401
 20
273.54357834737772
 30
0.0
 11
-259.51171309571401
 21
273.54357834737772
 31
0.0
  0
LINE
  8
DETAIL
  6
CONTINUOUS
 62
     5
 10
-259.51171309571401
 20
273.54357834737772
 30
0.0
 11
-259.45014505006628
 21
273.65405872282798
 31
0.0
  0
LINE
  8
DETAIL
  6
CONTINUOUS
 62
     5
 10
-259.45014505006628
 20
273.65405872282798
 30
0.0
 11
-259.39007813113028
 21
273.76536508910573
 31
0.0
  0
LINE
  8
DETAIL
  6
CONTINUOUS
 62
     5
 10
-259.39007813113028
 20
273.76536508910573
 30
0.0
 11
-259.39007813113028
 21
273.76536508910573
 31
0.0
  0
LINE
  8
DETAIL
  6
CONTINUOUS
 62
     5
 10
-259.39007813113028
 20
273.76536508910573
 30
0.0
 11
-259.33152196011429
 21
273.87747704755338
 31
0.0
  0
LINE
  8
DETAIL
  6
CONTINUOUS
 62
     5
 10
-259.33152196011429
 20
273.87747704755338
 30
0.0
 11
-259.27448788161507
 21
273.99036916440468
 31
0.0
  0
LINE
  8
DETAIL
  6
CONTINUOUS
 62
     5
 10
-259.27448788161507
 20
273.99036916440468
 30
0.0
 11
-259.27448788161507
 21
273.99036916440468
 31
0.0
  0
LINE
  8
DETAIL
  6
CONTINUOUS
 62
     5
 10
-259.27448788161507
 20
273.99036916440468
 30
0.0
 11
-259.21898575105308
 21
274.10401987571589
 31
0.0
  0
LINE
  8
DETAIL
  6
CONTINUOUS
 62
     5
 10
-259.21898575105308
 20
274.10401987571589
 30
0.0
 11
-259.16501774375268
 21
274.21842813195008
 31
0.0
  0
LINE
  8
DETAIL
  6
CONTINUOUS
 62
     5
 10
-259.16501774375268
 20
274.21842813195008
 30
0.0
 11
-259.16501774375268
 21
274.21842813195008
 31
0.0
  0
LINE
  8
DETAIL
  6
CONTINUOUS
 62
     5
 10
-259.16501774375268
 20
274.21842813195008
 30
0.0
 11
-259.11259136426321
 21
274.33357875654309
 31
0.0
  0
LINE
  8
DETAIL
  6
CONTINUOUS
 62
     5
 10
-259.11259136426321
 20
274.33357875654309
 30
0.0
 11
-259.06174311412587
 21
274.44937955041593
 31
0.0
  0
LINE
  8
DETAIL
  6
CONTINUOUS
 62
     5
 10
-259.06174311412587
 20
274.44937955041593
 30
0.0
 11
-259.06174311412587
 21
274.44937955041593
 31
0.0
  0
LINE
  8
DETAIL
  6
CONTINUOUS
 62
     5
 10
-259.06174311412587
 20
274.44937955041593
 30
0.0
 11
-259.01248966716201
 21
274.56579095277522
 31
0.0
  0
LINE
  8
DETAIL
  6
CONTINUOUS
 62
     5
 10
-259.01248966716201
 20
274.56579095277522
 30
0.0
 11
-258.96473938931848
 21
274.68306097847682
 31
0.0
  0
LINE
  8
DETAIL
  6
CONTINUOUS
 62
     5
 10
-258.96473938931848
 20
274.68306097847682
 30
0.0
 11
-258.96473938931848
 21
274.68306097847682
 31
0.0
  0
LINE
  8
DETAIL
  6
CONTINUOUS
 62
     5
 10
-258.96473938931848
 20
274.68306097847682
 30
0.0
 11
-258.91841686888239
 21
274.80139563133912
 31
0.0
  0
LINE
  8
DETAIL
  6
CONTINUOUS
 62
     5
 10
-258.91841686888239
 20
274.80139563133912
 30
0.0
 11
-258.87361989138168
 21
274.92054529537131
 31
0.0
  0
LINE
  8
DETAIL
  6
CONTINUOUS
 62
     5
 10
-258.87361989138168
 20
274.92054529537131
 30
0.0
 11
-258.87361989138168
 21
274.92054529537131
 31
0.0
  0
LINE
  8
DETAIL
  6
CONTINUOUS
 62
     5
 10
-258.87361989138168
 20
274.92054529537131
 30
0.0
 11
-258.8304642202404
 21
275.04021835499418
 31
0.0
  0
LINE
  8
DETAIL
  6
CONTINUOUS
 62
     5
 10
-258.8304642202404
 20
275.04021835499418
 30
0.0
 11
-258.78896433323138
 21
275.16041081607858
 31
0.0
  0
LINE
  8
DETAIL
  6
CONTINUOUS
 62
     5
 10
-258.78896433323138
 20
275.16041081607858
 30
0.0
 11
-258.78896433323138
 21
275.16041081607858
 31
0.0
  0
LINE
  8
DETAIL
  6
CONTINUOUS
 62
     5
 10
-258.78896433323138
 20
275.16041081607858
 30
0.0
 11
-258.74910128534162
 21
275.28116791895008
 31
0.0
  0
LINE
  8
DETAIL
  6
CONTINUOUS
 62
     5
 10
-258.74910128534162
 20
275.28116791895008
 30
0.0
 11
-258.71082372606742
 21
275.40244422030878
 31
0.0
  0
LINE
  8
DETAIL
  6
CONTINUOUS
 62
     5
 10
-258.71082372606742
 20
275.40244422030878
 30
0.0
 11
-258.71082372606742
 21
275.40244422030878
 31
0.0
  0
LINE
  8
DETAIL
  6
CONTINUOUS
 62
     5
 10
-258.71082372606742
 20
275.40244422030878
 30
0.0
 11
-258.67412993043507
 21
275.52419038421169
 31
0.0
  0
LINE
  8
DETAIL
  6
CONTINUOUS
 62
     5
 10
-258.67412993043507
 20
275.52419038421169
 30
0.0
 11
-258.63924908109021
 21
275.64643218777189
 31
0.0
  0
LINE
  8
DETAIL
  6
CONTINUOUS
 62
     5
 10
-258.63924908109021
 20
275.64643218777189
 30
0.0
 11
-258.63924908109021
 21
275.64643218777189
 31
0.0
  0
LINE
  8
DETAIL
  6
CONTINUOUS
 62
     5
 10
-258.63924908109021
 20
275.64643218777189
 30
0.0
 11
-258.60624528133638
 21
275.76916174421717
 31
0.0
  0
LINE
  8
DETAIL
  6
CONTINUOUS
 62
     5
 10
-258.60624528133638
 20
275.76916174421717
 30
0.0
 11
-258.57429140950052
 21
275.89216139817898
 31
0.0
  0
LINE
  8
DETAIL
  6
CONTINUOUS
 62
     5
 10
-255.4088117234603
 20
274.09989725498758
 30
0.0
 11
-255.4407655952962
 21
273.97689760102571
 31
0.0
  0
LINE
  8
DETAIL
  6
CONTINUOUS
 62
     5
 10
-255.4407655952962
 20
273.97689760102571
 30
0.0
 11
-255.47376939505
 21
273.85416804458032
 31
0.0
  0
LINE
  8
DETAIL
  6
CONTINUOUS
 62
     5
 10
-255.47376939505
 20
273.85416804458032
 30
0.0
 11
-255.47376939505
 21
273.85416804458032
 31
0.0
  0
LINE
  8
DETAIL
  6
CONTINUOUS
 62
     5
 10
-255.47376939505
 20
273.85416804458032
 30
0.0
 11
-255.50865024439489
 21
273.73192624102012
 31
0.0
  0
LINE
  8
DETAIL
  6
CONTINUOUS
 62
     5
 10
-255.50865024439489
 20
273.73192624102012
 30
0.0
 11
-255.545344040027
 21
273.61018007711698
 31
0.0
  0
LINE
  8
DETAIL
  6
CONTINUOUS
 62
     5
 10
-255.545344040027
 20
273.61018007711698
 30
0.0
 11
-255.545344040027
 21
273.61018007711698
 31
0.0
  0
LINE
  8
DETAIL
  6
CONTINUOUS
 62
     5
 10
-255.545344040027
 20
273.61018007711698
 30
0.0
 11
-255.58362159930161
 21
273.48890377575839
 31
0.0
  0
LINE
  8
DETAIL
  6
CONTINUOUS
 62
     5
 10
-255.58362159930161
 20
273.48890377575839
 30
0.0
 11
-255.62348464719119
 21
273.36814667288701
 31
0.0
  0
LINE
  8
DETAIL
  6
CONTINUOUS
 62
     5
 10
-255.62348464719119
 20
273.36814667288701
 30
0.0
 11
-255.62348464719119
 21
273.36814667288701
 31
0.0
  0
LINE
  8
DETAIL
  6
CONTINUOUS
 62
     5
 10
-255.62348464719119
 20
273.36814667288701
 30
0.0
 11
-255.6649845342001
 21
273.24795421180278
 31
0.0
  0
LINE
  8
DETAIL
  6
CONTINUOUS
 62
     5
 10
-255.6649845342001
 20
273.24795421180278
 30
0.0
 11
-255.70814020534161
 21
273.12828115217991
 31
0.0
  0
LINE
  8
DETAIL
  6
CONTINUOUS
 62
     5
 10
-255.70814020534161
 20
273.12828115217991
 30
0.0
 11
-255.70814020534161
 21
273.12828115217991
 31
0.0
  0
LINE
  8
DETAIL
  6
CONTINUOUS
 62
     5
 10
-255.70814020534161
 20
273.12828115217991
 30
0.0
 11
-255.7529371828424
 21
273.00913148814772
 31
0.0
  0
LINE
  8
DETAIL
  6
CONTINUOUS
 62
     5
 10
-255.7529371828424
 20
273.00913148814772
 30
0.0
 11
-255.79925970327801
 21
272.89079683528553
 31
0.0
  0
LINE
  8
DETAIL
  6
CONTINUOUS
 62
     5
 10
-255.79925970327801
 20
272.89079683528553
 30
0.0
 11
-255.79925970327801
 21
272.89079683528553
 31
0.0
  0
LINE
  8
DETAIL
  6
CONTINUOUS
 62
     5
 10
-255.79925970327801
 20
272.89079683528553
 30
0.0
 11
-255.84700998112169
 21
272.77352680958347
 31
0.0
  0
LINE
  8
DETAIL
  6
CONTINUOUS
 62
     5
 10
-255.84700998112169
 20
272.77352680958347
 30
0.0
 11
-255.8962634280856
 21
272.65711540722418
 31
0.0
  0
LINE
  8
DETAIL
  6
CONTINUOUS
 62
     5
 10
-255.8962634280856
 20
272.65711540722418
 30
0.0
 11
-255.8962634280856
 21
272.65711540722418
 31
0.0
  0
LINE
  8
DETAIL
  6
CONTINUOUS
 62
     5
 10
-255.8962634280856
 20
272.65711540722418
 30
0.0
 11
-255.94711167822291
 21
272.54131461335078
 31
0.0
  0
LINE
  8
DETAIL
  6
CONTINUOUS
 62
     5
 10
-255.94711167822291
 20
272.54131461335078
 30
0.0
 11
-255.9995380577125
 21
272.42616398875822
 31
0.0
  0
LINE
  8
DETAIL
  6
CONTINUOUS
 62
     5
 10
-255.9995380577125
 20
272.42616398875822
 30
0.0
 11
-255.9995380577125
 21
272.42616398875822
 31
0.0
  0
LINE
  8
DETAIL
  6
CONTINUOUS
 62
     5
 10
-255.9995380577125
 20
272.42616398875822
 30
0.0
 11
-256.05350606501281
 21
272.31175573252398
 31
0.0
  0
LINE
  8
DETAIL
  6
CONTINUOUS
 62
     5
 10
-256.05350606501281
 20
272.31175573252398
 30
0.0
 11
-256.10900819557509
 21
272.19810502121288
 31
0.0
  0
LINE
  8
DETAIL
  6
CONTINUOUS
 62
     5
 10
-256.10900819557509
 20
272.19810502121288
 30
0.0
 11
-256.10900819557509
 21
272.19810502121288
 31
0.0
  0
LINE
  8
DETAIL
  6
CONTINUOUS
 62
     5
 10
-256.10900819557509
 20
272.19810502121288
 30
0.0
 11
-256.16604227407402
 21
272.08521290436192
 31
0.0
  0
LINE
  8
DETAIL
  6
CONTINUOUS
 62
     5
 10
-256.16604227407402
 20
272.08521290436192
 30
0.0
 11
-256.22459844509001
 21
271.97310094591381
 31
0.0
  0
LINE
  8
DETAIL
  6
CONTINUOUS
 62
     5
 10
-256.22459844509001
 20
271.97310094591381
 30
0.0
 11
-256.22459844509001
 21
271.97310094591381
 31
0.0
  0
LINE
  8
DETAIL
  6
CONTINUOUS
 62
     5
 10
-256.22459844509001
 20
271.97310094591381
 30
0.0
 11
-256.28466536402601
 21
271.86179457963613
 31
0.0
  0
LINE
  8
DETAIL
  6
CONTINUOUS
 62
     5
 10
-256.28466536402601
 20
271.86179457963613
 30
0.0
 11
-256.34623340967369
 21
271.75131420418609
 31
0.0
  0
LINE
  8
DETAIL
  6
CONTINUOUS
 62
     5
 10
-256.34623340967369
 20
271.75131420418609
 30
0.0
 11
-256.34623340967369
 21
271.75131420418609
 31
0.0
  0
LINE
  8
DETAIL
  6
CONTINUOUS
 62
     5
 10
-256.34623340967369
 20
271.75131420418609
 30
0.0
 11
-256.40929301217187
 21
271.64167865798868
 31
0.0
  0
LINE
  8
DETAIL
  6
CONTINUOUS
 62
     5
 10
-256.40929301217187
 20
271.64167865798868
 30
0.0
 11
-256.4738330836625
 21
271.53290557364869
 31
0.0
  0
LINE
  8
DETAIL
  6
CONTINUOUS
 62
     5
 10
-256.4738330836625
 20
271.53290557364869
 30
0.0
 11
-256.4738330836625
 21
271.53290557364869
 31
0.0
  0
LINE
  8
DETAIL
  6
CONTINUOUS
 62
     5
 10
-256.4738330836625
 20
271.53290557364869
 30
0.0
 11
-256.5398412533998
 21
271.42501338313559
 31
0.0
  0
LINE
  8
DETAIL
  6
CONTINUOUS
 62
     5
 10
-256.5398412533998
 20
271.42501338313559
 30
0.0
 11
-256.60730153708403
 21
271.31802492169192
 31
0.0
  0
LINE
  8
DETAIL
  6
CONTINUOUS
 62
     5
 10
-256.60730153708403
 20
271.31802492169192
 30
0.0
 11
-256.60730153708403
 21
271.31802492169192
 31
0.0
  0
LINE
  8
DETAIL
  6
CONTINUOUS
 62
     5
 10
-256.60730153708403
 20
271.31802492169192
 30
0.0
 11
-256.67620046880302
 21
271.21195981834632
 31
0.0
  0
LINE
  8
DETAIL
  6
CONTINUOUS
 62
     5
 10
-256.67620046880302
 20
271.21195981834632
 30
0.0
 11
-256.74653826974912
 21
271.10682047400252
 31
0.0
  0
LINE
  8
DETAIL
  6
CONTINUOUS
 62
     5
 10
-256.74653826974912
 20
271.10682047400252
 30
0.0
 11
-256.74653826974912
 21
271.10682047400252
 31
0.0
  0
LINE
  8
DETAIL
  6
CONTINUOUS
 62
     5
 10
-256.74653826974912
 20
271.10682047400252
 30
0.0
 11
-256.81830579917448
 21
271.00262110983982
 31
0.0
  0
LINE
  8
DETAIL
  6
CONTINUOUS
 62
     5
 10
-256.81830579917448
 20
271.00262110983982
 30
0.0
 11
-256.89144278146892
 21
270.89944045626828
 31
0.0
  0
LINE
  8
DETAIL
  6
CONTINUOUS
 62
     5
 10
-256.89144278146892
 20
270.89944045626828
 30
0.0
 11
-256.89144278146892
 21
270.89944045626828
 31
0.0
  0
LINE
  8
DETAIL
  6
CONTINUOUS
 62
     5
 10
-256.89144278146892
 20
270.89944045626828
 30
0.0
 11
-256.96592387039283
 21
270.79731316880788
 31
0.0
  0
LINE
  8
DETAIL
  6
CONTINUOUS
 62
     5
 10
-256.96592387039283
 20
270.79731316880788
 30
0.0
 11
-257.04191457205422
 21
270.69603309417738
 31
0.0
  0
LINE
  8
DETAIL
  6
CONTINUOUS
 62
     5
 10
-257.04191457205422
 20
270.69603309417738
 30
0.0
 11
-257.04191457205422
 21
270.69603309417738
 31
0.0
  0
LINE
  8
DETAIL
  6
CONTINUOUS
 62
     5
 10
-257.04191457205422
 20
270.69603309417738
 30
0.0
 11
-257.11955271828401
 21
270.59542959888307
 31
0.0
  0
LINE
  8
DETAIL
  6
CONTINUOUS
 62
     5
 10
-257.11955271828401
 20
270.59542959888307
 30
0.0
 11
-257.19867459146121
 21
270.49571493737841
 31
0.0
  0
LINE
  8
DETAIL
  6
CONTINUOUS
 62
     5
 10
-257.19867459146121
 20
270.49571493737841
 30
0.0
 11
-257.19867459146121
 21
270.49571493737841
 31
0.0
  0
LINE
  8
DETAIL
  6
CONTINUOUS
 62
     5
 10
-257.19867459146121
 20
270.49571493737841
 30
0.0
 11
-257.27908971211798
 21
270.39713838503229
 31
0.0
  0
LINE
  8
DETAIL
  6
CONTINUOUS
 62
     5
 10
-257.27908971211798
 20
270.39713838503229
 30
0.0
 11
-257.36080210285292
 21
270.29971441292628
 31
0.0
  0
LINE
  8
DETAIL
  6
CONTINUOUS
 62
     5
 10
-257.36080210285292
 20
270.29971441292628
 30
0.0
 11
-257.36080210285292
 21
270.29971441292628
 31
0.0
  0
LINE
  8
DETAIL
  6
CONTINUOUS
 62
     5
 10
-257.36080210285292
 20
270.29971441292628
 30
0.0
 11
-257.44384080495382
 21
270.20340350653152
 31
0.0
  0
LINE
  8
DETAIL
  6
CONTINUOUS
 62
     5
 10
-257.44384080495382
 20
270.20340350653152
 30
0.0
 11
-257.52814043239891
 21
270.10818501316601
 31
0.0
  0
LINE
  8
DETAIL
  6
CONTINUOUS
 62
     5
 10
-257.52814043239891
 20
270.10818501316601
 30
0.0
 11
-257.52814043239891
 21
270.10818501316601
 31
0.0
  0
LINE
  8
DETAIL
  6
CONTINUOUS
 62
     5
 10
-257.52814043239891
 20
270.10818501316601
 30
0.0
 11
-257.61365779413222
 21
270.01408283483562
 31
0.0
  0
LINE
  8
DETAIL
  6
CONTINUOUS
 62
     5
 10
-257.61365779413222
 20
270.01408283483562
 30
0.0
 11
-257.7005329062697
 21
269.92128023044239
 31
0.0
  0
LINE
  8
DETAIL
  6
CONTINUOUS
 62
     5
 10
-257.7005329062697
 20
269.92128023044239
 30
0.0
 11
-257.7005329062697
 21
269.92128023044239
 31
0.0
  0
LINE
  8
DETAIL
  6
CONTINUOUS
 62
     5
 10
-257.7005329062697
 20
269.92128023044239
 30
0.0
 11
-257.78879198637412
 21
269.82983622575512
 31
0.0
  0
LINE
  8
DETAIL
  6
CONTINUOUS
 62
     5
 10
-257.78879198637412
 20
269.82983622575512
 30
0.0
 11
-257.87782285063457
 21
269.73915355710028
 31
0.0
  0
LINE
  8
DETAIL
  6
CONTINUOUS
 62
     5
 10
-269.73915355632391
 20
257.87782285141088
 30
0.0
 11
-269.8298365753144
 21
257.78879164968947
 31
0.0
  0
LINE
  8
DETAIL
  6
CONTINUOUS
 62
     5
 10
-269.8298365753144
 20
257.78879164968947
 30
0.0
 11
-269.92128093602872
 21
257.70053223812312
 31
0.0
  0
LINE
  8
DETAIL
  6
CONTINUOUS
 62
     5
 10
-269.92128093602872
 20
257.70053223812312
 30
0.0
 11
-269.92128093602872
 21
257.70053223812312
 31
0.0
  0
LINE
  8
DETAIL
  6
CONTINUOUS
 62
     5
 10
-269.92128093602872
 20
257.70053223812312
 30
0.0
 11
-270.01408390667848
 21
257.61365680523159
 31
0.0
  0
LINE
  8
DETAIL
  6
CONTINUOUS
 62
     5
 10
-270.01408390667848
 20
257.61365680523159
 30
0.0
 11
-270.10818646142638
 21
257.52813913299372
 31
0.0
  0
LINE
  8
DETAIL
  6
CONTINUOUS
 62
     5
 10
-270.10818646142638
 20
257.52813913299372
 30
0.0
 11
-270.10818646142638
 21
257.52813913299372
 31
0.0
  0
LINE
  8
DETAIL
  6
CONTINUOUS
 62
     5
 10
-270.10818646142638
 20
257.52813913299372
 30
0.0
 11
-270.20340533999791
 21
257.44383920422717
 31
0.0
  0
LINE
  8
DETAIL
  6
CONTINUOUS
 62
     5
 10
-270.20340533999791
 20
257.44383920422717
 30
0.0
 11
-270.29971663841388
 21
257.36080021164997
 31
0.0
  0
LINE
  8
DETAIL
  6
CONTINUOUS
 62
     5
 10
-270.29971663841388
 20
257.36080021164997
 30
0.0
 11
-270.29971663841388
 21
257.36080021164997
 31
0.0
  0
LINE
  8
DETAIL
  6
CONTINUOUS
 62
     5
 10
-270.29971663841388
 20
257.36080021164997
 30
0.0
 11
-270.3971410089863
 21
257.27908754219021
 31
0.0
  0
LINE
  8
DETAIL
  6
CONTINUOUS
 62
     5
 10
-270.3971410089863
 20
257.27908754219021
 30
0.0
 11
-270.49571797288792
 21
257.19867214972118
 31
0.0
  0
LINE
  8
DETAIL
  6
CONTINUOUS
 62
     5
 10
-270.49571797288792
 20
257.19867214972118
 30
0.0
 11
-270.49571797288792
 21
257.19867214972118
 31
0.0
  0
LINE
  8
DETAIL
  6
CONTINUOUS
 62
     5
 10
-270.49571797288792
 20
257.19867214972118
 30
0.0
 11
-270.59543306057151
 21
257.11955001043248
 31
0.0
  0
LINE
  8
DETAIL
  6
CONTINUOUS
 62
     5
 10
-270.59543306057151
 20
257.11955001043248
 30
0.0
 11
-270.69603697074479
 21
257.04191162283507
 31
0.0
  0
LINE
  8
DETAIL
  6
CONTINUOUS
 62
     5
 10
-270.69603697074479
 20
257.04191162283507
 30
0.0
 11
-270.69603697074479
 21
257.04191162283507
 31
0.0
  0
LINE
  8
DETAIL
  6
CONTINUOUS
 62
     5
 10
-270.69603697074479
 20
257.04191162283507
 30
0.0
 11
-270.79731742664529
 21
256.96592072063908
 31
0.0
  0
LINE
  8
DETAIL
  6
CONTINUOUS
 62
     5
 10
-270.79731742664529
 20
256.96592072063908
 30
0.0
 11
-270.89944508137171
 21
256.89143945603291
 31
0.0
  0
LINE
  8
DETAIL
  6
CONTINUOUS
 62
     5
 10
-270.89944508137171
 20
256.89143945603291
 30
0.0
 11
-270.89944508137171
 21
256.89143945603291
 31
0.0
  0
LINE
  8
DETAIL
  6
CONTINUOUS
 62
     5
 10
-270.89944508137171
 20
256.89143945603291
 30
0.0
 11
-271.00262611306641
 21
256.81830230336158
 31
0.0
  0
LINE
  8
DETAIL
  6
CONTINUOUS
 62
     5
 10
-271.00262611306641
 20
256.81830230336158
 30
0.0
 11
-271.10682587018403
 21
256.74653460711488
 31
0.0
  0
LINE
  8
DETAIL
  6
CONTINUOUS
 62
     5
 10
-271.10682587018403
 20
256.74653460711488
 30
0.0
 11
-271.10682587018403
 21
256.74653460711488
 31
0.0
  0
LINE
  8
DETAIL
  6
CONTINUOUS
 62
     5
 10
-271.10682587018403
 20
256.74653460711488
 30
0.0
 11
-271.21196561687589
 21
256.67619664746019
 31
0.0
  0
LINE
  8
DETAIL
  6
CONTINUOUS
 62
     5
 10
-271.21196561687589
 20
256.67619664746019
 30
0.0
 11
-271.31803110976477
 21
256.60729757713369
 31
0.0
  0
LINE
  8
DETAIL
  6
CONTINUOUS
 62
     5
 10
-271.31803110976477
 20
256.60729757713369
 30
0.0
 11
-271.31803110976477
 21
256.60729757713369
 31
0.0
  0
LINE
  8
DETAIL
  6
CONTINUOUS
 62
     5
 10
-271.31803110976477
 20
256.60729757713369
 30
0.0
 11
-271.42501994354171
 21
256.53983717690897
 31
0.0
  0
LINE
  8
DETAIL
  6
CONTINUOUS
 62
     5
 10
-271.42501994354171
 20
256.53983717690897
 30
0.0
 11
-271.53291257269558
 21
256.47382886714132
 31
0.0
  0
LINE
  8
DETAIL
  6
CONTINUOUS
 62
     5
 10
-271.53291257269558
 20
256.47382886714132
 30
0.0
 11
-271.53291257269558
 21
256.47382886714132
 31
0.0
  0
LINE
  8
DETAIL
  6
CONTINUOUS
 62
     5
 10
-271.53291257269558
 20
256.47382886714132
 30
0.0
 11
-271.64168618374879
 21
256.40928862035747
 31
0.0
  0
LINE
  8
DETAIL
  6
CONTINUOUS
 62
     5
 10
-271.64168618374879
 20
256.40928862035747
 30
0.0
 11
-271.75132203155931
 21
256.34622897818991
 31
0.0
  0
LINE
  8
DETAIL
  6
CONTINUOUS
 62
     5
 10
-271.75132203155931
 20
256.34622897818991
 30
0.0
 11
-271.75132203155931
 21
256.34622897818991
 31
0.0
  0
LINE
  8
DETAIL
  6
CONTINUOUS
 62
     5
 10
-271.75132203155931
 20
256.34622897818991
 30
0.0
 11
-271.86180221774879
 21
256.28466117079921
 31
0.0
  0
LINE
  8
DETAIL
  6
CONTINUOUS
 62
     5
 10
-271.86180221774879
 20
256.28466117079921
 30
0.0
 11
-271.97310816265832
 21
256.22459461336331
 31
0.0
  0
LINE
  8
DETAIL
  6
CONTINUOUS
 62
     5
 10
-271.97310816265832
 20
256.22459461336331
 30
0.0
 11
-271.97310816265832
 21
256.22459461336331
 31
0.0
  0
LINE
  8
DETAIL
  6
CONTINUOUS
 62
     5
 10
-271.97310816265832
 20
256.22459461336331
 30
0.0
 11
-272.0852197752929
 21
256.16603874646722
 31
0.0
  0
LINE
  8
DETAIL
  6
CONTINUOUS
 62
     5
 10
-272.0852197752929
 20
256.16603874646722
 30
0.0
 11
-272.19811160059589
 21
256.10900492731429
 31
0.0
  0
LINE
  8
DETAIL
  6
CONTINUOUS
 62
     5
 10
-272.19811160059589
 20
256.10900492731429
 30
0.0
 11
-272.19811160059589
 21
256.10900492731429
 31
0.0
  0
LINE
  8
DETAIL
  6
CONTINUOUS
 62
     5
 10
-272.19811160059589
 20
256.10900492731429
 30
0.0
 11
-272.31176199259181
 21
256.05350305950259
 31
0.0
  0
LINE
  8
DETAIL
  6
CONTINUOUS
 62
     5
 10
-272.31176199259181
 20
256.05350305950259
 30
0.0
 11
-272.42616990569928
 21
255.99953531559069
 31
0.0
  0
LINE
  8
DETAIL
  6
CONTINUOUS
 62
     5
 10
-272.42616990569928
 20
255.99953531559069
 30
0.0
 11
-272.42616990569928
 21
255.99953531559069
 31
0.0
  0
LINE
  8
DETAIL
  6
CONTINUOUS
 62
     5
 10
-272.42616990569928
 20
255.99953531559069
 30
0.0
 11
-272.54132018505771
 21
255.94710918726199
 31
0.0
  0
LINE
  8
DETAIL
  6
CONTINUOUS
 62
     5
 10
-272.54132018505771
 20
255.94710918726199
 30
0.0
 11
-272.65712063829682
 21
255.8962611737397
 31
0.0
  0
LINE
  8
DETAIL
  6
CONTINUOUS
 62
     5
 10
-272.65712063829682
 20
255.8962611737397
 30
0.0
 11
-272.65712063829682
 21
255.8962611737397
 31
0.0
  0
LINE
  8
DETAIL
  6
CONTINUOUS
 62
     5
 10
-272.65712063829682
 20
255.8962611737397
 30
0.0
 11
-272.77353170108069
 21
255.84700795135291
 31
0.0
  0
LINE
  8
DETAIL
  6
CONTINUOUS
 62
     5
 10
-272.77353170108069
 20
255.84700795135291
 30
0.0
 11
-272.89080135871558
 21
255.79925789731001
 31
0.0
  0
LINE
  8
DETAIL
  6
CONTINUOUS
 62
     5
 10
-272.89080135871558
 20
255.79925789731001
 30
0.0
 11
-272.89080135871558
 21
255.79925789731001
 31
0.0
  0
LINE
  8
DETAIL
  6
CONTINUOUS
 62
     5
 10
-272.89080135871558
 20
255.79925789731001
 30
0.0
 11
-273.00913559123052
 21
255.75293560848829
 31
0.0
  0
LINE
  8
DETAIL
  6
CONTINUOUS
 62
     5
 10
-273.00913559123052
 20
255.75293560848829
 30
0.0
 11
-273.12828480790103
 21
255.7081388595586
 31
0.0
  0
LINE
  8
DETAIL
  6
CONTINUOUS
 62
     5
 10
-273.12828480790103
 20
255.7081388595586
 30
0.0
 11
-273.12828480790103
 21
255.7081388595586
 31
0.0
  0
LINE
  8
DETAIL
  6
CONTINUOUS
 62
     5
 10
-273.12828480790103
 20
255.7081388595586
 30
0.0
 11
-273.24795742280401
 21
255.66498340150861
 31
0.0
  0
LINE
  8
DETAIL
  6
CONTINUOUS
 62
     5
 10
-273.24795742280401
 20
255.66498340150861
 30
0.0
 11
-273.36814943997092
 21
255.62348371279759
 31
0.0
  0
LINE
  8
DETAIL
  6
CONTINUOUS
 62
     5
 10
-273.36814943997092
 20
255.62348371279759
 30
0.0
 11
-273.36814943997092
 21
255.62348371279759
 31
0.0
  0
LINE
  8
DETAIL
  6
CONTINUOUS
 62
     5
 10
-273.36814943997092
 20
255.62348371279759
 30
0.0
 11
-273.48890609214823
 21
255.58362085161559
 31
0.0
  0
LINE
  8
DETAIL
  6
CONTINUOUS
 62
     5
 10
-273.48890609214823
 20
255.58362085161559
 30
0.0
 11
-273.61018193699692
 21
255.5453434676044
 31
0.0
  0
LINE
  8
DETAIL
  6
CONTINUOUS
 62
     5
 10
-273.61018193699692
 20
255.5453434676044
 30
0.0
 11
-273.61018193699692
 21
255.5453434676044
 31
0.0
  0
LINE
  8
DETAIL
  6
CONTINUOUS
 62
     5
 10
-273.61018193699692
 20
255.5453434676044
 30
0.0
 11
-273.73192764100412
 21
255.50864983494969
 31
0.0
  0
LINE
  8
DETAIL
  6
CONTINUOUS
 62
     5
 10
-273.73192764100412
 20
255.50864983494969
 30
0.0
 11
-273.85416898105302
 21
255.4737691345583
 31
0.0
  0
LINE
  8
DETAIL
  6
CONTINUOUS
 62
     5
 10
-273.85416898105302
 20
255.4737691345583
 30
0.0
 11
-273.85416898105302
 21
255.4737691345583
 31
0.0
  0
LINE
  8
DETAIL
  6
CONTINUOUS
 62
     5
 10
-273.85416898105302
 20
255.4737691345583
 30
0.0
 11
-273.97689807000108
 21
255.44076546943421
 31
0.0
  0
LINE
  8
DETAIL
  6
CONTINUOUS
 62
     5
 10
-273.97689807000108
 20
255.44076546943421
 30
0.0
 11
-274.09989725421099
 21
255.4088117242363
 31
0.0
  0
LINE
  8
DETAIL
  6
CONTINUOUS
 62
     5
 10
258.57429141027637
 20
275.89216139817898
 30
0.0
 11
258.60624515547408
 21
275.76916221396908
 31
0.0
  0
LINE
  8
DETAIL
  6
CONTINUOUS
 62
     5
 10
258.60624515547408
 20
275.76916221396908
 30
0.0
 11
258.63924882059808
 21
275.64643312502079
 31
0.0
  0
LINE
  8
DETAIL
  6
CONTINUOUS
 62
     5
 10
258.63924882059808
 20
275.64643312502079
 30
0.0
 11
258.63924882059808
 21
275.64643312502079
 31
0.0
  0
LINE
  8
DETAIL
  6
CONTINUOUS
 62
     5
 10
258.63924882059808
 20
275.64643312502079
 30
0.0
 11
258.67412952098948
 21
275.52419178497212
 31
0.0
  0
LINE
  8
DETAIL
  6
CONTINUOUS
 62
     5
 10
258.67412952098948
 20
275.52419178497212
 30
0.0
 11
258.7108231536447
 21
275.40244608096498
 31
0.0
  0
LINE
  8
DETAIL
  6
CONTINUOUS
 62
     5
 10
258.7108231536447
 20
275.40244608096498
 30
0.0
 11
258.7108231536447
 21
275.40244608096498
 31
0.0
  0
LINE
  8
DETAIL
  6
CONTINUOUS
 62
     5
 10
258.7108231536447
 20
275.40244608096498
 30
0.0
 11
258.74910053765552
 21
275.28117023611622
 31
0.0
  0
LINE
  8
DETAIL
  6
CONTINUOUS
 62
     5
 10
258.74910053765552
 20
275.28117023611622
 30
0.0
 11
258.78896339883761
 21
275.16041358393858
 31
0.0
  0
LINE
  8
DETAIL
  6
CONTINUOUS
 62
     5
 10
258.78896339883761
 20
275.16041358393858
 30
0.0
 11
258.78896339883761
 21
275.16041358393858
 31
0.0
  0
LINE
  8
DETAIL
  6
CONTINUOUS
 62
     5
 10
258.78896339883761
 20
275.16041358393858
 30
0.0
 11
258.83046308754871
 21
275.04022156677212
 31
0.0
  0
LINE
  8
DETAIL
  6
CONTINUOUS
 62
     5
 10
258.83046308754871
 20
275.04022156677212
 30
0.0
 11
258.8736185455989
 21
274.92054895186902
 31
0.0
  0
LINE
  8
DETAIL
  6
CONTINUOUS
 62
     5
 10
258.8736185455989
 20
274.92054895186902
 30
0.0
 11
258.8736185455989
 21
274.92054895186902
 31
0.0
  0
LINE
  8
DETAIL
  6
CONTINUOUS
 62
     5
 10
258.8736185455989
 20
274.92054895186902
 30
0.0
 11
258.91841529452842
 21
274.80139973519829
 31
0.0
  0
LINE
  8
DETAIL
  6
CONTINUOUS
 62
     5
 10
258.91841529452842
 20
274.80139973519829
 30
0.0
 11
258.96473758334992
 21
274.68306550268369
 31
0.0
  0
LINE
  8
DETAIL
  6
CONTINUOUS
 62
     5
 10
258.96473758334992
 20
274.68306550268369
 30
0.0
 11
258.96473758334992
 21
274.68306550268369
 31
0.0
  0
LINE
  8
DETAIL
  6
CONTINUOUS
 62
     5
 10
258.96473758334992
 20
274.68306550268369
 30
0.0
 11
259.01248763739272
 21
274.56579584504863
 31
0.0
  0
LINE
  8
DETAIL
  6
CONTINUOUS
 62
     5
 10
259.01248763739272
 20
274.56579584504863
 30
0.0
 11
259.06174085977977
 21
274.44938478226447
 31
0.0
  0
LINE
  8
DETAIL
  6
CONTINUOUS
 62
     5
 10
259.06174085977977
 20
274.44938478226447
 30
0.0
 11
259.06174085977977
 21
274.44938478226447
 31
0.0
  0
LINE
  8
DETAIL
  6
CONTINUOUS
 62
     5
 10
259.06174085977977
 20
274.44938478226447
 30
0.0
 11
259.11258887330177
 21
274.33358432902548
 31
0.0
  0
LINE
  8
DETAIL
  6
CONTINUOUS
 62
     5
 10
259.11258887330177
 20
274.33358432902548
 30
0.0
 11
259.16501500163048
 21
274.21843404966728
 31
0.0
  0
LINE
  8
DETAIL
  6
CONTINUOUS
 62
     5
 10
259.16501500163048
 20
274.21843404966728
 30
0.0
 11
259.16501500163048
 21
274.21843404966728
 31
0.0
  0
LINE
  8
DETAIL
  6
CONTINUOUS
 62
     5
 10
259.16501500163048
 20
274.21843404966728
 30
0.0
 11
259.21898274554269
 21
274.10402613655992
 31
0.0
  0
LINE
  8
DETAIL
  6
CONTINUOUS
 62
     5
 10
259.21898274554269
 20
274.10402613655992
 30
0.0
 11
259.27448461335428
 21
273.99037574456378
 31
0.0
  0
LINE
  8
DETAIL
  6
CONTINUOUS
 62
     5
 10
259.27448461335428
 20
273.99037574456378
 30
0.0
 11
259.27448461335428
 21
273.99037574456378
 31
0.0
  0
LINE
  8
DETAIL
  6
CONTINUOUS
 62
     5
 10
259.27448461335428
 20
273.99037574456378
 30
0.0
 11
259.33151843250698
 21
273.87748391926078
 31
0.0
  0
LINE
  8
DETAIL
  6
CONTINUOUS
 62
     5
 10
259.33151843250698
 20
273.87748391926078
 30
0.0
 11
259.39007429940318
 21
273.76537230662598
 31
0.0
  0
LINE
  8
DETAIL
  6
CONTINUOUS
 62
     5
 10
259.39007429940318
 20
273.76537230662598
 30
0.0
 11
259.39007429940318
 21
273.76537230662598
 31
0.0
  0
LINE
  8
DETAIL
  6
CONTINUOUS
 62
     5
 10
259.39007429940318
 20
273.76537230662598
 30
0.0
 11
259.45014085683931
 21
273.65406636171662
 31
0.0
  0
LINE
  8
DETAIL
  6
CONTINUOUS
 62
     5
 10
259.45014085683931
 20
273.65406636171662
 30
0.0
 11
259.51170866422967
 21
273.54358617552731
 31
0.0
  0
LINE
  8
DETAIL
  6
CONTINUOUS
 62
     5
 10
259.51170866422967
 20
273.54358617552731
 30
0.0
 11
259.51170866422967
 21
273.54358617552731
 31
0.0
  0
LINE
  8
DETAIL
  6
CONTINUOUS
 62
     5
 10
259.51170866422967
 20
273.54358617552731
 30
0.0
 11
259.57476830639757
 21
273.43395032771679
 31
0.0
  0
LINE
  8
DETAIL
  6
CONTINUOUS
 62
     5
 10
259.57476830639757
 20
273.43395032771679
 30
0.0
 11
259.63930855318119
 21
273.32517671666352
 31
0.0
  0
LINE
  8
DETAIL
  6
CONTINUOUS
 62
     5
 10
259.63930855318119
 20
273.32517671666352
 30
0.0
 11
259.63930855318119
 21
273.32517671666352
 31
0.0
  0
LINE
  8
DETAIL
  6
CONTINUOUS
 62
     5
 10
259.63930855318119
 20
273.32517671666352
 30
0.0
 11
259.70531686294862
 21
273.21728408750943
 31
0.0
  0
LINE
  8
DETAIL
  6
CONTINUOUS
 62
     5
 10
259.70531686294862
 20
273.21728408750943
 30
0.0
 11
259.77277726317368
 21
273.11029525373272
 31
0.0
  0
LINE
  8
DETAIL
  6
CONTINUOUS
 62
     5
 10
259.77277726317368
 20
273.11029525373272
 30
0.0
 11
259.77277726317368
 21
273.11029525373272
 31
0.0
  0
LINE
  8
DETAIL
  6
CONTINUOUS
 62
     5
 10
259.77277726317368
 20
273.11029525373272
 30
0.0
 11
259.84167633350029
 21
273.00422976084383
 31
0.0
  0
LINE
  8
DETAIL
  6
CONTINUOUS
 62
     5
 10
259.84167633350029
 20
273.00422976084383
 30
0.0
 11
259.91201429315521
 21
272.89909001415231
 31
0.0
  0
LINE
  8
DETAIL
  6
CONTINUOUS
 62
     5
 10
259.91201429315521
 20
272.89909001415231
 30
0.0
 11
259.91201429315521
 21
272.89909001415231
 31
0.0
  0
LINE
  8
DETAIL
  6
CONTINUOUS
 62
     5
 10
259.91201429315521
 20
272.89909001415231
 30
0.0
 11
259.98378198940202
 21
272.79489025703452
 31
0.0
  0
LINE
  8
DETAIL
  6
CONTINUOUS
 62
     5
 10
259.98378198940202
 20
272.79489025703452
 30
0.0
 11
260.05691914207318
 21
272.69170922533988
 31
0.0
  0
LINE
  8
DETAIL
  6
CONTINUOUS
 62
     5
 10
260.05691914207318
 20
272.69170922533988
 30
0.0
 11
260.05691914207318
 21
272.69170922533988
 31
0.0
  0
LINE
  8
DETAIL
  6
CONTINUOUS
 62
     5
 10
260.05691914207318
 20
272.69170922533988
 30
0.0
 11
260.13140040667918
 21
272.58958157061352
 31
0.0
  0
LINE
  8
DETAIL
  6
CONTINUOUS
 62
     5
 10
260.13140040667918
 20
272.58958157061352
 30
0.0
 11
260.20739130887517
 21
272.48830111471278
 31
0.0
  0
LINE
  8
DETAIL
  6
CONTINUOUS
 62
     5
 10
260.20739130887517
 20
272.48830111471278
 30
0.0
 11
260.20739130887517
 21
272.48830111471278
 31
0.0
  0
LINE
  8
DETAIL
  6
CONTINUOUS
 62
     5
 10
260.20739130887517
 20
272.48830111471278
 30
0.0
 11
260.28502969647269
 21
272.38769720453928
 31
0.0
  0
LINE
  8
DETAIL
  6
CONTINUOUS
 62
     5
 10
260.28502969647269
 20
272.38769720453928
 30
0.0
 11
260.36415183576082
 21
272.28798211685557
 31
0.0
  0
LINE
  8
DETAIL
  6
CONTINUOUS
 62
     5
 10
260.36415183576082
 20
272.28798211685557
 30
0.0
 11
260.36415183576082
 21
272.28798211685557
 31
0.0
  0
LINE
  8
DETAIL
  6
CONTINUOUS
 62
     5
 10
260.36415183576082
 20
272.28798211685557
 30
0.0
 11
260.44456722823008
 21
272.18940515295412
 31
0.0
  0
LINE
  8
DETAIL
  6
CONTINUOUS
 62
     5
 10
260.44456722823008
 20
272.18940515295412
 30
0.0
 11
260.52627989768968
 21
272.09198078238211
 31
0.0
  0
LINE
  8
DETAIL
  6
CONTINUOUS
 62
     5
 10
260.52627989768968
 20
272.09198078238211
 30
0.0
 11
260.52627989768968
 21
272.09198078238211
 31
0.0
  0
LINE
  8
DETAIL
  6
CONTINUOUS
 62
     5
 10
260.52627989768968
 20
272.09198078238211
 30
0.0
 11
260.6093188902671
 21
271.99566948396603
 31
0.0
  0
LINE
  8
DETAIL
  6
CONTINUOUS
 62
     5
 10
260.6093188902671
 20
271.99566948396603
 30
0.0
 11
260.69361881903342
 21
271.90045060539461
 31
0.0
  0
LINE
  8
DETAIL
  6
CONTINUOUS
 62
     5
 10
260.69361881903342
 20
271.90045060539461
 30
0.0
 11
260.69361881903342
 21
271.90045060539461
 31
0.0
  0
LINE
  8
DETAIL
  6
CONTINUOUS
 62
     5
 10
260.69361881903342
 20
271.90045060539461
 30
0.0
 11
260.77913649127152
 21
271.80634805064642
 31
0.0
  0
LINE
  8
DETAIL
  6
CONTINUOUS
 62
     5
 10
260.77913649127152
 20
271.80634805064642
 30
0.0
 11
260.8660119241631
 21
271.71354507999672
 31
0.0
  0
LINE
  8
DETAIL
  6
CONTINUOUS
 62
     5
 10
260.8660119241631
 20
271.71354507999672
 30
0.0
 11
260.8660119241631
 21
271.71354507999672
 31
0.0
  0
LINE
  8
DETAIL
  6
CONTINUOUS
 62
     5
 10
260.8660119241631
 20
271.71354507999672
 30
0.0
 11
260.95427133572957
 21
271.62210071928229
 31
0.0
  0
LINE
  8
DETAIL
  6
CONTINUOUS
 62
     5
 10
260.95427133572957
 20
271.62210071928229
 30
0.0
 11
261.0433025374507
 21
271.53141770029202
 31
0.0
  0
LINE
  8
DETAIL
  6
CONTINUOUS
 62
     5
 10
271.53141770029163
 20
261.04330253745121
 30
0.0
 11
271.62210036894652
 21
260.95427167337709
 31
0.0
  0
LINE
  8
DETAIL
  6
CONTINUOUS
 62
     5
 10
271.62210036894652
 20
260.95427167337709
 30
0.0
 11
271.71354437363379
 21
260.86601259342268
 31
0.0
  0
LINE
  8
DETAIL
  6
CONTINUOUS
 62
     5
 10
271.71354437363379
 20
260.86601259342268
 30
0.0
 11
271.71354437363379
 21
260.86601259342268
 31
0.0
  0
LINE
  8
DETAIL
  6
CONTINUOUS
 62
     5
 10
271.71354437363379
 20
260.86601259342268
 30
0.0
 11
271.80634697802691
 21
260.77913748137303
 31
0.0
  0
LINE
  8
DETAIL
  6
CONTINUOUS
 62
     5
 10
271.80634697802691
 20
260.77913748137303
 30
0.0
 11
271.90044915635758
 21
260.69362011967468
 31
0.0
  0
LINE
  8
DETAIL
  6
CONTINUOUS
 62
     5
 10
271.90044915635758
 20
260.69362011967468
 30
0.0
 11
271.90044915635758
 21
260.69362011967468
 31
0.0
  0
LINE
  8
DETAIL
  6
CONTINUOUS
 62
     5
 10
271.90044915635758
 20
260.69362011967468
 30
0.0
 11
271.9956676497228
 21
260.60932049222947
 31
0.0
  0
LINE
  8
DETAIL
  6
CONTINUOUS
 62
     5
 10
271.9956676497228
 20
260.60932049222947
 30
0.0
 11
272.09197855611768
 21
260.52628179010208
 31
0.0
  0
LINE
  8
DETAIL
  6
CONTINUOUS
 62
     5
 10
272.09197855611768
 20
260.52628179010208
 30
0.0
 11
272.09197855611768
 21
260.52628179010208
 31
0.0
  0
LINE
  8
DETAIL
  6
CONTINUOUS
 62
     5
 10
272.09197855611768
 20
260.52628179010208
 30
0.0
 11
272.18940252822392
 21
260.44456939931842
 31
0.0
  0
LINE
  8
DETAIL
  6
CONTINUOUS
 62
     5
 10
272.18940252822392
 20
260.44456939931842
 30
0.0
 11
272.28797908056981
 21
260.36415427859993
 31
0.0
  0
LINE
  8
DETAIL
  6
CONTINUOUS
 62
     5
 10
272.28797908056981
 20
260.36415427859993
 30
0.0
 11
272.28797908056981
 21
260.36415427859993
 31
0.0
  0
LINE
  8
DETAIL
  6
CONTINUOUS
 62
     5
 10
272.28797908056981
 20
260.36415427859993
 30
0.0
 11
272.38769374207442
 21
260.28503240535662
 31
0.0
  0
LINE
  8
DETAIL
  6
CONTINUOUS
 62
     5
 10
272.38769374207442
 20
260.28503240535662
 30
0.0
 11
272.48829723736873
 21
260.20739425906407
 31
0.0
  0
LINE
  8
DETAIL
  6
CONTINUOUS
 62
     5
 10
272.48829723736873
 20
260.20739425906407
 30
0.0
 11
272.48829723736873
 21
260.20739425906407
 31
0.0
  0
LINE
  8
DETAIL
  6
CONTINUOUS
 62
     5
 10
272.48829723736873
 20
260.20739425906407
 30
0.0
 11
272.58957731199928
 21
260.13140355735032
 31
0.0
  0
LINE
  8
DETAIL
  6
CONTINUOUS
 62
     5
 10
272.58957731199928
 20
260.13140355735032
 30
0.0
 11
272.69170459946002
 21
260.05692246838407
 31
0.0
  0
LINE
  8
DETAIL
  6
CONTINUOUS
 62
     5
 10
272.69170459946002
 20
260.05692246838407
 30
0.0
 11
272.69170459946002
 21
260.05692246838407
 31
0.0
  0
LINE
  8
DETAIL
  6
CONTINUOUS
 62
     5
 10
272.69170459946002
 20
260.05692246838407
 30
0.0
 11
272.79488525303111
 21
259.98378548605729
 31
0.0
  0
LINE
  8
DETAIL
  6
CONTINUOUS
 62
     5
 10
272.79488525303111
 20
259.98378548605729
 30
0.0
 11
272.89908461719392
 21
259.91201795660731
 31
0.0
  0
LINE
  8
DETAIL
  6
CONTINUOUS
 62
     5
 10
272.89908461719392
 20
259.91201795660731
 30
0.0
 11
272.89908461719392
 21
259.91201795660731
 31
0.0
  0
LINE
  8
DETAIL
  6
CONTINUOUS
 62
     5
 10
272.89908461719392
 20
259.91201795660731
 30
0.0
 11
273.00422396153772
 21
259.84168015564399
 31
0.0
  0
LINE
  8
DETAIL
  6
CONTINUOUS
 62
     5
 10
273.00422396153772
 20
259.84168015564399
 30
0.0
 11
273.1102890648832
 21
259.77278122391277
 31
0.0
  0
LINE
  8
DETAIL
  6
CONTINUOUS
 62
     5
 10
273.1102890648832
 20
259.77278122391277
 30
0.0
 11
273.1102890648832
 21
259.77278122391277
 31
0.0
  0
LINE
  8
DETAIL
  6
CONTINUOUS
 62
     5
 10
273.1102890648832
 20
259.77278122391277
 30
0.0
 11
273.21727752632711
 21
259.70532094022133
 31
0.0
  0
LINE
  8
DETAIL
  6
CONTINUOUS
 62
     5
 10
273.21727752632711
 20
259.70532094022133
 30
0.0
 11
273.32516971684021
 21
259.6393127704805
 31
0.0
  0
LINE
  8
DETAIL
  6
CONTINUOUS
 62
     5
 10
273.32516971684021
 20
259.6393127704805
 30
0.0
 11
273.32516971684021
 21
259.6393127704805
 31
0.0
  0
LINE
  8
DETAIL
  6
CONTINUOUS
 62
     5
 10
273.32516971684021
 20
259.6393127704805
 30
0.0
 11
273.43394280118002
 21
259.57477269898851
 31
0.0
  0
LINE
  8
DETAIL
  6
CONTINUOUS
 62
     5
 10
273.43394280118002
 20
259.57477269898851
 30
0.0
 11
273.54357834737772
 21
259.51171309649021
 31
0.0
  0
LINE
  8
DETAIL
  6
CONTINUOUS
 62
     5
 10
273.54357834737772
 20
259.51171309649021
 30
0.0
 11
273.54357834737772
 21
259.51171309649021
 31
0.0
  0
LINE
  8
DETAIL
  6
CONTINUOUS
 62
     5
 10
273.54357834737772
 20
259.51171309649021
 30
0.0
 11
273.65405872282759
 21
259.45014505084271
 31
0.0
  0
LINE
  8
DETAIL
  6
CONTINUOUS
 62
     5
 10
273.65405872282759
 20
259.45014505084271
 30
0.0
 11
273.76536508910522
 21
259.39007813190642
 31
0.0
  0
LINE
  8
DETAIL
  6
CONTINUOUS
 62
     5
 10
273.76536508910522
 20
259.39007813190642
 30
0.0
 11
273.76536508910522
 21
259.39007813190642
 31
0.0
  0
LINE
  8
DETAIL
  6
CONTINUOUS
 62
     5
 10
273.76536508910522
 20
259.39007813190642
 30
0.0
 11
273.87747704755338
 21
259.33152196089048
 31
0.0
  0
LINE
  8
DETAIL
  6
CONTINUOUS
 62
     5
 10
273.87747704755338
 20
259.33152196089048
 30
0.0
 11
273.99036916440423
 21
259.27448788239172
 31
0.0
  0
LINE
  8
DETAIL
  6
CONTINUOUS
 62
     5
 10
273.99036916440423
 20
259.27448788239172
 30
0.0
 11
273.99036916440423
 21
259.27448788239172
 31
0.0
  0
LINE
  8
DETAIL
  6
CONTINUOUS
 62
     5
 10
273.99036916440423
 20
259.27448788239172
 30
0.0
 11
274.10401987571549
 21
259.21898575182951
 31
0.0
  0
LINE
  8
DETAIL
  6
CONTINUOUS
 62
     5
 10
274.10401987571549
 20
259.21898575182951
 30
0.0
 11
274.21842813194962
 21
259.16501774452911
 31
0.0
  0
LINE
  8
DETAIL
  6
CONTINUOUS
 62
     5
 10
274.21842813194962
 20
259.16501774452911
 30
0.0
 11
274.21842813194962
 21
259.16501774452911
 31
0.0
  0
LINE
  8
DETAIL
  6
CONTINUOUS
 62
     5
 10
274.21842813194962
 20
259.16501774452911
 30
0.0
 11
274.33357875654269
 21
259.11259136503952
 31
0.0
  0
LINE
  8
DETAIL
  6
CONTINUOUS
 62
     5
 10
274.33357875654269
 20
259.11259136503952
 30
0.0
 11
274.44937955041593
 21
259.06174311490241
 31
0.0
  0
LINE
  8
DETAIL
  6
CONTINUOUS
 62
     5
 10
274.44937955041593
 20
259.06174311490241
 30
0.0
 11
274.44937955041593
 21
259.06174311490241
 31
0.0
  0
LINE
  8
DETAIL
  6
CONTINUOUS
 62
     5
 10
274.44937955041593
 20
259.06174311490241
 30
0.0
 11
274.56579095277488
 21
259.01248966793861
 31
0.0
  0
LINE
  8
DETAIL
  6
CONTINUOUS
 62
     5
 10
274.56579095277488
 20
259.01248966793861
 30
0.0
 11
274.68306097847648
 21
258.96473939009451
 31
0.0
  0
LINE
  8
DETAIL
  6
CONTINUOUS
 62
     5
 10
274.68306097847648
 20
258.96473939009451
 30
0.0
 11
274.68306097847648
 21
258.96473939009451
 31
0.0
  0
LINE
  8
DETAIL
  6
CONTINUOUS
 62
     5
 10
274.68306097847648
 20
258.96473939009451
 30
0.0
 11
274.80139563133878
 21
258.91841686965898
 31
0.0
  0
LINE
  8
DETAIL
  6
CONTINUOUS
 62
     5
 10
274.80139563133878
 20
258.91841686965898
 30
0.0
 11
274.92054529537108
 21
258.87361989215827
 31
0.0
  0
LINE
  8
DETAIL
  6
CONTINUOUS
 62
     5
 10
274.92054529537108
 20
258.87361989215827
 30
0.0
 11
274.92054529537108
 21
258.87361989215827
 31
0.0
  0
LINE
  8
DETAIL
  6
CONTINUOUS
 62
     5
 10
274.92054529537108
 20
258.87361989215827
 30
0.0
 11
275.04021835499418
 21
258.83046422101711
 31
0.0
  0
LINE
  8
DETAIL
  6
CONTINUOUS
 62
     5
 10
275.04021835499418
 20
258.83046422101711
 30
0.0
 11
275.16041081607818
 21
258.78896433400791
 31
0.0
  0
LINE
  8
DETAIL
  6
CONTINUOUS
 62
     5
 10
275.16041081607818
 20
258.78896433400791
 30
0.0
 11
275.16041081607818
 21
258.78896433400791
 31
0.0
  0
LINE
  8
DETAIL
  6
CONTINUOUS
 62
     5
 10
275.16041081607818
 20
258.78896433400791
 30
0.0
 11
275.28116791894968
 21
258.74910128611799
 31
0.0
  0
LINE
  8
DETAIL
  6
CONTINUOUS
 62
     5
 10
275.28116791894968
 20
258.74910128611799
 30
0.0
 11
275.40244422030861
 21
258.71082372684339
 31
0.0
  0
LINE
  8
DETAIL
  6
CONTINUOUS
 62
     5
 10
275.40244422030861
 20
258.71082372684339
 30
0.0
 11
275.40244422030861
 21
258.71082372684339
 31
0.0
  0
LINE
  8
DETAIL
  6
CONTINUOUS
 62
     5
 10
275.40244422030861
 20
258.71082372684339
 30
0.0
 11
275.52419038421181
 21
258.67412993121138
 31
0.0
  0
LINE
  8
DETAIL
  6
CONTINUOUS
 62
     5
 10
275.52419038421181
 20
258.67412993121138
 30
0.0
 11
275.64643218777201
 21
258.63924908186641
 31
0.0
  0
LINE
  8
DETAIL
  6
CONTINUOUS
 62
     5
 10
275.64643218777201
 20
258.63924908186641
 30
0.0
 11
275.64643218777201
 21
258.63924908186641
 31
0.0
  0
LINE
  8
DETAIL
  6
CONTINUOUS
 62
     5
 10
275.64643218777201
 20
258.63924908186641
 30
0.0
 11
275.76916174421717
 21
258.60624528211258
 31
0.0
  0
LINE
  8
DETAIL
  6
CONTINUOUS
 62
     5
 10
275.76916174421717
 20
258.60624528211258
 30
0.0
 11
275.89216139817881
 21
258.57429141027671
 31
0.0
  0
LINE
  8
DETAIL
  6
CONTINUOUS
 62
     5
 10
274.09989725498713
 20
255.4088117242363
 30
0.0
 11
273.97689760102548
 21
255.4407655960724
 31
0.0
  0
LINE
  8
DETAIL
  6
CONTINUOUS
 62
     5
 10
273.97689760102548
 20
255.4407655960724
 30
0.0
 11
273.85416804458021
 21
255.47376939582611
 31
0.0
  0
LINE
  8
DETAIL
  6
CONTINUOUS
 62
     5
 10
273.85416804458021
 20
255.47376939582611
 30
0.0
 11
273.85416804458021
 21
255.47376939582611
 31
0.0
  0
LINE
  8
DETAIL
  6
CONTINUOUS
 62
     5
 10
273.85416804458021
 20
255.47376939582611
 30
0.0
 11
273.73192624101989
 21
255.50865024517159
 31
0.0
  0
LINE
  8
DETAIL
  6
CONTINUOUS
 62
     5
 10
273.73192624101989
 20
255.50865024517159
 30
0.0
 11
273.61018007711692
 21
255.5453440408036
 31
0.0
  0
LINE
  8
DETAIL
  6
CONTINUOUS
 62
     5
 10
273.61018007711692
 20
255.5453440408036
 30
0.0
 11
273.61018007711692
 21
255.5453440408036
 31
0.0
  0
LINE
  8
DETAIL
  6
CONTINUOUS
 62
     5
 10
273.61018007711692
 20
255.5453440408036
 30
0.0
 11
273.48890377575788
 21
255.58362160007769
 31
0.0
  0
LINE
  8
DETAIL
  6
CONTINUOUS
 62
     5
 10
273.48890377575788
 20
255.58362160007769
 30
0.0
 11
273.3681466728865
 21
255.62348464796759
 31
0.0
  0
LINE
  8
DETAIL
  6
CONTINUOUS
 62
     5
 10
273.3681466728865
 20
255.62348464796759
 30
0.0
 11
273.3681466728865
 21
255.62348464796759
 31
0.0
  0
LINE
  8
DETAIL
  6
CONTINUOUS
 62
     5
 10
273.3681466728865
 20
255.62348464796759
 30
0.0
 11
273.24795421180249
 21
255.6649845349767
 31
0.0
  0
LINE
  8
DETAIL
  6
CONTINUOUS
 62
     5
 10
273.24795421180249
 20
255.6649845349767
 30
0.0
 11
273.1282811521794
 21
255.70814020611809
 31
0.0
  0
LINE
  8
DETAIL
  6
CONTINUOUS
 62
     5
 10
273.1282811521794
 20
255.70814020611809
 30
0.0
 11
273.1282811521794
 21
255.70814020611809
 31
0.0
  0
LINE
  8
DETAIL
  6
CONTINUOUS
 62
     5
 10
273.1282811521794
 20
255.70814020611809
 30
0.0
 11
273.00913148814709
 21
255.7529371836188
 31
0.0
  0
LINE
  8
DETAIL
  6
CONTINUOUS
 62
     5
 10
273.00913148814709
 20
255.7529371836188
 30
0.0
 11
272.89079683528507
 21
255.79925970405421
 31
0.0
  0
LINE
  8
DETAIL
  6
CONTINUOUS
 62
     5
 10
272.89079683528507
 20
255.79925970405421
 30
0.0
 11
272.89079683528507
 21
255.79925970405421
 31
0.0
  0
LINE
  8
DETAIL
  6
CONTINUOUS
 62
     5
 10
272.89079683528507
 20
255.79925970405421
 30
0.0
 11
272.77352680958302
 21
255.84700998189811
 31
0.0
  0
LINE
  8
DETAIL
  6
CONTINUOUS
 62
     5
 10
272.77352680958302
 20
255.84700998189811
 30
0.0
 11
272.65711540722373
 21
255.89626342886189
 31
0.0
  0
LINE
  8
DETAIL
  6
CONTINUOUS
 62
     5
 10
272.65711540722373
 20
255.89626342886189
 30
0.0
 11
272.65711540722373
 21
255.89626342886189
 31
0.0
  0
LINE
  8
DETAIL
  6
CONTINUOUS
 62
     5
 10
272.65711540722373
 20
255.89626342886189
 30
0.0
 11
272.54131461335078
 21
255.94711167899891
 31
0.0
  0
LINE
  8
DETAIL
  6
CONTINUOUS
 62
     5
 10
272.54131461335078
 20
255.94711167899891
 30
0.0
 11
272.42616398875788
 21
255.9995380584887
 31
0.0
  0
LINE
  8
DETAIL
  6
CONTINUOUS
 62
     5
 10
272.42616398875788
 20
255.9995380584887
 30
0.0
 11
272.42616398875788
 21
255.9995380584887
 31
0.0
  0
LINE
  8
DETAIL
  6
CONTINUOUS
 62
     5
 10
272.42616398875788
 20
255.9995380584887
 30
0.0
 11
272.31175573252381
 21
256.05350606578918
 31
0.0
  0
LINE
  8
DETAIL
  6
CONTINUOUS
 62
     5
 10
272.31175573252381
 20
256.05350606578918
 30
0.0
 11
272.19810502121283
 21
256.10900819635123
 31
0.0
  0
LINE
  8
DETAIL
  6
CONTINUOUS
 62
     5
 10
272.19810502121283
 20
256.10900819635123
 30
0.0
 11
272.19810502121283
 21
256.10900819635123
 31
0.0
  0
LINE
  8
DETAIL
  6
CONTINUOUS
 62
     5
 10
272.19810502121283
 20
256.10900819635123
 30
0.0
 11
272.08521290436158
 21
256.16604227485038
 31
0.0
  0
LINE
  8
DETAIL
  6
CONTINUOUS
 62
     5
 10
272.08521290436158
 20
256.16604227485038
 30
0.0
 11
271.97310094591342
 21
256.22459844586638
 31
0.0
  0
LINE
  8
DETAIL
  6
CONTINUOUS
 62
     5
 10
271.97310094591342
 20
256.22459844586638
 30
0.0
 11
271.97310094591342
 21
256.22459844586638
 31
0.0
  0
LINE
  8
DETAIL
  6
CONTINUOUS
 62
     5
 10
271.97310094591342
 20
256.22459844586638
 30
0.0
 11
271.8617945796359
 21
256.28466536480232
 31
0.0
  0
LINE
  8
DETAIL
  6
CONTINUOUS
 62
     5
 10
271.8617945796359
 20
256.28466536480232
 30
0.0
 11
271.75131420418597
 21
256.34623341045022
 31
0.0
  0
LINE
  8
DETAIL
  6
CONTINUOUS
 62
     5
 10
271.75131420418597
 20
256.34623341045022
 30
0.0
 11
271.75131420418597
 21
256.34623341045022
 31
0.0
  0
LINE
  8
DETAIL
  6
CONTINUOUS
 62
     5
 10
271.75131420418597
 20
256.34623341045022
 30
0.0
 11
271.64167865798851
 21
256.40929301294818
 31
0.0
  0
LINE
  8
DETAIL
  6
CONTINUOUS
 62
     5
 10
271.64167865798851
 20
256.40929301294818
 30
0.0
 11
271.53290557364858
 21
256.47383308443892
 31
0.0
  0
LINE
  8
DETAIL
  6
CONTINUOUS
 62
     5
 10
271.53290557364858
 20
256.47383308443892
 30
0.0
 11
271.53290557364858
 21
256.47383308443892
 31
0.0
  0
LINE
  8
DETAIL
  6
CONTINUOUS
 62
     5
 10
271.53290557364858
 20
256.47383308443892
 30
0.0
 11
271.42501338313548
 21
256.53984125417583
 31
0.0
  0
LINE
  8
DETAIL
  6
CONTINUOUS
 62
     5
 10
271.42501338313548
 20
256.53984125417583
 30
0.0
 11
271.31802492169152
 21
256.60730153786028
 31
0.0
  0
LINE
  8
DETAIL
  6
CONTINUOUS
 62
     5
 10
271.31802492169152
 20
256.60730153786028
 30
0.0
 11
271.31802492169152
 21
256.60730153786028
 31
0.0
  0
LINE
  8
DETAIL
  6
CONTINUOUS
 62
     5
 10
271.31802492169152
 20
256.60730153786028
 30
0.0
 11
271.21195981834597
 21
256.67620046957933
 31
0.0
  0
LINE
  8
DETAIL
  6
CONTINUOUS
 62
     5
 10
271.21195981834597
 20
256.67620046957933
 30
0.0
 11
271.10682047400218
 21
256.74653827052509
 31
0.0
  0
LINE
  8
DETAIL
  6
CONTINUOUS
 62
     5
 10
271.10682047400218
 20
256.74653827052509
 30
0.0
 11
271.10682047400218
 21
256.74653827052509
 31
0.0
  0
LINE
  8
DETAIL
  6
CONTINUOUS
 62
     5
 10
271.10682047400218
 20
256.74653827052509
 30
0.0
 11
271.00262110983942
 21
256.81830579995062
 31
0.0
  0
LINE
  8
DETAIL
  6
CONTINUOUS
 62
     5
 10
271.00262110983942
 20
256.81830579995062
 30
0.0
 11
270.89944045626822
 21
256.89144278224512
 31
0.0
  0
LINE
  8
DETAIL
  6
CONTINUOUS
 62
     5
 10
270.89944045626822
 20
256.89144278224512
 30
0.0
 11
270.89944045626822
 21
256.89144278224512
 31
0.0
  0
LINE
  8
DETAIL
  6
CONTINUOUS
 62
     5
 10
270.89944045626822
 20
256.89144278224512
 30
0.0
 11
270.7973131688077
 21
256.96592387116931
 31
0.0
  0
LINE
  8
DETAIL
  6
CONTINUOUS
 62
     5
 10
270.7973131688077
 20
256.96592387116931
 30
0.0
 11
270.69603309417698
 21
257.04191457283048
 31
0.0
  0
LINE
  8
DETAIL
  6
CONTINUOUS
 62
     5
 10
270.69603309417698
 20
257.04191457283048
 30
0.0
 11
270.69603309417698
 21
257.04191457283048
 31
0.0
  0
LINE
  8
DETAIL
  6
CONTINUOUS
 62
     5
 10
270.69603309417698
 20
257.04191457283048
 30
0.0
 11
270.59542959888239
 21
257.11955271906038
 31
0.0
  0
LINE
  8
DETAIL
  6
CONTINUOUS
 62
     5
 10
270.59542959888239
 20
257.11955271906038
 30
0.0
 11
270.49571493737801
 21
257.19867459223752
 31
0.0
  0
LINE
  8
DETAIL
  6
CONTINUOUS
 62
     5
 10
270.49571493737801
 20
257.19867459223752
 30
0.0
 11
270.49571493737801
 21
257.19867459223752
 31
0.0
  0
LINE
  8
DETAIL
  6
CONTINUOUS
 62
     5
 10
270.49571493737801
 20
257.19867459223752
 30
0.0
 11
270.39713838503212
 21
257.27908971289412
 31
0.0
  0
LINE
  8
DETAIL
  6
CONTINUOUS
 62
     5
 10
270.39713838503212
 20
257.27908971289412
 30
0.0
 11
270.29971441292628
 21
257.36080210362888
 31
0.0
  0
LINE
  8
DETAIL
  6
CONTINUOUS
 62
     5
 10
270.29971441292628
 20
257.36080210362888
 30
0.0
 11
270.29971441292628
 21
257.36080210362888
 31
0.0
  0
LINE
  8
DETAIL
  6
CONTINUOUS
 62
     5
 10
270.29971441292628
 20
257.36080210362888
 30
0.0
 11
270.20340350653117
 21
257.44384080572968
 31
0.0
  0
LINE
  8
DETAIL
  6
CONTINUOUS
 62
     5
 10
270.20340350653117
 20
257.44384080572968
 30
0.0
 11
270.10818501316589
 21
257.52814043317488
 31
0.0
  0
LINE
  8
DETAIL
  6
CONTINUOUS
 62
     5
 10
270.10818501316589
 20
257.52814043317488
 30
0.0
 11
270.10818501316589
 21
257.52814043317488
 31
0.0
  0
LINE
  8
DETAIL
  6
CONTINUOUS
 62
     5
 10
270.10818501316589
 20
257.52814043317488
 30
0.0
 11
270.01408283483511
 21
257.61365779490848
 31
0.0
  0
LINE
  8
DETAIL
  6
CONTINUOUS
 62
     5
 10
270.01408283483511
 20
257.61365779490848
 30
0.0
 11
269.92128023044222
 21
257.70053290704573
 31
0.0
  0
LINE
  8
DETAIL
  6
CONTINUOUS
 62
     5
 10
269.92128023044222
 20
257.70053290704573
 30
0.0
 11
269.92128023044222
 21
257.70053290704573
 31
0.0
  0
LINE
  8
DETAIL
  6
CONTINUOUS
 62
     5
 10
269.92128023044222
 20
257.70053290704573
 30
0.0
 11
269.82983622575472
 21
257.78879198715049
 31
0.0
  0
LINE
  8
DETAIL
  6
CONTINUOUS
 62
     5
 10
269.82983622575472
 20
257.78879198715049
 30
0.0
 11
269.73915355709983
 21
257.87782285141088
 31
0.0
  0
LINE
  8
DETAIL
  6
CONTINUOUS
 62
     5
 10
257.87782285063417
 20
269.73915355710028
 30
0.0
 11
257.78879164911473
 21
269.82983657609088
 31
0.0
  0
LINE
  8
DETAIL
  6
CONTINUOUS
 62
     5
 10
257.78879164911473
 20
269.82983657609088
 30
0.0
 11
257.70053223772538
 21
269.92128093680498
 31
0.0
  0
LINE
  8
DETAIL
  6
CONTINUOUS
 62
     5
 10
257.70053223772538
 20
269.92128093680498
 30
0.0
 11
257.70053223772538
 21
269.92128093680498
 31
0.0
  0
LINE
  8
DETAIL
  6
CONTINUOUS
 62
     5
 10
257.70053223772538
 20
269.92128093680498
 30
0.0
 11
257.61365680496709
 21
270.01408390745468
 31
0.0
  0
LINE
  8
DETAIL
  6
CONTINUOUS
 62
     5
 10
257.61365680496709
 20
270.01408390745468
 30
0.0
 11
257.52813913282529
 21
270.10818646220298
 31
0.0
  0
LINE
  8
DETAIL
  6
CONTINUOUS
 62
     5
 10
257.52813913282529
 20
270.10818646220298
 30
0.0
 11
257.52813913282529
 21
270.10818646220298
 31
0.0
  0
LINE
  8
DETAIL
  6
CONTINUOUS
 62
     5
 10
257.52813913282529
 20
270.10818646220298
 30
0.0
 11
257.44383920412912
 21
270.20340534077422
 31
0.0
  0
LINE
  8
DETAIL
  6
CONTINUOUS
 62
     5
 10
257.44383920412912
 20
270.20340534077422
 30
0.0
 11
257.36080021160001
 21
270.29971663919042
 31
0.0
  0
LINE
  8
DETAIL
  6
CONTINUOUS
 62
     5
 10
257.36080021160001
 20
270.29971663919042
 30
0.0
 11
257.36080021160001
 21
270.29971663919042
 31
0.0
  0
LINE
  8
DETAIL
  6
CONTINUOUS
 62
     5
 10
257.36080021160001
 20
270.29971663919042
 30
0.0
 11
257.27908754216918
 21
270.39714100976272
 31
0.0
  0
LINE
  8
DETAIL
  6
CONTINUOUS
 62
     5
 10
257.27908754216918
 20
270.39714100976272
 30
0.0
 11
257.19867214971492
 21
270.49571797366428
 31
0.0
  0
LINE
  8
DETAIL
  6
CONTINUOUS
 62
     5
 10
257.19867214971492
 20
270.49571797366428
 30
0.0
 11
257.19867214971492
 21
270.49571797366428
 31
0.0
  0
LINE
  8
DETAIL
  6
CONTINUOUS
 62
     5
 10
257.19867214971492
 20
270.49571797366428
 30
0.0
 11
257.11955001043168
 21
270.59543306134788
 31
0.0
  0
LINE
  8
DETAIL
  6
CONTINUOUS
 62
     5
 10
257.11955001043168
 20
270.59543306134788
 30
0.0
 11
257.04191162283507
 21
270.69603697152121
 31
0.0
  0
LINE
  8
DETAIL
  6
CONTINUOUS
 62
     5
 10
257.04191162283507
 20
270.69603697152121
 30
0.0
 11
257.04191162283507
 21
270.69603697152121
 31
0.0
  0
LINE
  8
DETAIL
  6
CONTINUOUS
 62
     5
 10
257.04191162283507
 20
270.69603697152121
 30
0.0
 11
256.96592072063879
 21
270.79731742742138
 31
0.0
  0
LINE
  8
DETAIL
  6
CONTINUOUS
 62
     5
 10
256.96592072063879
 20
270.79731742742138
 30
0.0
 11
256.89143945603291
 21
270.89944508214808
 31
0.0
  0
LINE
  8
DETAIL
  6
CONTINUOUS
 62
     5
 10
256.89143945603291
 20
270.89944508214808
 30
0.0
 11
256.89143945603291
 21
270.89944508214808
 31
0.0
  0
LINE
  8
DETAIL
  6
CONTINUOUS
 62
     5
 10
256.89143945603291
 20
270.89944508214808
 30
0.0
 11
256.81830230336158
 21
271.00262611384261
 31
0.0
  0
LINE
  8
DETAIL
  6
CONTINUOUS
 62
     5
 10
256.81830230336158
 20
271.00262611384261
 30
0.0
 11
256.74653460711488
 21
271.10682587096028
 31
0.0
  0
LINE
  8
DETAIL
  6
CONTINUOUS
 62
     5
 10
256.74653460711488
 20
271.10682587096028
 30
0.0
 11
256.74653460711488
 21
271.10682587096028
 31
0.0
  0
LINE
  8
DETAIL
  6
CONTINUOUS
 62
     5
 10
256.74653460711488
 20
271.10682587096028
 30
0.0
 11
256.67619664746007
 21
271.21196561765242
 31
0.0
  0
LINE
  8
DETAIL
  6
CONTINUOUS
 62
     5
 10
256.67619664746007
 20
271.21196561765242
 30
0.0
 11
256.60729757713329
 21
271.31803111054109
 31
0.0
  0
LINE
  8
DETAIL
  6
CONTINUOUS
 62
     5
 10
256.60729757713329
 20
271.31803111054109
 30
0.0
 11
256.60729757713329
 21
271.31803111054109
 31
0.0
  0
LINE
  8
DETAIL
  6
CONTINUOUS
 62
     5
 10
256.60729757713329
 20
271.31803111054109
 30
0.0
 11
256.53983717690858
 21
271.42501994431808
 31
0.0
  0
LINE
  8
DETAIL
  6
CONTINUOUS
 62
     5
 10
256.53983717690858
 20
271.42501994431808
 30
0.0
 11
256.47382886714081
 21
271.53291257347189
 31
0.0
  0
LINE
  8
DETAIL
  6
CONTINUOUS
 62
     5
 10
256.47382886714081
 20
271.53291257347189
 30
0.0
 11
256.47382886714081
 21
271.53291257347189
 31
0.0
  0
LINE
  8
DETAIL
  6
CONTINUOUS
 62
     5
 10
256.47382886714081
 20
271.53291257347189
 30
0.0
 11
256.4092886203573
 21
271.64168618452533
 31
0.0
  0
LINE
  8
DETAIL
  6
CONTINUOUS
 62
     5
 10
256.4092886203573
 20
271.64168618452533
 30
0.0
 11
256.34622897818957
 21
271.75132203233562
 31
0.0
  0
LINE
  8
DETAIL
  6
CONTINUOUS
 62
     5
 10
256.34622897818957
 20
271.75132203233562
 30
0.0
 11
256.34622897818957
 21
271.75132203233562
 31
0.0
  0
LINE
  8
DETAIL
  6
CONTINUOUS
 62
     5
 10
256.34622897818957
 20
271.75132203233562
 30
0.0
 11
256.28466117079893
 21
271.86180221852499
 31
0.0
  0
LINE
  8
DETAIL
  6
CONTINUOUS
 62
     5
 10
256.28466117079893
 20
271.86180221852499
 30
0.0
 11
256.22459461336291
 21
271.97310816343452
 31
0.0
  0
LINE
  8
DETAIL
  6
CONTINUOUS
 62
     5
 10
256.22459461336291
 20
271.97310816343452
 30
0.0
 11
256.22459461336291
 21
271.97310816343452
 31
0.0
  0
LINE
  8
DETAIL
  6
CONTINUOUS
 62
     5
 10
256.22459461336291
 20
271.97310816343452
 30
0.0
 11
256.16603874646682
 21
272.08521977606938
 31
0.0
  0
LINE
  8
DETAIL
  6
CONTINUOUS
 62
     5
 10
256.16603874646682
 20
272.08521977606938
 30
0.0
 11
256.109004927314
 21
272.19811160137209
 31
0.0
  0
LINE
  8
DETAIL
  6
CONTINUOUS
 62
     5
 10
256.109004927314
 20
272.19811160137209
 30
0.0
 11
256.109004927314
 21
272.19811160137209
 31
0.0
  0
LINE
  8
DETAIL
  6
CONTINUOUS
 62
     5
 10
256.109004927314
 20
272.19811160137209
 30
0.0
 11
256.05350305950219
 21
272.31176199336801
 31
0.0
  0
LINE
  8
DETAIL
  6
CONTINUOUS
 62
     5
 10
256.05350305950219
 20
272.31176199336801
 30
0.0
 11
255.99953531559029
 21
272.42616990647548
 31
0.0
  0
LINE
  8
DETAIL
  6
CONTINUOUS
 62
     5
 10
255.99953531559029
 20
272.42616990647548
 30
0.0
 11
255.99953531559029
 21
272.42616990647548
 31
0.0
  0
LINE
  8
DETAIL
  6
CONTINUOUS
 62
     5
 10
255.99953531559029
 20
272.42616990647548
 30
0.0
 11
255.94710918726159
 21
272.54132018583391
 31
0.0
  0
LINE
  8
DETAIL
  6
CONTINUOUS
 62
     5
 10
255.94710918726159
 20
272.54132018583391
 30
0.0
 11
255.8962611737395
 21
272.65712063907313
 31
0.0
  0
LINE
  8
DETAIL
  6
CONTINUOUS
 62
     5
 10
255.8962611737395
 20
272.65712063907313
 30
0.0
 11
255.8962611737395
 21
272.65712063907313
 31
0.0
  0
LINE
  8
DETAIL
  6
CONTINUOUS
 62
     5
 10
255.8962611737395
 20
272.65712063907313
 30
0.0
 11
255.84700795135271
 21
272.77353170185711
 31
0.0
  0
LINE
  8
DETAIL
  6
CONTINUOUS
 62
     5
 10
255.84700795135271
 20
272.77353170185711
 30
0.0
 11
255.79925789730979
 21
272.89080135949212
 31
0.0
  0
LINE
  8
DETAIL
  6
CONTINUOUS
 62
     5
 10
255.79925789730979
 20
272.89080135949212
 30
0.0
 11
255.79925789730979
 21
272.89080135949212
 31
0.0
  0
LINE
  8
DETAIL
  6
CONTINUOUS
 62
     5
 10
255.79925789730979
 20
272.89080135949212
 30
0.0
 11
255.752935608488
 21
273.00913559200671
 31
0.0
  0
LINE
  8
DETAIL
  6
CONTINUOUS
 62
     5
 10
255.752935608488
 20
273.00913559200671
 30
0.0
 11
255.70813885955829
 21
273.12828480867728
 31
0.0
  0
LINE
  8
DETAIL
  6
CONTINUOUS
 62
     5
 10
255.70813885955829
 20
273.12828480867728
 30
0.0
 11
255.70813885955829
 21
273.12828480867728
 31
0.0
  0
LINE
  8
DETAIL
  6
CONTINUOUS
 62
     5
 10
255.70813885955829
 20
273.12828480867728
 30
0.0
 11
255.66498340150829
 21
273.24795742358049
 31
0.0
  0
LINE
  8
DETAIL
  6
CONTINUOUS
 62
     5
 10
255.66498340150829
 20
273.24795742358049
 30
0.0
 11
255.62348371279711
 21
273.36814944074689
 31
0.0
  0
LINE
  8
DETAIL
  6
CONTINUOUS
 62
     5
 10
255.62348371279711
 20
273.36814944074689
 30
0.0
 11
255.62348371279711
 21
273.36814944074689
 31
0.0
  0
LINE
  8
DETAIL
  6
CONTINUOUS
 62
     5
 10
255.62348371279711
 20
273.36814944074689
 30
0.0
 11
255.58362085161551
 21
273.48890609292471
 31
0.0
  0
LINE
  8
DETAIL
  6
CONTINUOUS
 62
     5
 10
255.58362085161551
 20
273.48890609292471
 30
0.0
 11
255.5453434676044
 21
273.61018193777329
 31
0.0
  0
LINE
  8
DETAIL
  6
CONTINUOUS
 62
     5
 10
255.5453434676044
 20
273.61018193777329
 30
0.0
 11
255.5453434676044
 21
273.61018193777329
 31
0.0
  0
LINE
  8
DETAIL
  6
CONTINUOUS
 62
     5
 10
255.5453434676044
 20
273.61018193777329
 30
0.0
 11
255.50864983494921
 21
273.73192764178071
 31
0.0
  0
LINE
  8
DETAIL
  6
CONTINUOUS
 62
     5
 10
255.50864983494921
 20
273.73192764178071
 30
0.0
 11
255.4737691345579
 21
273.85416898182928
 31
0.0
  0
LINE
  8
DETAIL
  6
CONTINUOUS
 62
     5
 10
255.4737691345579
 20
273.85416898182928
 30
0.0
 11
255.4737691345579
 21
273.85416898182928
 31
0.0
  0
LINE
  8
DETAIL
  6
CONTINUOUS
 62
     5
 10
255.4737691345579
 20
273.85416898182928
 30
0.0
 11
255.44076546943381
 21
273.97689807077762
 31
0.0
  0
LINE
  8
DETAIL
  6
CONTINUOUS
 62
     5
 10
255.44076546943381
 20
273.97689807077762
 30
0.0
 11
255.4088117242361
 21
274.09989725498758
 31
0.0
  0
LINE
  8
DETAIL
  6
CONTINUOUS
 62
     5
 10
-274.09989725421099
 20
-255.40881172345971
 30
0.0
 11
-273.97689760024929
 21
-255.44076559529569
 31
0.0
  0
LINE
  8
DETAIL
  6
CONTINUOUS
 62
     5
 10
-273.97689760024929
 20
-255.44076559529569
 30
0.0
 11
-273.85416804380418
 21
-255.4737693950498
 31
0.0
  0
LINE
  8
DETAIL
  6
CONTINUOUS
 62
     5
 10
-273.85416804380418
 20
-255.4737693950498
 30
0.0
 11
-273.85416804380418
 21
-255.4737693950498
 31
0.0
  0
LINE
  8
DETAIL
  6
CONTINUOUS
 62
     5
 10
-273.85416804380418
 20
-255.4737693950498
 30
0.0
 11
-273.73192624024398
 21
-255.50865024439469
 31
0.0
  0
LINE
  8
DETAIL
  6
CONTINUOUS
 62
     5
 10
-273.73192624024398
 20
-255.50865024439469
 30
0.0
 11
-273.61018007634078
 21
-255.54534404002669
 31
0.0
  0
LINE
  8
DETAIL
  6
CONTINUOUS
 62
     5
 10
-273.61018007634078
 20
-255.54534404002669
 30
0.0
 11
-273.61018007634078
 21
-255.54534404002669
 31
0.0
  0
LINE
  8
DETAIL
  6
CONTINUOUS
 62
     5
 10
-273.61018007634078
 20
-255.54534404002669
 30
0.0
 11
-273.4889037749823
 21
-255.58362159930141
 31
0.0
  0
LINE
  8
DETAIL
  6
CONTINUOUS
 62
     5
 10
-273.4889037749823
 20
-255.58362159930141
 30
0.0
 11
-273.36814667211053
 21
-255.62348464719079
 31
0.0
  0
LINE
  8
DETAIL
  6
CONTINUOUS
 62
     5
 10
-273.36814667211053
 20
-255.62348464719079
 30
0.0
 11
-273.36814667211053
 21
-255.62348464719079
 31
0.0
  0
LINE
  8
DETAIL
  6
CONTINUOUS
 62
     5
 10
-273.36814667211053
 20
-255.62348464719079
 30
0.0
 11
-273.24795421102641
 21
-255.66498453419999
 31
0.0
  0
LINE
  8
DETAIL
  6
CONTINUOUS
 62
     5
 10
-273.24795421102641
 20
-255.66498453419999
 30
0.0
 11
-273.12828115140343
 21
-255.70814020534149
 31
0.0
  0
LINE
  8
DETAIL
  6
CONTINUOUS
 62
     5
 10
-273.12828115140343
 20
-255.70814020534149
 30
0.0
 11
-273.12828115140343
 21
-255.70814020534149
 31
0.0
  0
LINE
  8
DETAIL
  6
CONTINUOUS
 62
     5
 10
-273.12828115140343
 20
-255.70814020534149
 30
0.0
 11
-273.00913148737112
 21
-255.75293718284209
 31
0.0
  0
LINE
  8
DETAIL
  6
CONTINUOUS
 62
     5
 10
-273.00913148737112
 20
-255.75293718284209
 30
0.0
 11
-272.89079683450882
 21
-255.7992597032779
 31
0.0
  0
LINE
  8
DETAIL
  6
CONTINUOUS
 62
     5
 10
-272.89079683450882
 20
-255.7992597032779
 30
0.0
 11
-272.89079683450882
 21
-255.7992597032779
 31
0.0
  0
LINE
  8
DETAIL
  6
CONTINUOUS
 62
     5
 10
-272.89079683450882
 20
-255.7992597032779
 30
0.0
 11
-272.77352680880722
 21
-255.84700998112169
 31
0.0
  0
LINE
  8
DETAIL
  6
CONTINUOUS
 62
     5
 10
-272.77352680880722
 20
-255.84700998112169
 30
0.0
 11
-272.65711540644912
 21
-255.89626342808549
 31
0.0
  0
LINE
  8
DETAIL
  6
CONTINUOUS
 62
     5
 10
-272.65711540644912
 20
-255.89626342808549
 30
0.0
 11
-272.65711540644912
 21
-255.89626342808549
 31
0.0
  0
LINE
  8
DETAIL
  6
CONTINUOUS
 62
     5
 10
-272.65711540644912
 20
-255.89626342808549
 30
0.0
 11
-272.54131461257828
 21
-255.9471116782228
 31
0.0
  0
LINE
  8
DETAIL
  6
CONTINUOUS
 62
     5
 10
-272.54131461257828
 20
-255.9471116782228
 30
0.0
 11
-272.42616398799021
 21
-255.99953805771219
 31
0.0
  0
LINE
  8
DETAIL
  6
CONTINUOUS
 62
     5
 10
-272.42616398799021
 20
-255.99953805771219
 30
0.0
 11
-272.42616398799021
 21
-255.99953805771219
 31
0.0
  0
LINE
  8
DETAIL
  6
CONTINUOUS
 62
     5
 10
-272.42616398799021
 20
-255.99953805771219
 30
0.0
 11
-272.31175573176392
 21
-256.05350606501281
 31
0.0
  0
LINE
  8
DETAIL
  6
CONTINUOUS
 62
     5
 10
-272.31175573176392
 20
-256.05350606501281
 30
0.0
 11
-272.1981050204646
 21
-256.10900819557469
 31
0.0
  0
LINE
  8
DETAIL
  6
CONTINUOUS
 62
     5
 10
-272.1981050204646
 20
-256.10900819557469
 30
0.0
 11
-272.1981050204646
 21
-256.10900819557469
 31
0.0
  0
LINE
  8
DETAIL
  6
CONTINUOUS
 62
     5
 10
-272.1981050204646
 20
-256.10900819557469
 30
0.0
 11
-272.08521290362972
 21
-256.16604227407367
 31
0.0
  0
LINE
  8
DETAIL
  6
CONTINUOUS
 62
     5
 10
-272.08521290362972
 20
-256.16604227407367
 30
0.0
 11
-271.97310094520361
 21
-256.22459844508978
 31
0.0
  0
LINE
  8
DETAIL
  6
CONTINUOUS
 62
     5
 10
-271.97310094520361
 20
-256.22459844508978
 30
0.0
 11
-271.97310094520361
 21
-256.22459844508978
 31
0.0
  0
LINE
  8
DETAIL
  6
CONTINUOUS
 62
     5
 10
-271.97310094520361
 20
-256.22459844508978
 30
0.0
 11
-271.86179457895429
 21
-256.28466536402578
 31
0.0
  0
LINE
  8
DETAIL
  6
CONTINUOUS
 62
     5
 10
-271.86179457895429
 20
-256.28466536402578
 30
0.0
 11
-271.7513142035391
 21
-256.34623340967357
 31
0.0
  0
LINE
  8
DETAIL
  6
CONTINUOUS
 62
     5
 10
-271.7513142035391
 20
-256.34623340967357
 30
0.0
 11
-271.7513142035391
 21
-256.34623340967357
 31
0.0
  0
LINE
  8
DETAIL
  6
CONTINUOUS
 62
     5
 10
-271.7513142035391
 20
-256.34623340967357
 30
0.0
 11
-271.64167865738392
 21
-256.40929301217159
 31
0.0
  0
LINE
  8
DETAIL
  6
CONTINUOUS
 62
     5
 10
-271.64167865738392
 20
-256.40929301217159
 30
0.0
 11
-271.53290557309111
 21
-256.47383308366238
 31
0.0
  0
LINE
  8
DETAIL
  6
CONTINUOUS
 62
     5
 10
-271.53290557309111
 20
-256.47383308366238
 30
0.0
 11
-271.53290557309111
 21
-256.47383308366238
 31
0.0
  0
LINE
  8
DETAIL
  6
CONTINUOUS
 62
     5
 10
-271.53290557309111
 20
-256.47383308366238
 30
0.0
 11
-271.42501338262758
 21
-256.53984125339929
 31
0.0
  0
LINE
  8
DETAIL
  6
CONTINUOUS
 62
     5
 10
-271.42501338262758
 20
-256.53984125339929
 30
0.0
 11
-271.31802492123302
 21
-256.60730153708369
 31
0.0
  0
LINE
  8
DETAIL
  6
CONTINUOUS
 62
     5
 10
-271.31802492123302
 20
-256.60730153708369
 30
0.0
 11
-271.31802492123302
 21
-256.60730153708369
 31
0.0
  0
LINE
  8
DETAIL
  6
CONTINUOUS
 62
     5
 10
-271.31802492123302
 20
-256.60730153708369
 30
0.0
 11
-271.21195981793358
 21
-256.67620046880268
 31
0.0
  0
LINE
  8
DETAIL
  6
CONTINUOUS
 62
     5
 10
-271.21195981793358
 20
-256.67620046880268
 30
0.0
 11
-271.10682047362991
 21
-256.74653826974878
 31
0.0
  0
LINE
  8
DETAIL
  6
CONTINUOUS
 62
     5
 10
-271.10682047362991
 20
-256.74653826974878
 30
0.0
 11
-271.10682047362991
 21
-256.74653826974878
 31
0.0
  0
LINE
  8
DETAIL
  6
CONTINUOUS
 62
     5
 10
-271.10682047362991
 20
-256.74653826974878
 30
0.0
 11
-271.00262110949899
 21
-256.81830579917408
 31
0.0
  0
LINE
  8
DETAIL
  6
CONTINUOUS
 62
     5
 10
-271.00262110949899
 20
-256.81830579917408
 30
0.0
 11
-270.89944045594848
 21
-256.89144278146853
 31
0.0
  0
LINE
  8
DETAIL
  6
CONTINUOUS
 62
     5
 10
-270.89944045594848
 20
-256.89144278146853
 30
0.0
 11
-270.89944045594848
 21
-256.89144278146853
 31
0.0
  0
LINE
  8
DETAIL
  6
CONTINUOUS
 62
     5
 10
-270.89944045594848
 20
-256.89144278146853
 30
0.0
 11
-270.79731316849478
 21
-256.96592387039237
 31
0.0
  0
LINE
  8
DETAIL
  6
CONTINUOUS
 62
     5
 10
-270.79731316849478
 20
-256.96592387039237
 30
0.0
 11
-270.69603309385388
 21
-257.04191457205388
 31
0.0
  0
LINE
  8
DETAIL
  6
CONTINUOUS
 62
     5
 10
-270.69603309385388
 20
-257.04191457205388
 30
0.0
 11
-270.69603309385388
 21
-257.04191457205388
 31
0.0
  0
LINE
  8
DETAIL
  6
CONTINUOUS
 62
     5
 10
-270.69603309385388
 20
-257.04191457205388
 30
0.0
 11
-270.59542959853138
 21
-257.11955271828378
 31
0.0
  0
LINE
  8
DETAIL
  6
CONTINUOUS
 62
     5
 10
-270.59542959853138
 20
-257.11955271828378
 30
0.0
 11
-270.49571493698357
 21
-257.19867459146087
 31
0.0
  0
LINE
  8
DETAIL
  6
CONTINUOUS
 62
     5
 10
-270.49571493698357
 20
-257.19867459146087
 30
0.0
 11
-270.49571493698357
 21
-257.19867459146087
 31
0.0
  0
LINE
  8
DETAIL
  6
CONTINUOUS
 62
     5
 10
-270.49571493698357
 20
-257.19867459146087
 30
0.0
 11
-270.39713838458312
 21
-257.27908971211758
 31
0.0
  0
LINE
  8
DETAIL
  6
CONTINUOUS
 62
     5
 10
-270.39713838458312
 20
-257.27908971211758
 30
0.0
 11
-270.29971441241628
 21
-257.36080210285257
 31
0.0
  0
LINE
  8
DETAIL
  6
CONTINUOUS
 62
     5
 10
-270.29971441241628
 20
-257.36080210285257
 30
0.0
 11
-270.29971441241628
 21
-257.36080210285257
 31
0.0
  0
LINE
  8
DETAIL
  6
CONTINUOUS
 62
     5
 10
-270.29971441241628
 20
-257.36080210285257
 30
0.0
 11
-270.20340350595802
 21
-257.44384080495348
 31
0.0
  0
LINE
  8
DETAIL
  6
CONTINUOUS
 62
     5
 10
-270.20340350595802
 20
-257.44384080495348
 30
0.0
 11
-270.10818501253078
 21
-257.52814043239852
 31
0.0
  0
LINE
  8
DETAIL
  6
CONTINUOUS
 62
     5
 10
-270.10818501253078
 20
-257.52814043239852
 30
0.0
 11
-270.10818501253078
 21
-257.52814043239852
 31
0.0
  0
LINE
  8
DETAIL
  6
CONTINUOUS
 62
     5
 10
-270.10818501253078
 20
-257.52814043239852
 30
0.0
 11
-270.01408283414389
 21
-257.61365779413211
 31
0.0
  0
LINE
  8
DETAIL
  6
CONTINUOUS
 62
     5
 10
-270.01408283414389
 20
-257.61365779413211
 30
0.0
 11
-269.92128022970712
 21
-257.70053290626907
 31
0.0
  0
LINE
  8
DETAIL
  6
CONTINUOUS
 62
     5
 10
-269.92128022970712
 20
-257.70053290626907
 30
0.0
 11
-269.92128022970712
 21
-257.70053290626907
 31
0.0
  0
LINE
  8
DETAIL
  6
CONTINUOUS
 62
     5
 10
-269.92128022970712
 20
-257.70053290626907
 30
0.0
 11
-269.82983622499398
 21
-257.78879198637372
 31
0.0
  0
LINE
  8
DETAIL
  6
CONTINUOUS
 62
     5
 10
-269.82983622499398
 20
-257.78879198637372
 30
0.0
 11
-269.73915355632391
 21
-257.87782285063417
 31
0.0
  0
LINE
  8
DETAIL
  6
CONTINUOUS
 62
     5
 10
-271.53141769951537
 20
-261.0433025366745
 30
0.0
 11
-271.62210036817032
 21
-260.95427167260061
 31
0.0
  0
LINE
  8
DETAIL
  6
CONTINUOUS
 62
     5
 10
-271.62210036817032
 20
-260.95427167260061
 30
0.0
 11
-271.713544372858
 21
-260.86601259264643
 31
0.0
  0
LINE
  8
DETAIL
  6
CONTINUOUS
 62
     5
 10
-271.713544372858
 20
-260.86601259264643
 30
0.0
 11
-271.713544372858
 21
-260.86601259264643
 31
0.0
  0
LINE
  8
DETAIL
  6
CONTINUOUS
 62
     5
 10
-271.713544372858
 20
-260.86601259264643
 30
0.0
 11
-271.80634697725088
 21
-260.77913748059649
 31
0.0
  0
LINE
  8
DETAIL
  6
CONTINUOUS
 62
     5
 10
-271.80634697725088
 20
-260.77913748059649
 30
0.0
 11
-271.90044915558173
 21
-260.69362011889808
 31
0.0
  0
LINE
  8
DETAIL
  6
CONTINUOUS
 62
     5
 10
-271.90044915558173
 20
-260.69362011889808
 30
0.0
 11
-271.90044915558173
 21
-260.69362011889808
 31
0.0
  0
LINE
  8
DETAIL
  6
CONTINUOUS
 62
     5
 10
-271.90044915558173
 20
-260.69362011889808
 30
0.0
 11
-271.99566764894678
 21
-260.60932049145322
 31
0.0
  0
LINE
  8
DETAIL
  6
CONTINUOUS
 62
     5
 10
-271.99566764894678
 20
-260.60932049145322
 30
0.0
 11
-272.0919785553416
 21
-260.52628178932548
 31
0.0
  0
LINE
  8
DETAIL
  6
CONTINUOUS
 62
     5
 10
-272.0919785553416
 20
-260.52628178932548
 30
0.0
 11
-272.0919785553416
 21
-260.52628178932548
 31
0.0
  0
LINE
  8
DETAIL
  6
CONTINUOUS
 62
     5
 10
-272.0919785553416
 20
-260.52628178932548
 30
0.0
 11
-272.1894025274479
 21
-260.44456939854189
 31
0.0
  0
LINE
  8
DETAIL
  6
CONTINUOUS
 62
     5
 10
-272.1894025274479
 20
-260.44456939854189
 30
0.0
 11
-272.28797907979362
 21
-260.36415427782322
 31
0.0
  0
LINE
  8
DETAIL
  6
CONTINUOUS
 62
     5
 10
-272.28797907979362
 20
-260.36415427782322
 30
0.0
 11
-272.28797907979362
 21
-260.36415427782322
 31
0.0
  0
LINE
  8
DETAIL
  6
CONTINUOUS
 62
     5
 10
-272.28797907979362
 20
-260.36415427782322
 30
0.0
 11
-272.38769374129799
 21
-260.28503240457962
 31
0.0
  0
LINE
  8
DETAIL
  6
CONTINUOUS
 62
     5
 10
-272.38769374129799
 20
-260.28503240457962
 30
0.0
 11
-272.48829723659247
 21
-260.20739425828731
 31
0.0
  0
LINE
  8
DETAIL
  6
CONTINUOUS
 62
     5
 10
-272.48829723659247
 20
-260.20739425828731
 30
0.0
 11
-272.48829723659247
 21
-260.20739425828731
 31
0.0
  0
LINE
  8
DETAIL
  6
CONTINUOUS
 62
     5
 10
-272.48829723659247
 20
-260.20739425828731
 30
0.0
 11
-272.58957731122342
 21
-260.13140355657367
 31
0.0
  0
LINE
  8
DETAIL
  6
CONTINUOUS
 62
     5
 10
-272.58957731122342
 20
-260.13140355657367
 30
0.0
 11
-272.69170459868388
 21
-260.05692246760759
 31
0.0
  0
LINE
  8
DETAIL
  6
CONTINUOUS
 62
     5
 10
-272.69170459868388
 20
-260.05692246760759
 30
0.0
 11
-272.69170459868388
 21
-260.05692246760759
 31
0.0
  0
LINE
  8
DETAIL
  6
CONTINUOUS
 62
     5
 10
-272.69170459868388
 20
-260.05692246760759
 30
0.0
 11
-272.79488525225509
 21
-259.98378548528058
 31
0.0
  0
LINE
  8
DETAIL
  6
CONTINUOUS
 62
     5
 10
-272.79488525225509
 20
-259.98378548528058
 30
0.0
 11
-272.89908461641789
 21
-259.91201795583072
 31
0.0
  0
LINE
  8
DETAIL
  6
CONTINUOUS
 62
     5
 10
-272.89908461641789
 20
-259.91201795583072
 30
0.0
 11
-272.89908461641789
 21
-259.91201795583072
 31
0.0
  0
LINE
  8
DETAIL
  6
CONTINUOUS
 62
     5
 10
-272.89908461641789
 20
-259.91201795583072
 30
0.0
 11
-273.00422396076181
 21
-259.84168015486688
 31
0.0
  0
LINE
  8
DETAIL
  6
CONTINUOUS
 62
     5
 10
-273.00422396076181
 20
-259.84168015486688
 30
0.0
 11
-273.11028906410712
 21
-259.77278122313612
 31
0.0
  0
LINE
  8
DETAIL
  6
CONTINUOUS
 62
     5
 10
-273.11028906410712
 20
-259.77278122313612
 30
0.0
 11
-273.11028906410712
 21
-259.77278122313612
 31
0.0
  0
LINE
  8
DETAIL
  6
CONTINUOUS
 62
     5
 10
-273.11028906410712
 20
-259.77278122313612
 30
0.0
 11
-273.21727752555108
 21
-259.70532093944479
 31
0.0
  0
LINE
  8
DETAIL
  6
CONTINUOUS
 62
     5
 10
-273.21727752555108
 20
-259.70532093944479
 30
0.0
 11
-273.32516971606412
 21
-259.63931276970408
 31
0.0
  0
LINE
  8
DETAIL
  6
CONTINUOUS
 62
     5
 10
-273.32516971606412
 20
-259.63931276970408
 30
0.0
 11
-273.32516971606412
 21
-259.63931276970408
 31
0.0
  0
LINE
  8
DETAIL
  6
CONTINUOUS
 62
     5
 10
-273.32516971606412
 20
-259.63931276970408
 30
0.0
 11
-273.433942800404
 21
-259.57477269821209
 31
0.0
  0
LINE
  8
DETAIL
  6
CONTINUOUS
 62
     5
 10
-273.433942800404
 20
-259.57477269821209
 30
0.0
 11
-273.54357834660169
 21
-259.51171309571367
 31
0.0
  0
LINE
  8
DETAIL
  6
CONTINUOUS
 62
     5
 10
-273.54357834660169
 20
-259.51171309571367
 30
0.0
 11
-273.54357834660169
 21
-259.51171309571367
 31
0.0
  0
LINE
  8
DETAIL
  6
CONTINUOUS
 62
     5
 10
-273.54357834660169
 20
-259.51171309571367
 30
0.0
 11
-273.65405872205162
 21
-259.45014505006628
 31
0.0
  0
LINE
  8
DETAIL
  6
CONTINUOUS
 62
     5
 10
-273.65405872205162
 20
-259.45014505006628
 30
0.0
 11
-273.76536508832908
 21
-259.39007813112988
 31
0.0
  0
LINE
  8
DETAIL
  6
CONTINUOUS
 62
     5
 10
-273.76536508832908
 20
-259.39007813112988
 30
0.0
 11
-273.76536508832908
 21
-259.39007813112988
 31
0.0
  0
LINE
  8
DETAIL
  6
CONTINUOUS
 62
     5
 10
-273.76536508832908
 20
-259.39007813112988
 30
0.0
 11
-273.87747704677707
 21
-259.33152196011417
 31
0.0
  0
LINE
  8
DETAIL
  6
CONTINUOUS
 62
     5
 10
-273.87747704677707
 20
-259.33152196011417
 30
0.0
 11
-273.99036916362832
 21
-259.27448788161507
 31
0.0
  0
LINE
  8
DETAIL
  6
CONTINUOUS
 62
     5
 10
-273.99036916362832
 20
-259.27448788161507
 30
0.0
 11
-273.99036916362832
 21
-259.27448788161507
 31
0.0
  0
LINE
  8
DETAIL
  6
CONTINUOUS
 62
     5
 10
-273.99036916362832
 20
-259.27448788161507
 30
0.0
 11
-274.10401987493952
 21
-259.21898575105308
 31
0.0
  0
LINE
  8
DETAIL
  6
CONTINUOUS
 62
     5
 10
-274.10401987493952
 20
-259.21898575105308
 30
0.0
 11
-274.2184281311736
 21
-259.16501774375251
 31
0.0
  0
LINE
  8
DETAIL
  6
CONTINUOUS
 62
     5
 10
-274.2184281311736
 20
-259.16501774375251
 30
0.0
 11
-274.2184281311736
 21
-259.16501774375251
 31
0.0
  0
LINE
  8
DETAIL
  6
CONTINUOUS
 62
     5
 10
-274.2184281311736
 20
-259.16501774375251
 30
0.0
 11
-274.33357875576638
 21
-259.11259136426281
 31
0.0
  0
LINE
  8
DETAIL
  6
CONTINUOUS
 62
     5
 10
-274.33357875576638
 20
-259.11259136426281
 30
0.0
 11
-274.4493795496395
 21
-259.06174311412559
 31
0.0
  0
LINE
  8
DETAIL
  6
CONTINUOUS
 62
     5
 10
-274.4493795496395
 20
-259.06174311412559
 30
0.0
 11
-274.4493795496395
 21
-259.06174311412559
 31
0.0
  0
LINE
  8
DETAIL
  6
CONTINUOUS
 62
     5
 10
-274.4493795496395
 20
-259.06174311412559
 30
0.0
 11
-274.56579095199868
 21
-259.01248966716167
 31
0.0
  0
LINE
  8
DETAIL
  6
CONTINUOUS
 62
     5
 10
-274.56579095199868
 20
-259.01248966716167
 30
0.0
 11
-274.68306097770068
 21
-258.96473938931808
 31
0.0
  0
LINE
  8
DETAIL
  6
CONTINUOUS
 62
     5
 10
-274.68306097770068
 20
-258.96473938931808
 30
0.0
 11
-274.68306097770068
 21
-258.96473938931808
 31
0.0
  0
LINE
  8
DETAIL
  6
CONTINUOUS
 62
     5
 10
-274.68306097770068
 20
-258.96473938931808
 30
0.0
 11
-274.80139563056292
 21
-258.91841686888228
 31
0.0
  0
LINE
  8
DETAIL
  6
CONTINUOUS
 62
     5
 10
-274.80139563056292
 20
-258.91841686888228
 30
0.0
 11
-274.92054529459517
 21
-258.87361989138168
 31
0.0
  0
LINE
  8
DETAIL
  6
CONTINUOUS
 62
     5
 10
-274.92054529459517
 20
-258.87361989138168
 30
0.0
 11
-274.92054529459517
 21
-258.87361989138168
 31
0.0
  0
LINE
  8
DETAIL
  6
CONTINUOUS
 62
     5
 10
-274.92054529459517
 20
-258.87361989138168
 30
0.0
 11
-275.04021835421798
 21
-258.83046422024017
 31
0.0
  0
LINE
  8
DETAIL
  6
CONTINUOUS
 62
     5
 10
-275.04021835421798
 20
-258.83046422024017
 30
0.0
 11
-275.16041081530238
 21
-258.78896433323132
 31
0.0
  0
LINE
  8
DETAIL
  6
CONTINUOUS
 62
     5
 10
-275.16041081530238
 20
-258.78896433323132
 30
0.0
 11
-275.16041081530238
 21
-258.78896433323132
 31
0.0
  0
LINE
  8
DETAIL
  6
CONTINUOUS
 62
     5
 10
-275.16041081530238
 20
-258.78896433323132
 30
0.0
 11
-275.28116791817388
 21
-258.74910128534128
 31
0.0
  0
LINE
  8
DETAIL
  6
CONTINUOUS
 62
     5
 10
-275.28116791817388
 20
-258.74910128534128
 30
0.0
 11
-275.40244421953253
 21
-258.71082372606708
 31
0.0
  0
LINE
  8
DETAIL
  6
CONTINUOUS
 62
     5
 10
-275.40244421953253
 20
-258.71082372606708
 30
0.0
 11
-275.40244421953253
 21
-258.71082372606708
 31
0.0
  0
LINE
  8
DETAIL
  6
CONTINUOUS
 62
     5
 10
-275.40244421953253
 20
-258.71082372606708
 30
0.0
 11
-275.52419038343572
 21
-258.67412993043502
 31
0.0
  0
LINE
  8
DETAIL
  6
CONTINUOUS
 62
     5
 10
-275.52419038343572
 20
-258.67412993043502
 30
0.0
 11
-275.64643218699598
 21
-258.63924908108987
 31
0.0
  0
LINE
  8
DETAIL
  6
CONTINUOUS
 62
     5
 10
-275.64643218699598
 20
-258.63924908108987
 30
0.0
 11
-275.64643218699598
 21
-258.63924908108987
 31
0.0
  0
LINE
  8
DETAIL
  6
CONTINUOUS
 62
     5
 10
-275.64643218699598
 20
-258.63924908108987
 30
0.0
 11
-275.76916174344097
 21
-258.60624528133599
 31
0.0
  0
LINE
  8
DETAIL
  6
CONTINUOUS
 62
     5
 10
-275.76916174344097
 20
-258.60624528133599
 30
0.0
 11
-275.89216139740279
 21
-258.57429140950012
 31
0.0
  0
LINE
  8
DETAIL
  6
CONTINUOUS
 62
     5
 10
-258.57429140950052
 20
-275.89216139740267
 30
0.0
 11
-258.60624515469789
 21
-275.76916221319283
 31
0.0
  0
LINE
  8
DETAIL
  6
CONTINUOUS
 62
     5
 10
-258.60624515469789
 20
-275.76916221319283
 30
0.0
 11
-258.63924881982223
 21
-275.64643312424448
 31
0.0
  0
LINE
  8
DETAIL
  6
CONTINUOUS
 62
     5
 10
-258.63924881982223
 20
-275.64643312424448
 30
0.0
 11
-258.63924881982223
 21
-275.64643312424448
 31
0.0
  0
LINE
  8
DETAIL
  6
CONTINUOUS
 62
     5
 10
-258.63924881982223
 20
-275.64643312424448
 30
0.0
 11
-258.67412952021363
 21
-275.52419178419558
 31
0.0
  0
LINE
  8
DETAIL
  6
CONTINUOUS
 62
     5
 10
-258.67412952021363
 20
-275.52419178419558
 30
0.0
 11
-258.71082315286878
 21
-275.40244608018872
 31
0.0
  0
LINE
  8
DETAIL
  6
CONTINUOUS
 62
     5
 10
-258.71082315286878
 20
-275.40244608018872
 30
0.0
 11
-258.71082315286878
 21
-275.40244608018872
 31
0.0
  0
LINE
  8
DETAIL
  6
CONTINUOUS
 62
     5
 10
-258.71082315286878
 20
-275.40244608018872
 30
0.0
 11
-258.74910053687972
 21
-275.28117023533969
 31
0.0
  0
LINE
  8
DETAIL
  6
CONTINUOUS
 62
     5
 10
-258.74910053687972
 20
-275.28117023533969
 30
0.0
 11
-258.7889633980617
 21
-275.16041358316232
 31
0.0
  0
LINE
  8
DETAIL
  6
CONTINUOUS
 62
     5
 10
-258.7889633980617
 20
-275.16041358316232
 30
0.0
 11
-258.7889633980617
 21
-275.16041358316232
 31
0.0
  0
LINE
  8
DETAIL
  6
CONTINUOUS
 62
     5
 10
-258.7889633980617
 20
-275.16041358316232
 30
0.0
 11
-258.83046308677268
 21
-275.04022156599558
 31
0.0
  0
LINE
  8
DETAIL
  6
CONTINUOUS
 62
     5
 10
-258.83046308677268
 20
-275.04022156599558
 30
0.0
 11
-258.87361854482282
 21
-274.92054895109243
 31
0.0
  0
LINE
  8
DETAIL
  6
CONTINUOUS
 62
     5
 10
-258.87361854482282
 20
-274.92054895109243
 30
0.0
 11
-258.87361854482282
 21
-274.92054895109243
 31
0.0
  0
LINE
  8
DETAIL
  6
CONTINUOUS
 62
     5
 10
-258.87361854482282
 20
-274.92054895109243
 30
0.0
 11
-258.9184152937521
 21
-274.80139973442198
 31
0.0
  0
LINE
  8
DETAIL
  6
CONTINUOUS
 62
     5
 10
-258.9184152937521
 20
-274.80139973442198
 30
0.0
 11
-258.96473758257389
 21
-274.68306550190692
 31
0.0
  0
LINE
  8
DETAIL
  6
CONTINUOUS
 62
     5
 10
-258.96473758257389
 20
-274.68306550190692
 30
0.0
 11
-258.96473758257389
 21
-274.68306550190692
 31
0.0
  0
LINE
  8
DETAIL
  6
CONTINUOUS
 62
     5
 10
-258.96473758257389
 20
-274.68306550190692
 30
0.0
 11
-259.01248763661698
 21
-274.56579584427209
 31
0.0
  0
LINE
  8
DETAIL
  6
CONTINUOUS
 62
     5
 10
-259.01248763661698
 20
-274.56579584427209
 30
0.0
 11
-259.06174085900489
 21
-274.44938478148799
 31
0.0
  0
LINE
  8
DETAIL
  6
CONTINUOUS
 62
     5
 10
-259.06174085900489
 20
-274.44938478148799
 30
0.0
 11
-259.06174085900489
 21
-274.44938478148799
 31
0.0
  0
LINE
  8
DETAIL
  6
CONTINUOUS
 62
     5
 10
-259.06174085900489
 20
-274.44938478148799
 30
0.0
 11
-259.11258887252939
 21
-274.33358432824889
 31
0.0
  0
LINE
  8
DETAIL
  6
CONTINUOUS
 62
     5
 10
-259.11258887252939
 20
-274.33358432824889
 30
0.0
 11
-259.16501500086281
 21
-274.21843404889069
 31
0.0
  0
LINE
  8
DETAIL
  6
CONTINUOUS
 62
     5
 10
-259.16501500086281
 20
-274.21843404889069
 30
0.0
 11
-259.16501500086281
 21
-274.21843404889069
 31
0.0
  0
LINE
  8
DETAIL
  6
CONTINUOUS
 62
     5
 10
-259.16501500086281
 20
-274.21843404889069
 30
0.0
 11
-259.21898274478281
 21
-274.10402613578327
 31
0.0
  0
LINE
  8
DETAIL
  6
CONTINUOUS
 62
     5
 10
-259.21898274478281
 20
-274.10402613578327
 30
0.0
 11
-259.27448461260622
 21
-273.99037574378718
 31
0.0
  0
LINE
  8
DETAIL
  6
CONTINUOUS
 62
     5
 10
-259.27448461260622
 20
-273.99037574378718
 30
0.0
 11
-259.27448461260622
 21
-273.99037574378718
 31
0.0
  0
LINE
  8
DETAIL
  6
CONTINUOUS
 62
     5
 10
-259.27448461260622
 20
-273.99037574378718
 30
0.0
 11
-259.33151843177558
 21
-273.87748391848447
 31
0.0
  0
LINE
  8
DETAIL
  6
CONTINUOUS
 62
     5
 10
-259.33151843177558
 20
-273.87748391848447
 30
0.0
 11
-259.39007429869349
 21
-273.76537230584972
 31
0.0
  0
LINE
  8
DETAIL
  6
CONTINUOUS
 62
     5
 10
-259.39007429869349
 20
-273.76537230584972
 30
0.0
 11
-259.39007429869349
 21
-273.76537230584972
 31
0.0
  0
LINE
  8
DETAIL
  6
CONTINUOUS
 62
     5
 10
-259.39007429869349
 20
-273.76537230584972
 30
0.0
 11
-259.45014085615759
 21
-273.65406636094008
 31
0.0
  0
LINE
  8
DETAIL
  6
CONTINUOUS
 62
     5
 10
-259.45014085615759
 20
-273.65406636094008
 30
0.0
 11
-259.51170866358308
 21
-273.54358617475049
 31
0.0
  0
LINE
  8
DETAIL
  6
CONTINUOUS
 62
     5
 10
-259.51170866358308
 20
-273.54358617475049
 30
0.0
 11
-259.51170866358308
 21
-273.54358617475049
 31
0.0
  0
LINE
  8
DETAIL
  6
CONTINUOUS
 62
     5
 10
-259.51170866358308
 20
-273.54358617475049
 30
0.0
 11
-259.57476830579287
 21
-273.43395032694008
 31
0.0
  0
LINE
  8
DETAIL
  6
CONTINUOUS
 62
     5
 10
-259.57476830579287
 20
-273.43395032694008
 30
0.0
 11
-259.63930855262367
 21
-273.32517671588698
 31
0.0
  0
LINE
  8
DETAIL
  6
CONTINUOUS
 62
     5
 10
-259.63930855262367
 20
-273.32517671588698
 30
0.0
 11
-259.63930855262367
 21
-273.32517671588698
 31
0.0
  0
LINE
  8
DETAIL
  6
CONTINUOUS
 62
     5
 10
-259.63930855262367
 20
-273.32517671588698
 30
0.0
 11
-259.70531686244078
 21
-273.21728408673289
 31
0.0
  0
LINE
  8
DETAIL
  6
CONTINUOUS
 62
     5
 10
-259.70531686244078
 20
-273.21728408673289
 30
0.0
 11
-259.77277726271512
 21
-273.11029525295612
 31
0.0
  0
LINE
  8
DETAIL
  6
CONTINUOUS
 62
     5
 10
-259.77277726271512
 20
-273.11029525295612
 30
0.0
 11
-259.77277726271512
 21
-273.11029525295612
 31
0.0
  0
LINE
  8
DETAIL
  6
CONTINUOUS
 62
     5
 10
-259.77277726271512
 20
-273.11029525295612
 30
0.0
 11
-259.84167633308789
 21
-273.00422976006718
 31
0.0
  0
LINE
  8
DETAIL
  6
CONTINUOUS
 62
     5
 10
-259.84167633308789
 20
-273.00422976006718
 30
0.0
 11
-259.91201429278289
 21
-272.89909001337548
 31
0.0
  0
LINE
  8
DETAIL
  6
CONTINUOUS
 62
     5
 10
-259.91201429278289
 20
-272.89909001337548
 30
0.0
 11
-259.91201429278289
 21
-272.89909001337548
 31
0.0
  0
LINE
  8
DETAIL
  6
CONTINUOUS
 62
     5
 10
-259.91201429278289
 20
-272.89909001337548
 30
0.0
 11
-259.98378198906158
 21
-272.79489025625787
 31
0.0
  0
LINE
  8
DETAIL
  6
CONTINUOUS
 62
     5
 10
-259.98378198906158
 20
-272.79489025625787
 30
0.0
 11
-260.05691914175321
 21
-272.69170922456328
 31
0.0
  0
LINE
  8
DETAIL
  6
CONTINUOUS
 62
     5
 10
-260.05691914175321
 20
-272.69170922456328
 30
0.0
 11
-260.05691914175321
 21
-272.69170922456328
 31
0.0
  0
LINE
  8
DETAIL
  6
CONTINUOUS
 62
     5
 10
-260.05691914175321
 20
-272.69170922456328
 30
0.0
 11
-260.13140040636603
 21
-272.58958156983658
 31
0.0
  0
LINE
  8
DETAIL
  6
CONTINUOUS
 62
     5
 10
-260.13140040636603
 20
-272.58958156983658
 30
0.0
 11
-260.20739130855247
 21
-272.48830111393647
 31
0.0
  0
LINE
  8
DETAIL
  6
CONTINUOUS
 62
     5
 10
-260.20739130855247
 20
-272.48830111393647
 30
0.0
 11
-260.20739130855247
 21
-272.48830111393647
 31
0.0
  0
LINE
  8
DETAIL
  6
CONTINUOUS
 62
     5
 10
-260.20739130855247
 20
-272.48830111393647
 30
0.0
 11
-260.28502969612128
 21
-272.38769720376303
 31
0.0
  0
LINE
  8
DETAIL
  6
CONTINUOUS
 62
     5
 10
-260.28502969612128
 20
-272.38769720376303
 30
0.0
 11
-260.36415183536673
 21
-272.28798211607938
 31
0.0
  0
LINE
  8
DETAIL
  6
CONTINUOUS
 62
     5
 10
-260.36415183536673
 20
-272.28798211607938
 30
0.0
 11
-260.36415183536673
 21
-272.28798211607938
 31
0.0
  0
LINE
  8
DETAIL
  6
CONTINUOUS
 62
     5
 10
-260.36415183536673
 20
-272.28798211607938
 30
0.0
 11
-260.44456722778119
 21
-272.18940515217759
 31
0.0
  0
LINE
  8
DETAIL
  6
CONTINUOUS
 62
     5
 10
-260.44456722778119
 20
-272.18940515217759
 30
0.0
 11
-260.52627989718002
 21
-272.09198078160529
 31
0.0
  0
LINE
  8
DETAIL
  6
CONTINUOUS
 62
     5
 10
-260.52627989718002
 20
-272.09198078160529
 30
0.0
 11
-260.52627989718002
 21
-272.09198078160529
 31
0.0
  0
LINE
  8
DETAIL
  6
CONTINUOUS
 62
     5
 10
-260.52627989718002
 20
-272.09198078160529
 30
0.0
 11
-260.60931888969401
 21
-271.99566948318932
 31
0.0
  0
LINE
  8
DETAIL
  6
CONTINUOUS
 62
     5
 10
-260.60931888969401
 20
-271.99566948318932
 30
0.0
 11
-260.69361881839848
 21
-271.90045060461779
 31
0.0
  0
LINE
  8
DETAIL
  6
CONTINUOUS
 62
     5
 10
-260.69361881839848
 20
-271.90045060461779
 30
0.0
 11
-260.69361881839848
 21
-271.90045060461779
 31
0.0
  0
LINE
  8
DETAIL
  6
CONTINUOUS
 62
     5
 10
-260.69361881839848
 20
-271.90045060461779
 30
0.0
 11
-260.77913649058007
 21
-271.80634804986983
 31
0.0
  0
LINE
  8
DETAIL
  6
CONTINUOUS
 62
     5
 10
-260.77913649058007
 20
-271.80634804986983
 30
0.0
 11
-260.86601192342818
 21
-271.71354507922013
 31
0.0
  0
LINE
  8
DETAIL
  6
CONTINUOUS
 62
     5
 10
-260.86601192342818
 20
-271.71354507922013
 30
0.0
 11
-260.86601192342818
 21
-271.71354507922013
 31
0.0
  0
LINE
  8
DETAIL
  6
CONTINUOUS
 62
     5
 10
-260.86601192342818
 20
-271.71354507922013
 30
0.0
 11
-260.95427133496878
 21
-271.62210071850558
 31
0.0
  0
LINE
  8
DETAIL
  6
CONTINUOUS
 62
     5
 10
-260.95427133496878
 20
-271.62210071850558
 30
0.0
 11
-261.04330253667479
 21
-271.53141769951532
 31
0.0
  0
LINE
  8
DETAIL
  6
CONTINUOUS
 62
     5
 10
-257.87782285063457
 20
-269.73915355632357
 30
0.0
 11
-257.78879164891299
 21
-269.82983657531412
 31
0.0
  0
LINE
  8
DETAIL
  6
CONTINUOUS
 62
     5
 10
-257.78879164891299
 20
-269.82983657531412
 30
0.0
 11
-257.70053223734681
 21
-269.92128093602838
 31
0.0
  0
LINE
  8
DETAIL
  6
CONTINUOUS
 62
     5
 10
-257.70053223734681
 20
-269.92128093602838
 30
0.0
 11
-257.70053223734681
 21
-269.92128093602838
 31
0.0
  0
LINE
  8
DETAIL
  6
CONTINUOUS
 62
     5
 10
-257.70053223734681
 20
-269.92128093602838
 30
0.0
 11
-257.61365680445522
 21
-270.01408390667808
 31
0.0
  0
LINE
  8
DETAIL
  6
CONTINUOUS
 62
     5
 10
-257.61365680445522
 20
-270.01408390667808
 30
0.0
 11
-257.52813913221712
 21
-270.10818646142638
 31
0.0
  0
LINE
  8
DETAIL
  6
CONTINUOUS
 62
     5
 10
-257.52813913221712
 20
-270.10818646142638
 30
0.0
 11
-257.52813913221712
 21
-270.10818646142638
 31
0.0
  0
LINE
  8
DETAIL
  6
CONTINUOUS
 62
     5
 10
-257.52813913221712
 20
-270.10818646142638
 30
0.0
 11
-257.44383920345092
 21
-270.20340533999769
 31
0.0
  0
LINE
  8
DETAIL
  6
CONTINUOUS
 62
     5
 10
-257.44383920345092
 20
-270.20340533999769
 30
0.0
 11
-257.36080021087378
 21
-270.29971663841383
 31
0.0
  0
LINE
  8
DETAIL
  6
CONTINUOUS
 62
     5
 10
-257.36080021087378
 20
-270.29971663841383
 30
0.0
 11
-257.36080021087378
 21
-270.29971663841383
 31
0.0
  0
LINE
  8
DETAIL
  6
CONTINUOUS
 62
     5
 10
-257.36080021087378
 20
-270.29971663841383
 30
0.0
 11
-257.2790875414139
 21
-270.39714100898613
 31
0.0
  0
LINE
  8
DETAIL
  6
CONTINUOUS
 62
     5
 10
-257.2790875414139
 20
-270.39714100898613
 30
0.0
 11
-257.19867214894492
 21
-270.49571797288769
 31
0.0
  0
LINE
  8
DETAIL
  6
CONTINUOUS
 62
     5
 10
-257.19867214894492
 20
-270.49571797288769
 30
0.0
 11
-257.19867214894492
 21
-270.49571797288769
 31
0.0
  0
LINE
  8
DETAIL
  6
CONTINUOUS
 62
     5
 10
-257.19867214894492
 20
-270.49571797288769
 30
0.0
 11
-257.11955000965651
 21
-270.59543306057122
 31
0.0
  0
LINE
  8
DETAIL
  6
CONTINUOUS
 62
     5
 10
-257.11955000965651
 20
-270.59543306057122
 30
0.0
 11
-257.04191162205882
 21
-270.69603697074479
 31
0.0
  0
LINE
  8
DETAIL
  6
CONTINUOUS
 62
     5
 10
-257.04191162205882
 20
-270.69603697074479
 30
0.0
 11
-257.04191162205882
 21
-270.69603697074479
 31
0.0
  0
LINE
  8
DETAIL
  6
CONTINUOUS
 62
     5
 10
-257.04191162205882
 20
-270.69603697074479
 30
0.0
 11
-256.96592071986282
 21
-270.79731742664501
 31
0.0
  0
LINE
  8
DETAIL
  6
CONTINUOUS
 62
     5
 10
-256.96592071986282
 20
-270.79731742664501
 30
0.0
 11
-256.89143945525677
 21
-270.89944508137148
 31
0.0
  0
LINE
  8
DETAIL
  6
CONTINUOUS
 62
     5
 10
-256.89143945525677
 20
-270.89944508137148
 30
0.0
 11
-256.89143945525677
 21
-270.89944508137148
 31
0.0
  0
LINE
  8
DETAIL
  6
CONTINUOUS
 62
     5
 10
-256.89143945525677
 20
-270.89944508137148
 30
0.0
 11
-256.81830230258578
 21
-271.00262611306613
 31
0.0
  0
LINE
  8
DETAIL
  6
CONTINUOUS
 62
     5
 10
-256.81830230258578
 20
-271.00262611306613
 30
0.0
 11
-256.74653460633891
 21
-271.10682587018403
 31
0.0
  0
LINE
  8
DETAIL
  6
CONTINUOUS
 62
     5
 10
-256.74653460633891
 20
-271.10682587018403
 30
0.0
 11
-256.74653460633891
 21
-271.10682587018403
 31
0.0
  0
LINE
  8
DETAIL
  6
CONTINUOUS
 62
     5
 10
-256.74653460633891
 20
-271.10682587018403
 30
0.0
 11
-256.67619664668399
 21
-271.21196561687537
 31
0.0
  0
LINE
  8
DETAIL
  6
CONTINUOUS
 62
     5
 10
-256.67619664668399
 20
-271.21196561687537
 30
0.0
 11
-256.6072975763575
 21
-271.31803110976438
 31
0.0
  0
LINE
  8
DETAIL
  6
CONTINUOUS
 62
     5
 10
-256.6072975763575
 20
-271.31803110976438
 30
0.0
 11
-256.6072975763575
 21
-271.31803110976438
 31
0.0
  0
LINE
  8
DETAIL
  6
CONTINUOUS
 62
     5
 10
-256.6072975763575
 20
-271.31803110976438
 30
0.0
 11
-256.53983717613272
 21
-271.42501994354132
 31
0.0
  0
LINE
  8
DETAIL
  6
CONTINUOUS
 62
     5
 10
-256.53983717613272
 20
-271.42501994354132
 30
0.0
 11
-256.4738288663649
 21
-271.53291257269541
 31
0.0
  0
LINE
  8
DETAIL
  6
CONTINUOUS
 62
     5
 10
-256.4738288663649
 20
-271.53291257269541
 30
0.0
 11
-256.4738288663649
 21
-271.53291257269541
 31
0.0
  0
LINE
  8
DETAIL
  6
CONTINUOUS
 62
     5
 10
-256.4738288663649
 20
-271.53291257269541
 30
0.0
 11
-256.40928861958139
 21
-271.64168618374867
 31
0.0
  0
LINE
  8
DETAIL
  6
CONTINUOUS
 62
     5
 10
-256.40928861958139
 20
-271.64168618374867
 30
0.0
 11
-256.34622897741349
 21
-271.75132203155891
 31
0.0
  0
LINE
  8
DETAIL
  6
CONTINUOUS
 62
     5
 10
-256.34622897741349
 20
-271.75132203155891
 30
0.0
 11
-256.34622897741349
 21
-271.75132203155891
 31
0.0
  0
LINE
  8
DETAIL
  6
CONTINUOUS
 62
     5
 10
-256.34622897741349
 20
-271.75132203155891
 30
0.0
 11
-256.28466117002313
 21
-271.86180221774839
 31
0.0
  0
LINE
  8
DETAIL
  6
CONTINUOUS
 62
     5
 10
-256.28466117002313
 20
-271.86180221774839
 30
0.0
 11
-256.224594612587
 21
-271.97310816265798
 31
0.0
  0
LINE
  8
DETAIL
  6
CONTINUOUS
 62
     5
 10
-256.224594612587
 20
-271.97310816265798
 30
0.0
 11
-256.224594612587
 21
-271.97310816265798
 31
0.0
  0
LINE
  8
DETAIL
  6
CONTINUOUS
 62
     5
 10
-256.224594612587
 20
-271.97310816265798
 30
0.0
 11
-256.16603874569091
 21
-272.08521977529279
 31
0.0
  0
LINE
  8
DETAIL
  6
CONTINUOUS
 62
     5
 10
-256.16603874569091
 20
-272.08521977529279
 30
0.0
 11
-256.10900492653798
 21
-272.19811160059538
 31
0.0
  0
LINE
  8
DETAIL
  6
CONTINUOUS
 62
     5
 10
-256.10900492653798
 20
-272.19811160059538
 30
0.0
 11
-256.10900492653798
 21
-272.19811160059538
 31
0.0
  0
LINE
  8
DETAIL
  6
CONTINUOUS
 62
     5
 10
-256.10900492653798
 20
-272.19811160059538
 30
0.0
 11
-256.05350305872639
 21
-272.31176199259158
 31
0.0
  0
LINE
  8
DETAIL
  6
CONTINUOUS
 62
     5
 10
-256.05350305872639
 20
-272.31176199259158
 30
0.0
 11
-255.99953531481421
 21
-272.42616990569911
 31
0.0
  0
LINE
  8
DETAIL
  6
CONTINUOUS
 62
     5
 10
-255.99953531481421
 20
-272.42616990569911
 30
0.0
 11
-255.99953531481421
 21
-272.42616990569911
 31
0.0
  0
LINE
  8
DETAIL
  6
CONTINUOUS
 62
     5
 10
-255.99953531481421
 20
-272.42616990569911
 30
0.0
 11
-255.94710918648559
 21
-272.54132018505732
 31
0.0
  0
LINE
  8
DETAIL
  6
CONTINUOUS
 62
     5
 10
-255.94710918648559
 20
-272.54132018505732
 30
0.0
 11
-255.89626117296359
 21
-272.65712063829648
 31
0.0
  0
LINE
  8
DETAIL
  6
CONTINUOUS
 62
     5
 10
-255.89626117296359
 20
-272.65712063829648
 30
0.0
 11
-255.89626117296359
 21
-272.65712063829648
 31
0.0
  0
LINE
  8
DETAIL
  6
CONTINUOUS
 62
     5
 10
-255.89626117296359
 20
-272.65712063829648
 30
0.0
 11
-255.8470079505768
 21
-272.77353170108051
 31
0.0
  0
LINE
  8
DETAIL
  6
CONTINUOUS
 62
     5
 10
-255.8470079505768
 20
-272.77353170108051
 30
0.0
 11
-255.79925789653359
 21
-272.89080135871552
 31
0.0
  0
LINE
  8
DETAIL
  6
CONTINUOUS
 62
     5
 10
-255.79925789653359
 20
-272.89080135871552
 30
0.0
 11
-255.79925789653359
 21
-272.89080135871552
 31
0.0
  0
LINE
  8
DETAIL
  6
CONTINUOUS
 62
     5
 10
-255.79925789653359
 20
-272.89080135871552
 30
0.0
 11
-255.75293560771181
 21
-273.00913559123018
 31
0.0
  0
LINE
  8
DETAIL
  6
CONTINUOUS
 62
     5
 10
-255.75293560771181
 20
-273.00913559123018
 30
0.0
 11
-255.70813885878229
 21
-273.12828480790103
 31
0.0
  0
LINE
  8
DETAIL
  6
CONTINUOUS
 62
     5
 10
-255.70813885878229
 20
-273.12828480790103
 30
0.0
 11
-255.70813885878229
 21
-273.12828480790103
 31
0.0
  0
LINE
  8
DETAIL
  6
CONTINUOUS
 62
     5
 10
-255.70813885878229
 20
-273.12828480790103
 30
0.0
 11
-255.6649834007325
 21
-273.24795742280389
 31
0.0
  0
LINE
  8
DETAIL
  6
CONTINUOUS
 62
     5
 10
-255.6649834007325
 20
-273.24795742280389
 30
0.0
 11
-255.62348371202151
 21
-273.36814943997052
 31
0.0
  0
LINE
  8
DETAIL
  6
CONTINUOUS
 62
     5
 10
-255.62348371202151
 20
-273.36814943997052
 30
0.0
 11
-255.62348371202151
 21
-273.36814943997052
 31
0.0
  0
LINE
  8
DETAIL
  6
CONTINUOUS
 62
     5
 10
-255.62348371202151
 20
-273.36814943997052
 30
0.0
 11
-255.58362085083931
 21
-273.48890609214811
 31
0.0
  0
LINE
  8
DETAIL
  6
CONTINUOUS
 62
     5
 10
-255.58362085083931
 20
-273.48890609214811
 30
0.0
 11
-255.54534346682831
 21
-273.61018193699692
 31
0.0
  0
LINE
  8
DETAIL
  6
CONTINUOUS
 62
     5
 10
-255.54534346682831
 20
-273.61018193699692
 30
0.0
 11
-255.54534346682831
 21
-273.61018193699692
 31
0.0
  0
LINE
  8
DETAIL
  6
CONTINUOUS
 62
     5
 10
-255.54534346682831
 20
-273.61018193699692
 30
0.0
 11
-255.5086498341731
 21
-273.73192764100389
 31
0.0
  0
LINE
  8
DETAIL
  6
CONTINUOUS
 62
     5
 10
-255.5086498341731
 20
-273.73192764100389
 30
0.0
 11
-255.47376913378201
 21
-273.85416898105268
 31
0.0
  0
LINE
  8
DETAIL
  6
CONTINUOUS
 62
     5
 10
-255.47376913378201
 20
-273.85416898105268
 30
0.0
 11
-255.47376913378201
 21
-273.85416898105268
 31
0.0
  0
LINE
  8
DETAIL
  6
CONTINUOUS
 62
     5
 10
-255.47376913378201
 20
-273.85416898105268
 30
0.0
 11
-255.4407654686579
 21
-273.97689807000108
 31
0.0
  0
LINE
  8
DETAIL
  6
CONTINUOUS
 62
     5
 10
-255.4407654686579
 20
-273.97689807000108
 30
0.0
 11
-255.4088117234603
 21
-274.09989725421087
 31
0.0
  0
LINE
  8
DETAIL
  6
CONTINUOUS
 62
     5
 10
255.4088117242361
 20
-274.09989725421087
 30
0.0
 11
255.4407655960722
 21
-273.97689760024912
 31
0.0
  0
LINE
  8
DETAIL
  6
CONTINUOUS
 62
     5
 10
255.4407655960722
 20
-273.97689760024912
 30
0.0
 11
255.4737693958258
 21
-273.85416804380372
 31
0.0
  0
LINE
  8
DETAIL
  6
CONTINUOUS
 62
     5
 10
255.4737693958258
 20
-273.85416804380372
 30
0.0
 11
255.4737693958258
 21
-273.85416804380372
 31
0.0
  0
LINE
  8
DETAIL
  6
CONTINUOUS
 62
     5
 10
255.4737693958258
 20
-273.85416804380372
 30
0.0
 11
255.508650245171
 21
-273.73192624024358
 31
0.0
  0
LINE
  8
DETAIL
  6
CONTINUOUS
 62
     5
 10
255.508650245171
 20
-273.73192624024358
 30
0.0
 11
255.545344040803
 21
-273.61018007634038
 31
0.0
  0
LINE
  8
DETAIL
  6
CONTINUOUS
 62
     5
 10
255.545344040803
 20
-273.61018007634038
 30
0.0
 11
255.545344040803
 21
-273.61018007634038
 31
0.0
  0
LINE
  8
DETAIL
  6
CONTINUOUS
 62
     5
 10
255.545344040803
 20
-273.61018007634038
 30
0.0
 11
255.58362160007741
 21
-273.48890377498168
 31
0.0
  0
LINE
  8
DETAIL
  6
CONTINUOUS
 62
     5
 10
255.58362160007741
 20
-273.48890377498168
 30
0.0
 11
255.62348464796719
 21
-273.36814667211007
 31
0.0
  0
LINE
  8
DETAIL
  6
CONTINUOUS
 62
     5
 10
255.62348464796719
 20
-273.36814667211007
 30
0.0
 11
255.62348464796719
 21
-273.36814667211007
 31
0.0
  0
LINE
  8
DETAIL
  6
CONTINUOUS
 62
     5
 10
255.62348464796719
 20
-273.36814667211007
 30
0.0
 11
255.66498453497641
 21
-273.24795421102613
 31
0.0
  0
LINE
  8
DETAIL
  6
CONTINUOUS
 62
     5
 10
255.66498453497641
 20
-273.24795421102613
 30
0.0
 11
255.7081402061176
 21
-273.12828115140309
 31
0.0
  0
LINE
  8
DETAIL
  6
CONTINUOUS
 62
     5
 10
255.7081402061176
 20
-273.12828115140309
 30
0.0
 11
255.7081402061176
 21
-273.12828115140309
 31
0.0
  0
LINE
  8
DETAIL
  6
CONTINUOUS
 62
     5
 10
255.7081402061176
 20
-273.12828115140309
 30
0.0
 11
255.75293718361829
 21
-273.00913148737078
 31
0.0
  0
LINE
  8
DETAIL
  6
CONTINUOUS
 62
     5
 10
255.75293718361829
 20
-273.00913148737078
 30
0.0
 11
255.79925970405409
 21
-272.89079683450848
 31
0.0
  0
LINE
  8
DETAIL
  6
CONTINUOUS
 62
     5
 10
255.79925970405409
 20
-272.89079683450848
 30
0.0
 11
255.79925970405409
 21
-272.89079683450848
 31
0.0
  0
LINE
  8
DETAIL
  6
CONTINUOUS
 62
     5
 10
255.79925970405409
 20
-272.89079683450848
 30
0.0
 11
255.8470099818978
 21
-272.77352680880688
 31
0.0
  0
LINE
  8
DETAIL
  6
CONTINUOUS
 62
     5
 10
255.8470099818978
 20
-272.77352680880688
 30
0.0
 11
255.8962634288616
 21
-272.65711540644872
 31
0.0
  0
LINE
  8
DETAIL
  6
CONTINUOUS
 62
     5
 10
255.8962634288616
 20
-272.65711540644872
 30
0.0
 11
255.8962634288616
 21
-272.65711540644872
 31
0.0
  0
LINE
  8
DETAIL
  6
CONTINUOUS
 62
     5
 10
255.8962634288616
 20
-272.65711540644872
 30
0.0
 11
255.94711167899871
 21
-272.54131461257828
 31
0.0
  0
LINE
  8
DETAIL
  6
CONTINUOUS
 62
     5
 10
255.94711167899871
 20
-272.54131461257828
 30
0.0
 11
255.99953805848841
 21
-272.42616398798998
 31
0.0
  0
LINE
  8
DETAIL
  6
CONTINUOUS
 62
     5
 10
255.99953805848841
 20
-272.42616398798998
 30
0.0
 11
255.99953805848841
 21
-272.42616398798998
 31
0.0
  0
LINE
  8
DETAIL
  6
CONTINUOUS
 62
     5
 10
255.99953805848841
 20
-272.42616398798998
 30
0.0
 11
256.05350606578901
 21
-272.31175573176381
 31
0.0
  0
LINE
  8
DETAIL
  6
CONTINUOUS
 62
     5
 10
256.05350606578901
 20
-272.31175573176381
 30
0.0
 11
256.10900819635123
 21
-272.19810502046442
 31
0.0
  0
LINE
  8
DETAIL
  6
CONTINUOUS
 62
     5
 10
256.10900819635123
 20
-272.19810502046442
 30
0.0
 11
256.10900819635123
 21
-272.19810502046442
 31
0.0
  0
LINE
  8
DETAIL
  6
CONTINUOUS
 62
     5
 10
256.10900819635123
 20
-272.19810502046442
 30
0.0
 11
256.16604227485038
 21
-272.08521290362938
 31
0.0
  0
LINE
  8
DETAIL
  6
CONTINUOUS
 62
     5
 10
256.16604227485038
 20
-272.08521290362938
 30
0.0
 11
256.22459844586592
 21
-271.97310094520338
 31
0.0
  0
LINE
  8
DETAIL
  6
CONTINUOUS
 62
     5
 10
256.22459844586592
 20
-271.97310094520338
 30
0.0
 11
256.22459844586592
 21
-271.97310094520338
 31
0.0
  0
LINE
  8
DETAIL
  6
CONTINUOUS
 62
     5
 10
256.22459844586592
 20
-271.97310094520338
 30
0.0
 11
256.28466536480209
 21
-271.86179457895372
 31
0.0
  0
LINE
  8
DETAIL
  6
CONTINUOUS
 62
     5
 10
256.28466536480209
 20
-271.86179457895372
 30
0.0
 11
256.34623341044971
 21
-271.75131420353893
 31
0.0
  0
LINE
  8
DETAIL
  6
CONTINUOUS
 62
     5
 10
256.34623341044971
 20
-271.75131420353893
 30
0.0
 11
256.34623341044971
 21
-271.75131420353893
 31
0.0
  0
LINE
  8
DETAIL
  6
CONTINUOUS
 62
     5
 10
256.34623341044971
 20
-271.75131420353893
 30
0.0
 11
256.40929301294801
 21
-271.64167865738352
 31
0.0
  0
LINE
  8
DETAIL
  6
CONTINUOUS
 62
     5
 10
256.40929301294801
 20
-271.64167865738352
 30
0.0
 11
256.47383308443841
 21
-271.53290557309089
 31
0.0
  0
LINE
  8
DETAIL
  6
CONTINUOUS
 62
     5
 10
256.47383308443841
 20
-271.53290557309089
 30
0.0
 11
256.47383308443841
 21
-271.53290557309089
 31
0.0
  0
LINE
  8
DETAIL
  6
CONTINUOUS
 62
     5
 10
256.47383308443841
 20
-271.53290557309089
 30
0.0
 11
256.5398412541756
 21
-271.42501338262758
 31
0.0
  0
LINE
  8
DETAIL
  6
CONTINUOUS
 62
     5
 10
256.5398412541756
 20
-271.42501338262758
 30
0.0
 11
256.60730153785988
 21
-271.31802492123268
 31
0.0
  0
LINE
  8
DETAIL
  6
CONTINUOUS
 62
     5
 10
256.60730153785988
 20
-271.31802492123268
 30
0.0
 11
256.60730153785988
 21
-271.31802492123268
 31
0.0
  0
LINE
  8
DETAIL
  6
CONTINUOUS
 62
     5
 10
256.60730153785988
 20
-271.31802492123268
 30
0.0
 11
256.67620046957899
 21
-271.21195981793329
 31
0.0
  0
LINE
  8
DETAIL
  6
CONTINUOUS
 62
     5
 10
256.67620046957899
 20
-271.21195981793329
 30
0.0
 11
256.74653827052509
 21
-271.10682047362968
 31
0.0
  0
LINE
  8
DETAIL
  6
CONTINUOUS
 62
     5
 10
256.74653827052509
 20
-271.10682047362968
 30
0.0
 11
256.74653827052509
 21
-271.10682047362968
 31
0.0
  0
LINE
  8
DETAIL
  6
CONTINUOUS
 62
     5
 10
256.74653827052509
 20
-271.10682047362968
 30
0.0
 11
256.81830579995051
 21
-271.00262110949859
 31
0.0
  0
LINE
  8
DETAIL
  6
CONTINUOUS
 62
     5
 10
256.81830579995051
 20
-271.00262110949859
 30
0.0
 11
256.89144278224478
 21
-270.89944045594842
 31
0.0
  0
LINE
  8
DETAIL
  6
CONTINUOUS
 62
     5
 10
256.89144278224478
 20
-270.89944045594842
 30
0.0
 11
256.89144278224478
 21
-270.89944045594842
 31
0.0
  0
LINE
  8
DETAIL
  6
CONTINUOUS
 62
     5
 10
256.89144278224478
 20
-270.89944045594842
 30
0.0
 11
256.96592387116903
 21
-270.7973131684945
 31
0.0
  0
LINE
  8
DETAIL
  6
CONTINUOUS
 62
     5
 10
256.96592387116903
 20
-270.7973131684945
 30
0.0
 11
257.04191457283042
 21
-270.69603309385371
 31
0.0
  0
LINE
  8
DETAIL
  6
CONTINUOUS
 62
     5
 10
257.04191457283042
 20
-270.69603309385371
 30
0.0
 11
257.04191457283042
 21
-270.69603309385371
 31
0.0
  0
LINE
  8
DETAIL
  6
CONTINUOUS
 62
     5
 10
257.04191457283042
 20
-270.69603309385371
 30
0.0
 11
257.11955271905941
 21
-270.59542959853133
 31
0.0
  0
LINE
  8
DETAIL
  6
CONTINUOUS
 62
     5
 10
257.11955271905941
 20
-270.59542959853133
 30
0.0
 11
257.19867459223099
 21
-270.49571493698318
 31
0.0
  0
LINE
  8
DETAIL
  6
CONTINUOUS
 62
     5
 10
257.19867459223099
 20
-270.49571493698318
 30
0.0
 11
257.19867459223099
 21
-270.49571493698318
 31
0.0
  0
LINE
  8
DETAIL
  6
CONTINUOUS
 62
     5
 10
257.19867459223099
 20
-270.49571493698318
 30
0.0
 11
257.27908971287309
 21
-270.39713838458317
 31
0.0
  0
LINE
  8
DETAIL
  6
CONTINUOUS
 62
     5
 10
257.27908971287309
 20
-270.39713838458317
 30
0.0
 11
257.36080210357898
 21
-270.29971441241588
 31
0.0
  0
LINE
  8
DETAIL
  6
CONTINUOUS
 62
     5
 10
257.36080210357898
 20
-270.29971441241588
 30
0.0
 11
257.36080210357898
 21
-270.29971441241588
 31
0.0
  0
LINE
  8
DETAIL
  6
CONTINUOUS
 62
     5
 10
257.36080210357898
 20
-270.29971441241588
 30
0.0
 11
257.44384080563191
 21
-270.20340350595768
 31
0.0
  0
LINE
  8
DETAIL
  6
CONTINUOUS
 62
     5
 10
257.44384080563191
 20
-270.20340350595768
 30
0.0
 11
257.52814043300708
 21
-270.10818501253073
 31
0.0
  0
LINE
  8
DETAIL
  6
CONTINUOUS
 62
     5
 10
257.52814043300708
 20
-270.10818501253073
 30
0.0
 11
257.52814043300708
 21
-270.10818501253073
 31
0.0
  0
LINE
  8
DETAIL
  6
CONTINUOUS
 62
     5
 10
257.52814043300708
 20
-270.10818501253073
 30
0.0
 11
257.61365779464438
 21
-270.01408283414338
 31
0.0
  0
LINE
  8
DETAIL
  6
CONTINUOUS
 62
     5
 10
257.61365779464438
 20
-270.01408283414338
 30
0.0
 11
257.70053290664782
 21
-269.92128022970678
 31
0.0
  0
LINE
  8
DETAIL
  6
CONTINUOUS
 62
     5
 10
257.70053290664782
 20
-269.92128022970678
 30
0.0
 11
257.70053290664782
 21
-269.92128022970678
 31
0.0
  0
LINE
  8
DETAIL
  6
CONTINUOUS
 62
     5
 10
257.70053290664782
 20
-269.92128022970678
 30
0.0
 11
257.78879198657569
 21
-269.82983622499358
 31
0.0
  0
LINE
  8
DETAIL
  6
CONTINUOUS
 62
     5
 10
257.78879198657569
 20
-269.82983622499358
 30
0.0
 11
257.87782285063417
 21
-269.73915355632357
 31
0.0
  0
LINE
  8
DETAIL
  6
CONTINUOUS
 62
     5
 10
261.0433025374507
 20
-271.53141769951532
 30
0.0
 11
260.95427167337692
 21
-271.62210036816998
 31
0.0
  0
LINE
  8
DETAIL
  6
CONTINUOUS
 62
     5
 10
260.95427167337692
 20
-271.62210036816998
 30
0.0
 11
260.86601259342251
 21
-271.71354437285731
 31
0.0
  0
LINE
  8
DETAIL
  6
CONTINUOUS
 62
     5
 10
260.86601259342251
 20
-271.71354437285731
 30
0.0
 11
260.86601259342251
 21
-271.71354437285731
 31
0.0
  0
LINE
  8
DETAIL
  6
CONTINUOUS
 62
     5
 10
260.86601259342251
 20
-271.71354437285731
 30
0.0
 11
260.7791374813728
 21
-271.80634697725048
 31
0.0
  0
LINE
  8
DETAIL
  6
CONTINUOUS
 62
     5
 10
260.7791374813728
 20
-271.80634697725048
 30
0.0
 11
260.69362011967439
 21
-271.90044915558138
 31
0.0
  0
LINE
  8
DETAIL
  6
CONTINUOUS
 62
     5
 10
260.69362011967439
 20
-271.90044915558138
 30
0.0
 11
260.69362011967439
 21
-271.90044915558138
 31
0.0
  0
LINE
  8
DETAIL
  6
CONTINUOUS
 62
     5
 10
260.69362011967439
 20
-271.90044915558138
 30
0.0
 11
260.60932049222947
 21
-271.99566764894638
 31
0.0
  0
LINE
  8
DETAIL
  6
CONTINUOUS
 62
     5
 10
260.60932049222947
 20
-271.99566764894638
 30
0.0
 11
260.52628179010162
 21
-272.09197855534143
 31
0.0
  0
LINE
  8
DETAIL
  6
CONTINUOUS
 62
     5
 10
260.52628179010162
 20
-272.09197855534143
 30
0.0
 11
260.52628179010162
 21
-272.09197855534143
 31
0.0
  0
LINE
  8
DETAIL
  6
CONTINUOUS
 62
     5
 10
260.52628179010162
 20
-272.09197855534143
 30
0.0
 11
260.4445693993182
 21
-272.18940252744773
 31
0.0
  0
LINE
  8
DETAIL
  6
CONTINUOUS
 62
     5
 10
260.4445693993182
 20
-272.18940252744773
 30
0.0
 11
260.3641542785997
 21
-272.28797907979362
 31
0.0
  0
LINE
  8
DETAIL
  6
CONTINUOUS
 62
     5
 10
260.3641542785997
 20
-272.28797907979362
 30
0.0
 11
260.3641542785997
 21
-272.28797907979362
 31
0.0
  0
LINE
  8
DETAIL
  6
CONTINUOUS
 62
     5
 10
260.3641542785997
 20
-272.28797907979362
 30
0.0
 11
260.28503240535628
 21
-272.38769374129788
 31
0.0
  0
LINE
  8
DETAIL
  6
CONTINUOUS
 62
     5
 10
260.28503240535628
 20
-272.38769374129788
 30
0.0
 11
260.20739425906368
 21
-272.48829723659208
 31
0.0
  0
LINE
  8
DETAIL
  6
CONTINUOUS
 62
     5
 10
260.20739425906368
 20
-272.48829723659208
 30
0.0
 11
260.20739425906368
 21
-272.48829723659208
 31
0.0
  0
LINE
  8
DETAIL
  6
CONTINUOUS
 62
     5
 10
260.20739425906368
 20
-272.48829723659208
 30
0.0
 11
260.1314035573497
 21
-272.58957731122291
 31
0.0
  0
LINE
  8
DETAIL
  6
CONTINUOUS
 62
     5
 10
260.1314035573497
 20
-272.58957731122291
 30
0.0
 11
260.05692246838362
 21
-272.69170459868371
 31
0.0
  0
LINE
  8
DETAIL
  6
CONTINUOUS
 62
     5
 10
260.05692246838362
 20
-272.69170459868371
 30
0.0
 11
260.05692246838362
 21
-272.69170459868371
 31
0.0
  0
LINE
  8
DETAIL
  6
CONTINUOUS
 62
     5
 10
260.05692246838362
 20
-272.69170459868371
 30
0.0
 11
259.98378548605677
 21
-272.79488525225469
 31
0.0
  0
LINE
  8
DETAIL
  6
CONTINUOUS
 62
     5
 10
259.98378548605677
 20
-272.79488525225469
 30
0.0
 11
259.91201795660709
 21
-272.89908461641772
 31
0.0
  0
LINE
  8
DETAIL
  6
CONTINUOUS
 62
     5
 10
259.91201795660709
 20
-272.89908461641772
 30
0.0
 11
259.91201795660709
 21
-272.89908461641772
 31
0.0
  0
LINE
  8
DETAIL
  6
CONTINUOUS
 62
     5
 10
259.91201795660709
 20
-272.89908461641772
 30
0.0
 11
259.84168015564342
 21
-273.00422396076158
 31
0.0
  0
LINE
  8
DETAIL
  6
CONTINUOUS
 62
     5
 10
259.84168015564342
 20
-273.00422396076158
 30
0.0
 11
259.7727812239126
 21
-273.11028906410678
 31
0.0
  0
LINE
  8
DETAIL
  6
CONTINUOUS
 62
     5
 10
259.7727812239126
 20
-273.11028906410678
 30
0.0
 11
259.7727812239126
 21
-273.11028906410678
 31
0.0
  0
LINE
  8
DETAIL
  6
CONTINUOUS
 62
     5
 10
259.7727812239126
 20
-273.11028906410678
 30
0.0
 11
259.7053209402211
 21
-273.21727752555091
 31
0.0
  0
LINE
  8
DETAIL
  6
CONTINUOUS
 62
     5
 10
259.7053209402211
 20
-273.21727752555091
 30
0.0
 11
259.6393127704805
 21
-273.32516971606412
 31
0.0
  0
LINE
  8
DETAIL
  6
CONTINUOUS
 62
     5
 10
259.6393127704805
 20
-273.32516971606412
 30
0.0
 11
259.6393127704805
 21
-273.32516971606412
 31
0.0
  0
LINE
  8
DETAIL
  6
CONTINUOUS
 62
     5
 10
259.6393127704805
 20
-273.32516971606412
 30
0.0
 11
259.57477269898823
 21
-273.43394280040388
 31
0.0
  0
LINE
  8
DETAIL
  6
CONTINUOUS
 62
     5
 10
259.57477269898823
 20
-273.43394280040388
 30
0.0
 11
259.5117130964901
 21
-273.54357834660152
 31
0.0
  0
LINE
  8
DETAIL
  6
CONTINUOUS
 62
     5
 10
259.5117130964901
 20
-273.54357834660152
 30
0.0
 11
259.5117130964901
 21
-273.54357834660152
 31
0.0
  0
LINE
  8
DETAIL
  6
CONTINUOUS
 62
     5
 10
259.5117130964901
 20
-273.54357834660152
 30
0.0
 11
259.45014505084248
 21
-273.65405872205127
 31
0.0
  0
LINE
  8
DETAIL
  6
CONTINUOUS
 62
     5
 10
259.45014505084248
 20
-273.65405872205127
 30
0.0
 11
259.39007813190619
 21
-273.76536508832908
 31
0.0
  0
LINE
  8
DETAIL
  6
CONTINUOUS
 62
     5
 10
259.39007813190619
 20
-273.76536508832908
 30
0.0
 11
259.39007813190619
 21
-273.76536508832908
 31
0.0
  0
LINE
  8
DETAIL
  6
CONTINUOUS
 62
     5
 10
259.39007813190619
 20
-273.76536508832908
 30
0.0
 11
259.33152196089043
 21
-273.87747704677702
 31
0.0
  0
LINE
  8
DETAIL
  6
CONTINUOUS
 62
     5
 10
259.33152196089043
 20
-273.87747704677702
 30
0.0
 11
259.27448788239138
 21
-273.99036916362832
 31
0.0
  0
LINE
  8
DETAIL
  6
CONTINUOUS
 62
     5
 10
259.27448788239138
 20
-273.99036916362832
 30
0.0
 11
259.27448788239138
 21
-273.99036916362832
 31
0.0
  0
LINE
  8
DETAIL
  6
CONTINUOUS
 62
     5
 10
259.27448788239138
 20
-273.99036916362832
 30
0.0
 11
259.21898575182922
 21
-274.10401987493918
 31
0.0
  0
LINE
  8
DETAIL
  6
CONTINUOUS
 62
     5
 10
259.21898575182922
 20
-274.10401987493918
 30
0.0
 11
259.16501774452883
 21
-274.21842813117348
 31
0.0
  0
LINE
  8
DETAIL
  6
CONTINUOUS
 62
     5
 10
259.16501774452883
 20
-274.21842813117348
 30
0.0
 11
259.16501774452883
 21
-274.21842813117348
 31
0.0
  0
LINE
  8
DETAIL
  6
CONTINUOUS
 62
     5
 10
259.16501774452883
 20
-274.21842813117348
 30
0.0
 11
259.11259136503918
 21
-274.33357875576598
 31
0.0
  0
LINE
  8
DETAIL
  6
CONTINUOUS
 62
     5
 10
259.11259136503918
 20
-274.33357875576598
 30
0.0
 11
259.06174311490201
 21
-274.44937954963927
 31
0.0
  0
LINE
  8
DETAIL
  6
CONTINUOUS
 62
     5
 10
259.06174311490201
 20
-274.44937954963927
 30
0.0
 11
259.06174311490201
 21
-274.44937954963927
 31
0.0
  0
LINE
  8
DETAIL
  6
CONTINUOUS
 62
     5
 10
259.06174311490201
 20
-274.44937954963927
 30
0.0
 11
259.01248966793821
 21
-274.56579095199862
 31
0.0
  0
LINE
  8
DETAIL
  6
CONTINUOUS
 62
     5
 10
259.01248966793821
 20
-274.56579095199862
 30
0.0
 11
258.96473939009428
 21
-274.68306097770028
 31
0.0
  0
LINE
  8
DETAIL
  6
CONTINUOUS
 62
     5
 10
258.96473939009428
 20
-274.68306097770028
 30
0.0
 11
258.96473939009428
 21
-274.68306097770028
 31
0.0
  0
LINE
  8
DETAIL
  6
CONTINUOUS
 62
     5
 10
258.96473939009428
 20
-274.68306097770028
 30
0.0
 11
258.91841686965859
 21
-274.80139563056252
 31
0.0
  0
LINE
  8
DETAIL
  6
CONTINUOUS
 62
     5
 10
258.91841686965859
 20
-274.80139563056252
 30
0.0
 11
258.87361989215788
 21
-274.92054529459489
 31
0.0
  0
LINE
  8
DETAIL
  6
CONTINUOUS
 62
     5
 10
258.87361989215788
 20
-274.92054529459489
 30
0.0
 11
258.87361989215788
 21
-274.92054529459489
 31
0.0
  0
LINE
  8
DETAIL
  6
CONTINUOUS
 62
     5
 10
258.87361989215788
 20
-274.92054529459489
 30
0.0
 11
258.83046422101643
 21
-275.04021835421798
 31
0.0
  0
LINE
  8
DETAIL
  6
CONTINUOUS
 62
     5
 10
258.83046422101643
 20
-275.04021835421798
 30
0.0
 11
258.78896433400752
 21
-275.16041081530187
 31
0.0
  0
LINE
  8
DETAIL
  6
CONTINUOUS
 62
     5
 10
258.78896433400752
 20
-275.16041081530187
 30
0.0
 11
258.78896433400752
 21
-275.16041081530187
 31
0.0
  0
LINE
  8
DETAIL
  6
CONTINUOUS
 62
     5
 10
258.78896433400752
 20
-275.16041081530187
 30
0.0
 11
258.74910128611782
 21
-275.28116791817348
 31
0.0
  0
LINE
  8
DETAIL
  6
CONTINUOUS
 62
     5
 10
258.74910128611782
 20
-275.28116791817348
 30
0.0
 11
258.71082372684339
 21
-275.40244421953207
 31
0.0
  0
LINE
  8
DETAIL
  6
CONTINUOUS
 62
     5
 10
258.71082372684339
 20
-275.40244421953207
 30
0.0
 11
258.71082372684339
 21
-275.40244421953207
 31
0.0
  0
LINE
  8
DETAIL
  6
CONTINUOUS
 62
     5
 10
258.71082372684339
 20
-275.40244421953207
 30
0.0
 11
258.67412993121138
 21
-275.52419038343538
 31
0.0
  0
LINE
  8
DETAIL
  6
CONTINUOUS
 62
     5
 10
258.67412993121138
 20
-275.52419038343538
 30
0.0
 11
258.63924908186618
 21
-275.64643218699558
 31
0.0
  0
LINE
  8
DETAIL
  6
CONTINUOUS
 62
     5
 10
258.63924908186618
 20
-275.64643218699558
 30
0.0
 11
258.63924908186618
 21
-275.64643218699558
 31
0.0
  0
LINE
  8
DETAIL
  6
CONTINUOUS
 62
     5
 10
258.63924908186618
 20
-275.64643218699558
 30
0.0
 11
258.60624528211252
 21
-275.76916174344069
 31
0.0
  0
LINE
  8
DETAIL
  6
CONTINUOUS
 62
     5
 10
258.60624528211252
 20
-275.76916174344069
 30
0.0
 11
258.57429141027637
 21
-275.89216139740267
 31
0.0
  0
LINE
  8
DETAIL
  6
CONTINUOUS
 62
     5
 10
275.89216139817881
 20
-258.57429140950012
 30
0.0
 11
275.76916221396908
 21
-258.60624515469772
 31
0.0
  0
LINE
  8
DETAIL
  6
CONTINUOUS
 62
     5
 10
275.76916221396908
 20
-258.60624515469772
 30
0.0
 11
275.64643312502079
 21
-258.63924881982189
 31
0.0
  0
LINE
  8
DETAIL
  6
CONTINUOUS
 62
     5
 10
275.64643312502079
 20
-258.63924881982189
 30
0.0
 11
275.64643312502079
 21
-258.63924881982189
 31
0.0
  0
LINE
  8
DETAIL
  6
CONTINUOUS
 62
     5
 10
275.64643312502079
 20
-258.63924881982189
 30
0.0
 11
275.52419178497212
 21
-258.67412952021311
 31
0.0
  0
LINE
  8
DETAIL
  6
CONTINUOUS
 62
     5
 10
275.52419178497212
 20
-258.67412952021311
 30
0.0
 11
275.40244608096492
 21
-258.7108231528685
 31
0.0
  0
LINE
  8
DETAIL
  6
CONTINUOUS
 62
     5
 10
275.40244608096492
 20
-258.7108231528685
 30
0.0
 11
275.40244608096492
 21
-258.7108231528685
 31
0.0
  0
LINE
  8
DETAIL
  6
CONTINUOUS
 62
     5
 10
275.40244608096492
 20
-258.7108231528685
 30
0.0
 11
275.28117023611583
 21
-258.74910053687961
 31
0.0
  0
LINE
  8
DETAIL
  6
CONTINUOUS
 62
     5
 10
275.28117023611583
 20
-258.74910053687961
 30
0.0
 11
275.16041358393841
 21
-258.78896339806118
 31
0.0
  0
LINE
  8
DETAIL
  6
CONTINUOUS
 62
     5
 10
275.16041358393841
 20
-258.78896339806118
 30
0.0
 11
275.16041358393841
 21
-258.78896339806118
 31
0.0
  0
LINE
  8
DETAIL
  6
CONTINUOUS
 62
     5
 10
275.16041358393841
 20
-258.78896339806118
 30
0.0
 11
275.04022156677172
 21
-258.83046308677251
 31
0.0
  0
LINE
  8
DETAIL
  6
CONTINUOUS
 62
     5
 10
275.04022156677172
 20
-258.83046308677251
 30
0.0
 11
274.9205489518688
 21
-258.87361854482242
 31
0.0
  0
LINE
  8
DETAIL
  6
CONTINUOUS
 62
     5
 10
274.9205489518688
 20
-258.87361854482242
 30
0.0
 11
274.9205489518688
 21
-258.87361854482242
 31
0.0
  0
LINE
  8
DETAIL
  6
CONTINUOUS
 62
     5
 10
274.9205489518688
 20
-258.87361854482242
 30
0.0
 11
274.80139973519817
 21
-258.91841529375188
 31
0.0
  0
LINE
  8
DETAIL
  6
CONTINUOUS
 62
     5
 10
274.80139973519817
 20
-258.91841529375188
 30
0.0
 11
274.68306550268329
 21
-258.96473758257372
 31
0.0
  0
LINE
  8
DETAIL
  6
CONTINUOUS
 62
     5
 10
274.68306550268329
 20
-258.96473758257372
 30
0.0
 11
274.68306550268329
 21
-258.96473758257372
 31
0.0
  0
LINE
  8
DETAIL
  6
CONTINUOUS
 62
     5
 10
274.68306550268329
 20
-258.96473758257372
 30
0.0
 11
274.56579584504863
 21
-259.01248763661658
 31
0.0
  0
LINE
  8
DETAIL
  6
CONTINUOUS
 62
     5
 10
274.56579584504863
 20
-259.01248763661658
 30
0.0
 11
274.44938478226447
 21
-259.06174085900477
 31
0.0
  0
LINE
  8
DETAIL
  6
CONTINUOUS
 62
     5
 10
274.44938478226447
 20
-259.06174085900477
 30
0.0
 11
274.44938478226447
 21
-259.06174085900477
 31
0.0
  0
LINE
  8
DETAIL
  6
CONTINUOUS
 62
     5
 10
274.44938478226447
 20
-259.06174085900477
 30
0.0
 11
274.33358432902531
 21
-259.11258887252922
 31
0.0
  0
LINE
  8
DETAIL
  6
CONTINUOUS
 62
     5
 10
274.33358432902531
 20
-259.11258887252922
 30
0.0
 11
274.21843404966722
 21
-259.16501500086252
 31
0.0
  0
LINE
  8
DETAIL
  6
CONTINUOUS
 62
     5
 10
274.21843404966722
 20
-259.16501500086252
 30
0.0
 11
274.21843404966722
 21
-259.16501500086252
 31
0.0
  0
LINE
  8
DETAIL
  6
CONTINUOUS
 62
     5
 10
274.21843404966722
 20
-259.16501500086252
 30
0.0
 11
274.10402613655958
 21
-259.21898274478252
 31
0.0
  0
LINE
  8
DETAIL
  6
CONTINUOUS
 62
     5
 10
274.10402613655958
 20
-259.21898274478252
 30
0.0
 11
273.99037574456349
 21
-259.27448461260587
 31
0.0
  0
LINE
  8
DETAIL
  6
CONTINUOUS
 62
     5
 10
273.99037574456349
 20
-259.27448461260587
 30
0.0
 11
273.99037574456349
 21
-259.27448461260587
 31
0.0
  0
LINE
  8
DETAIL
  6
CONTINUOUS
 62
     5
 10
273.99037574456349
 20
-259.27448461260587
 30
0.0
 11
273.87748391926073
 21
-259.33151843177541
 31
0.0
  0
LINE
  8
DETAIL
  6
CONTINUOUS
 62
     5
 10
273.87748391926073
 20
-259.33151843177541
 30
0.0
 11
273.76537230662598
 21
-259.39007429869332
 31
0.0
  0
LINE
  8
DETAIL
  6
CONTINUOUS
 62
     5
 10
273.76537230662598
 20
-259.39007429869332
 30
0.0
 11
273.76537230662598
 21
-259.39007429869332
 31
0.0
  0
LINE
  8
DETAIL
  6
CONTINUOUS
 62
     5
 10
273.76537230662598
 20
-259.39007429869332
 30
0.0
 11
273.65406636171639
 21
-259.45014085615747
 31
0.0
  0
LINE
  8
DETAIL
  6
CONTINUOUS
 62
     5
 10
273.65406636171639
 20
-259.45014085615747
 30
0.0
 11
273.54358617552691
 21
-259.51170866358291
 31
0.0
  0
LINE
  8
DETAIL
  6
CONTINUOUS
 62
     5
 10
273.54358617552691
 20
-259.51170866358291
 30
0.0
 11
273.54358617552691
 21
-259.51170866358291
 31
0.0
  0
LINE
  8
DETAIL
  6
CONTINUOUS
 62
     5
 10
273.54358617552691
 20
-259.51170866358291
 30
0.0
 11
273.43395032771662
 21
-259.57476830579287
 31
0.0
  0
LINE
  8
DETAIL
  6
CONTINUOUS
 62
     5
 10
273.43395032771662
 20
-259.57476830579287
 30
0.0
 11
273.32517671666318
 21
-259.63930855262367
 31
0.0
  0
LINE
  8
DETAIL
  6
CONTINUOUS
 62
     5
 10
273.32517671666318
 20
-259.63930855262367
 30
0.0
 11
273.32517671666318
 21
-259.63930855262367
 31
0.0
  0
LINE
  8
DETAIL
  6
CONTINUOUS
 62
     5
 10
273.32517671666318
 20
-259.63930855262367
 30
0.0
 11
273.21728408750948
 21
-259.70531686244078
 31
0.0
  0
LINE
  8
DETAIL
  6
CONTINUOUS
 62
     5
 10
273.21728408750948
 20
-259.70531686244078
 30
0.0
 11
273.11029525373237
 21
-259.77277726271478
 31
0.0
  0
LINE
  8
DETAIL
  6
CONTINUOUS
 62
     5
 10
273.11029525373237
 20
-259.77277726271478
 30
0.0
 11
273.11029525373237
 21
-259.77277726271478
 31
0.0
  0
LINE
  8
DETAIL
  6
CONTINUOUS
 62
     5
 10
273.11029525373237
 20
-259.77277726271478
 30
0.0
 11
273.0042297608436
 21
-259.84167633308738
 31
0.0
  0
LINE
  8
DETAIL
  6
CONTINUOUS
 62
     5
 10
273.0042297608436
 20
-259.84167633308738
 30
0.0
 11
272.89909001415202
 21
-259.91201429278249
 31
0.0
  0
LINE
  8
DETAIL
  6
CONTINUOUS
 62
     5
 10
272.89909001415202
 20
-259.91201429278249
 30
0.0
 11
272.89909001415202
 21
-259.91201429278249
 31
0.0
  0
LINE
  8
DETAIL
  6
CONTINUOUS
 62
     5
 10
272.89909001415202
 20
-259.91201429278249
 30
0.0
 11
272.79489025703413
 21
-259.98378198906141
 31
0.0
  0
LINE
  8
DETAIL
  6
CONTINUOUS
 62
     5
 10
272.79489025703413
 20
-259.98378198906141
 30
0.0
 11
272.69170922533942
 21
-260.05691914175299
 31
0.0
  0
LINE
  8
DETAIL
  6
CONTINUOUS
 62
     5
 10
272.69170922533942
 20
-260.05691914175299
 30
0.0
 11
272.69170922533942
 21
-260.05691914175299
 31
0.0
  0
LINE
  8
DETAIL
  6
CONTINUOUS
 62
     5
 10
272.69170922533942
 20
-260.05691914175299
 30
0.0
 11
272.58958157061312
 21
-260.13140040636603
 31
0.0
  0
LINE
  8
DETAIL
  6
CONTINUOUS
 62
     5
 10
272.58958157061312
 20
-260.13140040636603
 30
0.0
 11
272.48830111471261
 21
-260.20739130855202
 31
0.0
  0
LINE
  8
DETAIL
  6
CONTINUOUS
 62
     5
 10
272.48830111471261
 20
-260.20739130855202
 30
0.0
 11
272.48830111471261
 21
-260.20739130855202
 31
0.0
  0
LINE
  8
DETAIL
  6
CONTINUOUS
 62
     5
 10
272.48830111471261
 20
-260.20739130855202
 30
0.0
 11
272.38769720453911
 21
-260.28502969612128
 31
0.0
  0
LINE
  8
DETAIL
  6
CONTINUOUS
 62
     5
 10
272.38769720453911
 20
-260.28502969612128
 30
0.0
 11
272.28798211685557
 21
-260.36415183536627
 31
0.0
  0
LINE
  8
DETAIL
  6
CONTINUOUS
 62
     5
 10
272.28798211685557
 20
-260.36415183536627
 30
0.0
 11
272.28798211685557
 21
-260.36415183536627
 31
0.0
  0
LINE
  8
DETAIL
  6
CONTINUOUS
 62
     5
 10
272.28798211685557
 20
-260.36415183536627
 30
0.0
 11
272.1894051529539
 21
-260.44456722778091
 31
0.0
  0
LINE
  8
DETAIL
  6
CONTINUOUS
 62
     5
 10
272.1894051529539
 20
-260.44456722778091
 30
0.0
 11
272.0919807823816
 21
-260.52627989717968
 31
0.0
  0
LINE
  8
DETAIL
  6
CONTINUOUS
 62
     5
 10
272.0919807823816
 20
-260.52627989717968
 30
0.0
 11
272.0919807823816
 21
-260.52627989717968
 31
0.0
  0
LINE
  8
DETAIL
  6
CONTINUOUS
 62
     5
 10
272.0919807823816
 20
-260.52627989717968
 30
0.0
 11
271.99566948396568
 21
-260.60931888969372
 31
0.0
  0
LINE
  8
DETAIL
  6
CONTINUOUS
 62
     5
 10
271.99566948396568
 20
-260.60931888969372
 30
0.0
 11
271.90045060539433
 21
-260.69361881839808
 31
0.0
  0
LINE
  8
DETAIL
  6
CONTINUOUS
 62
     5
 10
271.90045060539433
 20
-260.69361881839808
 30
0.0
 11
271.90045060539433
 21
-260.69361881839808
 31
0.0
  0
LINE
  8
DETAIL
  6
CONTINUOUS
 62
     5
 10
271.90045060539433
 20
-260.69361881839808
 30
0.0
 11
271.80634805064631
 21
-260.77913649057967
 31
0.0
  0
LINE
  8
DETAIL
  6
CONTINUOUS
 62
     5
 10
271.80634805064631
 20
-260.77913649057967
 30
0.0
 11
271.71354507999649
 21
-260.86601192342772
 31
0.0
  0
LINE
  8
DETAIL
  6
CONTINUOUS
 62
     5
 10
271.71354507999649
 20
-260.86601192342772
 30
0.0
 11
271.71354507999649
 21
-260.86601192342772
 31
0.0
  0
LINE
  8
DETAIL
  6
CONTINUOUS
 62
     5
 10
271.71354507999649
 20
-260.86601192342772
 30
0.0
 11
271.62210071928212
 21
-260.95427133496838
 31
0.0
  0
LINE
  8
DETAIL
  6
CONTINUOUS
 62
     5
 10
271.62210071928212
 20
-260.95427133496838
 30
0.0
 11
271.53141770029163
 21
-261.0433025366745
 31
0.0
  0
LINE
  8
DETAIL
  6
CONTINUOUS
 62
     5
 10
269.73915355709983
 20
-257.87782285063417
 30
0.0
 11
269.82983657609037
 21
-257.78879164891288
 31
0.0
  0
LINE
  8
DETAIL
  6
CONTINUOUS
 62
     5
 10
269.82983657609037
 20
-257.78879164891288
 30
0.0
 11
269.92128093680481
 21
-257.70053223734658
 31
0.0
  0
LINE
  8
DETAIL
  6
CONTINUOUS
 62
     5
 10
269.92128093680481
 20
-257.70053223734658
 30
0.0
 11
269.92128093680481
 21
-257.70053223734658
 31
0.0
  0
LINE
  8
DETAIL
  6
CONTINUOUS
 62
     5
 10
269.92128093680481
 20
-257.70053223734658
 30
0.0
 11
270.01408390745451
 21
-257.61365680445488
 31
0.0
  0
LINE
  8
DETAIL
  6
CONTINUOUS
 62
     5
 10
270.01408390745451
 20
-257.61365680445488
 30
0.0
 11
270.10818646220258
 21
-257.52813913221689
 31
0.0
  0
LINE
  8
DETAIL
  6
CONTINUOUS
 62
     5
 10
270.10818646220258
 20
-257.52813913221689
 30
0.0
 11
270.10818646220258
 21
-257.52813913221689
 31
0.0
  0
LINE
  8
DETAIL
  6
CONTINUOUS
 62
     5
 10
270.10818646220258
 20
-257.52813913221689
 30
0.0
 11
270.203405340774
 21
-257.44383920345052
 31
0.0
  0
LINE
  8
DETAIL
  6
CONTINUOUS
 62
     5
 10
270.203405340774
 20
-257.44383920345052
 30
0.0
 11
270.29971663918991
 21
-257.36080021087338
 31
0.0
  0
LINE
  8
DETAIL
  6
CONTINUOUS
 62
     5
 10
270.29971663918991
 20
-257.36080021087338
 30
0.0
 11
270.29971663918991
 21
-257.36080021087338
 31
0.0
  0
LINE
  8
DETAIL
  6
CONTINUOUS
 62
     5
 10
270.29971663918991
 20
-257.36080021087338
 30
0.0
 11
270.39714100976232
 21
-257.27908754141339
 31
0.0
  0
LINE
  8
DETAIL
  6
CONTINUOUS
 62
     5
 10
270.39714100976232
 20
-257.27908754141339
 30
0.0
 11
270.495717973664
 21
-257.19867214894452
 31
0.0
  0
LINE
  8
DETAIL
  6
CONTINUOUS
 62
     5
 10
270.495717973664
 20
-257.19867214894452
 30
0.0
 11
270.495717973664
 21
-257.19867214894452
 31
0.0
  0
LINE
  8
DETAIL
  6
CONTINUOUS
 62
     5
 10
270.495717973664
 20
-257.19867214894452
 30
0.0
 11
270.59543306134759
 21
-257.11955000965611
 31
0.0
  0
LINE
  8
DETAIL
  6
CONTINUOUS
 62
     5
 10
270.59543306134759
 20
-257.11955000965611
 30
0.0
 11
270.69603697152093
 21
-257.04191162205848
 31
0.0
  0
LINE
  8
DETAIL
  6
CONTINUOUS
 62
     5
 10
270.69603697152093
 20
-257.04191162205848
 30
0.0
 11
270.69603697152093
 21
-257.04191162205848
 31
0.0
  0
LINE
  8
DETAIL
  6
CONTINUOUS
 62
     5
 10
270.69603697152093
 20
-257.04191162205848
 30
0.0
 11
270.79731742742138
 21
-256.96592071986248
 31
0.0
  0
LINE
  8
DETAIL
  6
CONTINUOUS
 62
     5
 10
270.79731742742138
 20
-256.96592071986248
 30
0.0
 11
270.89944508214751
 21
-256.89143945525649
 31
0.0
  0
LINE
  8
DETAIL
  6
CONTINUOUS
 62
     5
 10
270.89944508214751
 20
-256.89143945525649
 30
0.0
 11
270.89944508214751
 21
-256.89143945525649
 31
0.0
  0
LINE
  8
DETAIL
  6
CONTINUOUS
 62
     5
 10
270.89944508214751
 20
-256.89143945525649
 30
0.0
 11
271.00262611384221
 21
-256.81830230258538
 31
0.0
  0
LINE
  8
DETAIL
  6
CONTINUOUS
 62
     5
 10
271.00262611384221
 20
-256.81830230258538
 30
0.0
 11
271.10682587096022
 21
-256.74653460633868
 31
0.0
  0
LINE
  8
DETAIL
  6
CONTINUOUS
 62
     5
 10
271.10682587096022
 20
-256.74653460633868
 30
0.0
 11
271.10682587096022
 21
-256.74653460633868
 31
0.0
  0
LINE
  8
DETAIL
  6
CONTINUOUS
 62
     5
 10
271.10682587096022
 20
-256.74653460633868
 30
0.0
 11
271.2119656176518
 21
-256.67619664668359
 31
0.0
  0
LINE
  8
DETAIL
  6
CONTINUOUS
 62
     5
 10
271.2119656176518
 20
-256.67619664668359
 30
0.0
 11
271.31803111054069
 21
-256.60729757635698
 31
0.0
  0
LINE
  8
DETAIL
  6
CONTINUOUS
 62
     5
 10
271.31803111054069
 20
-256.60729757635698
 30
0.0
 11
271.31803111054069
 21
-256.60729757635698
 31
0.0
  0
LINE
  8
DETAIL
  6
CONTINUOUS
 62
     5
 10
271.31803111054069
 20
-256.60729757635698
 30
0.0
 11
271.4250199443178
 21
-256.53983717613238
 31
0.0
  0
LINE
  8
DETAIL
  6
CONTINUOUS
 62
     5
 10
271.4250199443178
 20
-256.53983717613238
 30
0.0
 11
271.53291257347172
 21
-256.47382886636473
 31
0.0
  0
LINE
  8
DETAIL
  6
CONTINUOUS
 62
     5
 10
271.53291257347172
 20
-256.47382886636473
 30
0.0
 11
271.53291257347172
 21
-256.47382886636473
 31
0.0
  0
LINE
  8
DETAIL
  6
CONTINUOUS
 62
     5
 10
271.53291257347172
 20
-256.47382886636473
 30
0.0
 11
271.64168618452481
 21
-256.40928861958088
 31
0.0
  0
LINE
  8
DETAIL
  6
CONTINUOUS
 62
     5
 10
271.64168618452481
 20
-256.40928861958088
 30
0.0
 11
271.75132203233528
 21
-256.34622897741338
 31
0.0
  0
LINE
  8
DETAIL
  6
CONTINUOUS
 62
     5
 10
271.75132203233528
 20
-256.34622897741338
 30
0.0
 11
271.75132203233528
 21
-256.34622897741338
 31
0.0
  0
LINE
  8
DETAIL
  6
CONTINUOUS
 62
     5
 10
271.75132203233528
 20
-256.34622897741338
 30
0.0
 11
271.86180221852487
 21
-256.28466117002267
 31
0.0
  0
LINE
  8
DETAIL
  6
CONTINUOUS
 62
     5
 10
271.86180221852487
 20
-256.28466117002267
 30
0.0
 11
271.97310816343429
 21
-256.22459461258649
 31
0.0
  0
LINE
  8
DETAIL
  6
CONTINUOUS
 62
     5
 10
271.97310816343429
 20
-256.22459461258649
 30
0.0
 11
271.97310816343429
 21
-256.22459461258649
 31
0.0
  0
LINE
  8
DETAIL
  6
CONTINUOUS
 62
     5
 10
271.97310816343429
 20
-256.22459461258649
 30
0.0
 11
272.08521977606893
 21
-256.16603874569051
 31
0.0
  0
LINE
  8
DETAIL
  6
CONTINUOUS
 62
     5
 10
272.08521977606893
 20
-256.16603874569051
 30
0.0
 11
272.19811160137169
 21
-256.10900492653758
 31
0.0
  0
LINE
  8
DETAIL
  6
CONTINUOUS
 62
     5
 10
272.19811160137169
 20
-256.10900492653758
 30
0.0
 11
272.19811160137169
 21
-256.10900492653758
 31
0.0
  0
LINE
  8
DETAIL
  6
CONTINUOUS
 62
     5
 10
272.19811160137169
 20
-256.10900492653758
 30
0.0
 11
272.31176199336772
 21
-256.05350305872588
 31
0.0
  0
LINE
  8
DETAIL
  6
CONTINUOUS
 62
     5
 10
272.31176199336772
 20
-256.05350305872588
 30
0.0
 11
272.42616990647531
 21
-255.99953531481401
 31
0.0
  0
LINE
  8
DETAIL
  6
CONTINUOUS
 62
     5
 10
272.42616990647531
 20
-255.99953531481401
 30
0.0
 11
272.42616990647531
 21
-255.99953531481401
 31
0.0
  0
LINE
  8
DETAIL
  6
CONTINUOUS
 62
     5
 10
272.42616990647531
 20
-255.99953531481401
 30
0.0
 11
272.54132018583368
 21
-255.94710918648559
 31
0.0
  0
LINE
  8
DETAIL
  6
CONTINUOUS
 62
     5
 10
272.54132018583368
 20
-255.94710918648559
 30
0.0
 11
272.65712063907267
 21
-255.89626117296319
 31
0.0
  0
LINE
  8
DETAIL
  6
CONTINUOUS
 62
     5
 10
272.65712063907267
 20
-255.89626117296319
 30
0.0
 11
272.65712063907267
 21
-255.89626117296319
 31
0.0
  0
LINE
  8
DETAIL
  6
CONTINUOUS
 62
     5
 10
272.65712063907267
 20
-255.89626117296319
 30
0.0
 11
272.77353170185671
 21
-255.8470079505762
 31
0.0
  0
LINE
  8
DETAIL
  6
CONTINUOUS
 62
     5
 10
272.77353170185671
 20
-255.8470079505762
 30
0.0
 11
272.89080135949172
 21
-255.79925789653339
 31
0.0
  0
LINE
  8
DETAIL
  6
CONTINUOUS
 62
     5
 10
272.89080135949172
 20
-255.79925789653339
 30
0.0
 11
272.89080135949172
 21
-255.79925789653339
 31
0.0
  0
LINE
  8
DETAIL
  6
CONTINUOUS
 62
     5
 10
272.89080135949172
 20
-255.79925789653339
 30
0.0
 11
273.00913559200649
 21
-255.75293560771169
 31
0.0
  0
LINE
  8
DETAIL
  6
CONTINUOUS
 62
     5
 10
273.00913559200649
 20
-255.75293560771169
 30
0.0
 11
273.12828480867711
 21
-255.70813885878209
 31
0.0
  0
LINE
  8
DETAIL
  6
CONTINUOUS
 62
     5
 10
273.12828480867711
 20
-255.70813885878209
 30
0.0
 11
273.12828480867711
 21
-255.70813885878209
 31
0.0
  0
LINE
  8
DETAIL
  6
CONTINUOUS
 62
     5
 10
273.12828480867711
 20
-255.70813885878209
 30
0.0
 11
273.24795742358037
 21
-255.6649834007321
 31
0.0
  0
LINE
  8
DETAIL
  6
CONTINUOUS
 62
     5
 10
273.24795742358037
 20
-255.6649834007321
 30
0.0
 11
273.36814944074672
 21
-255.62348371202111
 31
0.0
  0
LINE
  8
DETAIL
  6
CONTINUOUS
 62
     5
 10
273.36814944074672
 20
-255.62348371202111
 30
0.0
 11
273.36814944074672
 21
-255.62348371202111
 31
0.0
  0
LINE
  8
DETAIL
  6
CONTINUOUS
 62
     5
 10
273.36814944074672
 20
-255.62348371202111
 30
0.0
 11
273.48890609292431
 21
-255.58362085083931
 31
0.0
  0
LINE
  8
DETAIL
  6
CONTINUOUS
 62
     5
 10
273.48890609292431
 20
-255.58362085083931
 30
0.0
 11
273.61018193777318
 21
-255.54534346682831
 31
0.0
  0
LINE
  8
DETAIL
  6
CONTINUOUS
 62
     5
 10
273.61018193777318
 20
-255.54534346682831
 30
0.0
 11
273.61018193777318
 21
-255.54534346682831
 31
0.0
  0
LINE
  8
DETAIL
  6
CONTINUOUS
 62
     5
 10
273.61018193777318
 20
-255.54534346682831
 30
0.0
 11
273.73192764178037
 21
-255.5086498341727
 31
0.0
  0
LINE
  8
DETAIL
  6
CONTINUOUS
 62
     5
 10
273.73192764178037
 20
-255.5086498341727
 30
0.0
 11
273.85416898182922
 21
-255.47376913378159
 31
0.0
  0
LINE
  8
DETAIL
  6
CONTINUOUS
 62
     5
 10
273.85416898182922
 20
-255.47376913378159
 30
0.0
 11
273.85416898182922
 21
-255.47376913378159
 31
0.0
  0
LINE
  8
DETAIL
  6
CONTINUOUS
 62
     5
 10
273.85416898182922
 20
-255.47376913378159
 30
0.0
 11
273.97689807077722
 21
-255.44076546865739
 31
0.0
  0
LINE
  8
DETAIL
  6
CONTINUOUS
 62
     5
 10
273.97689807077722
 20
-255.44076546865739
 30
0.0
 11
274.09989725498713
 21
-255.40881172345971
 31
0.0
  0
LINE
  8
DETAIL
  6
CONTINUOUS
 62
     5
 10
74.937290840765627
 20
-86.644571822569333
 30
0.0
 11
74.851125101920161
 21
-86.694828081438118
 31
0.0
  0
LINE
  8
DETAIL
  6
CONTINUOUS
 62
     5
 10
74.851125101920161
 20
-86.694828081438118
 30
0.0
 11
74.765164847004371
 21
-86.74543806404904
 31
0.0
  0
LINE
  8
DETAIL
  6
CONTINUOUS
 62
     5
 10
74.765164847004371
 20
-86.74543806404904
 30
0.0
 11
74.765164847004371
 21
-86.74543806404904
 31
0.0
  0
LINE
  8
DETAIL
  6
CONTINUOUS
 62
     5
 10
74.765164847004371
 20
-86.74543806404904
 30
0.0
 11
74.679573091523821
 21
-86.796680296641853
 31
0.0
  0
LINE
  8
DETAIL
  6
CONTINUOUS
 62
     5
 10
74.679573091523821
 20
-86.796680296641853
 30
0.0
 11
74.594342977283304
 21
-86.848532515444504
 31
0.0
  0
LINE
  8
DETAIL
  6
CONTINUOUS
 62
     5
 10
74.594342977283304
 20
-86.848532515444504
 30
0.0
 11
74.594342977283304
 21
-86.848532515444504
 31
0.0
  0
LINE
  8
DETAIL
  6
CONTINUOUS
 62
     5
 10
74.594342977283304
 20
-86.848532515444504
 30
0.0
 11
74.509436561509915
 21
-86.900917405260998
 31
0.0
  0
LINE
  8
DETAIL
  6
CONTINUOUS
 62
     5
 10
74.509436561509915
 20
-86.900917405260998
 30
0.0
 11
74.424861436815831
 21
-86.953838235214675
 31
0.0
  0
LINE
  8
DETAIL
  6
CONTINUOUS
 62
     5
 10
74.424861436815831
 20
-86.953838235214675
 30
0.0
 11
74.424861436815831
 21
-86.953838235214675
 31
0.0
  0
LINE
  8
DETAIL
  6
CONTINUOUS
 62
     5
 10
74.424861436815831
 20
-86.953838235214675
 30
0.0
 11
74.340633512698787
 21
-87.007313033691617
 31
0.0
  0
LINE
  8
DETAIL
  6
CONTINUOUS
 62
     5
 10
74.340633512698787
 20
-87.007313033691617
 30
0.0
 11
74.25675643081604
 21
-87.061338281818394
 31
0.0
  0
LINE
  8
DETAIL
  6
CONTINUOUS
 62
     5
 10
74.25675643081604
 20
-87.061338281818394
 30
0.0
 11
74.25675643081604
 21
-87.061338281818394
 31
0.0
  0
LINE
  8
DETAIL
  6
CONTINUOUS
 62
     5
 10
74.25675643081604
 20
-87.061338281818394
 30
0.0
 11
74.17323164985919
 21
-87.115906475086604
 31
0.0
  0
CIRCLE
  8
DETAIL
  6
CONTINUOUS
 62
     5
 10
-0.0000000000002274
 20
0.0
 30
0.0
 40
225.36348949919221
  0
LINE
  8
DETAIL
  6
CONTINUOUS
 62
     5
 10
-96.756058158320116
 20
68.772694124231521
 30
0.0
 11
-96.756058158320116
 21
-73.95903472770533
 31
0.0
  0
LINE
  8
DETAIL
  6
CONTINUOUS
 62
     5
 10
-88.94345718901468
 20
-87.490856545215365
 30
0.0
 11
-79.248327958998971
 21
-93.088342015804415
 31
0.0
  0
LINE
  8
DETAIL
  6
CONTINUOUS
 62
     5
 10
-75.802130781105006
 20
-96.534539194474746
 30
0.0
 11
-60.963746342513097
 21
-122.23537494373269
 31
0.0
  0
LINE
  8
DETAIL
  6
CONTINUOUS
 62
     5
 10
96.756058158319547
 20
-73.95903472770533
 30
0.0
 11
96.756058158319547
 21
68.772694124231521
 31
0.0
  0
LINE
  8
DETAIL
  6
CONTINUOUS
 62
     5
 10
60.963746343289131
 20
-122.23537494373269
 30
0.0
 11
75.802130781881033
 21
-96.534539194474746
 31
0.0
  0
LINE
  8
DETAIL
  6
CONTINUOUS
 62
     5
 10
79.24832795977477
 20
-93.088342015804415
 30
0.0
 11
88.943457189014453
 21
-87.490856545215365
 31
0.0
  0
CIRCLE
  8
DETAIL
  6
CONTINUOUS
 62
     5
 10
-280.45234248788398
 20
-280.45234248788358
 30
0.0
 40
7.0113085621970876
  0
CIRCLE
  8
DETAIL
  6
CONTINUOUS
 62
     5
 10
-278.19169628432968
 20
-182.34810985460419
 30
0.0
 40
6.5105008077543971
  0
ARC
  8
DETAIL
  6
CONTINUOUS
 62
     5
 10
-81.130856219709585
 20
-73.95903472770533
 30
0.0
 40
15.62520193861064
 50
180.0
 51
239.9999999999994
  0
ARC
  8
DETAIL
  6
CONTINUOUS
 62
     5
 10
-83.955920850759753
 20
-101.2421320862356
 30
0.0
 40
9.4151857835217836
 50
30.00000000000054
 51
59.99999999999946
  0
ARC
  8
DETAIL
  6
CONTINUOUS
 62
     5
 10
-53.503895853502399
 20
-117.9284282555258
 30
0.0
 40
8.6138933764136034
 50
210.00000000000051
 51
259.81194989460039
  0
CIRCLE
  8
DETAIL
  6
CONTINUOUS
 62
     5
 10
-280.45234248788398
 20
280.45234248788358
 30
0.0
 40
7.0113085621970876
  0
CIRCLE
  8
DETAIL
  6
CONTINUOUS
 62
     5
 10
-182.3481098546043
 20
278.19169628432951
 30
0.0
 40
6.5105008077543971
  0
ARC
  8
DETAIL
  6
CONTINUOUS
 62
     5
 10
-81.130856219709585
 20
68.772694124231521
 30
0.0
 40
15.62520193861068
 50
105.93676429109919
 51
180.0
  0
ARC
  8
DETAIL
  6
CONTINUOUS
 62
     5
 10
-0.0000000000002274
 20
-215.34733441033941
 30
0.0
 40
311.10177705977372
 50
74.063235708900834
 51
105.93676429109919
  0
ARC
  8
DETAIL
  6
CONTINUOUS
 62
     5
 10
81.130856219708903
 20
-73.95903472770533
 30
0.0
 40
15.62520193861069
 50
300.00000000000051
 51
0.0
  0
ARC
  8
DETAIL
  6
CONTINUOUS
 62
     5
 10
83.955920851535666
 20
-101.2421320862356
 30
0.0
 40
9.4151857835217907
 50
120.0000000000006
 51
149.99999999999949
  0
ARC
  8
DETAIL
  6
CONTINUOUS
 62
     5
 10
53.503895854278433
 20
-117.9284282555258
 30
0.0
 40
8.6138933764135537
 50
280.1880501053995
 51
329.99999999999949
  0
CIRCLE
  8
DETAIL
  6
CONTINUOUS
 62
     5
 10
182.34810985460399
 20
-278.19169628432962
 30
0.0
 40
6.5105008077544548
  0
CIRCLE
  8
DETAIL
  6
CONTINUOUS
 62
     5
 10
280.45234248788358
 20
-280.45234248788358
 30
0.0
 40
7.0113085621970876
  0
ARC
  8
DETAIL
  6
CONTINUOUS
 62
     5
 10
81.130856219708903
 20
68.772694124231521
 30
0.0
 40
15.625201938610701
 50
0.0
 51
74.063235708900834
  0
ARC
  8
DETAIL
  6
CONTINUOUS
 62
     5
 10
-0.0000000000002274
 20
179.78998384491109
 30
0.0
 40
311.10177705977372
 50
259.81194989460039
 51
280.1880501053995
  0
CIRCLE
  8
DETAIL
  6
CONTINUOUS
 62
     5
 10
278.19169628432928
 20
182.3481098546043
 30
0.0
 40
6.5105008077544406
  0
CIRCLE
  8
DETAIL
  6
CONTINUOUS
 62
     5
 10
280.45234248788358
 20
280.45234248788358
 30
0.0
 40
7.0113085621970876
  0
LINE
  8
DETAIL
  6
CONTINUOUS
 62
     5
 10
-227.9356703524065
 20
263.56060101256088
 30
0.0
 11
-232.397639799026
 21
259.09863156594162
 31
0.0
  0
LINE
  8
DETAIL
  6
CONTINUOUS
 62
     5
 10
-263.56060101178468
 20
-227.93567035240639
 30
0.0
 11
-259.09863156516519
 21
-232.39763979902571
 31
0.0
  0
LINE
  8
DETAIL
  6
CONTINUOUS
 62
     5
 10
-259.09863156516519
 20
-227.93567035240639
 30
0.0
 11
-263.56060101178468
 21
-232.39763979902571
 31
0.0
  0
LINE
  8
DETAIL
  6
CONTINUOUS
 62
     5
 10
227.93567035318259
 20
-259.09863156516508
 30
0.0
 11
232.39763979980191
 21
-263.56060101178451
 31
0.0
  0
LINE
  8
DETAIL
  6
CONTINUOUS
 62
     5
 10
263.5606010125606
 20
232.39763979980219
 30
0.0
 11
259.09863156594128
 21
227.9356703531827
 31
0.0
  0
LINE
  8
DETAIL
  6
CONTINUOUS
 62
     5
 10
-232.397639799026
 20
263.56060101256088
 30
0.0
 11
-227.9356703524065
 21
259.09863156594162
 31
0.0
  0
LINE
  8
DETAIL
  6
CONTINUOUS
 62
     5
 10
232.39763979980191
 20
-259.09863156516508
 30
0.0
 11
227.93567035318259
 21
-263.56060101178451
 31
0.0
  0
LINE
  8
DETAIL
  6
CONTINUOUS
 62
     5
 10
259.09863156594128
 20
232.39763979980219
 30
0.0
 11
263.5606010125606
 21
227.9356703531827
 31
0.0
  0
LINE
  8
BASIS
  6
DASHDOT
 62
     6
 10
-329.18210166434977
 20
0.0
 30
0.0
 11
329.18210166434977
 21
0.0
 31
0.0
  0
LINE
  8
BASIS
  6
DASHDOT
 62
     6
 10
0.0
 20
-339.15166998534772
 30
0.0
 11
0.0
 21
339.15166998534761
 31
0.0
  0
LINE
  8
SIZE
  6
CONTINUOUS
 62
    30
 10
586.10058368130422
 20
164.96948502446509
 30
0.0
 11
239.57284092604931
 21
67.432466873141493
 31
0.0
  0
LINE
  8
SIZE
  6
CONTINUOUS
 62
    30
 10
-239.57284092604971
 20
-67.432466873141607
 30
0.0
 11
-251.12399089812959
 21
-70.68376420228833
 31
0.0
  0
TEXT
  8
SIZE
  6
CONTINUOUS
 62
    30
 10
348.79359687422772
 20
124.1462272939788
 30
0.0
 40
64.0
  1
φ473
 50
15.720295932000569
 41
0.9
 72
     1
 11
458.89255775096689
 21
155.135735551218
 31
0.0
  0
LINE
  8
SIZE
  6
CONTINUOUS
 62
    30
 10
-228.02169095396971
 20
-64.18116954399477
 30
0.0
 11
228.02169095396931
 21
64.181169543994656
 31
0.0
  0
CIRCLE
  8
SIZE
  6
CONTINUOUS
 62
    30
 10
-228.02169095396971
 20
-64.18116954399477
 30
0.0
 40
6.0
  0
LINE
  8
SIZE
  6
CONTINUOUS
 62
    30
 10
-228.02169095396971
 20
-64.18116954399477
 30
0.0
 11
-239.57284092604971
 21
-67.432466873141607
 31
0.0
  0
CIRCLE
  8
SIZE
  6
CONTINUOUS
 62
    30
 10
228.02169095396931
 20
64.181169543994656
 30
0.0
 40
6.0
  0
LINE
  8
SIZE
  6
CONTINUOUS
 62
    30
 10
228.02169095396931
 20
64.181169543994656
 30
0.0
 11
239.57284092604931
 21
67.432466873141493
 31
0.0
  0
POINT
  8
DEFPOINTS
  6
CONTINUOUS
 62
    30
 10
228.02169095396931
 20
64.181169543994656
 30
0.0
  0
POINT
  8
DEFPOINTS
  6
CONTINUOUS
 62
    30
 10
-228.02169095396971
 20
-64.18116954399477
 30
0.0
  0
LINE
  8
DETAIL
  6
CONTINUOUS
 62
     5
 10
241.3196395956966
 20
-382.32573530868729
 30
0.0
 11
238.36044343975661
 21
-381.80394918483171
 31
0.0
  0
LINE
  8
DETAIL
  6
CONTINUOUS
 62
     5
 10
247.1497727766218
 20
-352.60382550184693
 30
0.0
 11
252.39054739394669
 21
-382.32573530868729
 31
0.0
  0
LINE
  8
DETAIL
  6
CONTINUOUS
 62
     5
 10
249.92669297877359
 20
-352.60382547399013
 30
0.0
 11
255.3497435498866
 21
-381.80394918483171
 31
0.0
  0
LINE
  8
DETAIL
  6
CONTINUOUS
 62
     5
 10
251.04156820639761
 20
-352.60382547399013
 30
0.0
 11
242.5160440275522
 21
-352.60382550170863
 31
0.0
  0
LINE
  8
DETAIL
  6
CONTINUOUS
 62
     5
 10
243.50921308522081
 20
-352.60382550184693
 30
0.0
 11
238.36044343975661
 21
-381.80394918483171
 31
0.0
  0
LINE
  8
DETAIL
  6
CONTINUOUS
 62
     5
 10
252.39054739394669
 20
-382.32573530868729
 30
0.0
 11
255.3497435498866
 21
-381.80394918483171
 31
0.0
  0
LINE
  8
DETAIL
  6
CONTINUOUS
 62
     5
 10
246.5604142130214
 20
-352.60382550184693
 30
0.0
 11
241.3196395956966
 21
-382.32573530868729
 31
0.0
  0
ARC
  8
DETAIL
  6
CONTINUOUS
 62
     5
 10
-71.865117581657614
 20
61.69428448945223
 30
0.0
 40
7.139961533682146
 50
103.4820280607403
 51
181.03428296414211
  0
ARC
  8
DETAIL
  6
CONTINUOUS
 62
     5
 10
52.316604304456177
 20
-159.76165745337821
 30
0.0
 40
71.607389698414252
 50
39.109298327517173
 51
68.183116923636348
  0
ARC
  8
DETAIL
  6
CONTINUOUS
 62
     5
 10
54.677731690895257
 20
-157.2430672179604
 30
0.0
 40
60.029309468106483
 50
37.86136798531065
 51
71.589700185714378
  0
ARC
  8
DETAIL
  6
CONTINUOUS
 62
     5
 10
-3014.5876344260528
 20
-3435.1807588085671
 30
0.0
 40
4557.1331656902103
 50
44.548470711892833
 51
46.635649794323818
  0
ARC
  8
DETAIL
  6
CONTINUOUS
 62
     5
 10
-3104.721046594881
 20
-3553.1779637918648
 30
0.0
 40
4697.1115375826766
 50
44.874588579272107
 51
46.827335098718002
  0
ARC
  8
DETAIL
  6
CONTINUOUS
 62
     5
 10
-763.75220867516782
 20
-312.536169194168
 30
0.0
 40
1006.041857803507
 50
359.68487884404101
 51
2.9024653706685908
  0
ARC
  8
DETAIL
  6
CONTINUOUS
 62
     5
 10
242.34614588939621
 20
-242.69311619876589
 30
0.0
 40
11.895724799737421
 50
223.16548018230941
 51
258.6622708386912
  0
ARC
  8
DETAIL
  6
CONTINUOUS
 62
     5
 10
-889.53040619494732
 20
-315.80712087358279
 30
0.0
 40
1140.074335360388
 50
359.64642006043772
 51
2.7084691847500411
  0
ARC
  8
DETAIL
  6
CONTINUOUS
 62
     5
 10
212.80499901228359
 20
-262.42325022347808
 30
0.0
 40
28.150117754882299
 50
4.3103881789119747
 51
16.679454317849011
  0
ARC
  8
DETAIL
  6
CONTINUOUS
 62
     5
 10
1580.8824073189551
 20
-340.2473021916262
 30
0.0
 40
1338.423403134515
 50
179.32983701656141
 51
180.52897064634249
  0
ARC
  8
DETAIL
  6
CONTINUOUS
 62
     5
 10
-104380.1867299853
 20
-950.73007012470896
 30
0.0
 40
104633.09045605089
 50
0.3275282793266335
 51
0.3394420359521723
  0
ARC
  8
DETAIL
  6
CONTINUOUS
 62
     5
 10
240.39488008634359
 20
-330.82918883142111
 30
0.0
 40
12.89760371823408
 50
34.159426697626508
 51
165.74312279254889
  0
ARC
  8
DETAIL
  6
CONTINUOUS
 62
     5
 10
254.6798013320313
 20
-320.65033442372692
 30
0.0
 40
4.6556356756378916
 50
219.1108594718298
 51
341.70157333626958
  0
ARC
  8
DETAIL
  6
CONTINUOUS
 62
     5
 10
238.81160637110949
 20
-333.15490329026107
 30
0.0
 40
9.342949338780187
 50
36.924415413017513
 51
169.132092754388
  0
ARC
  8
DETAIL
  6
CONTINUOUS
 62
     5
 10
253.10135810077739
 20
-322.7342870227385
 30
0.0
 40
8.3448600845508647
 50
215.17891446039289
 51
338.05809422285807
  0
ARC
  8
DETAIL
  6
CONTINUOUS
 62
     5
 10
-81.719262219252414
 20
69.098821464849834
 30
0.0
 40
7.4137545188154848
 50
105.7454257106331
 51
166.61914353252999
  0
ARC
  8
DETAIL
  6
CONTINUOUS
 62
     5
 10
-71.804382969212384
 20
-68.57613938758891
 30
0.0
 40
7.1982720023894986
 50
181.06877228105529
 51
240.47910590205981
  0
ARC
  8
DETAIL
  6
CONTINUOUS
 62
     5
 10
-74.483080916712424
 20
-91.828426640756106
 30
0.0
 40
14.25846328690888
 50
29.11317119246856
 51
56.00273366737936
  0
ARC
  8
DETAIL
  6
CONTINUOUS
 62
     5
 10
-44.589217340364478
 20
-105.08984426320281
 30
0.0
 40
5.0014364164092786
 50
209.73052449660119
 51
261.37842397991898
  0
ARC
  8
DETAIL
  6
CONTINUOUS
 62
     5
 10
-81.816720014228849
 20
-74.355018374020119
 30
0.0
 40
7.2035913752277052
 50
179.53183552148931
 51
240.468164484227
  0
ARC
  8
DETAIL
  6
CONTINUOUS
 62
     5
 10
-83.160840226961227
 20
-100.4470514624377
 30
0.0
 40
16.066586716148251
 50
30.786583866450989
 51
59.213416133572458
  0
ARC
  8
DETAIL
  6
CONTINUOUS
 62
     5
 10
-50.889467914448687
 20
-114.194982806262
 30
0.0
 40
5.0088280895283201
 50
209.77617169480041
 51
260.40687482310381
  0
LINE
  8
DETAIL
  6
CONTINUOUS
 62
     5
 10
233.66963114215091
 20
-250.83107419521369
 30
0.0
 11
225.3882651630411
 21
-242.19529987657009
 31
0.0
  0
ARC
  8
DETAIL
  6
CONTINUOUS
 62
     5
 10
206.29378916203501
 20
-263.68607998461198
 30
0.0
 40
42.975797673517363
 50
3.950947715234185
 51
15.982828606918551
  0
ARC
  8
DETAIL
  6
CONTINUOUS
 62
     5
 10
-14.606624192911109
 20
-136.95774186924291
 30
0.0
 40
152.78865778763861
 50
1.1459884073280591
 51
43.208466142069113
  0
ARC
  8
DETAIL
  6
CONTINUOUS
 62
     5
 10
-19.64042922141925
 20
-145.52930720311409
 30
0.0
 40
158.10247475875661
 50
347.48269438297689
 51
356.50762956617581
  0
ARC
  8
DETAIL
  6
CONTINUOUS
 62
     5
 10
0.7048810962533025
 20
-1.130593792931222
 30
0.0
 40
223.33147447981051
 50
283.81740321381892
 51
306.86998650119511
  0
ARC
  8
DETAIL
  6
CONTINUOUS
 62
     5
 10
-0.3894907256089937
 20
4.8170282483243909
 30
0.0
 40
229.36862904200851
 50
229.8888056303627
 51
283.72803588137191
  0
ARC
  8
DETAIL
  6
CONTINUOUS
 62
     5
 10
-144.9465016820759
 20
-166.49032701647229
 30
0.0
 40
5.2227183643934243
 50
92.261443770810956
 51
231.949967670088
  0
ARC
  8
DETAIL
  6
CONTINUOUS
 62
     5
 10
-156.0100932344958
 20
0.2839285488878431
 30
0.0
 40
161.9200385365105
 50
273.84483862154229
 51
296.95224803199858
  0
ARC
  8
DETAIL
  6
CONTINUOUS
 62
     5
 10
-137.80537309379179
 20
-26.240416294306439
 30
0.0
 40
130.0933846510905
 50
295.09982227134998
 51
303.47305956565668
  0
ARC
  8
DETAIL
  6
CONTINUOUS
 62
     5
 10
-47.769747935115447
 20
-153.10020231940419
 30
0.0
 40
25.898738343119572
 50
97.292065971505295
 51
134.90658440327161
  0
ARC
  8
DETAIL
  6
CONTINUOUS
 62
     5
 10
71.865117581657614
 20
61.69428448945223
 30
0.0
 40
7.139961533682146
 50
358.96571703585789
 51
76.517971939259681
  0
ARC
  8
DETAIL
  6
CONTINUOUS
 62
     5
 10
81.719262219252414
 20
69.098821464849834
 30
0.0
 40
7.4137545188154848
 50
13.38085646746995
 51
74.254574289366886
  0
ARC
  8
DETAIL
  6
CONTINUOUS
 62
     5
 10
71.804382969212384
 20
-68.57613938758891
 30
0.0
 40
7.1982720023894986
 50
299.52089409794019
 51
358.93122771894463
  0
ARC
  8
DETAIL
  6
CONTINUOUS
 62
     5
 10
74.483080916712424
 20
-91.828426640756106
 30
0.0
 40
14.25846328690888
 50
123.9972663326207
 51
150.8868288075314
  0
ARC
  8
DETAIL
  6
CONTINUOUS
 62
     5
 10
44.589217340364478
 20
-105.08984426320281
 30
0.0
 40
5.0014364164092786
 50
278.62157602008102
 51
330.26947550339878
  0
ARC
  8
DETAIL
  6
CONTINUOUS
 62
     5
 10
81.816720014228849
 20
-74.355018374020119
 30
0.0
 40
7.2035913752277052
 50
299.53183551577303
 51
0.4681644785107359
  0
ARC
  8
DETAIL
  6
CONTINUOUS
 62
     5
 10
83.160840226961227
 20
-100.4470514624377
 30
0.0
 40
16.066586716148251
 50
120.78658386642751
 51
149.213416133549
  0
ARC
  8
DETAIL
  6
CONTINUOUS
 62
     5
 10
50.889467914448687
 20
-114.194982806262
 30
0.0
 40
5.0088280895283201
 50
279.59312517689619
 51
330.22382830519962
  0
ARC
  8
DETAIL
  6
CONTINUOUS
 62
     5
 10
-111.13046911208041
 20
84.345905527681452
 30
0.0
 40
155.97543037506699
 50
238.4308245305003
 51
275.28777750876873
  0
ARC
  8
DETAIL
  6
CONTINUOUS
 62
     5
 10
-116.21186242233669
 20
89.773764248536736
 30
0.0
 40
158.10247475875661
 50
227.48269438300409
 51
241.0304706760906
  0
ARC
  8
DETAIL
  6
CONTINUOUS
 62
     5
 10
-1.331563494166403
 20
-0.0451480395370254
 30
0.0
 40
223.33147447981051
 50
163.8174032137847
 51
186.86998650117141
  0
ARC
  8
DETAIL
  6
CONTINUOUS
 62
     5
 10
4.181048114942314
 20
-2.028079117894094
 30
0.0
 40
229.1786046851806
 50
136.13190228996851
 51
163.72540072790221
  0
ARC
  8
DETAIL
  6
CONTINUOUS
 62
     5
 10
4.3664141966000898
 20
-2.0712052612472012
 30
0.0
 40
229.36862904200851
 50
109.88880563037659
 51
134.6548051450456
  0
ARC
  8
DETAIL
  6
CONTINUOUS
 62
     5
 10
-71.711601839606374
 20
208.7725161545973
 30
0.0
 40
5.2227183643934243
 50
332.26144377079879
 51
111.9499676700967
  0
ARC
  8
DETAIL
  6
CONTINUOUS
 62
     5
 10
78.250935953443332
 20
134.9667397134084
 30
0.0
 40
161.9200385365105
 50
153.84483862157589
 51
176.95224803200711
  0
ARC
  8
DETAIL
  6
CONTINUOUS
 62
     5
 10
46.177819430147792
 20
132.46316202436921
 30
0.0
 40
130.0933846510905
 50
175.09982227135319
 51
183.4730595656718
  0
ARC
  8
DETAIL
  6
CONTINUOUS
 62
     5
 10
-108.7037905655834
 20
117.91991640389131
 30
0.0
 40
25.898738343119561
 50
337.29206597151318
 51
14.90658440323681
  0
ARC
  8
DETAIL
  6
CONTINUOUS
 62
     5
 10
127.1175955461968
 20
54.194999235969817
 30
0.0
 40
155.74779106030181
 50
118.40849066018571
 51
164.85478886336361
  0
ARC
  8
DETAIL
  6
CONTINUOUS
 62
     5
 10
134.5207281495905
 20
55.710394915040297
 30
0.0
 40
158.10247475875661
 50
107.48269438295679
 51
121.03047067608421
  0
ARC
  8
DETAIL
  6
CONTINUOUS
 62
     5
 10
-0.7048810962533025
 20
1.130593792930767
 30
0.0
 40
223.33147447981091
 50
45.437928048292122
 51
66.869986501172747
  0
ARC
  8
DETAIL
  6
CONTINUOUS
 62
     5
 10
-5.3084869651574991
 20
-2.7909710266143288
 30
0.0
 40
229.36862904200851
 50
349.88880563038089
 51
43.728035881350813
  0
ARC
  8
DETAIL
  6
CONTINUOUS
 62
     5
 10
215.32654002751499
 20
-42.327337177661782
 30
0.0
 40
5.2227183643934243
 50
212.26144377081951
 51
351.94996767009741
  0
ARC
  8
DETAIL
  6
CONTINUOUS
 62
     5
 10
76.427593786886064
 20
-135.2958163018329
 30
0.0
 40
161.9200385365105
 50
33.844838621569473
 51
56.952248032039194
  0
ARC
  8
DETAIL
  6
CONTINUOUS
 62
     5
 10
90.295990169477591
 20
-106.26789376959979
 30
0.0
 40
130.0933846510905
 50
55.099822271358953
 51
63.473059565646317
  0
ARC
  8
DETAIL
  6
CONTINUOUS
 62
     5
 10
155.14197500653239
 20
35.135137875975943
 30
0.0
 40
25.898738343119572
 50
217.29206597150321
 51
254.90658440325521
  0
ARC
  8
DETAIL
  6
CONTINUOUS
 62
     5
 10
-71.758819118675092
 20
104.6814798010415
 30
0.0
 40
13.452337661235781
 50
165.75924401077219
 51
202.67501836560041
  0
ARC
  8
DETAIL
  6
CONTINUOUS
 62
     5
 10
-110.8366290021349
 20
89.063158877121623
 30
0.0
 40
28.63338262366689
 50
351.03568989229342
 51
21.367201681027211
  0
ARC
  8
DETAIL
  6
CONTINUOUS
 62
     5
 10
123.30453568171561
 20
7.1030017430172174
 30
0.0
 40
16.687822400446581
 50
47.68888873154097
 51
78.706007922190622
  0
ARC
  8
DETAIL
  6
CONTINUOUS
 62
     5
 10
137.11980638179921
 20
59.563270259905273
 30
0.0
 40
37.604963092186658
 50
238.50682426823269
 51
253.7117292205597
  0
ARC
  8
DETAIL
  6
CONTINUOUS
 62
     5
 10
110.9132506096812
 20
20.164339356726941
 30
0.0
 40
9.8403191240268146
 50
48.177006322768257
 51
122.5997494045654
  0
ARC
  8
DETAIL
  6
CONTINUOUS
 62
     5
 10
99.012711466226392
 20
51.179489173138897
 30
0.0
 40
23.669334270606409
 50
264.52906464650891
 51
286.18831708769869
  0
ARC
  8
DETAIL
  6
CONTINUOUS
 62
     5
 10
110.88528116738151
 20
-144.04998567621729
 30
0.0
 40
27.58493924592613
 50
358.17105232934711
 51
2.8343069246590491
  0
ENDSEC
  0
EOF
