  0
SECTION
  2
HEADER
  9
$ACADVER
  1
AC1009
  9
$DWGCODEPAGE
  3
dos932
  9
$INSBASE
 10
0.0
 20
0.0
 30
0.0
  9
$EXTMIN
 10
-469.04752964508771
 20
-438.99534961557401
 30
-0.0015258207003583
  9
$EXTMAX
 10
1062.7212640511809
 20
679.00086261681281
 30
0.0000000349246037
  9
$LIMMIN
 10
-2970.0
 20
-2100.0
  9
$LIMMAX
 10
2970.0
 20
2100.0
  9
$ORTHOMODE
 70
     1
  9
$REGENMODE
 70
     1
  9
$FILLMODE
 70
     1
  9
$QTEXTMODE
 70
     0
  9
$MIRRTEXT
 70
     0
  9
$LTSCALE
 40
20.0
  9
$ATTMODE
 70
     1
  9
$TEXTSIZE
 40
64.0
  9
$TRACEWID
 40
0.05
  9
$TEXTSTYLE
  7
STANDARD
  9
$CLAYER
  8
SIZE
  9
$CELTYPE
  6
CONTINUOUS
  9
$CECOLOR
 62
     7
  9
$DIMSCALE
 40
1.0
  9
$DIMASZ
 40
12.0
  9
$DIMEXO
 40
20.0
  9
$DIMDLI
 40
200.0
  9
$DIMRND
 40
0.0
  9
$DIMDLE
 40
0.0
  9
$DIMEXE
 40
20.0
  9
$DIMTP
 40
0.0
  9
$DIMTM
 40
0.0
  9
$DIMTXT
 40
64.0
  9
$DIMCEN
 40
0.09
  9
$DIMTSZ
 40
0.0
  9
$DIMTOL
 70
     0
  9
$DIMLIM
 70
     0
  9
$DIMTIH
 70
     0
  9
$DIMTOH
 70
     0
  9
$DIMSE1
 70
     0
  9
$DIMSE2
 70
     0
  9
$DIMTAD
 70
     1
  9
$DIMZIN
 70
     8
  9
$DIMBLK
  1

  9
$DIMASO
 70
     1
  9
$DIMSHO
 70
     0
  9
$DIMPOST
  1

  9
$DIMAPOST
  1

  9
$DIMALT
 70
     0
  9
$DIMALTD
 70
     2
  9
$DIMALTF
 40
25.399999999999999
  9
$DIMLFAC
 40
1.0
  9
$DIMTOFL
 70
     1
  9
$DIMTVP
 40
0.0
  9
$DIMTIX
 70
     1
  9
$DIMSOXD
 70
     0
  9
$DIMSAH
 70
     0
  9
$DIMBLK1
  1

  9
$DIMBLK2
  1

  9
$DIMSTYLE
  2
STANDARD
  9
$DIMCLRD
 70
     7
  9
$DIMCLRE
 70
     7
  9
$DIMCLRT
 70
     7
  9
$DIMTFAC
 40
1.0
  9
$DIMGAP
 40
25.0
  9
$LUNITS
 70
     2
  9
$LUPREC
 70
     4
  9
$SKETCHINC
 40
0.1
  9
$FILLETRAD
 40
3.0
  9
$AUNITS
 70
     1
  9
$AUPREC
 70
     3
  9
$MENU
  1
ACAD
  9
$ELEVATION
 40
0.0
  9
$PELEVATION
 40
0.0
  9
$THICKNESS
 40
0.0
  9
$LIMCHECK
 70
     0
  9
$CHAMFERA
 40
0.0
  9
$CHAMFERB
 40
0.0
  9
$SKPOLY
 70
     0
  9
$TDCREATE
 40
2453019.62301037
  9
$TDUPDATE
 40
2458949.446749676
  9
$TDINDWG
 40
1.7134534838
  9
$TDUSRTIMER
 40
1.7134534838
  9
$USRTIMER
 70
     1
  9
$ANGBASE
 50
0.0
  9
$ANGDIR
 70
     0
  9
$PDMODE
 70
     3
  9
$PDSIZE
 40
-2.0
  9
$PLINEWID
 40
0.0
  9
$SPLFRAME
 70
     0
  9
$SPLINETYPE
 70
     6
  9
$SPLINESEGS
 70
     8
  9
$SURFTAB1
 70
     6
  9
$SURFTAB2
 70
     6
  9
$SURFTYPE
 70
     6
  9
$SURFU
 70
     6
  9
$SURFV
 70
     6
  9
$UCSNAME
  2

  9
$UCSORG
 10
0.0
 20
0.0
 30
0.0
  9
$UCSXDIR
 10
1.0
 20
0.0
 30
0.0
  9
$UCSYDIR
 10
0.0
 20
1.0
 30
0.0
  9
$PUCSNAME
  2

  9
$PUCSORG
 10
0.0
 20
0.0
 30
0.0
  9
$PUCSXDIR
 10
1.0
 20
0.0
 30
0.0
  9
$PUCSYDIR
 10
0.0
 20
1.0
 30
0.0
  9
$USERI1
 70
     0
  9
$USERI2
 70
     0
  9
$USERI3
 70
     0
  9
$USERI4
 70
     0
  9
$USERI5
 70
     0
  9
$USERR1
 40
20.0
  9
$USERR2
 40
0.0
  9
$USERR3
 40
0.0
  9
$USERR4
 40
0.0
  9
$USERR5
 40
0.0
  9
$WORLDVIEW
 70
     1
  9
$SHADEDGE
 70
     3
  9
$SHADEDIF
 70
    70
  9
$TILEMODE
 70
     1
  9
$MAXACTVP
 70
    48
  9
$PINSBASE
 10
0.0
 20
0.0
 30
0.0
  9
$PLIMCHECK
 70
     0
  9
$PEXTMIN
 10
-100000000000000000000.0
 20
-100000000000000000000.0
 30
-100000000000000000000.0
  9
$PEXTMAX
 10
100000000000000000000.0
 20
100000000000000000000.0
 30
100000000000000000000.0
  9
$PLIMMIN
 10
0.0
 20
0.0
  9
$PLIMMAX
 10
12.0
 20
9.0
  9
$UNITMODE
 70
     0
  9
$VISRETAIN
 70
     0
  9
$PLINEGEN
 70
     0
  9
$PSLTSCALE
 70
     0
  9
$TREEDEPTH
 70
  3020
  9
$ATTDIA
 70
     0
  9
$ATTREQ
 70
     1
  9
$BLIPMODE
 70
     1
  9
$COORDS
 70
     1
  9
$DRAGMODE
 70
     2
  9
$OSMODE
 70
     0
  9
$HANDLING
 70
     0
  9
$HANDSEED
  5
10C47
  0
ENDSEC
  0
SECTION
  2
TABLES
  0
TABLE
  2
LTYPE
 70
     2
  0
LTYPE
  2
CONTINUOUS
 70
     0
  3
実線
 72
    65
 73
     0
 40
0.0
  0
LTYPE
  2
DASHDOT
 70
     0
  3
____ _ ____ _ ____ _ ____ _ ____ _ ____ _ ____
 72
    65
 73
     4
 40
5.5
 49
4.0
 49
-0.6
 49
0.3
 49
-0.6
  0
ENDTAB
  0
TABLE
  2
LAYER
 70
    12
  0
LAYER
  2
0
 70
     0
 62
     7
  6
CONTINUOUS
  0
LAYER
  2
BASIS
 70
     0
 62
     6
  6
DASHDOT
  0
LAYER
  2
OUTLINE
 70
     0
 62
     3
  6
CONTINUOUS
  0
LAYER
  2
DETAIL
 70
     0
 62
     5
  6
CONTINUOUS
  0
LAYER
  2
SIZE
 70
     0
 62
    30
  6
CONTINUOUS
  0
LAYER
  2
ARRANGE
 70
     0
 62
     1
  6
CONTINUOUS
  0
LAYER
  2
DEFPOINTS
 70
     0
 62
     7
  6
CONTINUOUS
  0
LAYER
  2
ETC
 70
     0
 62
    61
  6
CONTINUOUS
  0
LAYER
  2
FIX
 70
     0
 62
    11
  6
CONTINUOUS
  0
LAYER
  2
NOTE
 70
     0
 62
     4
  6
CONTINUOUS
  0
LAYER
  2
SERVICESPACE
 70
    64
 62
     2
  6
DASHDOT
  0
LAYER
  2
SYMBOLLINE
 70
    64
 62
    15
  6
CONTINUOUS
  0
ENDTAB
  0
TABLE
  2
STYLE
 70
     1
  0
STYLE
  2
STANDARD
 70
     0
 40
64.0
 41
0.9
 50
0.0
 71
     0
 42
64.0
  3
SIMPLEX.shx
  4
BIGFONT.shx
  0
ENDTAB
  0
TABLE
  2
APPID
 70
    19
  0
APPID
  2
ACAD
 70
     0
  0
APPID
  2
AUTOCAD_POSTSCRIPT_FIGURE
 70
     0
  0
APPID
  2
ACAD_EXEMPT_FROM_CAD_STANDARDS
 70
     0
  0
APPID
  2
ACAD_PSEXT
 70
     0
  0
APPID
  2
ACAUTHENVIRON
 70
     0
  0
APPID
  2
GENIUS_GENOENT_13
 70
     0
  0
APPID
  2
GENIUS_GENCFG_13
 70
     0
  0
APPID
  2
GENIUS_GENCFG0_13
 70
     0
  0
APPID
  2
GENIUS_GENCFG1_13
 70
     0
  0
APPID
  2
GENIUS_GENCFG2_13
 70
     0
  0
APPID
  2
GENIUS_GENCFG3_13
 70
     0
  0
APPID
  2
GENIUS_GENCFG4_13
 70
     0
  0
APPID
  2
GENIUS_GEVCFG0_13
 70
     0
  0
APPID
  2
CONTENTBLOCKICON
 70
     0
  0
APPID
  2
CONTENTBLOCKDESCRIPTION
 70
     0
  0
APPID
  2
ACAD_NAV_VCDISPLAY
 70
     0
  0
APPID
  2
ACAD_MLEADERVER
 70
     0
  0
APPID
  2
ACDBDYNAMICBLOCKTRUENAME
 70
     0
  0
APPID
  2
ACDBDYNAMICBLOCKGUID
 70
     0
  0
ENDTAB
  0
TABLE
  2
DIMSTYLE
 70
     1
  0
DIMSTYLE
  2
STANDARD
 70
     0
  3

  4

  5
_ORIGIN
  6

  7

 40
1.0
 41
12.0
 42
20.0
 43
200.0
 44
20.0
 45
0.0
 46
0.0
 47
0.0
 48
0.0
140
64.0
141
0.09
142
0.0
143
25.399999999999999
144
1.0
145
0.0
146
1.0
147
25.0
 71
     0
 72
     0
 73
     0
 74
     0
 75
     0
 76
     0
 77
     1
 78
     8
170
     0
171
     2
172
     1
173
     0
174
     1
175
     0
176
     7
177
     7
178
     7
  0
ENDTAB
  0
TABLE
  2
VIEW
 70
     1
  0
VIEW
  2
ALL
 70
     0
 40
4282.6198079999986
 10
0.0
 20
41.309904000000003
 41
5940.0
 11
0.0
 21
0.0
 31
1.0
 12
0.0
 22
0.0
 32
0.0
 42
50.0
 43
0.0
 44
0.0
 50
0.0
 71
     0
  0
ENDTAB
  0
TABLE
  2
UCS
 70
     0
  0
ENDTAB
  0
TABLE
  2
VPORT
 70
     1
  0
VPORT
  2
*ACTIVE
 70
     0
 10
0.0
 20
0.0
 11
1.0
 21
1.0
 12
296.83686720304661
 22
120.0027565006194
 13
0.0
 23
0.0
 14
1.0
 24
1.0
 15
0.0
 25
0.0
 16
0.0
 26
0.0
 36
1.0
 17
0.0
 27
0.0
 37
0.0
 40
1125.4083418162479
 41
1.747787610619469
 42
50.0
 43
0.0
 44
0.0
 50
0.0
 51
0.0
 71
     0
 72
  1000
 73
     1
 74
     3
 75
     0
 76
     0
 77
     0
 78
     0
  0
ENDTAB
  0
ENDSEC
  0
SECTION
  2
BLOCKS
  0
BLOCK
  8
0
  2
_ORIGIN
 70
     0
 10
0.0
 20
0.0
 30
0.0
  3
_ORIGIN
  1
_ORIGIN
  0
CIRCLE
  8
0
  6
CONTINUOUS
 62
     7
 10
0.0
 20
0.0
 30
0.0
 40
0.5
  0
LINE
  8
0
  6
CONTINUOUS
 62
     7
 10
0.0
 20
0.0
 30
0.0
 11
-1.0
 21
0.0
 31
0.0
  0
ENDBLK
  8
0
  0
ENDSEC
  0
SECTION
  2
ENTITIES
  0
CIRCLE
  8
ARRANGE
  6
CONTINUOUS
 62
     1
 10
0.0
 20
0.0
 30
0.0
 40
40.0
  0
POINT
  8
ARRANGE
  6
CONTINUOUS
 62
     1
 10
0.0
 20
0.0
 30
0.0
  0
TEXT
  8
ETC
  6
CONTINUOUS
 62
    61
 10
308.38039964551541
 20
587.96709437737286
 30
0.0
 40
64.0
  1
EWF-45ESA2-Q_4
 41
0.9
  0
TEXT
  8
ETC
  6
CONTINUOUS
 62
    61
 10
304.19440564551508
 20
470.01178436254168
 30
0.0
 40
64.0
  1
産業扇
 41
0.9
  0
TEXT
  8
ETC
  6
CONTINUOUS
 62
    61
 10
354.89580389407092
 20
361.86301147631639
 30
0.0
 40
40.0
  1
EWF-45ESA2-Q
 41
0.9
  0
TEXT
  8
NOTE
  6
CONTINUOUS
 62
     4
 10
111.20894172444881
 20
-424.37655265318767
 30
0.0
 40
64.0
  1
4-φ14
 41
0.9
  0
LINE
  8
SIZE
  6
CONTINUOUS
 62
    30
 10
-10.01615508885283
 20
323.38933764135709
 30
0.0
 11
-10.01615508885283
 21
394.6876981118553
 31
0.0
  0
LINE
  8
SIZE
  6
CONTINUOUS
 62
    30
 10
0.0
 20
328.49757673667199
 30
0.0
 11
0.0
 21
394.6876981118553
 31
0.0
  0
LINE
  8
SIZE
  6
CONTINUOUS
 62
    30
 10
-22.01615508885283
 20
374.6876981118553
 30
0.0
 11
-34.016155088852827
 21
374.6876981118553
 31
0.0
  0
LINE
  8
SIZE
  6
CONTINUOUS
 62
    30
 10
12.0
 20
374.6876981118553
 30
0.0
 11
156.28571428571431
 21
374.6876981118553
 31
0.0
  0
LINE
  8
SIZE
  6
CONTINUOUS
 62
    30
 10
-10.01615508885283
 20
374.6876981118553
 30
0.0
 11
0.0
 21
374.6876981118553
 31
0.0
  0
CIRCLE
  8
SIZE
  6
CONTINUOUS
 62
    30
 10
-10.01615508885283
 20
374.6876981118553
 30
0.0
 40
6.0
  0
LINE
  8
SIZE
  6
CONTINUOUS
 62
    30
 10
-10.01615508885283
 20
374.6876981118553
 30
0.0
 11
-22.01615508885283
 21
374.6876981118553
 31
0.0
  0
CIRCLE
  8
SIZE
  6
CONTINUOUS
 62
    30
 10
0.0
 20
374.6876981118553
 30
0.0
 40
6.0
  0
LINE
  8
SIZE
  6
CONTINUOUS
 62
    30
 10
0.0
 20
374.6876981118553
 30
0.0
 11
12.0
 21
374.6876981118553
 31
0.0
  0
TEXT
  8
SIZE
  6
CONTINUOUS
 62
    30
 10
48.999999999999972
 20
399.6876981118553
 30
0.0
 40
64.0
  1
10
 41
0.9
 72
     1
 11
90.14285714285711
 21
399.6876981118553
 31
0.0
  0
POINT
  8
DEFPOINTS
  6
CONTINUOUS
 62
    30
 10
-10.01615508885283
 20
303.38933764135709
 30
0.0
  0
POINT
  8
DEFPOINTS
  6
CONTINUOUS
 62
    30
 10
0.0
 20
308.49757673667199
 30
0.0
  0
POINT
  8
DEFPOINTS
  6
CONTINUOUS
 62
    30
 10
0.0
 20
374.6876981118553
 30
0.0
  0
LINE
  8
SIZE
  6
CONTINUOUS
 62
    30
 10
-20.032310177705771
 20
313.37318255250398
 30
0.0
 11
-20.032310177705771
 21
394.6876981118553
 31
0.0
  0
LINE
  8
SIZE
  6
CONTINUOUS
 62
    30
 10
-10.01615508885283
 20
323.38933764135709
 30
0.0
 11
-10.01615508885283
 21
394.6876981118553
 31
0.0
  0
LINE
  8
SIZE
  6
CONTINUOUS
 62
    30
 10
1.983844911147173
 20
374.6876981118553
 30
0.0
 11
13.98384491114717
 21
374.6876981118553
 31
0.0
  0
LINE
  8
SIZE
  6
CONTINUOUS
 62
    30
 10
-32.032310177705767
 20
374.6876981118553
 30
0.0
 11
-295.72794123272757
 21
374.6876981118553
 31
0.0
  0
LINE
  8
SIZE
  6
CONTINUOUS
 62
    30
 10
-10.01615508885283
 20
374.6876981118553
 30
0.0
 11
-20.032310177705771
 21
374.6876981118553
 31
0.0
  0
CIRCLE
  8
SIZE
  6
CONTINUOUS
 62
    30
 10
-10.01615508885283
 20
374.6876981118553
 30
0.0
 40
6.0
  0
LINE
  8
SIZE
  6
CONTINUOUS
 62
    30
 10
-10.01615508885283
 20
374.6876981118553
 30
0.0
 11
1.983844911147173
 21
374.6876981118553
 31
0.0
  0
CIRCLE
  8
SIZE
  6
CONTINUOUS
 62
    30
 10
-20.032310177705771
 20
374.6876981118553
 30
0.0
 40
6.0
  0
LINE
  8
SIZE
  6
CONTINUOUS
 62
    30
 10
-20.032310177705771
 20
374.6876981118553
 30
0.0
 11
-32.032310177705767
 21
374.6876981118553
 31
0.0
  0
TEXT
  8
SIZE
  6
CONTINUOUS
 62
    30
 10
-270.72794123272752
 20
399.6876981118553
 30
0.0
 40
64.0
  1
10
 41
0.9
 72
     1
 11
-229.58508408987041
 21
399.6876981118553
 31
0.0
  0
POINT
  8
DEFPOINTS
  6
CONTINUOUS
 62
    30
 10
-20.032310177705771
 20
293.37318255250398
 30
0.0
  0
POINT
  8
DEFPOINTS
  6
CONTINUOUS
 62
    30
 10
-10.01615508885283
 20
303.38933764135709
 30
0.0
  0
POINT
  8
DEFPOINTS
  6
CONTINUOUS
 62
    30
 10
-10.01615508885283
 20
374.6876981118553
 30
0.0
  0
LINE
  8
SIZE
  6
CONTINUOUS
 62
    30
 10
18.499999999999769
 20
309.99999804575418
 30
0.0
 11
352.13545641544181
 21
309.99999804575401
 31
0.0
  0
LINE
  8
SIZE
  6
CONTINUOUS
 62
    30
 10
18.497576736672041
 20
-310.0
 30
0.0
 11
352.13545641544169
 21
-310.0
 31
0.0
  0
LINE
  8
SIZE
  6
CONTINUOUS
 62
    30
 10
332.13545641544181
 20
297.99999804575401
 30
0.0
 11
332.13545641544169
 21
-298.0
 31
0.0
  0
CIRCLE
  8
SIZE
  6
CONTINUOUS
 62
    30
 10
332.13545641544181
 20
309.99999804575401
 30
0.0
 40
6.0
  0
LINE
  8
SIZE
  6
CONTINUOUS
 62
    30
 10
332.13545641544181
 20
309.99999804575401
 30
0.0
 11
332.13545641544181
 21
297.99999804575401
 31
0.0
  0
CIRCLE
  8
SIZE
  6
CONTINUOUS
 62
    30
 10
332.13545641544169
 20
-310.0
 30
0.0
 40
6.0
  0
LINE
  8
SIZE
  6
CONTINUOUS
 62
    30
 10
332.13545641544169
 20
-310.0
 30
0.0
 11
332.13545641544169
 21
-298.0
 31
0.0
  0
TEXT
  8
SIZE
  6
CONTINUOUS
 62
    30
 10
307.13545641544181
 20
-80.859766315696021
 30
0.0
 40
64.0
  1
620
 50
90.0
 41
0.9
 72
     1
 11
307.13545641544181
 21
-6.8026234585531711
 31
0.0
  0
POINT
  8
DEFPOINTS
  6
CONTINUOUS
 62
    30
 10
-1.5000000000002269
 20
309.99999804575418
 30
0.0
  0
POINT
  8
DEFPOINTS
  6
CONTINUOUS
 62
    30
 10
-1.5024232633279551
 20
-310.0
 30
0.0
  0
POINT
  8
DEFPOINTS
  6
CONTINUOUS
 62
    30
 10
332.13545641544169
 20
-310.0
 30
0.0
  0
LINE
  8
SIZE
  6
CONTINUOUS
 62
    30
 10
35.030481073345072
 20
280.4523424878837
 30
0.0
 11
224.80384637328521
 21
280.45234248788353
 31
0.0
  0
LINE
  8
SIZE
  6
CONTINUOUS
 62
    30
 10
35.030481073345072
 20
-280.4523424878837
 30
0.0
 11
224.8038463732851
 21
-280.45234248788381
 31
0.0
  0
LINE
  8
SIZE
  6
CONTINUOUS
 62
    30
 10
204.80384637328521
 20
268.45234248788353
 30
0.0
 11
204.8038463732851
 21
-268.45234248788381
 31
0.0
  0
CIRCLE
  8
SIZE
  6
CONTINUOUS
 62
    30
 10
204.80384637328521
 20
280.45234248788353
 30
0.0
 40
6.0
  0
LINE
  8
SIZE
  6
CONTINUOUS
 62
    30
 10
204.80384637328521
 20
280.45234248788353
 30
0.0
 11
204.80384637328521
 21
268.45234248788353
 31
0.0
  0
CIRCLE
  8
SIZE
  6
CONTINUOUS
 62
    30
 10
204.8038463732851
 20
-280.45234248788381
 30
0.0
 40
6.0
  0
LINE
  8
SIZE
  6
CONTINUOUS
 62
    30
 10
204.8038463732851
 20
-280.45234248788381
 30
0.0
 11
204.8038463732851
 21
-268.45234248788381
 31
0.0
  0
TEXT
  8
SIZE
  6
CONTINUOUS
 62
    30
 10
179.8038463732851
 20
-74.05714285714285
 30
0.0
 40
64.0
  1
560
 50
90.0
 41
0.9
 72
     1
 11
179.8038463732851
 21
0.0
 31
0.0
  0
POINT
  8
DEFPOINTS
  6
CONTINUOUS
 62
    30
 10
15.03048107334507
 20
280.4523424878837
 30
0.0
  0
POINT
  8
DEFPOINTS
  6
CONTINUOUS
 62
    30
 10
15.03048107334507
 20
-280.4523424878837
 30
0.0
  0
POINT
  8
DEFPOINTS
  6
CONTINUOUS
 62
    30
 10
204.8038463732851
 20
-280.45234248788381
 30
0.0
  0
CIRCLE
  8
FIX
  6
CONTINUOUS
 62
    11
 10
0.0
 20
-280.4523424878837
 30
0.0
 40
7.0
  0
CIRCLE
  8
FIX
  6
CONTINUOUS
 62
    11
 10
0.0
 20
280.4523424878837
 30
0.0
 40
7.0
  0
LINE
  8
SIZE
  6
CONTINUOUS
 62
    30
 10
0.0
 20
328.49757673667199
 30
0.0
 11
0.0
 21
529.59874507452014
 31
0.0
  0
LINE
  8
SIZE
  6
CONTINUOUS
 62
    30
 10
-135.21809369951541
 20
250.16665507688069
 30
0.0
 11
-135.21809369951541
 21
529.59874507452014
 31
0.0
  0
LINE
  8
SIZE
  6
CONTINUOUS
 62
    30
 10
-123.21809369951541
 20
509.59874507452008
 30
0.0
 11
-12.0
 21
509.59874507452008
 31
0.0
  0
LINE
  8
SIZE
  6
CONTINUOUS
 62
    30
 10
0.0
 20
509.59874507452008
 30
0.0
 11
199.14285714285711
 21
509.59874507452008
 31
0.0
  0
CIRCLE
  8
SIZE
  6
CONTINUOUS
 62
    30
 10
-135.21809369951541
 20
509.59874507452008
 30
0.0
 40
6.0
  0
LINE
  8
SIZE
  6
CONTINUOUS
 62
    30
 10
-135.21809369951541
 20
509.59874507452008
 30
0.0
 11
-123.21809369951541
 21
509.59874507452008
 31
0.0
  0
CIRCLE
  8
SIZE
  6
CONTINUOUS
 62
    30
 10
0.0
 20
509.59874507452008
 30
0.0
 40
6.0
  0
LINE
  8
SIZE
  6
CONTINUOUS
 62
    30
 10
0.0
 20
509.59874507452008
 30
0.0
 11
-12.0
 21
509.59874507452008
 31
0.0
  0
TEXT
  8
SIZE
  6
CONTINUOUS
 62
    30
 10
36.999999999999993
 20
534.59874507452014
 30
0.0
 40
64.0
  1
135
 41
0.9
 72
     1
 11
105.5714285714286
 21
534.59874507452014
 31
0.0
  0
POINT
  8
DEFPOINTS
  6
CONTINUOUS
 62
    30
 10
0.0
 20
308.49757673667199
 30
0.0
  0
POINT
  8
DEFPOINTS
  6
CONTINUOUS
 62
    30
 10
-135.21809369951541
 20
230.16665507688069
 30
0.0
  0
POINT
  8
DEFPOINTS
  6
CONTINUOUS
 62
    30
 10
-135.21809369951541
 20
509.59874507452008
 30
0.0
  0
LINE
  8
SIZE
  6
CONTINUOUS
 62
    30
 10
0.0
 20
328.49757673667199
 30
0.0
 11
0.0
 21
609.77985092565723
 31
0.0
  0
LINE
  8
SIZE
  6
CONTINUOUS
 62
    30
 10
-307.49596122778678
 20
-65.437803454534105
 30
0.0
 11
-307.49596122778661
 21
609.77985092565723
 31
0.0
  0
LINE
  8
SIZE
  6
CONTINUOUS
 62
    30
 10
-12.0
 20
589.77985092565723
 30
0.0
 11
-295.49596122778661
 21
589.77985092565723
 31
0.0
  0
CIRCLE
  8
SIZE
  6
CONTINUOUS
 62
    30
 10
0.0
 20
589.77985092565723
 30
0.0
 40
6.0
  0
LINE
  8
SIZE
  6
CONTINUOUS
 62
    30
 10
0.0
 20
589.77985092565723
 30
0.0
 11
-12.0
 21
589.77985092565723
 31
0.0
  0
CIRCLE
  8
SIZE
  6
CONTINUOUS
 62
    30
 10
-307.49596122778661
 20
589.77985092565723
 30
0.0
 40
6.0
  0
LINE
  8
SIZE
  6
CONTINUOUS
 62
    30
 10
-307.49596122778661
 20
589.77985092565723
 30
0.0
 11
-295.49596122778661
 21
589.77985092565723
 31
0.0
  0
TEXT
  8
SIZE
  6
CONTINUOUS
 62
    30
 10
-227.80512347103621
 20
614.77985092565723
 30
0.0
 40
64.0
  1
307
 41
0.9
 72
     1
 11
-153.7479806138933
 21
614.77985092565723
 31
0.0
  0
POINT
  8
DEFPOINTS
  6
CONTINUOUS
 62
    30
 10
0.0
 20
308.49757673667199
 30
0.0
  0
POINT
  8
DEFPOINTS
  6
CONTINUOUS
 62
    30
 10
-307.49596122778678
 20
-85.437803454534105
 30
0.0
  0
POINT
  8
DEFPOINTS
  6
CONTINUOUS
 62
    30
 10
-307.49596122778661
 20
589.77985092565723
 30
0.0
  0
TEXT
  8
NOTE
  6
CONTINUOUS
 62
     4
 10
-356.65133123951978
 20
-393.39475877791119
 30
0.0
 40
64.0
  1
EL
 41
0.9
 72
     2
 11
-271.62275981094842
 21
-393.39475877791119
 31
0.0
  0
LINE
  8
SIZE
  6
CONTINUOUS
 62
    30
 10
-306.98390333631392
 20
87.088913789207254
 30
0.0
 11
-399.80465393647643
 21
87.088913789207254
 31
0.0
  0
LINE
  8
SIZE
  6
CONTINUOUS
 62
    30
 10
-306.98390330370307
 20
-122.64627275500629
 30
0.0
 11
-399.80465393647643
 21
-122.64627275500629
 31
0.0
  0
LINE
  8
SIZE
  6
CONTINUOUS
 62
    30
 10
-379.80465393647643
 20
75.088913789207254
 30
0.0
 11
-379.80465393647643
 21
-110.64627275500629
 31
0.0
  0
CIRCLE
  8
SIZE
  6
CONTINUOUS
 62
    30
 10
-379.80465393647643
 20
87.088913789207254
 30
0.0
 40
6.0
  0
LINE
  8
SIZE
  6
CONTINUOUS
 62
    30
 10
-379.80465393647643
 20
87.088913789207254
 30
0.0
 11
-379.80465393647643
 21
75.088913789207254
 31
0.0
  0
CIRCLE
  8
SIZE
  6
CONTINUOUS
 62
    30
 10
-379.80465393647643
 20
-122.64627275500629
 30
0.0
 40
6.0
  0
LINE
  8
SIZE
  6
CONTINUOUS
 62
    30
 10
-379.80465393647643
 20
-122.64627275500629
 30
0.0
 11
-379.80465393647643
 21
-110.64627275500629
 31
0.0
  0
TEXT
  8
SIZE
  6
CONTINUOUS
 62
    30
 10
-404.80465393647643
 20
-66.303045316167427
 30
0.0
 40
64.0
  1
211
 50
90.0
 41
0.9
 72
     1
 11
-404.80465393647643
 21
-10.07447388759601
 31
0.0
  0
POINT
  8
DEFPOINTS
  6
CONTINUOUS
 62
    30
 10
-286.98390333631392
 20
87.088913789207254
 30
0.0
  0
POINT
  8
DEFPOINTS
  6
CONTINUOUS
 62
    30
 10
-286.98390330370307
 20
-122.64627275500629
 30
0.0
  0
POINT
  8
DEFPOINTS
  6
CONTINUOUS
 62
    30
 10
-379.80465393647643
 20
-122.64627275500629
 30
0.0
  0
LINE
  8
NOTE
  6
CONTINUOUS
 62
     4
 10
15.03048107334507
 20
-280.4523424878837
 30
0.0
 11
-40.169829022620888
 21
-280.4523424878837
 31
0.0
  0
LINE
  8
NOTE
  6
CONTINUOUS
 62
     4
 10
15.03048107334507
 20
280.4523424878837
 30
0.0
 11
-40.169829022620888
 21
280.4523424878837
 31
0.0
  0
LINE
  8
DETAIL
  6
CONTINUOUS
 62
     4
 10
-112.96436070379529
 20
-265.22683984454079
 30
0.0
 11
-107.91229474904399
 21
-261.61279379076092
 31
0.0
  0
LINE
  8
DETAIL
  6
CONTINUOUS
 62
     4
 10
-107.91229474904399
 20
-261.61279379076092
 30
0.0
 11
-110.48048065745419
 21
-267.26868633127492
 31
0.0
  0
LINE
  8
DETAIL
  6
CONTINUOUS
 62
     4
 10
-107.91229474904399
 20
-261.61279379076092
 30
0.0
 11
-115.53254661220549
 21
-270.88273238505491
 31
0.0
  0
LINE
  8
NOTE
  6
CONTINUOUS
 62
     4
 10
-115.53254661220549
 20
-270.88273238505491
 30
0.0
 11
-237.27354534018281
 21
-418.97909493076509
 31
0.0
  0
LINE
  8
NOTE
  6
CONTINUOUS
 62
     4
 10
-237.27354534018281
 20
-418.97909493076509
 30
0.0
 11
-372.44103675184789
 21
-419.08367665520763
 31
0.0
  0
LINE
  8
DETAIL
  6
CONTINUOUS
 62
     4
 10
1.9466328506205171
 20
-286.35109827490191
 30
0.0
 11
-0.0000000000002274
 21
-280.45234248788353
 31
0.0
  0
LINE
  8
DETAIL
  6
CONTINUOUS
 62
     4
 10
-0.0000000000002274
 20
-280.45234248788353
 30
0.0
 11
4.6352176254299593
 21
-284.58749143984397
 31
0.0
  0
LINE
  8
DETAIL
  6
CONTINUOUS
 62
     4
 10
-0.0000000000002274
 20
-280.45234248788353
 30
0.0
 11
6.5818504760507608
 21
-290.48624722686247
 31
0.0
  0
LINE
  8
NOTE
  6
CONTINUOUS
 62
     4
 10
6.5818504760507608
 20
-290.48624722686247
 30
0.0
 11
103.877734768713
 21
-438.81195563357352
 31
0.0
  0
LINE
  8
NOTE
  6
CONTINUOUS
 62
     4
 10
103.877734768713
 20
-438.81195563357352
 30
0.0
 11
394.01203122688622
 21
-438.38012172871282
 31
0.0
  0
LINE
  8
OUTLINE
  6
CONTINUOUS
 62
     3
 10
-3.004846526655911
 20
-306.99515347334409
 30
0.0
 11
-6.4103392568658819
 21
-306.99515347334409
 31
0.0
  0
LINE
  8
OUTLINE
  6
CONTINUOUS
 62
     3
 10
-10.01615508885288
 20
-303.38933764135692
 30
0.0
 11
-10.01615508885288
 21
-300.17892012222751
 31
0.0
  0
ARC
  8
OUTLINE
  6
CONTINUOUS
 62
     3
 10
-6.4103392568658819
 20
-303.38933764135692
 30
0.0
 40
3.6058158319874569
 50
180.0
 51
270.0
  0
LINE
  8
OUTLINE
  6
CONTINUOUS
 62
     3
 10
-13.890040626215519
 20
-296.97899838449092
 30
0.0
 11
-16.42649434571922
 21
-296.97899838449092
 31
0.0
  0
ARC
  8
OUTLINE
  6
CONTINUOUS
 62
     3
 10
-16.42649434571922
 20
-293.37318255250398
 30
0.0
 40
3.6058158319870022
 50
180.0
 51
270.0
  0
LINE
  8
OUTLINE
  6
CONTINUOUS
 62
     3
 10
-20.032310177706218
 20
-293.37318255250398
 30
0.0
 11
-20.032310177706218
 21
-261.32961628886301
 31
0.0
  0
LINE
  8
OUTLINE
  6
CONTINUOUS
 62
     3
 10
-20.032310177706218
 20
-261.32961628886301
 30
0.0
 11
-166.2681744749593
 21
-261.32961628886301
 31
0.0
  0
LINE
  8
OUTLINE
  6
CONTINUOUS
 62
     3
 10
-274.4426494345721
 20
-131.31179321486249
 30
0.0
 11
-274.4426494345721
 21
-180.58921678223189
 31
0.0
  0
LINE
  8
OUTLINE
  6
CONTINUOUS
 62
     3
 10
-285.05977382875528
 20
90.155335766765802
 30
0.0
 11
-285.05977382875528
 21
94.151842640167388
 31
0.0
  0
ARC
  8
OUTLINE
  6
CONTINUOUS
 62
     3
 10
-288.46526655896611
 20
90.155335766765802
 30
0.0
 40
3.4054927302098892
 50
295.78480591740168
 51
0.0
  0
LINE
  8
OUTLINE
  6
CONTINUOUS
 62
     3
 10
-303.18998082290682
 20
79.259891120887687
 30
0.0
 11
-286.9839033370904
 21
87.088913789983962
 31
0.0
  0
ARC
  8
OUTLINE
  6
CONTINUOUS
 62
     3
 10
-301.18578352180879
 20
75.111202564476343
 30
0.0
 40
4.6074313408725596
 50
115.7848059174017
 51
180.0
  0
LINE
  8
OUTLINE
  6
CONTINUOUS
 62
     3
 10
-305.793214862681
 20
-110.6685612950118
 30
0.0
 11
-305.793214862681
 21
75.111202564476343
 31
0.0
  0
ARC
  8
OUTLINE
  6
CONTINUOUS
 62
     3
 10
-301.18578352180879
 20
-110.6685612950118
 30
0.0
 40
4.6074313408726084
 50
180.0
 51
244.21519345939879
  0
LINE
  8
OUTLINE
  6
CONTINUOUS
 62
     3
 10
-303.18998086794079
 20
-114.81724982968259
 30
0.0
 11
-286.9839033037033
 21
-122.6462727542298
 31
0.0
  0
ARC
  8
OUTLINE
  6
CONTINUOUS
 62
     3
 10
-288.46526655896611
 20
-125.712694714706
 30
0.0
 40
3.4054927302099709
 50
0.0
 51
64.215193459398847
  0
LINE
  8
OUTLINE
  6
CONTINUOUS
 62
     3
 10
-285.05977382875528
 20
-129.7092084006463
 30
0.0
 11
-285.05977382875528
 21
-125.712694714706
 31
0.0
  0
ARC
  8
OUTLINE
  6
CONTINUOUS
 62
     3
 10
-283.45718901453898
 20
-129.7092084006463
 30
0.0
 40
1.6025848142162431
 50
180.0
 51
270.0
  0
LINE
  8
OUTLINE
  6
CONTINUOUS
 62
     3
 10
-274.4426494345721
 20
-131.31179321486249
 30
0.0
 11
-283.45718901453898
 21
-131.31179321486249
 31
0.0
  0
ARC
  8
OUTLINE
  6
CONTINUOUS
 62
     3
 10
-283.45718901453898
 20
94.151857835218152
 30
0.0
 40
1.6025848142164989
 50
90.0
 51
180.0
  0
LINE
  8
OUTLINE
  6
CONTINUOUS
 62
     3
 10
-274.4426494345721
 20
95.754442649434623
 30
0.0
 11
-283.45718901453898
 21
95.754442649434623
 31
0.0
  0
LINE
  8
OUTLINE
  6
CONTINUOUS
 62
     3
 10
-16.42649434571922
 20
296.97899838449121
 30
0.0
 11
-13.890040626215519
 21
296.97899838449121
 31
0.0
  0
ARC
  8
OUTLINE
  6
CONTINUOUS
 62
     3
 10
-16.42649434571922
 20
293.37318255250398
 30
0.0
 40
3.605815831987115
 50
90.0
 51
180.0
  0
LINE
  8
OUTLINE
  6
CONTINUOUS
 62
     3
 10
-20.032310177706218
 20
261.32961628963949
 30
0.0
 11
-20.032310177706218
 21
293.37318255250398
 31
0.0
  0
LINE
  8
OUTLINE
  6
CONTINUOUS
 62
     3
 10
-166.2681744749593
 20
261.32961628963949
 30
0.0
 11
-20.032310177706218
 21
261.32961628963949
 31
0.0
  0
LINE
  8
OUTLINE
  6
CONTINUOUS
 62
     3
 10
-274.4426494345721
 20
180.5892167830084
 30
0.0
 11
-274.4426494345721
 21
95.754442649434623
 31
0.0
  0
LINE
  8
OUTLINE
  6
CONTINUOUS
 62
     3
 10
-3.004846526655911
 20
306.99515347334432
 30
0.0
 11
-3.004846526655911
 21
308.49757673667227
 31
0.0
  0
LINE
  8
OUTLINE
  6
CONTINUOUS
 62
     3
 10
-10.01615508885288
 20
303.38933764135709
 30
0.0
 11
-10.01615508885288
 21
300.17892012300399
 31
0.0
  0
ARC
  8
OUTLINE
  6
CONTINUOUS
 62
     3
 10
-6.4103392568658819
 20
303.38933764135709
 30
0.0
 40
3.605815831987115
 50
90.0
 51
180.0
  0
LINE
  8
OUTLINE
  6
CONTINUOUS
 62
     3
 10
-6.4103392568658819
 20
306.99515347334432
 30
0.0
 11
-3.004846526655911
 21
306.99515347334432
 31
0.0
  0
ARC
  8
OUTLINE
  6
CONTINUOUS
 62
     3
 10
-1.5024232633272729
 20
-308.49757673667199
 30
0.0
 40
1.5024232633277279
 50
180.0
 51
0.0
  0
LINE
  8
OUTLINE
  6
CONTINUOUS
 62
     3
 10
-3.004846526655911
 20
-308.49757673667199
 30
0.0
 11
-3.004846526655911
 21
-306.99515347334409
 31
0.0
  0
ARC
  8
OUTLINE
  6
CONTINUOUS
 62
     3
 10
-1.5024232633272729
 20
308.49757673667227
 30
0.0
 40
1.5024232633281831
 50
0.0
 51
180.0
  0
LINE
  8
OUTLINE
  6
CONTINUOUS
 62
     3
 10
0.0
 20
-308.49757673667199
 30
0.0
 11
0.0
 21
308.49757673667227
 31
0.0
  0
LINE
  8
DETAIL
  6
CONTINUOUS
 62
     5
 10
-3.004846526655911
 20
-306.99515347334409
 30
0.0
 11
-6.4103392568660524
 21
-306.99515347334409
 31
0.0
  0
LINE
  8
DETAIL
  6
CONTINUOUS
 62
     5
 10
-5.1082390953151844
 20
-303.82456339745272
 30
0.0
 11
-3.004846526655911
 21
-303.82456339745272
 31
0.0
  0
LINE
  8
DETAIL
  6
CONTINUOUS
 62
     5
 10
-13.890040626216379
 20
-296.97899838449092
 30
0.0
 11
-16.42649434571894
 21
-296.97899838449092
 31
0.0
  0
LINE
  8
DETAIL
  6
CONTINUOUS
 62
     5
 10
-14.52342487883686
 20
-267.11244612523319
 30
0.0
 11
-18.082583470388439
 21
-267.11244612523319
 31
0.0
  0
LINE
  8
DETAIL
  6
CONTINUOUS
 62
     5
 10
-14.52342487883686
 20
-264.2210312070481
 30
0.0
 11
-18.082583470388439
 21
-264.2210312070481
 31
0.0
  0
LINE
  8
DETAIL
  6
CONTINUOUS
 62
     5
 10
-14.52342487883686
 20
-261.32961628886301
 30
0.0
 11
-166.26817447495969
 21
-261.32961628886301
 31
0.0
  0
LINE
  8
DETAIL
  6
CONTINUOUS
 62
     5
 10
-166.26817447495969
 20
-257.08012157753819
 30
0.0
 11
-14.52342487883686
 21
-257.08012157753819
 31
0.0
  0
LINE
  8
DETAIL
  6
CONTINUOUS
 62
     5
 10
-5.1082390953151844
 20
-254.2471251035804
 30
0.0
 11
-3.004846526655911
 21
-254.2471251035804
 31
0.0
  0
LINE
  8
DETAIL
  6
CONTINUOUS
 62
     5
 10
-6.4103392568660524
 20
-242.91513920852569
 30
0.0
 11
-3.004846526655911
 21
-242.91513920852569
 31
0.0
  0
LINE
  8
DETAIL
  6
CONTINUOUS
 62
     5
 10
-14.52342487883686
 20
-230.16665507610421
 30
0.0
 11
-166.26817447495969
 21
-230.16665507610421
 31
0.0
  0
LINE
  8
DETAIL
  6
CONTINUOUS
 62
     5
 10
-14.52342487883686
 20
-213.16867623235771
 30
0.0
 11
-10.01615508885294
 21
-213.16867623235771
 31
0.0
  0
LINE
  8
DETAIL
  6
CONTINUOUS
 62
     5
 10
-16.42649434571894
 20
-201.1284412186196
 30
0.0
 11
-13.02100161550891
 21
-201.1284412186196
 31
0.0
  0
LINE
  8
DETAIL
  6
CONTINUOUS
 62
     5
 10
-236.38126009693059
 20
-110.68715330460461
 30
0.0
 11
-233.67689822294031
 21
-110.68715330460461
 31
0.0
  0
LINE
  8
DETAIL
  6
CONTINUOUS
 62
     5
 10
-236.38126009693059
 20
-107.6823067779487
 30
0.0
 11
-233.67689822294031
 21
-107.6823067779487
 31
0.0
  0
LINE
  8
DETAIL
  6
CONTINUOUS
 62
     5
 10
-305.79321486268191
 20
-93.951534733440894
 30
0.0
 11
-306.9951534733442
 21
-93.951534733440894
 31
0.0
  0
LINE
  8
DETAIL
  6
CONTINUOUS
 62
     5
 10
-274.94345718901468
 20
-90.266614867014823
 30
0.0
 11
-275.74474959612292
 21
-90.266614867014823
 31
0.0
  0
LINE
  8
DETAIL
  6
CONTINUOUS
 62
     5
 10
-274.94345718901468
 20
-89.746160182114181
 30
0.0
 11
-275.74474959612292
 21
-89.746160182114181
 31
0.0
  0
LINE
  8
DETAIL
  6
CONTINUOUS
 62
     5
 10
-305.79321486268191
 20
-84.936995153473163
 30
0.0
 11
-306.9951534733442
 21
-84.936995153473163
 31
0.0
  0
LINE
  8
DETAIL
  6
CONTINUOUS
 62
     5
 10
-274.74313408723748
 20
-76.122778675282689
 30
0.0
 11
-272.43941841680129
 21
-76.122778675282689
 31
0.0
  0
LINE
  8
DETAIL
  6
CONTINUOUS
 62
     5
 10
-307.49596122778678
 20
-93.450726423062861
 30
0.0
 11
-307.49596122778678
 21
-85.437803453757624
 31
0.0
  0
LINE
  8
DETAIL
  6
CONTINUOUS
 62
     5
 10
-305.89337641357042
 20
-48.578352180936918
 30
0.0
 11
-305.89337641357042
 21
-45.573505654281007
 31
0.0
  0
LINE
  8
DETAIL
  6
CONTINUOUS
 62
     5
 10
-305.89337641357042
 20
32.552504038772213
 30
0.0
 11
-305.89337641357042
 21
35.557350565428123
 31
0.0
  0
LINE
  8
DETAIL
  6
CONTINUOUS
 62
     5
 10
-231.37318255250409
 20
-66.106623586429578
 30
0.0
 11
-197.49010530310221
 21
-66.106623586429578
 31
0.0
  0
LINE
  8
DETAIL
  6
CONTINUOUS
 62
     5
 10
-196.68881289599389
 20
-65.305331179321456
 30
0.0
 11
-147.83844911147031
 21
-65.305331179321456
 31
0.0
  0
LINE
  8
DETAIL
  6
CONTINUOUS
 62
     5
 10
-233.37641357027479
 20
-62.052860909919673
 30
0.0
 11
-227.44740724056069
 21
-62.052860909919673
 31
0.0
  0
LINE
  8
DETAIL
  6
CONTINUOUS
 62
     5
 10
-233.37641357027479
 20
-58.294021516123621
 30
0.0
 11
-227.44740724056069
 21
-58.294021516123621
 31
0.0
  0
LINE
  8
DETAIL
  6
CONTINUOUS
 62
     5
 10
-223.66074313408731
 20
-57.790432526205002
 30
0.0
 11
-226.86591276252031
 21
-57.790432526205002
 31
0.0
  0
LINE
  8
DETAIL
  6
CONTINUOUS
 62
     5
 10
-223.66074313408731
 20
-51.279931718450598
 30
0.0
 11
-226.86591276252031
 21
-51.279931718450598
 31
0.0
  0
LINE
  8
DETAIL
  6
CONTINUOUS
 62
     5
 10
-233.37641357027479
 20
-50.776342728531738
 30
0.0
 11
-227.44740724056069
 21
-50.776342728531738
 31
0.0
  0
LINE
  8
DETAIL
  6
CONTINUOUS
 62
     5
 10
-233.37641357027479
 20
-47.017503333959439
 30
0.0
 11
-227.44740724056069
 21
-47.017503333959439
 31
0.0
  0
LINE
  8
DETAIL
  6
CONTINUOUS
 62
     5
 10
-276.74636510500818
 20
83.253038523074338
 30
0.0
 11
-276.74636510500818
 21
67.108239095315184
 31
0.0
  0
LINE
  8
DETAIL
  6
CONTINUOUS
 62
     5
 10
-276.74636510500818
 20
-78.088853709007935
 30
0.0
 11
-276.74636510500818
 21
-89.76580711257202
 31
0.0
  0
LINE
  8
DETAIL
  6
CONTINUOUS
 62
     5
 10
-274.44264943457199
 20
180.5892167830084
 30
0.0
 11
-274.44264943457199
 21
65.105008077544426
 31
0.0
  0
LINE
  8
DETAIL
  6
CONTINUOUS
 62
     5
 10
-274.44264943457199
 20
-76.122778675282689
 30
0.0
 11
-274.44264943457199
 21
-180.58921678223189
 31
0.0
  0
LINE
  8
DETAIL
  6
CONTINUOUS
 62
     5
 10
-269.43457189014538
 20
-73.10974974189412
 30
0.0
 11
-269.43457189014538
 21
62.100161550888743
 31
0.0
  0
LINE
  8
DETAIL
  6
CONTINUOUS
 62
     5
 10
-227.44740724056069
 20
47.01750333473592
 30
0.0
 11
-226.86591276252031
 21
48.024681315349881
 31
0.0
  0
LINE
  8
DETAIL
  6
CONTINUOUS
 62
     5
 10
-139.9256865912763
 20
-8.5137318255251557
 30
0.0
 11
-135.21809369951541
 21
-8.5137318255251557
 31
0.0
  0
LINE
  8
DETAIL
  6
CONTINUOUS
 62
     5
 10
-139.9256865912763
 20
8.5137318255251557
 30
0.0
 11
-135.21809369951541
 21
8.5137318255251557
 31
0.0
  0
LINE
  8
DETAIL
  6
CONTINUOUS
 62
     5
 10
-227.44740724056069
 20
-47.017503333959439
 30
0.0
 11
-226.86591276252031
 21
-48.0246813145734
 31
0.0
  0
LINE
  8
DETAIL
  6
CONTINUOUS
 62
     5
 10
-236.38126009693059
 20
-180.58921678223189
 30
0.0
 11
-236.38126009693059
 21
180.5892167830084
 31
0.0
  0
LINE
  8
DETAIL
  6
CONTINUOUS
 62
     5
 10
-233.67689822294031
 20
-107.68761720672251
 30
0.0
 11
-233.67689822294031
 21
-110.68184287583129
 31
0.0
  0
LINE
  8
DETAIL
  6
CONTINUOUS
 62
     5
 10
-233.37641357027479
 20
85.638044238268776
 30
0.0
 11
-233.37641357027479
 21
-85.638044237492295
 31
0.0
  0
LINE
  8
DETAIL
  6
CONTINUOUS
 62
     5
 10
-226.86591276252031
 20
61.045682930858668
 30
0.0
 11
-226.86591276252031
 21
48.024681315349881
 31
0.0
  0
LINE
  8
DETAIL
  6
CONTINUOUS
 62
     5
 10
-226.86591276252031
 20
-48.0246813145734
 30
0.0
 11
-226.86591276252031
 21
-61.045682930082187
 31
0.0
  0
LINE
  8
DETAIL
  6
CONTINUOUS
 62
     5
 10
-223.66074313408731
 20
-57.790432526205002
 30
0.0
 11
-223.66074313408731
 21
-51.279931718450598
 31
0.0
  0
LINE
  8
DETAIL
  6
CONTINUOUS
 62
     5
 10
-223.66074313408731
 20
51.279931719227079
 30
0.0
 11
-223.66074313408731
 21
57.790432526981483
 31
0.0
  0
LINE
  8
DETAIL
  6
CONTINUOUS
 62
     5
 10
-197.49010530310221
 20
66.106623586429805
 30
0.0
 11
-197.49010530310221
 21
-66.106623586429578
 31
0.0
  0
LINE
  8
DETAIL
  6
CONTINUOUS
 62
     5
 10
-196.68881289599389
 20
65.305331179321456
 30
0.0
 11
-196.68881289599389
 21
-65.305331179321456
 31
0.0
  0
LINE
  8
DETAIL
  6
CONTINUOUS
 62
     5
 10
-227.44740724056069
 20
-62.052860909919673
 30
0.0
 11
-226.86591276252031
 21
-61.045682930082187
 31
0.0
  0
LINE
  8
DETAIL
  6
CONTINUOUS
 62
     5
 10
-196.68881289599389
 20
-65.305331179321456
 30
0.0
 11
-197.49010530310221
 21
-66.106623586429578
 31
0.0
  0
LINE
  8
DETAIL
  6
CONTINUOUS
 62
     5
 10
-233.37641357027479
 20
47.01750333473592
 30
0.0
 11
-227.44740724056069
 21
47.01750333473592
 31
0.0
  0
LINE
  8
DETAIL
  6
CONTINUOUS
 62
     5
 10
-233.37641357027479
 20
50.776342729308453
 30
0.0
 11
-227.44740724056069
 21
50.776342729308453
 31
0.0
  0
LINE
  8
DETAIL
  6
CONTINUOUS
 62
     5
 10
-223.66074313408731
 20
51.279931719227079
 30
0.0
 11
-226.86591276252031
 21
51.279931719227079
 31
0.0
  0
LINE
  8
DETAIL
  6
CONTINUOUS
 62
     5
 10
-223.66074313408731
 20
57.790432526981483
 30
0.0
 11
-226.86591276252031
 21
57.790432526981483
 31
0.0
  0
LINE
  8
DETAIL
  6
CONTINUOUS
 62
     5
 10
-233.37641357027479
 20
58.29402151690033
 30
0.0
 11
-227.44740724056069
 21
58.29402151690033
 31
0.0
  0
LINE
  8
DETAIL
  6
CONTINUOUS
 62
     5
 10
-233.37641357027479
 20
62.052860910696147
 30
0.0
 11
-227.44740724056069
 21
62.052860910696147
 31
0.0
  0
LINE
  8
DETAIL
  6
CONTINUOUS
 62
     5
 10
-236.38126009693059
 20
63.549721703072009
 30
0.0
 11
-233.37641357027479
 21
63.549721703072009
 31
0.0
  0
LINE
  8
DETAIL
  6
CONTINUOUS
 62
     5
 10
-272.43941841680129
 20
65.105008077544426
 30
0.0
 11
-274.74313408723748
 21
65.105008077544426
 31
0.0
  0
LINE
  8
DETAIL
  6
CONTINUOUS
 62
     5
 10
-196.68881289599389
 20
65.305331179321456
 30
0.0
 11
-147.83844911147031
 21
65.305331179321456
 31
0.0
  0
LINE
  8
DETAIL
  6
CONTINUOUS
 62
     5
 10
-231.37318255250409
 20
66.106623586429805
 30
0.0
 11
-197.49010530310221
 21
66.106623586429805
 31
0.0
  0
LINE
  8
DETAIL
  6
CONTINUOUS
 62
     5
 10
-227.44740724056069
 20
62.052860910696147
 30
0.0
 11
-226.86591276252031
 21
61.045682930858668
 31
0.0
  0
LINE
  8
DETAIL
  6
CONTINUOUS
 62
     5
 10
-18.082583470388439
 20
235.9494849132511
 30
0.0
 11
-18.529886914378149
 21
235.17473262130719
 31
0.0
  0
LINE
  8
DETAIL
  6
CONTINUOUS
 62
     5
 10
-196.68881289599389
 20
65.305331179321456
 30
0.0
 11
-197.49010530310221
 21
66.106623586429805
 31
0.0
  0
LINE
  8
DETAIL
  6
CONTINUOUS
 62
     5
 10
-18.082583470388439
 20
-267.11244612523319
 30
0.0
 11
-18.529886914378149
 21
-266.33769383328939
 31
0.0
  0
LINE
  8
DETAIL
  6
CONTINUOUS
 62
     5
 10
-140.42649434571899
 20
57.893376413570422
 30
0.0
 11
-140.42649434571899
 21
-21.064431980989639
 31
0.0
  0
LINE
  8
DETAIL
  6
CONTINUOUS
 62
     5
 10
-139.9256865912763
 20
13.02100161550902
 30
0.0
 11
-139.9256865912763
 21
-13.021001615508791
 31
0.0
  0
LINE
  8
DETAIL
  6
CONTINUOUS
 62
     5
 10
-135.21809369951541
 20
230.16665507688069
 30
0.0
 11
-135.21809369951541
 21
-230.16665507610421
 31
0.0
  0
LINE
  8
DETAIL
  6
CONTINUOUS
 62
     5
 10
-131.2116316639742
 20
230.16665507688069
 30
0.0
 11
-131.2116316639742
 21
-230.16665507610421
 31
0.0
  0
LINE
  8
DETAIL
  6
CONTINUOUS
 62
     5
 10
-13.02100161550891
 20
201.12844121939611
 30
0.0
 11
-16.42649434571894
 21
201.12844121939611
 31
0.0
  0
LINE
  8
DETAIL
  6
CONTINUOUS
 62
     5
 10
-14.52342487883686
 20
213.16867623313419
 30
0.0
 11
-10.01615508885294
 21
213.16867623313419
 31
0.0
  0
LINE
  8
DETAIL
  6
CONTINUOUS
 62
     5
 10
-20.032310177706108
 20
-293.37318255250398
 30
0.0
 11
-20.032310177706108
 21
-261.32961628886301
 31
0.0
  0
LINE
  8
DETAIL
  6
CONTINUOUS
 62
     5
 10
-20.032310177706108
 20
-230.16665507610421
 30
0.0
 11
-20.032310177706108
 21
230.16665507688069
 31
0.0
  0
LINE
  8
DETAIL
  6
CONTINUOUS
 62
     5
 10
-20.032310177706108
 20
261.32961628963949
 30
0.0
 11
-20.032310177706108
 21
293.37318255250398
 31
0.0
  0
LINE
  8
DETAIL
  6
CONTINUOUS
 62
     5
 10
-18.529886914378149
 20
-266.33769383328939
 30
0.0
 11
-18.529886914378149
 21
-261.32961628886301
 31
0.0
  0
LINE
  8
DETAIL
  6
CONTINUOUS
 62
     5
 10
-18.529886914378149
 20
225.1585775324543
 30
0.0
 11
-18.529886914378149
 21
235.17473262130719
 31
0.0
  0
LINE
  8
DETAIL
  6
CONTINUOUS
 62
     5
 10
-14.52342487883686
 20
-294.50537591889878
 30
0.0
 11
-14.52342487883686
 21
-254.54418187391499
 31
0.0
  0
LINE
  8
DETAIL
  6
CONTINUOUS
 62
     5
 10
-14.52342487883686
 20
-254.54418187391499
 30
0.0
 11
-14.52342487883686
 21
-213.16867623235771
 31
0.0
  0
LINE
  8
DETAIL
  6
CONTINUOUS
 62
     5
 10
-14.52342487883686
 20
213.16867623313419
 30
0.0
 11
-14.52342487883686
 21
250.2234124025249
 31
0.0
  0
LINE
  8
DETAIL
  6
CONTINUOUS
 62
     5
 10
-14.52342487883686
 20
250.2234124025249
 30
0.0
 11
-14.52342487883686
 21
254.5441818746917
 31
0.0
  0
LINE
  8
DETAIL
  6
CONTINUOUS
 62
     5
 10
-14.52342487883686
 20
254.5441818746917
 30
0.0
 11
-14.52342487883686
 21
294.50537591967532
 31
0.0
  0
LINE
  8
DETAIL
  6
CONTINUOUS
 62
     5
 10
-14.52342487883686
 20
224.38382523973411
 30
0.0
 11
-18.082583470388439
 21
224.38382523973411
 31
0.0
  0
LINE
  8
DETAIL
  6
CONTINUOUS
 62
     5
 10
-14.52342487883686
 20
227.27524015791909
 30
0.0
 11
-18.082583470388439
 21
227.27524015791909
 31
0.0
  0
LINE
  8
DETAIL
  6
CONTINUOUS
 62
     5
 10
-166.26817447495969
 20
230.16665507688069
 30
0.0
 11
-18.529886914378149
 21
230.16665507688069
 31
0.0
  0
LINE
  8
DETAIL
  6
CONTINUOUS
 62
     5
 10
-14.52342487883686
 20
233.05806999506581
 30
0.0
 11
-18.082583470388439
 21
233.05806999506581
 31
0.0
  0
LINE
  8
DETAIL
  6
CONTINUOUS
 62
     5
 10
-14.52342487883686
 20
235.9494849132511
 30
0.0
 11
-18.082583470388439
 21
235.9494849132511
 31
0.0
  0
LINE
  8
DETAIL
  6
CONTINUOUS
 62
     5
 10
-3.004846526655911
 20
242.9151392093024
 30
0.0
 11
-6.4103392568660524
 21
242.9151392093024
 31
0.0
  0
LINE
  8
DETAIL
  6
CONTINUOUS
 62
     5
 10
-10.01615508885294
 20
303.38933764135709
 30
0.0
 11
-10.01615508885294
 21
300.17892012300399
 31
0.0
  0
LINE
  8
DETAIL
  6
CONTINUOUS
 62
     5
 10
-10.01615508885294
 20
-239.30932337653871
 30
0.0
 11
-10.01615508885294
 21
-244.927937625803
 31
0.0
  0
LINE
  8
DETAIL
  6
CONTINUOUS
 62
     5
 10
-10.01615508885294
 20
-303.38933764135692
 30
0.0
 11
-10.01615508885294
 21
-300.17892012222751
 31
0.0
  0
LINE
  8
DETAIL
  6
CONTINUOUS
 62
     5
 10
-10.01615508885294
 20
-239.30932337653871
 30
0.0
 11
-10.01615508885294
 21
239.30932337731539
 31
0.0
  0
LINE
  8
DETAIL
  6
CONTINUOUS
 62
     5
 10
-10.01615508885294
 20
239.30932337731539
 30
0.0
 11
-10.01615508885294
 21
244.92793762657951
 31
0.0
  0
LINE
  8
DETAIL
  6
CONTINUOUS
 62
     5
 10
-5.1082390953151844
 20
-303.82456339745272
 30
0.0
 11
-5.1082390953151844
 21
-253.84381916672319
 31
0.0
  0
LINE
  8
DETAIL
  6
CONTINUOUS
 62
     5
 10
-5.1082390953151844
 20
253.8438191674995
 30
0.0
 11
-5.1082390953151844
 21
303.8245633982292
 31
0.0
  0
LINE
  8
DETAIL
  6
CONTINUOUS
 62
     5
 10
-3.004846526655911
 20
-308.49757673667199
 30
0.0
 11
-3.004846526655911
 21
308.49757673667227
 31
0.0
  0
LINE
  8
DETAIL
  6
CONTINUOUS
 62
     5
 10
-0.0000000000000568
 20
-308.49757673667199
 30
0.0
 11
-0.0000000000000568
 21
308.49757673667227
 31
0.0
  0
LINE
  8
DETAIL
  6
CONTINUOUS
 62
     5
 10
-5.1082390953151844
 20
254.24712510435691
 30
0.0
 11
-3.004846526655911
 21
254.24712510435691
 31
0.0
  0
LINE
  8
DETAIL
  6
CONTINUOUS
 62
     5
 10
-14.52342487883686
 20
257.08012157831467
 30
0.0
 11
-166.26817447495969
 21
257.08012157831467
 31
0.0
  0
LINE
  8
DETAIL
  6
CONTINUOUS
 62
     5
 10
-166.26817447495969
 20
261.32961628963949
 30
0.0
 11
-14.52342487883686
 21
261.32961628963949
 31
0.0
  0
LINE
  8
DETAIL
  6
CONTINUOUS
 62
     5
 10
-16.42649434571894
 20
296.97899838449121
 30
0.0
 11
-13.890040626216379
 21
296.97899838449121
 31
0.0
  0
LINE
  8
DETAIL
  6
CONTINUOUS
 62
     5
 10
-3.004846526655911
 20
303.8245633982292
 30
0.0
 11
-5.1082390953151844
 21
303.8245633982292
 31
0.0
  0
LINE
  8
DETAIL
  6
CONTINUOUS
 62
     5
 10
-6.4103392568660524
 20
306.99515347334432
 30
0.0
 11
-3.004846526655911
 21
306.99515347334432
 31
0.0
  0
LINE
  8
DETAIL
  6
CONTINUOUS
 62
     5
 10
-18.082583470388439
 20
224.38382523973411
 30
0.0
 11
-18.529886914378149
 21
225.1585775324543
 31
0.0
  0
ARC
  8
DETAIL
  6
CONTINUOUS
 62
     5
 10
-272.49612107735669
 20
-73.109872921967053
 30
0.0
 40
3.061549189540576
 50
343.89709077680078
 51
0.0023052694990755
  0
ARC
  8
DETAIL
  6
CONTINUOUS
 62
     5
 10
-231.37318255250409
 20
-68.109854604200336
 30
0.0
 40
2.0032310177705601
 50
90.0
 51
179.99999999529709
  0
ARC
  8
DETAIL
  6
CONTINUOUS
 62
     5
 10
-274.85383510626048
 20
-78.088916399268555
 30
0.0
 40
1.892530000300567
 50
177.45849577310119
 51
179.99810204960261
  0
ARC
  8
DETAIL
  6
CONTINUOUS
 62
     5
 10
-305.09208400646219
 20
-47.075928917608962
 30
0.0
 40
1.7027463651050001
 50
118.0724869358982
 51
241.92751306410179
  0
ARC
  8
DETAIL
  6
CONTINUOUS
 62
     5
 10
-306.9951534733442
 20
-85.437802907915739
 30
0.0
 40
0.5008077544426189
 50
90.0
 51
180.00006247930551
  0
ARC
  8
DETAIL
  6
CONTINUOUS
 62
     5
 10
-306.9951534733442
 20
-93.450726978998318
 30
0.0
 40
0.500807754442689
 50
179.99993752069449
 51
270.0
  0
ARC
  8
DETAIL
  6
CONTINUOUS
 62
     5
 10
-305.89337641357042
 20
-45.473344103392492
 30
0.0
 40
0.100161550888545
 50
270.0
 51
0.0
  0
ARC
  8
DETAIL
  6
CONTINUOUS
 62
     5
 10
-305.89337641357042
 20
-48.678513731825433
 30
0.0
 40
0.100161550888558
 50
0.0
 51
90.0
  0
ARC
  8
DETAIL
  6
CONTINUOUS
 62
     5
 10
-272.43941841680129
 20
62.100161550888743
 30
0.0
 40
3.004846526655911
 50
0.0
 51
90.0
  0
ARC
  8
DETAIL
  6
CONTINUOUS
 62
     5
 10
-231.37318255250409
 20
68.109854604200336
 30
0.0
 40
2.0032310177705881
 50
180.000000004703
 51
270.0
  0
ARC
  8
DETAIL
  6
CONTINUOUS
 62
     5
 10
-274.74313408723748
 20
67.108239095315184
 30
0.0
 40
2.0032310177705308
 50
180.0
 51
270.0
  0
ARC
  8
DETAIL
  6
CONTINUOUS
 62
     5
 10
-305.09208400646219
 20
34.054927302100168
 30
0.0
 40
1.7027463651049981
 50
118.0724869358982
 51
241.92751306410179
  0
ARC
  8
DETAIL
  6
CONTINUOUS
 62
     5
 10
-305.89337641357042
 20
35.657512116316639
 30
0.0
 40
0.100161550888558
 50
270.0
 51
0.0
  0
ARC
  8
DETAIL
  6
CONTINUOUS
 62
     5
 10
-305.89337641357042
 20
32.452342487883698
 30
0.0
 40
0.100161550888558
 50
0.0
 51
90.0
  0
ARC
  8
DETAIL
  6
CONTINUOUS
 62
     5
 10
-130.71082390953151
 20
-232.8756058158319
 30
0.0
 40
3.906300484652717
 50
90.0
 51
97.367573868500102
  0
ARC
  8
DETAIL
  6
CONTINUOUS
 62
     5
 10
-143.5315024232635
 20
-13.021001615508791
 30
0.0
 40
3.605815831987031
 50
329.49355947690663
 51
0.0
  0
ARC
  8
DETAIL
  6
CONTINUOUS
 62
     5
 10
-6.4103392568660524
 20
-239.30932337653871
 30
0.0
 40
3.6058158319871718
 50
180.0
 51
270.0
  0
ARC
  8
DETAIL
  6
CONTINUOUS
 62
     5
 10
-6.4103392568660524
 20
-303.38933764135692
 30
0.0
 40
3.6058158319871718
 50
180.0
 51
270.0
  0
ARC
  8
DETAIL
  6
CONTINUOUS
 62
     5
 10
-16.42649434571894
 20
-293.37318255250398
 30
0.0
 40
3.6058158319871718
 50
180.0
 51
270.0
  0
ARC
  8
DETAIL
  6
CONTINUOUS
 62
     5
 10
-16.42649434571894
 20
-197.5226253866326
 30
0.0
 40
3.6058158319871718
 50
180.0
 51
270.0
  0
ARC
  8
DETAIL
  6
CONTINUOUS
 62
     5
 10
-13.02100161550891
 20
-204.13328774527551
 30
0.0
 40
3.004846526655911
 50
0.0
 51
90.0
  0
ARC
  8
DETAIL
  6
CONTINUOUS
 62
     5
 10
-1.502423263328069
 20
-308.49757673667199
 30
0.0
 40
1.5024232633279551
 50
180.0
 51
0.0
  0
ARC
  8
DETAIL
  6
CONTINUOUS
 62
     5
 10
-147.83844911147031
 20
57.893376413570422
 30
0.0
 40
7.4119547657512017
 50
0.0
 51
90.0
  0
ARC
  8
DETAIL
  6
CONTINUOUS
 62
     5
 10
-130.71082390953151
 20
232.8756058158319
 30
0.0
 40
3.9063004846527081
 50
262.63242613149993
 51
270.0
  0
ARC
  8
DETAIL
  6
CONTINUOUS
 62
     5
 10
-143.5315024232635
 20
13.02100161550902
 30
0.0
 40
3.6058158319871718
 50
0.0
 51
30.506440523093399
  0
ARC
  8
DETAIL
  6
CONTINUOUS
 62
     5
 10
-16.42649434571894
 20
293.37318255250398
 30
0.0
 40
3.605815831987115
 50
90.0
 51
180.0
  0
ARC
  8
DETAIL
  6
CONTINUOUS
 62
     5
 10
-16.42649434571894
 20
197.52262538740911
 30
0.0
 40
3.605815831987031
 50
90.0
 51
180.0
  0
ARC
  8
DETAIL
  6
CONTINUOUS
 62
     5
 10
-6.4103392568660524
 20
239.30932337731539
 30
0.0
 40
3.605815831987059
 50
90.0
 51
180.0
  0
ARC
  8
DETAIL
  6
CONTINUOUS
 62
     5
 10
-6.4103392568660524
 20
303.38933764135709
 30
0.0
 40
3.605815831987115
 50
90.0
 51
180.0
  0
ARC
  8
DETAIL
  6
CONTINUOUS
 62
     5
 10
-13.02100161550891
 20
204.13328774605199
 30
0.0
 40
3.004846526655911
 50
270.0
 51
0.0
  0
ARC
  8
DETAIL
  6
CONTINUOUS
 62
     5
 10
-1.502423263328069
 20
308.49757673667227
 30
0.0
 40
1.5024232633279551
 50
0.0
 51
180.0
  0
LINE
  8
DETAIL
  6
CONTINUOUS
 62
     5
 10
-274.94345718901468
 20
-89.746160182114181
 30
0.0
 11
-274.9238908345651
 21
-89.746290142240014
 31
0.0
  0
LINE
  8
DETAIL
  6
CONTINUOUS
 62
     5
 10
-274.9238908345651
 20
-89.746290142240014
 30
0.0
 11
-274.90432608779668
 21
-89.746541172423349
 31
0.0
  0
LINE
  8
DETAIL
  6
CONTINUOUS
 62
     5
 10
-274.90432608779668
 20
-89.746541172423349
 30
0.0
 11
-274.90432608779668
 21
-89.746541172423349
 31
0.0
  0
LINE
  8
DETAIL
  6
CONTINUOUS
 62
     5
 10
-274.90432608779668
 20
-89.746541172423349
 30
0.0
 11
-274.88476380234567
 21
-89.747009010854754
 31
0.0
  0
LINE
  8
DETAIL
  6
CONTINUOUS
 62
     5
 10
-274.88476380234567
 20
-89.747009010854754
 30
0.0
 11
-274.86520181567141
 21
-89.747688068254774
 31
0.0
  0
LINE
  8
DETAIL
  6
CONTINUOUS
 62
     5
 10
-274.86520181567141
 20
-89.747688068254774
 30
0.0
 11
-274.86520181567141
 21
-89.747688068254774
 31
0.0
  0
LINE
  8
DETAIL
  6
CONTINUOUS
 62
     5
 10
-274.86520181567141
 20
-89.747688068254774
 30
0.0
 11
-274.8456416452691
 21
-89.748553748675477
 31
0.0
  0
LINE
  8
DETAIL
  6
CONTINUOUS
 62
     5
 10
-274.8456416452691
 20
-89.748553748675477
 30
0.0
 11
-274.82610254496029
 21
-89.749606756962294
 31
0.0
  0
LINE
  8
DETAIL
  6
CONTINUOUS
 62
     5
 10
-274.82610254496029
 20
-89.749606756962294
 30
0.0
 11
-274.82610254496029
 21
-89.749606756962294
 31
0.0
  0
LINE
  8
DETAIL
  6
CONTINUOUS
 62
     5
 10
-274.82610254496029
 20
-89.749606756962294
 30
0.0
 11
-274.80659122036627
 21
-89.750854154232911
 31
0.0
  0
LINE
  8
DETAIL
  6
CONTINUOUS
 62
     5
 10
-274.80659122036627
 20
-89.750854154232911
 30
0.0
 11
-274.78704644798478
 21
-89.752303125901335
 31
0.0
  0
LINE
  8
DETAIL
  6
CONTINUOUS
 62
     5
 10
-274.78704644798478
 20
-89.752303125901335
 30
0.0
 11
-274.78704644798478
 21
-89.752303125901335
 31
0.0
  0
LINE
  8
DETAIL
  6
CONTINUOUS
 62
     5
 10
-274.78704644798478
 20
-89.752303125901335
 30
0.0
 11
-274.76745351707541
 21
-89.753954438960591
 31
0.0
  0
LINE
  8
DETAIL
  6
CONTINUOUS
 62
     5
 10
-274.76745351707541
 20
-89.753954438960591
 30
0.0
 11
-274.74805169706718
 21
-89.755783062425962
 31
0.0
  0
LINE
  8
DETAIL
  6
CONTINUOUS
 62
     5
 10
-274.74805169706718
 20
-89.755783062425962
 30
0.0
 11
-274.74805169706718
 21
-89.755783062425962
 31
0.0
  0
LINE
  8
DETAIL
  6
CONTINUOUS
 62
     5
 10
-274.74805169706718
 20
-89.755783062425962
 30
0.0
 11
-274.72904579824609
 21
-89.75776689733425
 31
0.0
  0
LINE
  8
DETAIL
  6
CONTINUOUS
 62
     5
 10
-274.72904579824609
 20
-89.75776689733425
 30
0.0
 11
-274.71024881415133
 21
-89.759921370787197
 31
0.0
  0
LINE
  8
DETAIL
  6
CONTINUOUS
 62
     5
 10
-274.71024881415133
 20
-89.759921370787197
 30
0.0
 11
-274.71024881415133
 21
-89.759921370787197
 31
0.0
  0
LINE
  8
DETAIL
  6
CONTINUOUS
 62
     5
 10
-274.71024881415133
 20
-89.759921370787197
 30
0.0
 11
-274.69142548573251
 21
-89.762268921550913
 31
0.0
  0
LINE
  8
DETAIL
  6
CONTINUOUS
 62
     5
 10
-274.69142548573251
 20
-89.762268921550913
 30
0.0
 11
-274.67253936032739
 21
-89.764822508984707
 31
0.0
  0
LINE
  8
DETAIL
  6
CONTINUOUS
 62
     5
 10
-274.67253936032739
 20
-89.764822508984707
 30
0.0
 11
-274.67253936032739
 21
-89.764822508984707
 31
0.0
  0
LINE
  8
DETAIL
  6
CONTINUOUS
 62
     5
 10
-274.67253936032739
 20
-89.764822508984707
 30
0.0
 11
-274.65364243897409
 21
-89.767582000733228
 31
0.0
  0
LINE
  8
DETAIL
  6
CONTINUOUS
 62
     5
 10
-274.65364243897409
 20
-89.767582000733228
 30
0.0
 11
-274.63494173112582
 21
-89.770504376988129
 31
0.0
  0
LINE
  8
DETAIL
  6
CONTINUOUS
 62
     5
 10
-274.63494173112582
 20
-89.770504376988129
 30
0.0
 11
-274.63494173112582
 21
-89.770504376988129
 31
0.0
  0
LINE
  8
DETAIL
  6
CONTINUOUS
 62
     5
 10
-274.63494173112582
 20
-89.770504376988129
 30
0.0
 11
-274.61647828832741
 21
-89.773581153382565
 31
0.0
  0
LINE
  8
DETAIL
  6
CONTINUOUS
 62
     5
 10
-274.61647828832741
 20
-89.773581153382565
 30
0.0
 11
-274.59747432207803
 21
-89.776984874767322
 31
0.0
  0
LINE
  8
DETAIL
  6
CONTINUOUS
 62
     5
 10
-274.59747432207803
 20
-89.776984874767322
 30
0.0
 11
-274.59747432207803
 21
-89.776984874767322
 31
0.0
  0
LINE
  8
DETAIL
  6
CONTINUOUS
 62
     5
 10
-274.59747432207803
 20
-89.776984874767322
 30
0.0
 11
-274.57772742180799
 21
-89.7807630359423
 31
0.0
  0
LINE
  8
DETAIL
  6
CONTINUOUS
 62
     5
 10
-274.57772742180799
 20
-89.7807630359423
 30
0.0
 11
-274.56015552871372
 21
-89.784281902291241
 31
0.0
  0
LINE
  8
DETAIL
  6
CONTINUOUS
 62
     5
 10
-274.56015552871372
 20
-89.784281902291241
 30
0.0
 11
-274.56015552871372
 21
-89.784281902291241
 31
0.0
  0
LINE
  8
DETAIL
  6
CONTINUOUS
 62
     5
 10
-274.56015552871372
 20
-89.784281902291241
 30
0.0
 11
-274.54722174086851
 21
-89.7869929105143
 31
0.0
  0
LINE
  8
DETAIL
  6
CONTINUOUS
 62
     5
 10
-274.54722174086851
 20
-89.7869929105143
 30
0.0
 11
-274.53644943209042
 21
-89.789369412000724
 31
0.0
  0
LINE
  8
DETAIL
  6
CONTINUOUS
 62
     5
 10
-274.53644943209042
 20
-89.789369412000724
 30
0.0
 11
-274.53644943209042
 21
-89.789369412000724
 31
0.0
  0
LINE
  8
DETAIL
  6
CONTINUOUS
 62
     5
 10
-274.53644943209042
 20
-89.789369412000724
 30
0.0
 11
-274.52491165628942
 21
-89.791986651323214
 31
0.0
  0
LINE
  8
DETAIL
  6
CONTINUOUS
 62
     5
 10
-274.52491165628942
 20
-89.791986651323214
 30
0.0
 11
-274.51281991200119
 21
-89.79480553110352
 31
0.0
  0
LINE
  8
DETAIL
  6
CONTINUOUS
 62
     5
 10
-274.51281991200119
 20
-89.79480553110352
 30
0.0
 11
-274.51281991200119
 21
-89.79480553110352
 31
0.0
  0
LINE
  8
DETAIL
  6
CONTINUOUS
 62
     5
 10
-274.51281991200119
 20
-89.79480553110352
 30
0.0
 11
-274.50095989669279
 21
-89.797673645069153
 31
0.0
  0
LINE
  8
DETAIL
  6
CONTINUOUS
 62
     5
 10
-274.50095989669279
 20
-89.797673645069153
 30
0.0
 11
-274.48927565892677
 21
-89.800599693325239
 31
0.0
  0
LINE
  8
DETAIL
  6
CONTINUOUS
 62
     5
 10
-274.48927565892677
 20
-89.800599693325239
 30
0.0
 11
-274.48927565892677
 21
-89.800599693325239
 31
0.0
  0
LINE
  8
DETAIL
  6
CONTINUOUS
 62
     5
 10
-274.48927565892677
 20
-89.800599693325239
 30
0.0
 11
-274.47755787278737
 21
-89.803625131682111
 31
0.0
  0
LINE
  8
DETAIL
  6
CONTINUOUS
 62
     5
 10
-274.47755787278737
 20
-89.803625131682111
 30
0.0
 11
-274.46582536334807
 21
-89.806761332392398
 31
0.0
  0
LINE
  8
DETAIL
  6
CONTINUOUS
 62
     5
 10
-274.46582536334807
 20
-89.806761332392398
 30
0.0
 11
-274.46582536334807
 21
-89.806761332392398
 31
0.0
  0
LINE
  8
DETAIL
  6
CONTINUOUS
 62
     5
 10
-274.46582536334807
 20
-89.806761332392398
 30
0.0
 11
-274.45413625466648
 21
-89.810001953782148
 31
0.0
  0
LINE
  8
DETAIL
  6
CONTINUOUS
 62
     5
 10
-274.45413625466648
 20
-89.810001953782148
 30
0.0
 11
-274.44247771574572
 21
-89.813299882030151
 31
0.0
  0
LINE
  8
DETAIL
  6
CONTINUOUS
 62
     5
 10
-276.74636510500818
 20
-89.245352427671378
 30
0.0
 11
-276.7460815497725
 21
-89.255317287703747
 31
0.0
  0
LINE
  8
DETAIL
  6
CONTINUOUS
 62
     5
 10
-276.7460815497725
 20
-89.255317287703747
 30
0.0
 11
-276.74554197286722
 21
-89.26527795288689
 31
0.0
  0
LINE
  8
DETAIL
  6
CONTINUOUS
 62
     5
 10
-276.74554197286722
 20
-89.26527795288689
 30
0.0
 11
-276.74554197286722
 21
-89.26527795288689
 31
0.0
  0
LINE
  8
DETAIL
  6
CONTINUOUS
 62
     5
 10
-276.74554197286722
 20
-89.26527795288689
 30
0.0
 11
-276.74454725396998
 21
-89.275226220155673
 31
0.0
  0
LINE
  8
DETAIL
  6
CONTINUOUS
 62
     5
 10
-276.74454725396998
 20
-89.275226220155673
 30
0.0
 11
-276.74312587814887
 21
-89.285137853583592
 31
0.0
  0
LINE
  8
DETAIL
  6
CONTINUOUS
 62
     5
 10
-276.74312587814887
 20
-89.285137853583592
 30
0.0
 11
-276.74312587814887
 21
-89.285137853583592
 31
0.0
  0
LINE
  8
DETAIL
  6
CONTINUOUS
 62
     5
 10
-276.74312587814887
 20
-89.285137853583592
 30
0.0
 11
-276.74134474082172
 21
-89.294992987016485
 31
0.0
  0
LINE
  8
DETAIL
  6
CONTINUOUS
 62
     5
 10
-276.74134474082172
 20
-89.294992987016485
 30
0.0
 11
-276.73919677341058
 21
-89.304805266249332
 31
0.0
  0
LINE
  8
DETAIL
  6
CONTINUOUS
 62
     5
 10
-276.73919677341058
 20
-89.304805266249332
 30
0.0
 11
-276.73919677341058
 21
-89.304805266249332
 31
0.0
  0
LINE
  8
DETAIL
  6
CONTINUOUS
 62
     5
 10
-276.73919677341058
 20
-89.304805266249332
 30
0.0
 11
-276.73667347898697
 21
-89.314567211330768
 31
0.0
  0
LINE
  8
DETAIL
  6
CONTINUOUS
 62
     5
 10
-276.73667347898697
 20
-89.314567211330768
 30
0.0
 11
-276.73383461120937
 21
-89.324153327371278
 31
0.0
  0
LINE
  8
DETAIL
  6
CONTINUOUS
 62
     5
 10
-276.73383461120937
 20
-89.324153327371278
 30
0.0
 11
-276.73383461120937
 21
-89.324153327371278
 31
0.0
  0
LINE
  8
DETAIL
  6
CONTINUOUS
 62
     5
 10
-276.73383461120937
 20
-89.324153327371278
 30
0.0
 11
-276.73070722679529
 21
-89.333518252698013
 31
0.0
  0
LINE
  8
DETAIL
  6
CONTINUOUS
 62
     5
 10
-276.73070722679529
 20
-89.333518252698013
 30
0.0
 11
-276.72711934410268
 21
-89.343055173437506
 31
0.0
  0
LINE
  8
DETAIL
  6
CONTINUOUS
 62
     5
 10
-276.72711934410268
 20
-89.343055173437506
 30
0.0
 11
-276.72711934410268
 21
-89.343055173437506
 31
0.0
  0
LINE
  8
DETAIL
  6
CONTINUOUS
 62
     5
 10
-276.72711934410268
 20
-89.343055173437506
 30
0.0
 11
-276.72291994622952
 21
-89.353093654230634
 31
0.0
  0
LINE
  8
DETAIL
  6
CONTINUOUS
 62
     5
 10
-276.72291994622952
 20
-89.353093654230634
 30
0.0
 11
-276.71824091358388
 21
-89.363270225968563
 31
0.0
  0
LINE
  8
DETAIL
  6
CONTINUOUS
 62
     5
 10
-276.71824091358388
 20
-89.363270225968563
 30
0.0
 11
-276.71824091358388
 21
-89.363270225968563
 31
0.0
  0
LINE
  8
DETAIL
  6
CONTINUOUS
 62
     5
 10
-276.71824091358388
 20
-89.363270225968563
 30
0.0
 11
-276.71324768660861
 21
-89.373159319718525
 31
0.0
  0
LINE
  8
DETAIL
  6
CONTINUOUS
 62
     5
 10
-276.71324768660861
 20
-89.373159319718525
 30
0.0
 11
-276.70795704857011
 21
-89.382780000998309
 31
0.0
  0
LINE
  8
DETAIL
  6
CONTINUOUS
 62
     5
 10
-276.70795704857011
 20
-89.382780000998309
 30
0.0
 11
-276.70795704857011
 21
-89.382780000998309
 31
0.0
  0
LINE
  8
DETAIL
  6
CONTINUOUS
 62
     5
 10
-276.70795704857011
 20
-89.382780000998309
 30
0.0
 11
-276.70234994539987
 21
-89.392242498380256
 31
0.0
  0
LINE
  8
DETAIL
  6
CONTINUOUS
 62
     5
 10
-276.70234994539987
 20
-89.392242498380256
 30
0.0
 11
-276.69641263086498
 21
-89.401577058204566
 31
0.0
  0
LINE
  8
DETAIL
  6
CONTINUOUS
 62
     5
 10
-276.69641263086498
 20
-89.401577058204566
 30
0.0
 11
-276.69641263086498
 21
-89.401577058204566
 31
0.0
  0
LINE
  8
DETAIL
  6
CONTINUOUS
 62
     5
 10
-276.69641263086498
 20
-89.401577058204566
 30
0.0
 11
-276.69016454214898
 21
-89.410762754873076
 31
0.0
  0
LINE
  8
DETAIL
  6
CONTINUOUS
 62
     5
 10
-276.69016454214898
 20
-89.410762754873076
 30
0.0
 11
-276.6837525422718
 21
-89.419653957266064
 31
0.0
  0
LINE
  8
DETAIL
  6
CONTINUOUS
 62
     5
 10
-276.6837525422718
 20
-89.419653957266064
 30
0.0
 11
-276.6837525422718
 21
-89.419653957266064
 31
0.0
  0
LINE
  8
DETAIL
  6
CONTINUOUS
 62
     5
 10
-276.6837525422718
 20
-89.419653957266064
 30
0.0
 11
-276.67722659791798
 21
-89.428218558963181
 31
0.0
  0
LINE
  8
DETAIL
  6
CONTINUOUS
 62
     5
 10
-276.67722659791798
 20
-89.428218558963181
 30
0.0
 11
-276.67012166459438
 21
-89.437003257860852
 31
0.0
  0
LINE
  8
DETAIL
  6
CONTINUOUS
 62
     5
 10
-276.67012166459438
 20
-89.437003257860852
 30
0.0
 11
-276.67012166459438
 21
-89.437003257860852
 31
0.0
  0
LINE
  8
DETAIL
  6
CONTINUOUS
 62
     5
 10
-276.67012166459438
 20
-89.437003257860852
 30
0.0
 11
-276.6620395744992
 21
-89.446463326597495
 31
0.0
  0
LINE
  8
DETAIL
  6
CONTINUOUS
 62
     5
 10
-276.6620395744992
 20
-89.446463326597495
 30
0.0
 11
-276.65336467777422
 21
-89.456109532457731
 31
0.0
  0
LINE
  8
DETAIL
  6
CONTINUOUS
 62
     5
 10
-276.65336467777422
 20
-89.456109532457731
 30
0.0
 11
-276.65336467777422
 21
-89.456109532457731
 31
0.0
  0
LINE
  8
DETAIL
  6
CONTINUOUS
 62
     5
 10
-276.65336467777422
 20
-89.456109532457731
 30
0.0
 11
-276.6445598572102
 21
-89.465369084597796
 31
0.0
  0
LINE
  8
DETAIL
  6
CONTINUOUS
 62
     5
 10
-276.6445598572102
 20
-89.465369084597796
 30
0.0
 11
-276.63561960825263
 21
-89.474279465013979
 31
0.0
  0
LINE
  8
DETAIL
  6
CONTINUOUS
 62
     5
 10
-276.63561960825263
 20
-89.474279465013979
 30
0.0
 11
-276.63561960825263
 21
-89.474279465013979
 31
0.0
  0
LINE
  8
DETAIL
  6
CONTINUOUS
 62
     5
 10
-276.63561960825263
 20
-89.474279465013979
 30
0.0
 11
-276.6264406659609
 21
-89.482998430640464
 31
0.0
  0
LINE
  8
DETAIL
  6
CONTINUOUS
 62
     5
 10
-276.6264406659609
 20
-89.482998430640464
 30
0.0
 11
-276.61699711119701
 21
-89.491554565325941
 31
0.0
  0
LINE
  8
DETAIL
  6
CONTINUOUS
 62
     5
 10
-276.61699711119701
 20
-89.491554565325941
 30
0.0
 11
-276.61699711119701
 21
-89.491554565325941
 31
0.0
  0
LINE
  8
DETAIL
  6
CONTINUOUS
 62
     5
 10
-276.61699711119701
 20
-89.491554565325941
 30
0.0
 11
-276.60732211230788
 21
-89.499920764523267
 31
0.0
  0
LINE
  8
DETAIL
  6
CONTINUOUS
 62
     5
 10
-276.60732211230788
 20
-89.499920764523267
 30
0.0
 11
-276.59760784177638
 21
-89.507976343190876
 31
0.0
  0
LINE
  8
DETAIL
  6
CONTINUOUS
 62
     5
 10
-276.59760784177638
 20
-89.507976343190876
 30
0.0
 11
-276.59760784177638
 21
-89.507976343190876
 31
0.0
  0
LINE
  8
DETAIL
  6
CONTINUOUS
 62
     5
 10
-276.59760784177638
 20
-89.507976343190876
 30
0.0
 11
-276.58790788253282
 21
-89.515703094928767
 31
0.0
  0
LINE
  8
DETAIL
  6
CONTINUOUS
 62
     5
 10
-276.58790788253282
 20
-89.515703094928767
 30
0.0
 11
-276.5775624551577
 21
-89.523586308404902
 31
0.0
  0
LINE
  8
DETAIL
  6
CONTINUOUS
 62
     5
 10
-276.5775624551577
 20
-89.523586308404902
 30
0.0
 11
-276.5775624551577
 21
-89.523586308404902
 31
0.0
  0
LINE
  8
DETAIL
  6
CONTINUOUS
 62
     5
 10
-276.5775624551577
 20
-89.523586308404902
 30
0.0
 11
-276.56601172287469
 21
-89.532028574464675
 31
0.0
  0
LINE
  8
DETAIL
  6
CONTINUOUS
 62
     5
 10
-276.56601172287469
 20
-89.532028574464675
 30
0.0
 11
-276.55380898183239
 21
-89.540598197601639
 31
0.0
  0
LINE
  8
DETAIL
  6
CONTINUOUS
 62
     5
 10
-276.55380898183239
 20
-89.540598197601639
 30
0.0
 11
-276.55380898183239
 21
-89.540598197601639
 31
0.0
  0
LINE
  8
DETAIL
  6
CONTINUOUS
 62
     5
 10
-276.55380898183239
 20
-89.540598197601639
 30
0.0
 11
-276.54161464691038
 21
-89.548790297369578
 31
0.0
  0
LINE
  8
DETAIL
  6
CONTINUOUS
 62
     5
 10
-276.54161464691038
 20
-89.548790297369578
 30
0.0
 11
-276.52940447499162
 21
-89.556641539913699
 31
0.0
  0
LINE
  8
DETAIL
  6
CONTINUOUS
 62
     5
 10
-276.52940447499162
 20
-89.556641539913699
 30
0.0
 11
-276.52940447499162
 21
-89.556641539913699
 31
0.0
  0
LINE
  8
DETAIL
  6
CONTINUOUS
 62
     5
 10
-276.52940447499162
 20
-89.556641539913699
 30
0.0
 11
-276.51701622609471
 21
-89.564293770645236
 31
0.0
  0
LINE
  8
DETAIL
  6
CONTINUOUS
 62
     5
 10
-276.51701622609471
 20
-89.564293770645236
 30
0.0
 11
-276.50442033078309
 21
-89.571768005446984
 31
0.0
  0
LINE
  8
DETAIL
  6
CONTINUOUS
 62
     5
 10
-276.50442033078309
 20
-89.571768005446984
 30
0.0
 11
-276.50442033078309
 21
-89.571768005446984
 31
0.0
  0
LINE
  8
DETAIL
  6
CONTINUOUS
 62
     5
 10
-276.50442033078309
 20
-89.571768005446984
 30
0.0
 11
-276.49165888121053
 21
-89.579040495699701
 31
0.0
  0
LINE
  8
DETAIL
  6
CONTINUOUS
 62
     5
 10
-276.49165888121053
 20
-89.579040495699701
 30
0.0
 11
-276.47892794535443
 21
-89.586029264309218
 31
0.0
  0
LINE
  8
DETAIL
  6
CONTINUOUS
 62
     5
 10
-276.47892794535443
 20
-89.586029264309218
 30
0.0
 11
-276.47892794535443
 21
-89.586029264309218
 31
0.0
  0
LINE
  8
DETAIL
  6
CONTINUOUS
 62
     5
 10
-276.47892794535443
 20
-89.586029264309218
 30
0.0
 11
-276.46627494168848
 21
-89.59272621291916
 31
0.0
  0
LINE
  8
DETAIL
  6
CONTINUOUS
 62
     5
 10
-276.46627494168848
 20
-89.59272621291916
 30
0.0
 11
-276.45299871485258
 21
-89.599476986606305
 31
0.0
  0
LINE
  8
DETAIL
  6
CONTINUOUS
 62
     5
 10
-276.45299871485258
 20
-89.599476986606305
 30
0.0
 11
-276.45299871485258
 21
-89.599476986606305
 31
0.0
  0
LINE
  8
DETAIL
  6
CONTINUOUS
 62
     5
 10
-276.45299871485258
 20
-89.599476986606305
 30
0.0
 11
-276.43850693113359
 21
-89.606567355721381
 31
0.0
  0
LINE
  8
DETAIL
  6
CONTINUOUS
 62
     5
 10
-276.43850693113359
 20
-89.606567355721381
 30
0.0
 11
-276.42339111724829
 21
-89.613689848280274
 31
0.0
  0
LINE
  8
DETAIL
  6
CONTINUOUS
 62
     5
 10
-276.42339111724829
 20
-89.613689848280274
 30
0.0
 11
-276.42339111724829
 21
-89.613689848280274
 31
0.0
  0
LINE
  8
DETAIL
  6
CONTINUOUS
 62
     5
 10
-276.42339111724829
 20
-89.613689848280274
 30
0.0
 11
-276.4083547415263
 21
-89.62048537908322
 31
0.0
  0
LINE
  8
DETAIL
  6
CONTINUOUS
 62
     5
 10
-276.4083547415263
 20
-89.62048537908322
 30
0.0
 11
-276.39336517832368
 21
-89.62698165240181
 31
0.0
  0
LINE
  8
DETAIL
  6
CONTINUOUS
 62
     5
 10
-276.39336517832368
 20
-89.62698165240181
 30
0.0
 11
-276.39336517832368
 21
-89.62698165240181
 31
0.0
  0
LINE
  8
DETAIL
  6
CONTINUOUS
 62
     5
 10
-276.39336517832368
 20
-89.62698165240181
 30
0.0
 11
-276.3782439047028
 21
-89.633280717321668
 31
0.0
  0
LINE
  8
DETAIL
  6
CONTINUOUS
 62
     5
 10
-276.3782439047028
 20
-89.633280717321668
 30
0.0
 11
-276.36296490252289
 21
-89.639395212716408
 31
0.0
  0
LINE
  8
DETAIL
  6
CONTINUOUS
 62
     5
 10
-276.36296490252289
 20
-89.639395212716408
 30
0.0
 11
-276.36296490252289
 21
-89.639395212716408
 31
0.0
  0
LINE
  8
DETAIL
  6
CONTINUOUS
 62
     5
 10
-276.36296490252289
 20
-89.639395212716408
 30
0.0
 11
-276.34757179853852
 21
-89.645308137750817
 31
0.0
  0
LINE
  8
DETAIL
  6
CONTINUOUS
 62
     5
 10
-276.34757179853852
 20
-89.645308137750817
 30
0.0
 11
-276.33223429428932
 21
-89.650973342968655
 31
0.0
  0
LINE
  8
DETAIL
  6
CONTINUOUS
 62
     5
 10
-276.33223429428932
 20
-89.650973342968655
 30
0.0
 11
-276.33223429428932
 21
-89.650973342968655
 31
0.0
  0
LINE
  8
DETAIL
  6
CONTINUOUS
 62
     5
 10
-276.33223429428932
 20
-89.650973342968655
 30
0.0
 11
-276.31698940902561
 21
-89.656388892932227
 31
0.0
  0
LINE
  8
DETAIL
  6
CONTINUOUS
 62
     5
 10
-276.31698940902561
 20
-89.656388892932227
 30
0.0
 11
-276.30121735806711
 21
-89.661758856903816
 31
0.0
  0
LINE
  8
DETAIL
  6
CONTINUOUS
 62
     5
 10
-276.30121735806711
 20
-89.661758856903816
 30
0.0
 11
-276.30121735806711
 21
-89.661758856903816
 31
0.0
  0
LINE
  8
DETAIL
  6
CONTINUOUS
 62
     5
 10
-276.30121735806711
 20
-89.661758856903816
 30
0.0
 11
-276.28439593902112
 21
-89.66725108862579
 31
0.0
  0
LINE
  8
DETAIL
  6
CONTINUOUS
 62
     5
 10
-276.28439593902112
 20
-89.66725108862579
 30
0.0
 11
-276.26705008258352
 21
-89.672682575062026
 31
0.0
  0
LINE
  8
DETAIL
  6
CONTINUOUS
 62
     5
 10
-276.26705008258352
 20
-89.672682575062026
 30
0.0
 11
-276.26705008258352
 21
-89.672682575062026
 31
0.0
  0
LINE
  8
DETAIL
  6
CONTINUOUS
 62
     5
 10
-276.26705008258352
 20
-89.672682575062026
 30
0.0
 11
-276.24980272597088
 21
-89.677840268954697
 31
0.0
  0
LINE
  8
DETAIL
  6
CONTINUOUS
 62
     5
 10
-276.24980272597088
 20
-89.677840268954697
 30
0.0
 11
-276.23262169939841
 21
-89.682741852934896
 31
0.0
  0
LINE
  8
DETAIL
  6
CONTINUOUS
 62
     5
 10
-276.23262169939841
 20
-89.682741852934896
 30
0.0
 11
-276.23262169939841
 21
-89.682741852934896
 31
0.0
  0
LINE
  8
DETAIL
  6
CONTINUOUS
 62
     5
 10
-276.23262169939841
 20
-89.682741852934896
 30
0.0
 11
-276.21534674303712
 21
-89.687448827185108
 31
0.0
  0
LINE
  8
DETAIL
  6
CONTINUOUS
 62
     5
 10
-276.21534674303712
 20
-89.687448827185108
 30
0.0
 11
-276.19796034388872
 21
-89.691967232209208
 31
0.0
  0
LINE
  8
DETAIL
  6
CONTINUOUS
 62
     5
 10
-276.19796034388872
 20
-89.691967232209208
 30
0.0
 11
-276.19796034388872
 21
-89.691967232209208
 31
0.0
  0
LINE
  8
DETAIL
  6
CONTINUOUS
 62
     5
 10
-276.19796034388872
 20
-89.691967232209208
 30
0.0
 11
-276.18050170558229
 21
-89.696287020798081
 31
0.0
  0
LINE
  8
DETAIL
  6
CONTINUOUS
 62
     5
 10
-276.18050170558229
 20
-89.696287020798081
 30
0.0
 11
-276.16309415143098
 21
-89.700389254573565
 31
0.0
  0
LINE
  8
DETAIL
  6
CONTINUOUS
 62
     5
 10
-276.16309415143098
 20
-89.700389254573565
 30
0.0
 11
-276.16309415143098
 21
-89.700389254573565
 31
0.0
  0
LINE
  8
DETAIL
  6
CONTINUOUS
 62
     5
 10
-276.16309415143098
 20
-89.700389254573565
 30
0.0
 11
-276.14576222827708
 21
-89.704275528454218
 31
0.0
  0
LINE
  8
DETAIL
  6
CONTINUOUS
 62
     5
 10
-276.14576222827708
 20
-89.704275528454218
 30
0.0
 11
-276.12805125740169
 21
-89.708038461714523
 31
0.0
  0
LINE
  8
DETAIL
  6
CONTINUOUS
 62
     5
 10
-276.12805125740169
 20
-89.708038461714523
 30
0.0
 11
-276.12805125740169
 21
-89.708038461714523
 31
0.0
  0
LINE
  8
DETAIL
  6
CONTINUOUS
 62
     5
 10
-276.12805125740169
 20
-89.708038461714523
 30
0.0
 11
-276.10957903269548
 21
-89.711753389876776
 31
0.0
  0
LINE
  8
DETAIL
  6
CONTINUOUS
 62
     5
 10
-276.10957903269548
 20
-89.711753389876776
 30
0.0
 11
-276.0907324640545
 21
-89.715335489102699
 31
0.0
  0
LINE
  8
DETAIL
  6
CONTINUOUS
 62
     5
 10
-276.0907324640545
 20
-89.715335489102699
 30
0.0
 11
-276.0907324640545
 21
-89.715335489102699
 31
0.0
  0
LINE
  8
DETAIL
  6
CONTINUOUS
 62
     5
 10
-276.0907324640545
 20
-89.715335489102699
 30
0.0
 11
-276.07196974092739
 21
-89.718686675807021
 31
0.0
  0
LINE
  8
DETAIL
  6
CONTINUOUS
 62
     5
 10
-276.07196974092739
 20
-89.718686675807021
 30
0.0
 11
-276.05326505497499
 21
-89.721815986777528
 31
0.0
  0
LINE
  8
DETAIL
  6
CONTINUOUS
 62
     5
 10
-276.05326505497499
 20
-89.721815986777528
 30
0.0
 11
-276.05326505497499
 21
-89.721815986777528
 31
0.0
  0
LINE
  8
DETAIL
  6
CONTINUOUS
 62
     5
 10
-276.05326505497499
 20
-89.721815986777528
 30
0.0
 11
-276.03449970619158
 21
-89.724752439604799
 31
0.0
  0
LINE
  8
DETAIL
  6
CONTINUOUS
 62
     5
 10
-276.03449970619158
 20
-89.724752439604799
 30
0.0
 11
-276.01566742569912
 21
-89.727497854716603
 31
0.0
  0
LINE
  8
DETAIL
  6
CONTINUOUS
 62
     5
 10
-276.01566742569912
 20
-89.727497854716603
 30
0.0
 11
-276.01566742569912
 21
-89.727497854716603
 31
0.0
  0
LINE
  8
DETAIL
  6
CONTINUOUS
 62
     5
 10
-276.01566742569912
 20
-89.727497854716603
 30
0.0
 11
-275.99679862072031
 21
-89.730047670319209
 31
0.0
  0
LINE
  8
DETAIL
  6
CONTINUOUS
 62
     5
 10
-275.99679862072031
 20
-89.730047670319209
 30
0.0
 11
-275.97795797176173
 21
-89.732398992896833
 31
0.0
  0
LINE
  8
DETAIL
  6
CONTINUOUS
 62
     5
 10
-275.97795797176173
 20
-89.732398992896833
 30
0.0
 11
-275.97795797176173
 21
-89.732398992896833
 31
0.0
  0
LINE
  8
DETAIL
  6
CONTINUOUS
 62
     5
 10
-275.97795797176173
 20
-89.732398992896833
 30
0.0
 11
-275.95915634658598
 21
-89.734554477016673
 31
0.0
  0
LINE
  8
DETAIL
  6
CONTINUOUS
 62
     5
 10
-275.95915634658598
 20
-89.734554477016673
 30
0.0
 11
-275.94015508869859
 21
-89.736537301295812
 31
0.0
  0
LINE
  8
DETAIL
  6
CONTINUOUS
 62
     5
 10
-275.94015508869859
 20
-89.736537301295812
 30
0.0
 11
-275.94015508869859
 21
-89.736537301295812
 31
0.0
  0
LINE
  8
DETAIL
  6
CONTINUOUS
 62
     5
 10
-275.94015508869859
 20
-89.736537301295812
 30
0.0
 11
-275.92075451217431
 21
-89.73836565399688
 31
0.0
  0
LINE
  8
DETAIL
  6
CONTINUOUS
 62
     5
 10
-275.92075451217431
 20
-89.73836565399688
 30
0.0
 11
-275.90116033761967
 21
-89.740017237916618
 31
0.0
  0
LINE
  8
DETAIL
  6
CONTINUOUS
 62
     5
 10
-275.90116033761967
 20
-89.740017237916618
 30
0.0
 11
-275.90116033761967
 21
-89.740017237916618
 31
0.0
  0
LINE
  8
DETAIL
  6
CONTINUOUS
 62
     5
 10
-275.90116033761967
 20
-89.740017237916618
 30
0.0
 11
-275.88161523191161
 21
-89.741466282217061
 31
0.0
  0
LINE
  8
DETAIL
  6
CONTINUOUS
 62
     5
 10
-275.88161523191161
 20
-89.741466282217061
 30
0.0
 11
-275.86210424047681
 21
-89.742713606986626
 31
0.0
  0
LINE
  8
DETAIL
  6
CONTINUOUS
 62
     5
 10
-275.86210424047681
 20
-89.742713606986626
 30
0.0
 11
-275.86210424047681
 21
-89.742713606986626
 31
0.0
  0
LINE
  8
DETAIL
  6
CONTINUOUS
 62
     5
 10
-275.86210424047681
 20
-89.742713606986626
 30
0.0
 11
-275.84256522949568
 21
-89.743766595871875
 31
0.0
  0
LINE
  8
DETAIL
  6
CONTINUOUS
 62
     5
 10
-275.84256522949568
 20
-89.743766595871875
 30
0.0
 11
-275.82300496961562
 21
-89.744632295828069
 31
0.0
  0
LINE
  8
DETAIL
  6
CONTINUOUS
 62
     5
 10
-275.82300496961562
 20
-89.744632295828069
 30
0.0
 11
-275.82300496961562
 21
-89.744632295828069
 31
0.0
  0
LINE
  8
DETAIL
  6
CONTINUOUS
 62
     5
 10
-275.82300496961562
 20
-89.744632295828069
 30
0.0
 11
-275.80344295849551
 21
-89.745311358596609
 31
0.0
  0
LINE
  8
DETAIL
  6
CONTINUOUS
 62
     5
 10
-275.80344295849551
 20
-89.745311358596609
 30
0.0
 11
-275.78388069738219
 21
-89.745779191762949
 31
0.0
  0
LINE
  8
DETAIL
  6
CONTINUOUS
 62
     5
 10
-275.78388069738219
 20
-89.745779191762949
 30
0.0
 11
-275.78388069738219
 21
-89.745779191762949
 31
0.0
  0
LINE
  8
DETAIL
  6
CONTINUOUS
 62
     5
 10
-275.78388069738219
 20
-89.745779191762949
 30
0.0
 11
-275.76431595871509
 21
-89.746030220202783
 31
0.0
  0
LINE
  8
DETAIL
  6
CONTINUOUS
 62
     5
 10
-275.76431595871509
 20
-89.746030220202783
 30
0.0
 11
-275.74474959612292
 21
-89.746160182114181
 31
0.0
  0
LINE
  8
DETAIL
  6
CONTINUOUS
 62
     5
 10
-276.23862034168661
 20
83.219475236027165
 30
0.0
 11
-276.26105530834712
 21
83.210042211174141
 31
0.0
  0
LINE
  8
DETAIL
  6
CONTINUOUS
 62
     5
 10
-276.26105530834712
 20
83.210042211174141
 30
0.0
 11
-276.28340240215329
 21
83.200413643623961
 31
0.0
  0
LINE
  8
DETAIL
  6
CONTINUOUS
 62
     5
 10
-276.28340240215329
 20
83.200413643623961
 30
0.0
 11
-276.28340240215329
 21
83.200413643623961
 31
0.0
  0
LINE
  8
DETAIL
  6
CONTINUOUS
 62
     5
 10
-276.28340240215329
 20
83.200413643623961
 30
0.0
 11
-276.30559381862747
 21
83.190428220727426
 31
0.0
  0
LINE
  8
DETAIL
  6
CONTINUOUS
 62
     5
 10
-276.30559381862747
 20
83.190428220727426
 30
0.0
 11
-276.32764202680141
 21
83.180061550025812
 31
0.0
  0
LINE
  8
DETAIL
  6
CONTINUOUS
 62
     5
 10
-276.32764202680141
 20
83.180061550025812
 30
0.0
 11
-276.32764202680141
 21
83.180061550025812
 31
0.0
  0
LINE
  8
DETAIL
  6
CONTINUOUS
 62
     5
 10
-276.32764202680141
 20
83.180061550025812
 30
0.0
 11
-276.34955021264238
 21
83.16933017014253
 31
0.0
  0
LINE
  8
DETAIL
  6
CONTINUOUS
 62
     5
 10
-276.34955021264238
 20
83.16933017014253
 30
0.0
 11
-276.37120415635172
 21
83.158277423834761
 31
0.0
  0
LINE
  8
DETAIL
  6
CONTINUOUS
 62
     5
 10
-276.37120415635172
 20
83.158277423834761
 30
0.0
 11
-276.37120415635172
 21
83.158277423834761
 31
0.0
  0
LINE
  8
DETAIL
  6
CONTINUOUS
 62
     5
 10
-276.37120415635172
 20
83.158277423834761
 30
0.0
 11
-276.3925576240789
 21
83.146892320711231
 31
0.0
  0
LINE
  8
DETAIL
  6
CONTINUOUS
 62
     5
 10
-276.3925576240789
 20
83.146892320711231
 30
0.0
 11
-276.41395373152642
 21
83.134919733651714
 31
0.0
  0
LINE
  8
DETAIL
  6
CONTINUOUS
 62
     5
 10
-276.41395373152642
 20
83.134919733651714
 30
0.0
 11
-276.41395373152642
 21
83.134919733651714
 31
0.0
  0
LINE
  8
DETAIL
  6
CONTINUOUS
 62
     5
 10
-276.41395373152642
 20
83.134919733651714
 30
0.0
 11
-276.43547293367209
 21
83.122280937048799
 31
0.0
  0
LINE
  8
DETAIL
  6
CONTINUOUS
 62
     5
 10
-276.43547293367209
 20
83.122280937048799
 30
0.0
 11
-276.4557556930456
 21
83.109846948078257
 31
0.0
  0
LINE
  8
DETAIL
  6
CONTINUOUS
 62
     5
 10
-276.4557556930456
 20
83.109846948078257
 30
0.0
 11
-276.4557556930456
 21
83.109846948078257
 31
0.0
  0
LINE
  8
DETAIL
  6
CONTINUOUS
 62
     5
 10
-276.4557556930456
 20
83.109846948078257
 30
0.0
 11
-276.47365541766118
 21
83.098365555457804
 31
0.0
  0
LINE
  8
DETAIL
  6
CONTINUOUS
 62
     5
 10
-276.47365541766118
 20
83.098365555457804
 30
0.0
 11
-276.49031728992418
 21
83.087141891293641
 31
0.0
  0
LINE
  8
DETAIL
  6
CONTINUOUS
 62
     5
 10
-276.49031728992418
 20
83.087141891293641
 30
0.0
 11
-276.49031728992418
 21
83.087141891293641
 31
0.0
  0
LINE
  8
DETAIL
  6
CONTINUOUS
 62
     5
 10
-276.49031728992418
 20
83.087141891293641
 30
0.0
 11
-276.50709342687998
 21
83.075336460198514
 31
0.0
  0
LINE
  8
DETAIL
  6
CONTINUOUS
 62
     5
 10
-276.50709342687998
 20
83.075336460198514
 30
0.0
 11
-276.52387190974167
 21
83.062973913422638
 31
0.0
  0
LINE
  8
DETAIL
  6
CONTINUOUS
 62
     5
 10
-276.52387190974167
 20
83.062973913422638
 30
0.0
 11
-276.52387190974167
 21
83.062973913422638
 31
0.0
  0
LINE
  8
DETAIL
  6
CONTINUOUS
 62
     5
 10
-276.52387190974167
 20
83.062973913422638
 30
0.0
 11
-276.5402580686598
 21
83.050254125643278
 31
0.0
  0
LINE
  8
DETAIL
  6
CONTINUOUS
 62
     5
 10
-276.5402580686598
 20
83.050254125643278
 30
0.0
 11
-276.55619026536181
 21
83.037213718611383
 31
0.0
  0
LINE
  8
DETAIL
  6
CONTINUOUS
 62
     5
 10
-276.55619026536181
 20
83.037213718611383
 30
0.0
 11
-276.55619026536181
 21
83.037213718611383
 31
0.0
  0
LINE
  8
DETAIL
  6
CONTINUOUS
 62
     5
 10
-276.55619026536181
 20
83.037213718611383
 30
0.0
 11
-276.57172309684961
 21
83.023795717114126
 31
0.0
  0
LINE
  8
DETAIL
  6
CONTINUOUS
 62
     5
 10
-276.57172309684961
 20
83.023795717114126
 30
0.0
 11
-276.58704306964609
 21
83.009732011008055
 31
0.0
  0
LINE
  8
DETAIL
  6
CONTINUOUS
 62
     5
 10
-276.58704306964609
 20
83.009732011008055
 30
0.0
 11
-276.58704306964609
 21
83.009732011008055
 31
0.0
  0
LINE
  8
DETAIL
  6
CONTINUOUS
 62
     5
 10
-276.58704306964609
 20
83.009732011008055
 30
0.0
 11
-276.60215450023952
 21
82.994953654579376
 31
0.0
  0
LINE
  8
DETAIL
  6
CONTINUOUS
 62
     5
 10
-276.60215450023952
 20
82.994953654579376
 30
0.0
 11
-276.61620103545772
 21
82.98039949475924
 31
0.0
  0
LINE
  8
DETAIL
  6
CONTINUOUS
 62
     5
 10
-276.61620103545772
 20
82.98039949475924
 30
0.0
 11
-276.61620103545772
 21
82.98039949475924
 31
0.0
  0
LINE
  8
DETAIL
  6
CONTINUOUS
 62
     5
 10
-276.61620103545772
 20
82.98039949475924
 30
0.0
 11
-276.62847205634148
 21
82.966874878150975
 31
0.0
  0
LINE
  8
DETAIL
  6
CONTINUOUS
 62
     5
 10
-276.62847205634148
 20
82.966874878150975
 30
0.0
 11
-276.63970055044052
 21
82.953643357396231
 31
0.0
  0
LINE
  8
DETAIL
  6
CONTINUOUS
 62
     5
 10
-276.63970055044052
 20
82.953643357396231
 30
0.0
 11
-276.63970055044052
 21
82.953643357396231
 31
0.0
  0
LINE
  8
DETAIL
  6
CONTINUOUS
 62
     5
 10
-276.63970055044052
 20
82.953643357396231
 30
0.0
 11
-276.6507425909715
 21
82.939819219215451
 31
0.0
  0
LINE
  8
DETAIL
  6
CONTINUOUS
 62
     5
 10
-276.6507425909715
 20
82.939819219215451
 30
0.0
 11
-276.66150298731083
 21
82.925461480599324
 31
0.0
  0
LINE
  8
DETAIL
  6
CONTINUOUS
 62
     5
 10
-276.66150298731083
 20
82.925461480599324
 30
0.0
 11
-276.66150298731083
 21
82.925461480599324
 31
0.0
  0
LINE
  8
DETAIL
  6
CONTINUOUS
 62
     5
 10
-276.66150298731083
 20
82.925461480599324
 30
0.0
 11
-276.67170929897298
 21
82.910810781258078
 31
0.0
  0
LINE
  8
DETAIL
  6
CONTINUOUS
 62
     5
 10
-276.67170929897298
 20
82.910810781258078
 30
0.0
 11
-276.68133134986772
 21
82.895889521510753
 31
0.0
  0
LINE
  8
DETAIL
  6
CONTINUOUS
 62
     5
 10
-276.68133134986772
 20
82.895889521510753
 30
0.0
 11
-276.68133134986772
 21
82.895889521510753
 31
0.0
  0
LINE
  8
DETAIL
  6
CONTINUOUS
 62
     5
 10
-276.68133134986772
 20
82.895889521510753
 30
0.0
 11
-276.69039508156908
 21
82.880647598652786
 31
0.0
  0
LINE
  8
DETAIL
  6
CONTINUOUS
 62
     5
 10
-276.69039508156908
 20
82.880647598652786
 30
0.0
 11
-276.69890864191052
 21
82.864963137274572
 31
0.0
  0
LINE
  8
DETAIL
  6
CONTINUOUS
 62
     5
 10
-276.69890864191052
 20
82.864963137274572
 30
0.0
 11
-276.69890864191052
 21
82.864963137274572
 31
0.0
  0
LINE
  8
DETAIL
  6
CONTINUOUS
 62
     5
 10
-276.69890864191052
 20
82.864963137274572
 30
0.0
 11
-276.70683295793219
 21
82.848822651342743
 31
0.0
  0
LINE
  8
DETAIL
  6
CONTINUOUS
 62
     5
 10
-276.70683295793219
 20
82.848822651342743
 30
0.0
 11
-276.71395786723792
 21
82.832717985032787
 31
0.0
  0
LINE
  8
DETAIL
  6
CONTINUOUS
 62
     5
 10
-276.71395786723792
 20
82.832717985032787
 30
0.0
 11
-276.71395786723792
 21
82.832717985032787
 31
0.0
  0
LINE
  8
DETAIL
  6
CONTINUOUS
 62
     5
 10
-276.71395786723792
 20
82.832717985032787
 30
0.0
 11
-276.72011862148668
 21
82.817071044651129
 31
0.0
  0
LINE
  8
DETAIL
  6
CONTINUOUS
 62
     5
 10
-276.72011862148668
 20
82.817071044651129
 30
0.0
 11
-276.72550321799582
 21
82.801518654816618
 31
0.0
  0
LINE
  8
DETAIL
  6
CONTINUOUS
 62
     5
 10
-276.72550321799582
 20
82.801518654816618
 30
0.0
 11
-276.72550321799582
 21
82.801518654816618
 31
0.0
  0
LINE
  8
DETAIL
  6
CONTINUOUS
 62
     5
 10
-276.72550321799582
 20
82.801518654816618
 30
0.0
 11
-276.73032701737122
 21
82.785626487551099
 31
0.0
  0
LINE
  8
DETAIL
  6
CONTINUOUS
 62
     5
 10
-276.73032701737122
 20
82.785626487551099
 30
0.0
 11
-276.73456208771631
 21
82.769460686172806
 31
0.0
  0
LINE
  8
DETAIL
  6
CONTINUOUS
 62
     5
 10
-276.73456208771631
 20
82.769460686172806
 30
0.0
 11
-276.73456208771631
 21
82.769460686172806
 31
0.0
  0
LINE
  8
DETAIL
  6
CONTINUOUS
 62
     5
 10
-276.73456208771631
 20
82.769460686172806
 30
0.0
 11
-276.73814192208403
 21
82.753178611643762
 31
0.0
  0
LINE
  8
DETAIL
  6
CONTINUOUS
 62
     5
 10
-276.73814192208403
 20
82.753178611643762
 30
0.0
 11
-276.74108900583519
 21
82.736802024203371
 31
0.0
  0
LINE
  8
DETAIL
  6
CONTINUOUS
 62
     5
 10
-276.74108900583519
 20
82.736802024203371
 30
0.0
 11
-276.74108900583519
 21
82.736802024203371
 31
0.0
  0
LINE
  8
DETAIL
  6
CONTINUOUS
 62
     5
 10
-276.74108900583519
 20
82.736802024203371
 30
0.0
 11
-276.74341990322591
 21
82.720329266809586
 31
0.0
  0
LINE
  8
DETAIL
  6
CONTINUOUS
 62
     5
 10
-276.74341990322591
 20
82.720329266809586
 30
0.0
 11
-276.74503850178758
 21
82.703800614010561
 31
0.0
  0
LINE
  8
DETAIL
  6
CONTINUOUS
 62
     5
 10
-276.74503850178758
 20
82.703800614010561
 30
0.0
 11
-276.74503850178758
 21
82.703800614010561
 31
0.0
  0
LINE
  8
DETAIL
  6
CONTINUOUS
 62
     5
 10
-276.74503850178758
 20
82.703800614010561
 30
0.0
 11
-276.74591094851769
 21
82.687258791842851
 31
0.0
  0
LINE
  8
DETAIL
  6
CONTINUOUS
 62
     5
 10
-276.74591094851769
 20
82.687258791842851
 30
0.0
 11
-276.74636510500818
 21
82.670714400696397
 31
0.0
  0
LINE
  8
DETAIL
  6
CONTINUOUS
 62
     5
 10
-274.44266875488108
 20
83.560416123630375
 30
0.0
 11
-274.46921979564291
 21
83.558644582888519
 31
0.0
  0
LINE
  8
DETAIL
  6
CONTINUOUS
 62
     5
 10
-274.46921979564291
 20
83.558644582888519
 30
0.0
 11
-274.49580637175637
 21
83.556824954496733
 31
0.0
  0
LINE
  8
DETAIL
  6
CONTINUOUS
 62
     5
 10
-274.49580637175637
 20
83.556824954496733
 30
0.0
 11
-274.49580637175637
 21
83.556824954496733
 31
0.0
  0
LINE
  8
DETAIL
  6
CONTINUOUS
 62
     5
 10
-274.49580637175637
 20
83.556824954496733
 30
0.0
 11
-274.52242598998572
 21
83.554922159729131
 31
0.0
  0
LINE
  8
DETAIL
  6
CONTINUOUS
 62
     5
 10
-274.52242598998572
 20
83.554922159729131
 30
0.0
 11
-274.54892404274409
 21
83.552953155558953
 31
0.0
  0
LINE
  8
DETAIL
  6
CONTINUOUS
 62
     5
 10
-274.54892404274409
 20
83.552953155558953
 30
0.0
 11
-274.54892404274409
 21
83.552953155558953
 31
0.0
  0
LINE
  8
DETAIL
  6
CONTINUOUS
 62
     5
 10
-274.54892404274409
 20
83.552953155558953
 30
0.0
 11
-274.57526229949298
 21
83.55093051624317
 31
0.0
  0
LINE
  8
DETAIL
  6
CONTINUOUS
 62
     5
 10
-274.57526229949298
 20
83.55093051624317
 30
0.0
 11
-274.60202015223581
 21
83.548797249477957
 31
0.0
  0
LINE
  8
DETAIL
  6
CONTINUOUS
 62
     5
 10
-274.60202015223581
 20
83.548797249477957
 30
0.0
 11
-274.60202015223581
 21
83.548797249477957
 31
0.0
  0
LINE
  8
DETAIL
  6
CONTINUOUS
 62
     5
 10
-274.60202015223581
 20
83.548797249477957
 30
0.0
 11
-274.62935180465757
 21
83.546535528955474
 31
0.0
  0
LINE
  8
DETAIL
  6
CONTINUOUS
 62
     5
 10
-274.62935180465757
 20
83.546535528955474
 30
0.0
 11
-274.65509308462322
 21
83.544353758914895
 31
0.0
  0
LINE
  8
DETAIL
  6
CONTINUOUS
 62
     5
 10
-274.65509308462322
 20
83.544353758914895
 30
0.0
 11
-274.65509308462322
 21
83.544353758914895
 31
0.0
  0
LINE
  8
DETAIL
  6
CONTINUOUS
 62
     5
 10
-274.65509308462322
 20
83.544353758914895
 30
0.0
 11
-274.67866419622618
 21
83.542308062325901
 31
0.0
  0
LINE
  8
DETAIL
  6
CONTINUOUS
 62
     5
 10
-274.67866419622618
 20
83.542308062325901
 30
0.0
 11
-274.70814122429789
 21
83.539619206530006
 31
0.0
  0
LINE
  8
DETAIL
  6
CONTINUOUS
 62
     5
 10
-274.70814122429789
 20
83.539619206530006
 30
0.0
 11
-274.70814122429789
 21
83.539619206530006
 31
0.0
  0
LINE
  8
DETAIL
  6
CONTINUOUS
 62
     5
 10
-274.70814122429789
 20
83.539619206530006
 30
0.0
 11
-274.75034796386632
 21
83.535613023826045
 31
0.0
  0
LINE
  8
DETAIL
  6
CONTINUOUS
 62
     5
 10
-274.75034796386632
 20
83.535613023826045
 30
0.0
 11
-274.79844317001027
 21
83.530870961968503
 31
0.0
  0
LINE
  8
DETAIL
  6
CONTINUOUS
 62
     5
 10
-274.79844317001027
 20
83.530870961968503
 30
0.0
 11
-274.79844317001027
 21
83.530870961968503
 31
0.0
  0
LINE
  8
DETAIL
  6
CONTINUOUS
 62
     5
 10
-274.79844317001027
 20
83.530870961968503
 30
0.0
 11
-274.84434257149343
 21
83.526097315466131
 31
0.0
  0
LINE
  8
DETAIL
  6
CONTINUOUS
 62
     5
 10
-274.84434257149343
 20
83.526097315466131
 30
0.0
 11
-274.88865483176289
 21
83.521232150389324
 31
0.0
  0
LINE
  8
DETAIL
  6
CONTINUOUS
 62
     5
 10
-274.88865483176289
 20
83.521232150389324
 30
0.0
 11
-274.88865483176289
 21
83.521232150389324
 31
0.0
  0
LINE
  8
DETAIL
  6
CONTINUOUS
 62
     5
 10
-274.88865483176289
 20
83.521232150389324
 30
0.0
 11
-274.93355147770228
 21
83.516079922658946
 31
0.0
  0
LINE
  8
DETAIL
  6
CONTINUOUS
 62
     5
 10
-274.93355147770228
 20
83.516079922658946
 30
0.0
 11
-274.97876255524841
 21
83.510666876039522
 31
0.0
  0
LINE
  8
DETAIL
  6
CONTINUOUS
 62
     5
 10
-274.97876255524841
 20
83.510666876039522
 30
0.0
 11
-274.97876255524841
 21
83.510666876039522
 31
0.0
  0
LINE
  8
DETAIL
  6
CONTINUOUS
 62
     5
 10
-274.97876255524841
 20
83.510666876039522
 30
0.0
 11
-275.02367598737618
 21
83.505043970523047
 31
0.0
  0
LINE
  8
DETAIL
  6
CONTINUOUS
 62
     5
 10
-275.02367598737618
 20
83.505043970523047
 30
0.0
 11
-275.06875268615789
 21
83.499139243165928
 31
0.0
  0
LINE
  8
DETAIL
  6
CONTINUOUS
 62
     5
 10
-275.06875268615789
 20
83.499139243165928
 30
0.0
 11
-275.06875268615789
 21
83.499139243165928
 31
0.0
  0
LINE
  8
DETAIL
  6
CONTINUOUS
 62
     5
 10
-275.06875268615789
 20
83.499139243165928
 30
0.0
 11
-275.11425919207932
 21
83.492917476264665
 31
0.0
  0
LINE
  8
DETAIL
  6
CONTINUOUS
 62
     5
 10
-275.11425919207932
 20
83.492917476264665
 30
0.0
 11
-275.15861157018338
 21
83.486613356014459
 31
0.0
  0
LINE
  8
DETAIL
  6
CONTINUOUS
 62
     5
 10
-275.15861157018338
 20
83.486613356014459
 30
0.0
 11
-275.15861157018338
 21
83.486613356014459
 31
0.0
  0
LINE
  8
DETAIL
  6
CONTINUOUS
 62
     5
 10
-275.15861157018338
 20
83.486613356014459
 30
0.0
 11
-275.20043746511999
 21
83.480431549171271
 31
0.0
  0
LINE
  8
DETAIL
  6
CONTINUOUS
 62
     5
 10
-275.20043746511999
 20
83.480431549171271
 30
0.0
 11
-275.24106131541117
 21
83.474186740839286
 31
0.0
  0
LINE
  8
DETAIL
  6
CONTINUOUS
 62
     5
 10
-275.24106131541117
 20
83.474186740839286
 30
0.0
 11
-275.24106131541117
 21
83.474186740839286
 31
0.0
  0
LINE
  8
DETAIL
  6
CONTINUOUS
 62
     5
 10
-275.24106131541117
 20
83.474186740839286
 30
0.0
 11
-275.28206534808629
 21
83.467653024438277
 31
0.0
  0
LINE
  8
DETAIL
  6
CONTINUOUS
 62
     5
 10
-275.28206534808629
 20
83.467653024438277
 30
0.0
 11
-275.32336615033103
 21
83.460832108299655
 31
0.0
  0
LINE
  8
DETAIL
  6
CONTINUOUS
 62
     5
 10
-275.32336615033103
 20
83.460832108299655
 30
0.0
 11
-275.32336615033103
 21
83.460832108299655
 31
0.0
  0
LINE
  8
DETAIL
  6
CONTINUOUS
 62
     5
 10
-275.32336615033103
 20
83.460832108299655
 30
0.0
 11
-275.36454449521239
 21
83.453774066324513
 31
0.0
  0
LINE
  8
DETAIL
  6
CONTINUOUS
 62
     5
 10
-275.36454449521239
 20
83.453774066324513
 30
0.0
 11
-275.4055035391616
 21
83.446494819783311
 31
0.0
  0
LINE
  8
DETAIL
  6
CONTINUOUS
 62
     5
 10
-275.4055035391616
 20
83.446494819783311
 30
0.0
 11
-275.4055035391616
 21
83.446494819783311
 31
0.0
  0
LINE
  8
DETAIL
  6
CONTINUOUS
 62
     5
 10
-275.4055035391616
 20
83.446494819783311
 30
0.0
 11
-275.44632106104729
 21
83.438979000691461
 31
0.0
  0
LINE
  8
DETAIL
  6
CONTINUOUS
 62
     5
 10
-275.44632106104729
 20
83.438979000691461
 30
0.0
 11
-275.48745094612372
 21
83.431120236677543
 31
0.0
  0
LINE
  8
DETAIL
  6
CONTINUOUS
 62
     5
 10
-275.48745094612372
 20
83.431120236677543
 30
0.0
 11
-275.48745094612372
 21
83.431120236677543
 31
0.0
  0
LINE
  8
DETAIL
  6
CONTINUOUS
 62
     5
 10
-275.48745094612372
 20
83.431120236677543
 30
0.0
 11
-275.52898440401452
 21
83.422888946818148
 31
0.0
  0
LINE
  8
DETAIL
  6
CONTINUOUS
 62
     5
 10
-275.52898440401452
 20
83.422888946818148
 30
0.0
 11
-275.56918583543728
 21
83.414653720370552
 31
0.0
  0
LINE
  8
DETAIL
  6
CONTINUOUS
 62
     5
 10
-275.56918583543728
 20
83.414653720370552
 30
0.0
 11
-275.56918583543728
 21
83.414653720370552
 31
0.0
  0
LINE
  8
DETAIL
  6
CONTINUOUS
 62
     5
 10
-275.56918583543728
 20
83.414653720370552
 30
0.0
 11
-275.60659317925922
 21
83.406729818299937
 31
0.0
  0
LINE
  8
DETAIL
  6
CONTINUOUS
 62
     5
 10
-275.60659317925922
 20
83.406729818299937
 30
0.0
 11
-275.64266533585368
 21
83.398821018217632
 31
0.0
  0
LINE
  8
DETAIL
  6
CONTINUOUS
 62
     5
 10
-275.64266533585368
 20
83.398821018217632
 30
0.0
 11
-275.64266533585368
 21
83.398821018217632
 31
0.0
  0
LINE
  8
DETAIL
  6
CONTINUOUS
 62
     5
 10
-275.64266533585368
 20
83.398821018217632
 30
0.0
 11
-275.67913630053988
 21
83.390568415698226
 31
0.0
  0
LINE
  8
DETAIL
  6
CONTINUOUS
 62
     5
 10
-275.67913630053988
 20
83.390568415698226
 30
0.0
 11
-275.71591948691628
 21
83.381973861522511
 31
0.0
  0
LINE
  8
DETAIL
  6
CONTINUOUS
 62
     5
 10
-275.71591948691628
 20
83.381973861522511
 30
0.0
 11
-275.71591948691628
 21
83.381973861522511
 31
0.0
  0
LINE
  8
DETAIL
  6
CONTINUOUS
 62
     5
 10
-275.71591948691628
 20
83.381973861522511
 30
0.0
 11
-275.75255545898239
 21
83.373117213130627
 31
0.0
  0
LINE
  8
DETAIL
  6
CONTINUOUS
 62
     5
 10
-275.75255545898239
 20
83.373117213130627
 30
0.0
 11
-275.78891396406232
 21
83.364029599384594
 31
0.0
  0
LINE
  8
DETAIL
  6
CONTINUOUS
 62
     5
 10
-275.78891396406232
 20
83.364029599384594
 30
0.0
 11
-275.78891396406232
 21
83.364029599384594
 31
0.0
  0
LINE
  8
DETAIL
  6
CONTINUOUS
 62
     5
 10
-275.78891396406232
 20
83.364029599384594
 30
0.0
 11
-275.82507300741668
 21
83.354688506778757
 31
0.0
  0
LINE
  8
DETAIL
  6
CONTINUOUS
 62
     5
 10
-275.82507300741668
 20
83.354688506778757
 30
0.0
 11
-275.86161444272892
 21
83.344905580903742
 31
0.0
  0
LINE
  8
DETAIL
  6
CONTINUOUS
 62
     5
 10
-275.86161444272892
 20
83.344905580903742
 30
0.0
 11
-275.86161444272892
 21
83.344905580903742
 31
0.0
  0
LINE
  8
DETAIL
  6
CONTINUOUS
 62
     5
 10
-275.86161444272892
 20
83.344905580903742
 30
0.0
 11
-275.89865994153399
 21
83.334629030171527
 31
0.0
  0
LINE
  8
DETAIL
  6
CONTINUOUS
 62
     5
 10
-275.89865994153399
 20
83.334629030171527
 30
0.0
 11
-275.93398659835299
 21
83.32451915517936
 31
0.0
  0
LINE
  8
DETAIL
  6
CONTINUOUS
 62
     5
 10
-275.93398659835299
 20
83.32451915517936
 30
0.0
 11
-275.93398659835299
 21
83.32451915517936
 31
0.0
  0
LINE
  8
DETAIL
  6
CONTINUOUS
 62
     5
 10
-275.93398659835299
 20
83.32451915517936
 30
0.0
 11
-275.96572339686401
 21
83.315139952791014
 31
0.0
  0
LINE
  8
DETAIL
  6
CONTINUOUS
 62
     5
 10
-275.96572339686401
 20
83.315139952791014
 30
0.0
 11
-275.99575145438962
 21
83.305958112751796
 31
0.0
  0
LINE
  8
DETAIL
  6
CONTINUOUS
 62
     5
 10
-275.99575145438962
 20
83.305958112751796
 30
0.0
 11
-275.99575145438962
 21
83.305958112751796
 31
0.0
  0
LINE
  8
DETAIL
  6
CONTINUOUS
 62
     5
 10
-275.99575145438962
 20
83.305958112751796
 30
0.0
 11
-276.02629185860292
 21
83.296332824407045
 31
0.0
  0
LINE
  8
DETAIL
  6
CONTINUOUS
 62
     5
 10
-276.02629185860292
 20
83.296332824407045
 30
0.0
 11
-276.05717344494082
 21
83.286290582618449
 31
0.0
  0
LINE
  8
DETAIL
  6
CONTINUOUS
 62
     5
 10
-276.05717344494082
 20
83.286290582618449
 30
0.0
 11
-276.05717344494082
 21
83.286290582618449
 31
0.0
  0
LINE
  8
DETAIL
  6
CONTINUOUS
 62
     5
 10
-276.05717344494082
 20
83.286290582618449
 30
0.0
 11
-276.08778862681851
 21
83.275983540890593
 31
0.0
  0
LINE
  8
DETAIL
  6
CONTINUOUS
 62
     5
 10
-276.08778862681851
 20
83.275983540890593
 30
0.0
 11
-276.11817638180719
 21
83.26539918178355
 31
0.0
  0
LINE
  8
DETAIL
  6
CONTINUOUS
 62
     5
 10
-276.11817638180719
 20
83.26539918178355
 30
0.0
 11
-276.11817638180719
 21
83.26539918178355
 31
0.0
  0
LINE
  8
DETAIL
  6
CONTINUOUS
 62
     5
 10
-276.11817638180719
 20
83.26539918178355
 30
0.0
 11
-276.14848882742092
 21
83.254481664686409
 31
0.0
  0
LINE
  8
DETAIL
  6
CONTINUOUS
 62
     5
 10
-276.14848882742092
 20
83.254481664686409
 30
0.0
 11
-276.17868407678912
 21
83.243166527251333
 31
0.0
  0
LINE
  8
DETAIL
  6
CONTINUOUS
 62
     5
 10
-276.17868407678912
 20
83.243166527251333
 30
0.0
 11
-276.17868407678912
 21
83.243166527251333
 31
0.0
  0
LINE
  8
DETAIL
  6
CONTINUOUS
 62
     5
 10
-276.17868407678912
 20
83.243166527251333
 30
0.0
 11
-276.20870410529068
 21
83.231436941169477
 31
0.0
  0
LINE
  8
DETAIL
  6
CONTINUOUS
 62
     5
 10
-276.20870410529068
 20
83.231436941169477
 30
0.0
 11
-276.23862034168661
 21
83.219475236027165
 31
0.0
  0
LINE
  8
DETAIL
  6
CONTINUOUS
 62
     5
 10
-272.43941841680129
 20
-76.122778675282689
 30
0.0
 11
-272.39099286098968
 21
-76.122249113168209
 31
0.0
  0
LINE
  8
DETAIL
  6
CONTINUOUS
 62
     5
 10
-272.39099286098968
 20
-76.122249113168209
 30
0.0
 11
-272.34256996593439
 21
-76.121228539095227
 31
0.0
  0
LINE
  8
DETAIL
  6
CONTINUOUS
 62
     5
 10
-272.34256996593439
 20
-76.121228539095227
 30
0.0
 11
-272.34256996593439
 21
-76.121228539095227
 31
0.0
  0
LINE
  8
DETAIL
  6
CONTINUOUS
 62
     5
 10
-272.34256996593439
 20
-76.121228539095227
 30
0.0
 11
-272.2941554508804
 21
-76.119329978634823
 31
0.0
  0
LINE
  8
DETAIL
  6
CONTINUOUS
 62
     5
 10
-272.2941554508804
 20
-76.119329978634823
 30
0.0
 11
-272.24576726902791
 21
-76.116582607475948
 31
0.0
  0
LINE
  8
DETAIL
  6
CONTINUOUS
 62
     5
 10
-272.24576726902791
 20
-76.116582607475948
 30
0.0
 11
-272.24576726902791
 21
-76.116582607475948
 31
0.0
  0
LINE
  8
DETAIL
  6
CONTINUOUS
 62
     5
 10
-272.24576726902791
 20
-76.116582607475948
 30
0.0
 11
-272.19742306706468
 21
-76.113091302575413
 31
0.0
  0
LINE
  8
DETAIL
  6
CONTINUOUS
 62
     5
 10
-272.19742306706468
 20
-76.113091302575413
 30
0.0
 11
-272.14912703167357
 21
-76.108847595837688
 31
0.0
  0
LINE
  8
DETAIL
  6
CONTINUOUS
 62
     5
 10
-272.14912703167357
 20
-76.108847595837688
 30
0.0
 11
-272.14912703167357
 21
-76.108847595837688
 31
0.0
  0
LINE
  8
DETAIL
  6
CONTINUOUS
 62
     5
 10
-272.14912703167357
 20
-76.108847595837688
 30
0.0
 11
-272.10089038605253
 21
-76.103823990427372
 31
0.0
  0
LINE
  8
DETAIL
  6
CONTINUOUS
 62
     5
 10
-272.10089038605253
 20
-76.103823990427372
 30
0.0
 11
-272.05276595946242
 21
-76.09803021959442
 31
0.0
  0
LINE
  8
DETAIL
  6
CONTINUOUS
 62
     5
 10
-272.05276595946242
 20
-76.09803021959442
 30
0.0
 11
-272.05276595946242
 21
-76.09803021959442
 31
0.0
  0
LINE
  8
DETAIL
  6
CONTINUOUS
 62
     5
 10
-272.05276595946242
 20
-76.09803021959442
 30
0.0
 11
-272.004778741618
 21
-76.091476430287457
 31
0.0
  0
LINE
  8
DETAIL
  6
CONTINUOUS
 62
     5
 10
-272.004778741618
 20
-76.091476430287457
 30
0.0
 11
-271.95680075798651
 21
-76.084137194159666
 31
0.0
  0
LINE
  8
DETAIL
  6
CONTINUOUS
 62
     5
 10
-271.95680075798651
 20
-76.084137194159666
 30
0.0
 11
-271.95680075798651
 21
-76.084137194159666
 31
0.0
  0
LINE
  8
DETAIL
  6
CONTINUOUS
 62
     5
 10
-271.95680075798651
 20
-76.084137194159666
 30
0.0
 11
-271.90872588762949
 21
-76.075988817804728
 31
0.0
  0
LINE
  8
DETAIL
  6
CONTINUOUS
 62
     5
 10
-271.90872588762949
 20
-76.075988817804728
 30
0.0
 11
-271.86068838823502
 21
-76.067050122874207
 31
0.0
  0
LINE
  8
DETAIL
  6
CONTINUOUS
 62
     5
 10
-271.86068838823502
 20
-76.067050122874207
 30
0.0
 11
-271.86068838823502
 21
-76.067050122874207
 31
0.0
  0
LINE
  8
DETAIL
  6
CONTINUOUS
 62
     5
 10
-271.86068838823502
 20
-76.067050122874207
 30
0.0
 11
-271.8128435782433
 21
-76.057344731881813
 31
0.0
  0
LINE
  8
DETAIL
  6
CONTINUOUS
 62
     5
 10
-271.8128435782433
 20
-76.057344731881813
 30
0.0
 11
-271.76519064047909
 21
-76.046872955728759
 31
0.0
  0
LINE
  8
DETAIL
  6
CONTINUOUS
 62
     5
 10
-271.76519064047909
 20
-76.046872955728759
 30
0.0
 11
-271.76519064047909
 21
-76.046872955728759
 31
0.0
  0
LINE
  8
DETAIL
  6
CONTINUOUS
 62
     5
 10
-271.76519064047909
 20
-76.046872955728759
 30
0.0
 11
-271.71770241066412
 21
-76.035631626474242
 31
0.0
  0
LINE
  8
DETAIL
  6
CONTINUOUS
 62
     5
 10
-271.71770241066412
 20
-76.035631626474242
 30
0.0
 11
-271.67040247172031
 21
-76.023626972417787
 31
0.0
  0
LINE
  8
DETAIL
  6
CONTINUOUS
 62
     5
 10
-271.67040247172031
 20
-76.023626972417787
 30
0.0
 11
-271.67040247172031
 21
-76.023626972417787
 31
0.0
  0
LINE
  8
DETAIL
  6
CONTINUOUS
 62
     5
 10
-271.67040247172031
 20
-76.023626972417787
 30
0.0
 11
-271.623315380073
 21
-76.010864002581457
 31
0.0
  0
LINE
  8
DETAIL
  6
CONTINUOUS
 62
     5
 10
-271.623315380073
 20
-76.010864002581457
 30
0.0
 11
-271.57641883895991
 21
-75.997333452636667
 31
0.0
  0
LINE
  8
DETAIL
  6
CONTINUOUS
 62
     5
 10
-271.57641883895991
 20
-75.997333452636667
 30
0.0
 11
-271.57641883895991
 21
-75.997333452636667
 31
0.0
  0
LINE
  8
DETAIL
  6
CONTINUOUS
 62
     5
 10
-271.57641883895991
 20
-75.997333452636667
 30
0.0
 11
-271.52971300470949
 21
-75.983034414208305
 31
0.0
  0
LINE
  8
DETAIL
  6
CONTINUOUS
 62
     5
 10
-271.52971300470949
 20
-75.983034414208305
 30
0.0
 11
-271.48333469920038
 21
-75.968013676080318
 31
0.0
  0
LINE
  8
DETAIL
  6
CONTINUOUS
 62
     5
 10
-271.48333469920038
 20
-75.968013676080318
 30
0.0
 11
-271.48333469920038
 21
-75.968013676080318
 31
0.0
  0
LINE
  8
DETAIL
  6
CONTINUOUS
 62
     5
 10
-271.48333469920038
 20
-75.968013676080318
 30
0.0
 11
-271.43740176897012
 21
-75.952312632848361
 31
0.0
  0
LINE
  8
DETAIL
  6
CONTINUOUS
 62
     5
 10
-271.43740176897012
 20
-75.952312632848361
 30
0.0
 11
-271.39181949364098
 21
-75.935903405194495
 31
0.0
  0
LINE
  8
DETAIL
  6
CONTINUOUS
 62
     5
 10
-271.39181949364098
 20
-75.935903405194495
 30
0.0
 11
-271.39181949364098
 21
-75.935903405194495
 31
0.0
  0
LINE
  8
DETAIL
  6
CONTINUOUS
 62
     5
 10
-271.39181949364098
 20
-75.935903405194495
 30
0.0
 11
-271.34647335179949
 21
-75.918751056369729
 31
0.0
  0
LINE
  8
DETAIL
  6
CONTINUOUS
 62
     5
 10
-271.34647335179949
 20
-75.918751056369729
 30
0.0
 11
-271.30138218480357
 21
-75.900861693816523
 31
0.0
  0
LINE
  8
DETAIL
  6
CONTINUOUS
 62
     5
 10
-271.30138218480357
 20
-75.900861693816523
 30
0.0
 11
-271.30138218480357
 21
-75.900861693816523
 31
0.0
  0
LINE
  8
DETAIL
  6
CONTINUOUS
 62
     5
 10
-271.30138218480357
 20
-75.900861693816523
 30
0.0
 11
-271.25659131790343
 21
-75.882250075712818
 31
0.0
  0
LINE
  8
DETAIL
  6
CONTINUOUS
 62
     5
 10
-271.25659131790343
 20
-75.882250075712818
 30
0.0
 11
-271.21211864915091
 21
-75.862924518988621
 31
0.0
  0
LINE
  8
DETAIL
  6
CONTINUOUS
 62
     5
 10
-271.21211864915091
 20
-75.862924518988621
 30
0.0
 11
-271.21211864915091
 21
-75.862924518988621
 31
0.0
  0
LINE
  8
DETAIL
  6
CONTINUOUS
 62
     5
 10
-271.21211864915091
 20
-75.862924518988621
 30
0.0
 11
-271.16796930630392
 21
-75.842887910462423
 31
0.0
  0
LINE
  8
DETAIL
  6
CONTINUOUS
 62
     5
 10
-271.16796930630392
 20
-75.842887910462423
 30
0.0
 11
-271.12412476314472
 21
-75.822127857752093
 31
0.0
  0
LINE
  8
DETAIL
  6
CONTINUOUS
 62
     5
 10
-271.12412476314472
 20
-75.822127857752093
 30
0.0
 11
-271.12412476314472
 21
-75.822127857752093
 31
0.0
  0
LINE
  8
DETAIL
  6
CONTINUOUS
 62
     5
 10
-271.12412476314472
 20
-75.822127857752093
 30
0.0
 11
-271.08059109073702
 21
-75.800645038187668
 31
0.0
  0
LINE
  8
DETAIL
  6
CONTINUOUS
 62
     5
 10
-271.08059109073702
 20
-75.800645038187668
 30
0.0
 11
-271.03749640324821
 21
-75.778507687148704
 31
0.0
  0
LINE
  8
DETAIL
  6
CONTINUOUS
 62
     5
 10
-271.03749640324821
 20
-75.778507687148704
 30
0.0
 11
-271.03749640324821
 21
-75.778507687148704
 31
0.0
  0
LINE
  8
DETAIL
  6
CONTINUOUS
 62
     5
 10
-271.03749640324821
 20
-75.778507687148704
 30
0.0
 11
-270.99494953031149
 21
-75.755775152960041
 31
0.0
  0
LINE
  8
DETAIL
  6
CONTINUOUS
 62
     5
 10
-270.99494953031149
 20
-75.755775152960041
 30
0.0
 11
-270.95286012032329
 21
-75.732403677684033
 31
0.0
  0
LINE
  8
DETAIL
  6
CONTINUOUS
 62
     5
 10
-270.95286012032329
 20
-75.732403677684033
 30
0.0
 11
-270.95286012032329
 21
-75.732403677684033
 31
0.0
  0
LINE
  8
DETAIL
  6
CONTINUOUS
 62
     5
 10
-270.95286012032329
 20
-75.732403677684033
 30
0.0
 11
-270.91112052976581
 21
-75.708340234604066
 31
0.0
  0
LINE
  8
DETAIL
  6
CONTINUOUS
 62
     5
 10
-270.91112052976581
 20
-75.708340234604066
 30
0.0
 11
-270.86975312870658
 21
-75.683597828154689
 31
0.0
  0
LINE
  8
DETAIL
  6
CONTINUOUS
 62
     5
 10
-270.86975312870658
 20
-75.683597828154689
 30
0.0
 11
-270.86975312870658
 21
-75.683597828154689
 31
0.0
  0
LINE
  8
DETAIL
  6
CONTINUOUS
 62
     5
 10
-270.86975312870658
 20
-75.683597828154689
 30
0.0
 11
-270.82880120195421
 21
-75.658199299478383
 31
0.0
  0
LINE
  8
DETAIL
  6
CONTINUOUS
 62
     5
 10
-270.82880120195421
 20
-75.658199299478383
 30
0.0
 11
-270.78826167969828
 21
-75.632140805399104
 31
0.0
  0
LINE
  8
DETAIL
  6
CONTINUOUS
 62
     5
 10
-270.78826167969828
 20
-75.632140805399104
 30
0.0
 11
-270.78826167969828
 21
-75.632140805399104
 31
0.0
  0
LINE
  8
DETAIL
  6
CONTINUOUS
 62
     5
 10
-270.78826167969828
 20
-75.632140805399104
 30
0.0
 11
-270.74813375469603
 21
-75.605422008192363
 31
0.0
  0
LINE
  8
DETAIL
  6
CONTINUOUS
 62
     5
 10
-270.74813375469603
 20
-75.605422008192363
 30
0.0
 11
-270.70847202459868
 21
-75.578083276256166
 31
0.0
  0
LINE
  8
DETAIL
  6
CONTINUOUS
 62
     5
 10
-270.70847202459868
 20
-75.578083276256166
 30
0.0
 11
-270.70847202459868
 21
-75.578083276256166
 31
0.0
  0
LINE
  8
DETAIL
  6
CONTINUOUS
 62
     5
 10
-270.70847202459868
 20
-75.578083276256166
 30
0.0
 11
-270.66930112204199
 21
-75.550141119476166
 31
0.0
  0
LINE
  8
DETAIL
  6
CONTINUOUS
 62
     5
 10
-270.66930112204199
 20
-75.550141119476166
 30
0.0
 11
-270.63047041470901
 21
-75.521475907564763
 31
0.0
  0
LINE
  8
DETAIL
  6
CONTINUOUS
 62
     5
 10
-270.63047041470901
 20
-75.521475907564763
 30
0.0
 11
-270.63047041470901
 21
-75.521475907564763
 31
0.0
  0
LINE
  8
DETAIL
  6
CONTINUOUS
 62
     5
 10
-270.63047041470901
 20
-75.521475907564763
 30
0.0
 11
-270.59185463279641
 21
-75.491986353563334
 31
0.0
  0
LINE
  8
DETAIL
  6
CONTINUOUS
 62
     5
 10
-270.59185463279641
 20
-75.491986353563334
 30
0.0
 11
-270.553605221515
 21
-75.461780684001042
 31
0.0
  0
LINE
  8
DETAIL
  6
CONTINUOUS
 62
     5
 10
-270.553605221515
 20
-75.461780684001042
 30
0.0
 11
-270.553605221515
 21
-75.461780684001042
 31
0.0
  0
LINE
  8
DETAIL
  6
CONTINUOUS
 62
     5
 10
-270.553605221515
 20
-75.461780684001042
 30
0.0
 11
-270.51589812056278
 21
-75.430987186236052
 31
0.0
  0
LINE
  8
DETAIL
  6
CONTINUOUS
 62
     5
 10
-270.51589812056278
 20
-75.430987186236052
 30
0.0
 11
-270.47873053257422
 21
-75.399604877453839
 31
0.0
  0
LINE
  8
DETAIL
  6
CONTINUOUS
 62
     5
 10
-270.47873053257422
 20
-75.399604877453839
 30
0.0
 11
-270.47873053257422
 21
-75.399604877453839
 31
0.0
  0
LINE
  8
DETAIL
  6
CONTINUOUS
 62
     5
 10
-270.47873053257422
 20
-75.399604877453839
 30
0.0
 11
-270.44206768593813
 21
-75.367609915182129
 31
0.0
  0
LINE
  8
DETAIL
  6
CONTINUOUS
 62
     5
 10
-270.44206768593813
 20
-75.367609915182129
 30
0.0
 11
-270.40592564912907
 21
-75.335016288497854
 31
0.0
  0
LINE
  8
DETAIL
  6
CONTINUOUS
 62
     5
 10
-270.40592564912907
 20
-75.335016288497854
 30
0.0
 11
-270.40592564912907
 21
-75.335016288497854
 31
0.0
  0
LINE
  8
DETAIL
  6
CONTINUOUS
 62
     5
 10
-270.40592564912907
 20
-75.335016288497854
 30
0.0
 11
-270.3703270448234
 21
-75.301841930359842
 31
0.0
  0
LINE
  8
DETAIL
  6
CONTINUOUS
 62
     5
 10
-270.3703270448234
 20
-75.301841930359842
 30
0.0
 11
-270.33526987242129
 21
-75.268082717707557
 31
0.0
  0
LINE
  8
DETAIL
  6
CONTINUOUS
 62
     5
 10
-270.33526987242129
 20
-75.268082717707557
 30
0.0
 11
-270.33526987242129
 21
-75.268082717707557
 31
0.0
  0
LINE
  8
DETAIL
  6
CONTINUOUS
 62
     5
 10
-270.33526987242129
 20
-75.268082717707557
 30
0.0
 11
-270.30075788875882
 21
-75.233741611608139
 31
0.0
  0
LINE
  8
DETAIL
  6
CONTINUOUS
 62
     5
 10
-270.30075788875882
 20
-75.233741611608139
 30
0.0
 11
-270.26684250369283
 21
-75.198871965657418
 31
0.0
  0
LINE
  8
DETAIL
  6
CONTINUOUS
 62
     5
 10
-270.26684250369283
 20
-75.198871965657418
 30
0.0
 11
-270.26684250369283
 21
-75.198871965657418
 31
0.0
  0
LINE
  8
DETAIL
  6
CONTINUOUS
 62
     5
 10
-270.26684250369283
 20
-75.198871965657418
 30
0.0
 11
-270.2335688212778
 21
-75.163521489543655
 31
0.0
  0
LINE
  8
DETAIL
  6
CONTINUOUS
 62
     5
 10
-270.2335688212778
 20
-75.163521489543655
 30
0.0
 11
-270.20090906933888
 21
-75.127664924794772
 31
0.0
  0
LINE
  8
DETAIL
  6
CONTINUOUS
 62
     5
 10
-270.20090906933888
 20
-75.127664924794772
 30
0.0
 11
-270.20090906933888
 21
-75.127664924794772
 31
0.0
  0
LINE
  8
DETAIL
  6
CONTINUOUS
 62
     5
 10
-270.20090906933888
 20
-75.127664924794772
 30
0.0
 11
-270.1688281375927
 21
-75.091269322740573
 31
0.0
  0
LINE
  8
DETAIL
  6
CONTINUOUS
 62
     5
 10
-270.1688281375927
 20
-75.091269322740573
 30
0.0
 11
-270.13733443955351
 21
-75.05434394208487
 31
0.0
  0
LINE
  8
DETAIL
  6
CONTINUOUS
 62
     5
 10
-270.13733443955351
 20
-75.05434394208487
 30
0.0
 11
-270.13733443955351
 21
-75.05434394208487
 31
0.0
  0
LINE
  8
DETAIL
  6
CONTINUOUS
 62
     5
 10
-270.13733443955351
 20
-75.05434394208487
 30
0.0
 11
-270.10644691593649
 21
-75.016909662954731
 31
0.0
  0
LINE
  8
DETAIL
  6
CONTINUOUS
 62
     5
 10
-270.10644691593649
 20
-75.016909662954731
 30
0.0
 11
-270.0761830924672
 21
-74.978991643806012
 31
0.0
  0
LINE
  8
DETAIL
  6
CONTINUOUS
 62
     5
 10
-270.0761830924672
 20
-74.978991643806012
 30
0.0
 11
-270.0761830924672
 21
-74.978991643806012
 31
0.0
  0
LINE
  8
DETAIL
  6
CONTINUOUS
 62
     5
 10
-270.0761830924672
 20
-74.978991643806012
 30
0.0
 11
-270.04655067516381
 21
-74.94060128250544
 31
0.0
  0
LINE
  8
DETAIL
  6
CONTINUOUS
 62
     5
 10
-270.04655067516381
 20
-74.94060128250544
 30
0.0
 11
-270.01751950621019
 21
-74.901690656236951
 31
0.0
  0
LINE
  8
DETAIL
  6
CONTINUOUS
 62
     5
 10
-270.01751950621019
 20
-74.901690656236951
 30
0.0
 11
-270.01751950621019
 21
-74.901690656236951
 31
0.0
  0
LINE
  8
DETAIL
  6
CONTINUOUS
 62
     5
 10
-270.01751950621019
 20
-74.901690656236951
 30
0.0
 11
-269.98908817941373
 21
-74.862255263114548
 31
0.0
  0
LINE
  8
DETAIL
  6
CONTINUOUS
 62
     5
 10
-269.98908817941373
 20
-74.862255263114548
 30
0.0
 11
-269.96140815891277
 21
-74.822523605655533
 31
0.0
  0
LINE
  8
DETAIL
  6
CONTINUOUS
 62
     5
 10
-269.96140815891277
 20
-74.822523605655533
 30
0.0
 11
-269.96140815891277
 21
-74.822523605655533
 31
0.0
  0
LINE
  8
DETAIL
  6
CONTINUOUS
 62
     5
 10
-269.96140815891277
 20
-74.822523605655533
 30
0.0
 11
-269.93460640939247
 21
-74.782691432313186
 31
0.0
  0
LINE
  8
DETAIL
  6
CONTINUOUS
 62
     5
 10
-269.93460640939247
 20
-74.782691432313186
 30
0.0
 11
-269.90855902739332
 21
-74.742590470886171
 31
0.0
  0
LINE
  8
DETAIL
  6
CONTINUOUS
 62
     5
 10
-269.90855902739332
 20
-74.742590470886171
 30
0.0
 11
-269.90855902739332
 21
-74.742590470886171
 31
0.0
  0
LINE
  8
DETAIL
  6
CONTINUOUS
 62
     5
 10
-269.90855902739332
 20
-74.742590470886171
 30
0.0
 11
-269.88311999615428
 21
-74.702018464294497
 31
0.0
  0
LINE
  8
DETAIL
  6
CONTINUOUS
 62
     5
 10
-269.88311999615428
 20
-74.702018464294497
 30
0.0
 11
-269.85830571385679
 21
-74.661001236607945
 31
0.0
  0
LINE
  8
DETAIL
  6
CONTINUOUS
 62
     5
 10
-269.85830571385679
 20
-74.661001236607945
 30
0.0
 11
-269.85830571385679
 21
-74.661001236607945
 31
0.0
  0
LINE
  8
DETAIL
  6
CONTINUOUS
 62
     5
 10
-269.85830571385679
 20
-74.661001236607945
 30
0.0
 11
-269.83416225206082
 21
-74.619606218156378
 31
0.0
  0
LINE
  8
DETAIL
  6
CONTINUOUS
 62
     5
 10
-269.83416225206082
 20
-74.619606218156378
 30
0.0
 11
-269.81069196090078
 21
-74.577839183166816
 31
0.0
  0
LINE
  8
DETAIL
  6
CONTINUOUS
 62
     5
 10
-269.81069196090078
 20
-74.577839183166816
 30
0.0
 11
-269.81069196090078
 21
-74.577839183166816
 31
0.0
  0
LINE
  8
DETAIL
  6
CONTINUOUS
 62
     5
 10
-269.81069196090078
 20
-74.577839183166816
 30
0.0
 11
-269.78788937784412
 21
-74.535695127656254
 31
0.0
  0
LINE
  8
DETAIL
  6
CONTINUOUS
 62
     5
 10
-269.78788937784412
 20
-74.535695127656254
 30
0.0
 11
-269.76576151112079
 21
-74.493187590908974
 31
0.0
  0
LINE
  8
DETAIL
  6
CONTINUOUS
 62
     5
 10
-269.76576151112079
 20
-74.493187590908974
 30
0.0
 11
-269.76576151112079
 21
-74.493187590908974
 31
0.0
  0
LINE
  8
DETAIL
  6
CONTINUOUS
 62
     5
 10
-269.76576151112079
 20
-74.493187590908974
 30
0.0
 11
-269.74431694624548
 21
-74.450331618785413
 31
0.0
  0
LINE
  8
DETAIL
  6
CONTINUOUS
 62
     5
 10
-269.74431694624548
 20
-74.450331618785413
 30
0.0
 11
-269.72355810711372
 21
-74.407129740180608
 31
0.0
  0
LINE
  8
DETAIL
  6
CONTINUOUS
 62
     5
 10
-269.72355810711372
 20
-74.407129740180608
 30
0.0
 11
-269.72355810711372
 21
-74.407129740180608
 31
0.0
  0
LINE
  8
DETAIL
  6
CONTINUOUS
 62
     5
 10
-269.72355810711372
 20
-74.407129740180608
 30
0.0
 11
-269.70348681634073
 21
-74.363585461887396
 31
0.0
  0
LINE
  8
DETAIL
  6
CONTINUOUS
 62
     5
 10
-269.70348681634073
 20
-74.363585461887396
 30
0.0
 11
-269.68410865304321
 21
-74.319718719247703
 31
0.0
  0
LINE
  8
DETAIL
  6
CONTINUOUS
 62
     5
 10
-269.68410865304321
 20
-74.319718719247703
 30
0.0
 11
-269.68410865304321
 21
-74.319718719247703
 31
0.0
  0
LINE
  8
DETAIL
  6
CONTINUOUS
 62
     5
 10
-269.68410865304321
 20
-74.319718719247703
 30
0.0
 11
-269.66543100263578
 21
-74.275551015036854
 31
0.0
  0
LINE
  8
DETAIL
  6
CONTINUOUS
 62
     5
 10
-269.66543100263578
 20
-74.275551015036854
 30
0.0
 11
-269.64746471922922
 21
-74.231093693204912
 31
0.0
  0
LINE
  8
DETAIL
  6
CONTINUOUS
 62
     5
 10
-269.64746471922922
 20
-74.231093693204912
 30
0.0
 11
-269.64746471922922
 21
-74.231093693204912
 31
0.0
  0
LINE
  8
DETAIL
  6
CONTINUOUS
 62
     5
 10
-269.64746471922922
 20
-74.231093693204912
 30
0.0
 11
-269.63021473887198
 21
-74.186357965837487
 31
0.0
  0
LINE
  8
DETAIL
  6
CONTINUOUS
 62
     5
 10
-269.63021473887198
 20
-74.186357965837487
 30
0.0
 11
-269.61365885667522
 21
-74.141364676381272
 31
0.0
  0
LINE
  8
DETAIL
  6
CONTINUOUS
 62
     5
 10
-269.61365885667522
 20
-74.141364676381272
 30
0.0
 11
-269.61365885667522
 21
-74.141364676381272
 31
0.0
  0
LINE
  8
DETAIL
  6
CONTINUOUS
 62
     5
 10
-269.61365885667522
 20
-74.141364676381272
 30
0.0
 11
-269.59779435627928
 21
-74.096129984467552
 31
0.0
  0
LINE
  8
DETAIL
  6
CONTINUOUS
 62
     5
 10
-269.59779435627928
 20
-74.096129984467552
 30
0.0
 11
-269.58272361638473
 21
-74.050641683104914
 31
0.0
  0
LINE
  8
DETAIL
  6
CONTINUOUS
 62
     5
 10
-269.58272361638473
 20
-74.050641683104914
 30
0.0
 11
-269.58272361638473
 21
-74.050641683104914
 31
0.0
  0
LINE
  8
DETAIL
  6
CONTINUOUS
 62
     5
 10
-269.58272361638473
 20
-74.050641683104914
 30
0.0
 11
-269.56847697963121
 21
-74.004906432429152
 31
0.0
  0
LINE
  8
DETAIL
  6
CONTINUOUS
 62
     5
 10
-269.56847697963121
 20
-74.004906432429152
 30
0.0
 11
-269.55469154936083
 21
-73.95903472770533
 31
0.0
  0
LINE
  8
DETAIL
  6
CONTINUOUS
 62
     5
 10
-276.74450354202207
 20
-78.004995806264105
 30
0.0
 11
-276.74314024039091
 21
-77.979512966761149
 31
0.0
  0
LINE
  8
DETAIL
  6
CONTINUOUS
 62
     5
 10
-276.74314024039091
 20
-77.979512966761149
 30
0.0
 11
-276.74155679364941
 21
-77.954023529983942
 31
0.0
  0
LINE
  8
DETAIL
  6
CONTINUOUS
 62
     5
 10
-276.74155679364941
 20
-77.954023529983942
 30
0.0
 11
-276.74155679364941
 21
-77.954023529983942
 31
0.0
  0
LINE
  8
DETAIL
  6
CONTINUOUS
 62
     5
 10
-276.74155679364941
 20
-77.954023529983942
 30
0.0
 11
-276.73958251371891
 21
-77.928537440541049
 31
0.0
  0
LINE
  8
DETAIL
  6
CONTINUOUS
 62
     5
 10
-276.73958251371891
 20
-77.928537440541049
 30
0.0
 11
-276.73724454064688
 21
-77.90313081057252
 31
0.0
  0
LINE
  8
DETAIL
  6
CONTINUOUS
 62
     5
 10
-276.73724454064688
 20
-77.90313081057252
 30
0.0
 11
-276.73724454064688
 21
-77.90313081057252
 31
0.0
  0
LINE
  8
DETAIL
  6
CONTINUOUS
 62
     5
 10
-276.73724454064688
 20
-77.90313081057252
 30
0.0
 11
-276.73459304870971
 21
-77.877825564653676
 31
0.0
  0
LINE
  8
DETAIL
  6
CONTINUOUS
 62
     5
 10
-276.73459304870971
 20
-77.877825564653676
 30
0.0
 11
-276.7315725209728
 21
-77.852360709570121
 31
0.0
  0
LINE
  8
DETAIL
  6
CONTINUOUS
 62
     5
 10
-276.7315725209728
 20
-77.852360709570121
 30
0.0
 11
-276.7315725209728
 21
-77.852360709570121
 31
0.0
  0
LINE
  8
DETAIL
  6
CONTINUOUS
 62
     5
 10
-276.7315725209728
 20
-77.852360709570121
 30
0.0
 11
-276.72815725187797
 21
-77.826670898567954
 31
0.0
  0
LINE
  8
DETAIL
  6
CONTINUOUS
 62
     5
 10
-276.72815725187797
 20
-77.826670898567954
 30
0.0
 11
-276.72454647258598
 21
-77.801756288517481
 31
0.0
  0
LINE
  8
DETAIL
  6
CONTINUOUS
 62
     5
 10
-276.72454647258598
 20
-77.801756288517481
 30
0.0
 11
-276.72454647258598
 21
-77.801756288517481
 31
0.0
  0
LINE
  8
DETAIL
  6
CONTINUOUS
 62
     5
 10
-276.72454647258598
 20
-77.801756288517481
 30
0.0
 11
-276.72079713452132
 21
-77.77788863801743
 31
0.0
  0
LINE
  8
DETAIL
  6
CONTINUOUS
 62
     5
 10
-276.72079713452132
 20
-77.77788863801743
 30
0.0
 11
-276.71617213344399
 21
-77.751360608953973
 31
0.0
  0
LINE
  8
DETAIL
  6
CONTINUOUS
 62
     5
 10
-276.71617213344399
 20
-77.751360608953973
 30
0.0
 11
-276.71617213344399
 21
-77.751360608953973
 31
0.0
  0
LINE
  8
DETAIL
  6
CONTINUOUS
 62
     5
 10
-276.71617213344399
 20
-77.751360608953973
 30
0.0
 11
-276.71001990346662
 21
-77.719045323856335
 31
0.0
  0
LINE
  8
DETAIL
  6
CONTINUOUS
 62
     5
 10
-276.71001990346662
 20
-77.719045323856335
 30
0.0
 11
-276.7028250877712
 21
-77.684116844541677
 31
0.0
  0
LINE
  8
DETAIL
  6
CONTINUOUS
 62
     5
 10
-276.7028250877712
 20
-77.684116844541677
 30
0.0
 11
-276.7028250877712
 21
-77.684116844541677
 31
0.0
  0
LINE
  8
DETAIL
  6
CONTINUOUS
 62
     5
 10
-276.7028250877712
 20
-77.684116844541677
 30
0.0
 11
-276.6951946984002
 21
-77.65032281074923
 31
0.0
  0
LINE
  8
DETAIL
  6
CONTINUOUS
 62
     5
 10
-276.6951946984002
 20
-77.65032281074923
 30
0.0
 11
-276.68708901376209
 21
-77.617404234619016
 31
0.0
  0
LINE
  8
DETAIL
  6
CONTINUOUS
 62
     5
 10
-276.68708901376209
 20
-77.617404234619016
 30
0.0
 11
-276.68708901376209
 21
-77.617404234619016
 31
0.0
  0
LINE
  8
DETAIL
  6
CONTINUOUS
 62
     5
 10
-276.68708901376209
 20
-77.617404234619016
 30
0.0
 11
-276.67835006407739
 21
-77.584369147655025
 31
0.0
  0
LINE
  8
DETAIL
  6
CONTINUOUS
 62
     5
 10
-276.67835006407739
 20
-77.584369147655025
 30
0.0
 11
-276.66899362044808
 21
-77.551300286415881
 31
0.0
  0
LINE
  8
DETAIL
  6
CONTINUOUS
 62
     5
 10
-276.66899362044808
 20
-77.551300286415881
 30
0.0
 11
-276.66899362044808
 21
-77.551300286415881
 31
0.0
  0
LINE
  8
DETAIL
  6
CONTINUOUS
 62
     5
 10
-276.66899362044808
 20
-77.551300286415881
 30
0.0
 11
-276.65906683172261
 21
-77.518476015568467
 31
0.0
  0
LINE
  8
DETAIL
  6
CONTINUOUS
 62
     5
 10
-276.65906683172261
 20
-77.518476015568467
 30
0.0
 11
-276.64856861686042
 21
-77.485882507161477
 31
0.0
  0
LINE
  8
DETAIL
  6
CONTINUOUS
 62
     5
 10
-276.64856861686042
 20
-77.485882507161477
 30
0.0
 11
-276.64856861686042
 21
-77.485882507161477
 31
0.0
  0
LINE
  8
DETAIL
  6
CONTINUOUS
 62
     5
 10
-276.64856861686042
 20
-77.485882507161477
 30
0.0
 11
-276.63749063201823
 21
-77.453456401443418
 31
0.0
  0
LINE
  8
DETAIL
  6
CONTINUOUS
 62
     5
 10
-276.63749063201823
 20
-77.453456401443418
 30
0.0
 11
-276.62584371203047
 21
-77.42122840408615
 31
0.0
  0
LINE
  8
DETAIL
  6
CONTINUOUS
 62
     5
 10
-276.62584371203047
 20
-77.42122840408615
 30
0.0
 11
-276.62584371203047
 21
-77.42122840408615
 31
0.0
  0
LINE
  8
DETAIL
  6
CONTINUOUS
 62
     5
 10
-276.62584371203047
 20
-77.42122840408615
 30
0.0
 11
-276.61364034094618
 21
-77.38924067275434
 31
0.0
  0
LINE
  8
DETAIL
  6
CONTINUOUS
 62
     5
 10
-276.61364034094618
 20
-77.38924067275434
 30
0.0
 11
-276.60088042098818
 21
-77.35748710766461
 31
0.0
  0
LINE
  8
DETAIL
  6
CONTINUOUS
 62
     5
 10
-276.60088042098818
 20
-77.35748710766461
 30
0.0
 11
-276.60088042098818
 21
-77.35748710766461
 31
0.0
  0
LINE
  8
DETAIL
  6
CONTINUOUS
 62
     5
 10
-276.60088042098818
 20
-77.35748710766461
 30
0.0
 11
-276.5875627172768
 21
-77.325955686057114
 31
0.0
  0
LINE
  8
DETAIL
  6
CONTINUOUS
 62
     5
 10
-276.5875627172768
 20
-77.325955686057114
 30
0.0
 11
-276.57369402834757
 21
-77.294658950716439
 31
0.0
  0
LINE
  8
DETAIL
  6
CONTINUOUS
 62
     5
 10
-276.57369402834757
 20
-77.294658950716439
 30
0.0
 11
-276.57369402834757
 21
-77.294658950716439
 31
0.0
  0
LINE
  8
DETAIL
  6
CONTINUOUS
 62
     5
 10
-276.57369402834757
 20
-77.294658950716439
 30
0.0
 11
-276.55928160272128
 21
-77.263612276961339
 31
0.0
  0
LINE
  8
DETAIL
  6
CONTINUOUS
 62
     5
 10
-276.55928160272128
 20
-77.263612276961339
 30
0.0
 11
-276.54432645544551
 21
-77.232817804698698
 31
0.0
  0
LINE
  8
DETAIL
  6
CONTINUOUS
 62
     5
 10
-276.54432645544551
 20
-77.232817804698698
 30
0.0
 11
-276.54432645544551
 21
-77.232817804698698
 31
0.0
  0
LINE
  8
DETAIL
  6
CONTINUOUS
 62
     5
 10
-276.54432645544551
 20
-77.232817804698698
 30
0.0
 11
-276.52883226831949
 21
-77.202281459007963
 31
0.0
  0
LINE
  8
DETAIL
  6
CONTINUOUS
 62
     5
 10
-276.52883226831949
 20
-77.202281459007963
 30
0.0
 11
-276.51281962362083
 21
-77.172037541068448
 31
0.0
  0
LINE
  8
DETAIL
  6
CONTINUOUS
 62
     5
 10
-276.51281962362083
 20
-77.172037541068448
 30
0.0
 11
-276.51281962362083
 21
-77.172037541068448
 31
0.0
  0
LINE
  8
DETAIL
  6
CONTINUOUS
 62
     5
 10
-276.51281962362083
 20
-77.172037541068448
 30
0.0
 11
-276.4962979866358
 21
-77.14210237883708
 31
0.0
  0
LINE
  8
DETAIL
  6
CONTINUOUS
 62
     5
 10
-276.4962979866358
 20
-77.14210237883708
 30
0.0
 11
-276.47921545421082
 21
-77.112392031282525
 31
0.0
  0
LINE
  8
DETAIL
  6
CONTINUOUS
 62
     5
 10
-276.47921545421082
 20
-77.112392031282525
 30
0.0
 11
-276.47921545421082
 21
-77.112392031282525
 31
0.0
  0
LINE
  8
DETAIL
  6
CONTINUOUS
 62
     5
 10
-276.47921545421082
 20
-77.112392031282525
 30
0.0
 11
-276.46152824513399
 21
-77.08283704264295
 31
0.0
  0
LINE
  8
DETAIL
  6
CONTINUOUS
 62
     5
 10
-276.46152824513399
 20
-77.08283704264295
 30
0.0
 11
-276.44328643440667
 21
-77.053526167232576
 31
0.0
  0
LINE
  8
DETAIL
  6
CONTINUOUS
 62
     5
 10
-276.44328643440667
 20
-77.053526167232576
 30
0.0
 11
-276.44328643440667
 21
-77.053526167232576
 31
0.0
  0
LINE
  8
DETAIL
  6
CONTINUOUS
 62
     5
 10
-276.44328643440667
 20
-77.053526167232576
 30
0.0
 11
-276.42454993539383
 21
-77.024562895728877
 31
0.0
  0
LINE
  8
DETAIL
  6
CONTINUOUS
 62
     5
 10
-276.42454993539383
 20
-77.024562895728877
 30
0.0
 11
-276.40532415870462
 21
-76.995951454192436
 31
0.0
  0
LINE
  8
DETAIL
  6
CONTINUOUS
 62
     5
 10
-276.40532415870462
 20
-76.995951454192436
 30
0.0
 11
-276.40532415870462
 21
-76.995951454192436
 31
0.0
  0
LINE
  8
DETAIL
  6
CONTINUOUS
 62
     5
 10
-276.40532415870462
 20
-76.995951454192436
 30
0.0
 11
-276.38560206004399
 21
-76.967675101033365
 31
0.0
  0
LINE
  8
DETAIL
  6
CONTINUOUS
 62
     5
 10
-276.38560206004399
 20
-76.967675101033365
 30
0.0
 11
-276.36538127825941
 21
-76.93973248867519
 31
0.0
  0
LINE
  8
DETAIL
  6
CONTINUOUS
 62
     5
 10
-276.36538127825941
 20
-76.93973248867519
 30
0.0
 11
-276.36538127825941
 21
-76.93973248867519
 31
0.0
  0
LINE
  8
DETAIL
  6
CONTINUOUS
 62
     5
 10
-276.36538127825941
 20
-76.93973248867519
 30
0.0
 11
-276.34466956553018
 21
-76.912135540186
 31
0.0
  0
LINE
  8
DETAIL
  6
CONTINUOUS
 62
     5
 10
-276.34466956553018
 20
-76.912135540186
 30
0.0
 11
-276.32351044422552
 21
-76.884933867193922
 31
0.0
  0
LINE
  8
DETAIL
  6
CONTINUOUS
 62
     5
 10
-276.32351044422552
 20
-76.884933867193922
 30
0.0
 11
-276.32351044422552
 21
-76.884933867193922
 31
0.0
  0
LINE
  8
DETAIL
  6
CONTINUOUS
 62
     5
 10
-276.32351044422552
 20
-76.884933867193922
 30
0.0
 11
-276.30191943828669
 21
-76.858144966402733
 31
0.0
  0
LINE
  8
DETAIL
  6
CONTINUOUS
 62
     5
 10
-276.30191943828669
 20
-76.858144966402733
 30
0.0
 11
-276.27976430775738
 21
-76.831620186261944
 31
0.0
  0
LINE
  8
DETAIL
  6
CONTINUOUS
 62
     5
 10
-276.27976430775738
 20
-76.831620186261944
 30
0.0
 11
-276.27976430775738
 21
-76.831620186261944
 31
0.0
  0
LINE
  8
DETAIL
  6
CONTINUOUS
 62
     5
 10
-276.27976430775738
 20
-76.831620186261944
 30
0.0
 11
-276.25693342229829
 21
-76.805236549346773
 31
0.0
  0
LINE
  8
DETAIL
  6
CONTINUOUS
 62
     5
 10
-276.25693342229829
 20
-76.805236549346773
 30
0.0
 11
-276.23354535393952
 21
-76.779139922997501
 31
0.0
  0
LINE
  8
DETAIL
  6
CONTINUOUS
 62
     5
 10
-276.23354535393952
 20
-76.779139922997501
 30
0.0
 11
-276.23354535393952
 21
-76.779139922997501
 31
0.0
  0
LINE
  8
DETAIL
  6
CONTINUOUS
 62
     5
 10
-276.23354535393952
 20
-76.779139922997501
 30
0.0
 11
-276.20974046138701
 21
-76.753499694437323
 31
0.0
  0
LINE
  8
DETAIL
  6
CONTINUOUS
 62
     5
 10
-276.20974046138701
 20
-76.753499694437323
 30
0.0
 11
-276.18551604768282
 21
-76.728310485663314
 31
0.0
  0
LINE
  8
DETAIL
  6
CONTINUOUS
 62
     5
 10
-276.18551604768282
 20
-76.728310485663314
 30
0.0
 11
-276.18551604768282
 21
-76.728310485663314
 31
0.0
  0
LINE
  8
DETAIL
  6
CONTINUOUS
 62
     5
 10
-276.18551604768282
 20
-76.728310485663314
 30
0.0
 11
-276.16084432009387
 21
-76.703535796721781
 31
0.0
  0
LINE
  8
DETAIL
  6
CONTINUOUS
 62
     5
 10
-276.16084432009387
 20
-76.703535796721781
 30
0.0
 11
-276.13574015845722
 21
-76.679189405085936
 31
0.0
  0
LINE
  8
DETAIL
  6
CONTINUOUS
 62
     5
 10
-276.13574015845722
 20
-76.679189405085936
 30
0.0
 11
-276.13574015845722
 21
-76.679189405085936
 31
0.0
  0
LINE
  8
DETAIL
  6
CONTINUOUS
 62
     5
 10
-276.13574015845722
 20
-76.679189405085936
 30
0.0
 11
-276.11022220209838
 21
-76.655291071466081
 31
0.0
  0
LINE
  8
DETAIL
  6
CONTINUOUS
 62
     5
 10
-276.11022220209838
 20
-76.655291071466081
 30
0.0
 11
-276.08428145573401
 21
-76.631834212092599
 31
0.0
  0
LINE
  8
DETAIL
  6
CONTINUOUS
 62
     5
 10
-276.08428145573401
 20
-76.631834212092599
 30
0.0
 11
-276.08428145573401
 21
-76.631834212092599
 31
0.0
  0
LINE
  8
DETAIL
  6
CONTINUOUS
 62
     5
 10
-276.08428145573401
 20
-76.631834212092599
 30
0.0
 11
-276.05791898189563
 21
-76.60881943219897
 31
0.0
  0
LINE
  8
DETAIL
  6
CONTINUOUS
 62
     5
 10
-276.05791898189563
 20
-76.60881943219897
 30
0.0
 11
-276.03120370898313
 21
-76.586302437510085
 31
0.0
  0
LINE
  8
DETAIL
  6
CONTINUOUS
 62
     5
 10
-276.03120370898313
 20
-76.586302437510085
 30
0.0
 11
-276.03120370898313
 21
-76.586302437510085
 31
0.0
  0
LINE
  8
DETAIL
  6
CONTINUOUS
 62
     5
 10
-276.03120370898313
 20
-76.586302437510085
 30
0.0
 11
-276.0041961836564
 21
-76.564331306995655
 31
0.0
  0
LINE
  8
DETAIL
  6
CONTINUOUS
 62
     5
 10
-276.0041961836564
 20
-76.564331306995655
 30
0.0
 11
-275.97685555974329
 21
-76.542868512114183
 31
0.0
  0
LINE
  8
DETAIL
  6
CONTINUOUS
 62
     5
 10
-275.97685555974329
 20
-76.542868512114183
 30
0.0
 11
-275.97685555974329
 21
-76.542868512114183
 31
0.0
  0
LINE
  8
DETAIL
  6
CONTINUOUS
 62
     5
 10
-275.97685555974329
 20
-76.542868512114183
 30
0.0
 11
-275.94913152086252
 21
-76.521868807942838
 31
0.0
  0
LINE
  8
DETAIL
  6
CONTINUOUS
 62
     5
 10
-275.94913152086252
 20
-76.521868807942838
 30
0.0
 11
-275.92103726262502
 21
-76.501341691543985
 31
0.0
  0
LINE
  8
DETAIL
  6
CONTINUOUS
 62
     5
 10
-275.92103726262502
 20
-76.501341691543985
 30
0.0
 11
-275.92103726262502
 21
-76.501341691543985
 31
0.0
  0
LINE
  8
DETAIL
  6
CONTINUOUS
 62
     5
 10
-275.92103726262502
 20
-76.501341691543985
 30
0.0
 11
-275.89259731663458
 21
-76.481306521218585
 31
0.0
  0
LINE
  8
DETAIL
  6
CONTINUOUS
 62
     5
 10
-275.89259731663458
 20
-76.481306521218585
 30
0.0
 11
-275.86381804646868
 21
-76.461767358234056
 31
0.0
  0
LINE
  8
DETAIL
  6
CONTINUOUS
 62
     5
 10
-275.86381804646868
 20
-76.461767358234056
 30
0.0
 11
-275.86381804646868
 21
-76.461767358234056
 31
0.0
  0
LINE
  8
DETAIL
  6
CONTINUOUS
 62
     5
 10
-275.86381804646868
 20
-76.461767358234056
 30
0.0
 11
-275.8347035637255
 21
-76.442726051136106
 31
0.0
  0
LINE
  8
DETAIL
  6
CONTINUOUS
 62
     5
 10
-275.8347035637255
 20
-76.442726051136106
 30
0.0
 11
-275.80526714011461
 21
-76.424190894619869
 31
0.0
  0
LINE
  8
DETAIL
  6
CONTINUOUS
 62
     5
 10
-275.80526714011461
 20
-76.424190894619869
 30
0.0
 11
-275.80526714011461
 21
-76.424190894619869
 31
0.0
  0
LINE
  8
DETAIL
  6
CONTINUOUS
 62
     5
 10
-275.80526714011461
 20
-76.424190894619869
 30
0.0
 11
-275.77551971926812
 21
-76.406169173026456
 31
0.0
  0
LINE
  8
DETAIL
  6
CONTINUOUS
 62
     5
 10
-275.77551971926812
 20
-76.406169173026456
 30
0.0
 11
-275.74545377240338
 21
-76.388657683136444
 31
0.0
  0
LINE
  8
DETAIL
  6
CONTINUOUS
 62
     5
 10
-275.74545377240338
 20
-76.388657683136444
 30
0.0
 11
-275.74545377240338
 21
-76.388657683136444
 31
0.0
  0
LINE
  8
DETAIL
  6
CONTINUOUS
 62
     5
 10
-275.74545377240338
 20
-76.388657683136444
 30
0.0
 11
-275.71506401862621
 21
-76.371654256414786
 31
0.0
  0
LINE
  8
DETAIL
  6
CONTINUOUS
 62
     5
 10
-275.71506401862621
 20
-76.371654256414786
 30
0.0
 11
-275.68437264101391
 21
-76.355171350624914
 31
0.0
  0
LINE
  8
DETAIL
  6
CONTINUOUS
 62
     5
 10
-275.68437264101391
 20
-76.355171350624914
 30
0.0
 11
-275.68437264101391
 21
-76.355171350624914
 31
0.0
  0
LINE
  8
DETAIL
  6
CONTINUOUS
 62
     5
 10
-275.68437264101391
 20
-76.355171350624914
 30
0.0
 11
-275.65340503451199
 21
-76.339222727027618
 31
0.0
  0
LINE
  8
DETAIL
  6
CONTINUOUS
 62
     5
 10
-275.65340503451199
 20
-76.339222727027618
 30
0.0
 11
-275.62217197756962
 21
-76.323812734575995
 31
0.0
  0
LINE
  8
DETAIL
  6
CONTINUOUS
 62
     5
 10
-275.62217197756962
 20
-76.323812734575995
 30
0.0
 11
-275.62217197756962
 21
-76.323812734575995
 31
0.0
  0
LINE
  8
DETAIL
  6
CONTINUOUS
 62
     5
 10
-275.62217197756962
 20
-76.323812734575995
 30
0.0
 11
-275.59067939566108
 21
-76.308943262959701
 31
0.0
  0
LINE
  8
DETAIL
  6
CONTINUOUS
 62
     5
 10
-275.59067939566108
 20
-76.308943262959701
 30
0.0
 11
-275.55892841886663
 21
-76.294615777126637
 31
0.0
  0
LINE
  8
DETAIL
  6
CONTINUOUS
 62
     5
 10
-275.55892841886663
 20
-76.294615777126637
 30
0.0
 11
-275.55892841886663
 21
-76.294615777126637
 31
0.0
  0
LINE
  8
DETAIL
  6
CONTINUOUS
 62
     5
 10
-275.55892841886663
 20
-76.294615777126637
 30
0.0
 11
-275.52692742793607
 21
-76.28083441365834
 31
0.0
  0
LINE
  8
DETAIL
  6
CONTINUOUS
 62
     5
 10
-275.52692742793607
 20
-76.28083441365834
 30
0.0
 11
-275.49471860170172
 21
-76.26761442041402
 31
0.0
  0
LINE
  8
DETAIL
  6
CONTINUOUS
 62
     5
 10
-275.49471860170172
 20
-76.26761442041402
 30
0.0
 11
-275.49471860170172
 21
-76.26761442041402
 31
0.0
  0
LINE
  8
DETAIL
  6
CONTINUOUS
 62
     5
 10
-275.49471860170172
 20
-76.26761442041402
 30
0.0
 11
-275.4623199692827
 21
-76.254962817979504
 31
0.0
  0
LINE
  8
DETAIL
  6
CONTINUOUS
 62
     5
 10
-275.4623199692827
 20
-76.254962817979504
 30
0.0
 11
-275.42961916287038
 21
-76.242842606574868
 31
0.0
  0
LINE
  8
DETAIL
  6
CONTINUOUS
 62
     5
 10
-275.42961916287038
 20
-76.242842606574868
 30
0.0
 11
-275.42961916287038
 21
-76.242842606574868
 31
0.0
  0
LINE
  8
DETAIL
  6
CONTINUOUS
 62
     5
 10
-275.42961916287038
 20
-76.242842606574868
 30
0.0
 11
-275.39652248236592
 21
-76.23122398316923
 31
0.0
  0
LINE
  8
DETAIL
  6
CONTINUOUS
 62
     5
 10
-275.39652248236592
 20
-76.23122398316923
 30
0.0
 11
-275.36314129544172
 21
-76.220149952099973
 31
0.0
  0
LINE
  8
DETAIL
  6
CONTINUOUS
 62
     5
 10
-275.36314129544172
 20
-76.220149952099973
 30
0.0
 11
-275.36314129544172
 21
-76.220149952099973
 31
0.0
  0
LINE
  8
DETAIL
  6
CONTINUOUS
 62
     5
 10
-275.36314129544172
 20
-76.220149952099973
 30
0.0
 11
-275.32960558669788
 21
-76.209669300342284
 31
0.0
  0
LINE
  8
DETAIL
  6
CONTINUOUS
 62
     5
 10
-275.32960558669788
 20
-76.209669300342284
 30
0.0
 11
-275.29591474066808
 21
-76.199781138059734
 31
0.0
  0
LINE
  8
DETAIL
  6
CONTINUOUS
 62
     5
 10
-275.29591474066808
 20
-76.199781138059734
 30
0.0
 11
-275.29591474066808
 21
-76.199781138059734
 31
0.0
  0
LINE
  8
DETAIL
  6
CONTINUOUS
 62
     5
 10
-275.29591474066808
 20
-76.199781138059734
 30
0.0
 11
-275.26204588520642
 21
-76.190475744134119
 31
0.0
  0
LINE
  8
DETAIL
  6
CONTINUOUS
 62
     5
 10
-275.26204588520642
 20
-76.190475744134119
 30
0.0
 11
-275.22801772151468
 21
-76.181757749131975
 31
0.0
  0
LINE
  8
DETAIL
  6
CONTINUOUS
 62
     5
 10
-275.22801772151468
 20
-76.181757749131975
 30
0.0
 11
-275.22801772151468
 21
-76.181757749131975
 31
0.0
  0
LINE
  8
DETAIL
  6
CONTINUOUS
 62
     5
 10
-275.22801772151468
 20
-76.181757749131975
 30
0.0
 11
-275.19385042080017
 21
-76.173633439059813
 31
0.0
  0
LINE
  8
DETAIL
  6
CONTINUOUS
 62
     5
 10
-275.19385042080017
 20
-76.173633439059813
 30
0.0
 11
-275.15952846094962
 21
-76.166101369994976
 31
0.0
  0
LINE
  8
DETAIL
  6
CONTINUOUS
 62
     5
 10
-275.15952846094962
 20
-76.166101369994976
 30
0.0
 11
-275.15952846094962
 21
-76.166101369994976
 31
0.0
  0
LINE
  8
DETAIL
  6
CONTINUOUS
 62
     5
 10
-275.15952846094962
 20
-76.166101369994976
 30
0.0
 11
-275.12505269650302
 21
-76.159162307539873
 31
0.0
  0
LINE
  8
DETAIL
  6
CONTINUOUS
 62
     5
 10
-275.12505269650302
 20
-76.159162307539873
 30
0.0
 11
-275.0905251819388
 21
-76.152833585326562
 31
0.0
  0
LINE
  8
DETAIL
  6
CONTINUOUS
 62
     5
 10
-275.0905251819388
 20
-76.152833585326562
 30
0.0
 11
-275.0905251819388
 21
-76.152833585326562
 31
0.0
  0
LINE
  8
DETAIL
  6
CONTINUOUS
 62
     5
 10
-275.0905251819388
 20
-76.152833585326562
 30
0.0
 11
-275.05603472195088
 21
-76.147129136590593
 31
0.0
  0
LINE
  8
DETAIL
  6
CONTINUOUS
 62
     5
 10
-275.05603472195088
 20
-76.147129136590593
 30
0.0
 11
-275.02151592216347
 21
-76.142032724955698
 31
0.0
  0
LINE
  8
DETAIL
  6
CONTINUOUS
 62
     5
 10
-275.02151592216347
 20
-76.142032724955698
 30
0.0
 11
-275.02151592216347
 21
-76.142032724955698
 31
0.0
  0
LINE
  8
DETAIL
  6
CONTINUOUS
 62
     5
 10
-275.02151592216347
 20
-76.142032724955698
 30
0.0
 11
-274.98688942068998
 21
-76.137526923601399
 31
0.0
  0
LINE
  8
DETAIL
  6
CONTINUOUS
 62
     5
 10
-274.98688942068998
 20
-76.137526923601399
 30
0.0
 11
-274.95217418467581
 21
-76.133619713548796
 31
0.0
  0
LINE
  8
DETAIL
  6
CONTINUOUS
 62
     5
 10
-274.95217418467581
 20
-76.133619713548796
 30
0.0
 11
-274.95217418467581
 21
-76.133619713548796
 31
0.0
  0
LINE
  8
DETAIL
  6
CONTINUOUS
 62
     5
 10
-274.95217418467581
 20
-76.133619713548796
 30
0.0
 11
-274.91740704614477
 21
-76.130318333034893
 31
0.0
  0
LINE
  8
DETAIL
  6
CONTINUOUS
 62
     5
 10
-274.91740704614477
 20
-76.130318333034893
 30
0.0
 11
-274.88259796760548
 21
-76.127601641323281
 31
0.0
  0
LINE
  8
DETAIL
  6
CONTINUOUS
 62
     5
 10
-274.88259796760548
 20
-76.127601641323281
 30
0.0
 11
-274.88259796760548
 21
-76.127601641323281
 31
0.0
  0
LINE
  8
DETAIL
  6
CONTINUOUS
 62
     5
 10
-274.88259796760548
 20
-76.127601641323281
 30
0.0
 11
-274.8477524814453
 21
-76.125463429947331
 31
0.0
  0
LINE
  8
DETAIL
  6
CONTINUOUS
 62
     5
 10
-274.8477524814453
 20
-76.125463429947331
 30
0.0
 11
-274.8128852690827
 21
-76.123985598495437
 31
0.0
  0
LINE
  8
DETAIL
  6
CONTINUOUS
 62
     5
 10
-274.8128852690827
 20
-76.123985598495437
 30
0.0
 11
-274.8128852690827
 21
-76.123985598495437
 31
0.0
  0
LINE
  8
DETAIL
  6
CONTINUOUS
 62
     5
 10
-274.8128852690827
 20
-76.123985598495437
 30
0.0
 11
-274.77801086754158
 21
-76.123191060257795
 31
0.0
  0
LINE
  8
DETAIL
  6
CONTINUOUS
 62
     5
 10
-274.77801086754158
 20
-76.123191060257795
 30
0.0
 11
-274.74313408723748
 21
-76.122778675282689
 31
0.0
  0
LINE
  8
DETAIL
  6
CONTINUOUS
 62
     5
 10
-275.74474959612292
 20
-90.266614867014823
 30
0.0
 11
-275.76431595871509
 21
-90.266484905118887
 31
0.0
  0
LINE
  8
DETAIL
  6
CONTINUOUS
 62
     5
 10
-275.76431595871509
 20
-90.266484905118887
 30
0.0
 11
-275.78388069738241
 21
-90.266233876704973
 31
0.0
  0
LINE
  8
DETAIL
  6
CONTINUOUS
 62
     5
 10
-275.78388069738241
 20
-90.266233876704973
 30
0.0
 11
-275.78388069738241
 21
-90.266233876704973
 31
0.0
  0
LINE
  8
DETAIL
  6
CONTINUOUS
 62
     5
 10
-275.78388069738241
 20
-90.266233876704973
 30
0.0
 11
-275.80344295849551
 21
-90.265766043582744
 31
0.0
  0
LINE
  8
DETAIL
  6
CONTINUOUS
 62
     5
 10
-275.80344295849551
 20
-90.265766043582744
 30
0.0
 11
-275.82300496961551
 21
-90.265086980870819
 31
0.0
  0
LINE
  8
DETAIL
  6
CONTINUOUS
 62
     5
 10
-275.82300496961551
 20
-90.265086980870819
 30
0.0
 11
-275.82300496961551
 21
-90.265086980870819
 31
0.0
  0
LINE
  8
DETAIL
  6
CONTINUOUS
 62
     5
 10
-275.82300496961551
 20
-90.265086980870819
 30
0.0
 11
-275.84256522949568
 21
-90.264221280976926
 31
0.0
  0
LINE
  8
DETAIL
  6
CONTINUOUS
 62
     5
 10
-275.84256522949568
 20
-90.264221280976926
 30
0.0
 11
-275.8621042404767
 21
-90.263168292155115
 31
0.0
  0
LINE
  8
DETAIL
  6
CONTINUOUS
 62
     5
 10
-275.8621042404767
 20
-90.263168292155115
 30
0.0
 11
-275.8621042404767
 21
-90.263168292155115
 31
0.0
  0
LINE
  8
DETAIL
  6
CONTINUOUS
 62
     5
 10
-275.8621042404767
 20
-90.263168292155115
 30
0.0
 11
-275.8816152319115
 21
-90.261920967446258
 31
0.0
  0
LINE
  8
DETAIL
  6
CONTINUOUS
 62
     5
 10
-275.8816152319115
 20
-90.261920967446258
 30
0.0
 11
-275.90116033761967
 21
-90.260471923199702
 31
0.0
  0
LINE
  8
DETAIL
  6
CONTINUOUS
 62
     5
 10
-275.90116033761967
 20
-90.260471923199702
 30
0.0
 11
-275.90116033761967
 21
-90.260471923199702
 31
0.0
  0
LINE
  8
DETAIL
  6
CONTINUOUS
 62
     5
 10
-275.90116033761967
 20
-90.260471923199702
 30
0.0
 11
-275.92075451217431
 21
-90.258820339322256
 31
0.0
  0
LINE
  8
DETAIL
  6
CONTINUOUS
 62
     5
 10
-275.92075451217431
 20
-90.258820339322256
 30
0.0
 11
-275.94015508869859
 21
-90.256991986648018
 31
0.0
  0
LINE
  8
DETAIL
  6
CONTINUOUS
 62
     5
 10
-275.94015508869859
 20
-90.256991986648018
 30
0.0
 11
-275.94015508869859
 21
-90.256991986648018
 31
0.0
  0
LINE
  8
DETAIL
  6
CONTINUOUS
 62
     5
 10
-275.94015508869859
 20
-90.256991986648018
 30
0.0
 11
-275.95915634658598
 21
-90.255009162377064
 31
0.0
  0
LINE
  8
DETAIL
  6
CONTINUOUS
 62
     5
 10
-275.95915634658598
 20
-90.255009162377064
 30
0.0
 11
-275.97795797176173
 21
-90.252853678249267
 31
0.0
  0
LINE
  8
DETAIL
  6
CONTINUOUS
 62
     5
 10
-275.97795797176173
 20
-90.252853678249267
 30
0.0
 11
-275.97795797176173
 21
-90.252853678249267
 31
0.0
  0
LINE
  8
DETAIL
  6
CONTINUOUS
 62
     5
 10
-275.97795797176173
 20
-90.252853678249267
 30
0.0
 11
-275.9967986207206
 21
-90.250502355652088
 31
0.0
  0
LINE
  8
DETAIL
  6
CONTINUOUS
 62
     5
 10
-275.9967986207206
 20
-90.250502355652088
 30
0.0
 11
-276.01566742569912
 21
-90.247952540021743
 31
0.0
  0
LINE
  8
DETAIL
  6
CONTINUOUS
 62
     5
 10
-276.01566742569912
 20
-90.247952540021743
 30
0.0
 11
-276.01566742569912
 21
-90.247952540021743
 31
0.0
  0
LINE
  8
DETAIL
  6
CONTINUOUS
 62
     5
 10
-276.01566742569912
 20
-90.247952540021743
 30
0.0
 11
-276.03449970619192
 21
-90.245207124877652
 31
0.0
  0
LINE
  8
DETAIL
  6
CONTINUOUS
 62
     5
 10
-276.03449970619192
 20
-90.245207124877652
 30
0.0
 11
-276.05326505497499
 21
-90.242270672016502
 31
0.0
  0
LINE
  8
DETAIL
  6
CONTINUOUS
 62
     5
 10
-276.05326505497499
 20
-90.242270672016502
 30
0.0
 11
-276.05326505497499
 21
-90.242270672016502
 31
0.0
  0
LINE
  8
DETAIL
  6
CONTINUOUS
 62
     5
 10
-276.05326505497499
 20
-90.242270672016502
 30
0.0
 11
-276.07196974092739
 21
-90.239141361014163
 31
0.0
  0
LINE
  8
DETAIL
  6
CONTINUOUS
 62
     5
 10
-276.07196974092739
 20
-90.239141361014163
 30
0.0
 11
-276.09073246405421
 21
-90.235790174284375
 31
0.0
  0
LINE
  8
DETAIL
  6
CONTINUOUS
 62
     5
 10
-276.09073246405421
 20
-90.235790174284375
 30
0.0
 11
-276.09073246405421
 21
-90.235790174284375
 31
0.0
  0
LINE
  8
DETAIL
  6
CONTINUOUS
 62
     5
 10
-276.09073246405421
 20
-90.235790174284375
 30
0.0
 11
-276.10957903269542
 21
-90.232208075042536
 31
0.0
  0
LINE
  8
DETAIL
  6
CONTINUOUS
 62
     5
 10
-276.10957903269542
 20
-90.232208075042536
 30
0.0
 11
-276.12805125740169
 21
-90.228493146877099
 31
0.0
  0
LINE
  8
DETAIL
  6
CONTINUOUS
 62
     5
 10
-276.12805125740169
 20
-90.228493146877099
 30
0.0
 11
-276.12805125740169
 21
-90.228493146877099
 31
0.0
  0
LINE
  8
DETAIL
  6
CONTINUOUS
 62
     5
 10
-276.12805125740169
 20
-90.228493146877099
 30
0.0
 11
-276.14576222827708
 21
-90.224730213628163
 31
0.0
  0
LINE
  8
DETAIL
  6
CONTINUOUS
 62
     5
 10
-276.14576222827708
 20
-90.224730213628163
 30
0.0
 11
-276.16309415143093
 21
-90.220843939771385
 31
0.0
  0
LINE
  8
DETAIL
  6
CONTINUOUS
 62
     5
 10
-276.16309415143093
 20
-90.220843939771385
 30
0.0
 11
-276.16309415143093
 21
-90.220843939771385
 31
0.0
  0
LINE
  8
DETAIL
  6
CONTINUOUS
 62
     5
 10
-276.16309415143093
 20
-90.220843939771385
 30
0.0
 11
-276.1805017055824
 21
-90.216741706030007
 31
0.0
  0
LINE
  8
DETAIL
  6
CONTINUOUS
 62
     5
 10
-276.1805017055824
 20
-90.216741706030007
 30
0.0
 11
-276.19796034388872
 21
-90.212421917483198
 31
0.0
  0
LINE
  8
DETAIL
  6
CONTINUOUS
 62
     5
 10
-276.19796034388872
 20
-90.212421917483198
 30
0.0
 11
-276.19796034388872
 21
-90.212421917483198
 31
0.0
  0
LINE
  8
DETAIL
  6
CONTINUOUS
 62
     5
 10
-276.19796034388872
 20
-90.212421917483198
 30
0.0
 11
-276.21534674303717
 21
-90.207903512506618
 31
0.0
  0
LINE
  8
DETAIL
  6
CONTINUOUS
 62
     5
 10
-276.21534674303717
 20
-90.207903512506618
 30
0.0
 11
-276.23262169939841
 21
-90.203196538307111
 31
0.0
  0
LINE
  8
DETAIL
  6
CONTINUOUS
 62
     5
 10
-276.23262169939841
 20
-90.203196538307111
 30
0.0
 11
-276.23262169939841
 21
-90.203196538307111
 31
0.0
  0
LINE
  8
DETAIL
  6
CONTINUOUS
 62
     5
 10
-276.23262169939841
 20
-90.203196538307111
 30
0.0
 11
-276.24980272597088
 21
-90.198294954378753
 31
0.0
  0
LINE
  8
DETAIL
  6
CONTINUOUS
 62
     5
 10
-276.24980272597088
 20
-90.198294954378753
 30
0.0
 11
-276.26705008258352
 21
-90.193137260536787
 31
0.0
  0
LINE
  8
DETAIL
  6
CONTINUOUS
 62
     5
 10
-276.26705008258352
 20
-90.193137260536787
 30
0.0
 11
-276.26705008258352
 21
-90.193137260536787
 31
0.0
  0
LINE
  8
DETAIL
  6
CONTINUOUS
 62
     5
 10
-276.26705008258352
 20
-90.193137260536787
 30
0.0
 11
-276.28439593902112
 21
-90.187705774147844
 31
0.0
  0
LINE
  8
DETAIL
  6
CONTINUOUS
 62
     5
 10
-276.28439593902112
 20
-90.187705774147844
 30
0.0
 11
-276.30121735806711
 21
-90.182213542466798
 31
0.0
  0
LINE
  8
DETAIL
  6
CONTINUOUS
 62
     5
 10
-276.30121735806711
 20
-90.182213542466798
 30
0.0
 11
-276.30121735806711
 21
-90.182213542466798
 31
0.0
  0
LINE
  8
DETAIL
  6
CONTINUOUS
 62
     5
 10
-276.30121735806711
 20
-90.182213542466798
 30
0.0
 11
-276.31698940902572
 21
-90.176843578526359
 31
0.0
  0
LINE
  8
DETAIL
  6
CONTINUOUS
 62
     5
 10
-276.31698940902572
 20
-90.176843578526359
 30
0.0
 11
-276.33223429428932
 21
-90.171428028585751
 31
0.0
  0
LINE
  8
DETAIL
  6
CONTINUOUS
 62
     5
 10
-276.33223429428932
 20
-90.171428028585751
 30
0.0
 11
-276.33223429428932
 21
-90.171428028585751
 31
0.0
  0
LINE
  8
DETAIL
  6
CONTINUOUS
 62
     5
 10
-276.33223429428932
 20
-90.171428028585751
 30
0.0
 11
-276.34757179853892
 21
-90.165762823384284
 31
0.0
  0
LINE
  8
DETAIL
  6
CONTINUOUS
 62
     5
 10
-276.34757179853892
 20
-90.165762823384284
 30
0.0
 11
-276.362964902523
 21
-90.159849898358743
 31
0.0
  0
LINE
  8
DETAIL
  6
CONTINUOUS
 62
     5
 10
-276.362964902523
 20
-90.159849898358743
 30
0.0
 11
-276.362964902523
 21
-90.159849898358743
 31
0.0
  0
LINE
  8
DETAIL
  6
CONTINUOUS
 62
     5
 10
-276.362964902523
 20
-90.159849898358743
 30
0.0
 11
-276.37824390470291
 21
-90.15373540296514
 31
0.0
  0
LINE
  8
DETAIL
  6
CONTINUOUS
 62
     5
 10
-276.37824390470291
 20
-90.15373540296514
 30
0.0
 11
-276.39336517832368
 21
-90.14743633803846
 31
0.0
  0
LINE
  8
DETAIL
  6
CONTINUOUS
 62
     5
 10
-276.39336517832368
 20
-90.14743633803846
 30
0.0
 11
-276.39336517832368
 21
-90.14743633803846
 31
0.0
  0
LINE
  8
DETAIL
  6
CONTINUOUS
 62
     5
 10
-276.39336517832368
 20
-90.14743633803846
 30
0.0
 11
-276.40835474152641
 21
-90.140940064704637
 31
0.0
  0
LINE
  8
DETAIL
  6
CONTINUOUS
 62
     5
 10
-276.40835474152641
 20
-90.140940064704637
 30
0.0
 11
-276.42339111724863
 21
-90.134144533877361
 31
0.0
  0
LINE
  8
DETAIL
  6
CONTINUOUS
 62
     5
 10
-276.42339111724863
 20
-90.134144533877361
 30
0.0
 11
-276.42339111724863
 21
-90.134144533877361
 31
0.0
  0
LINE
  8
DETAIL
  6
CONTINUOUS
 62
     5
 10
-276.42339111724863
 20
-90.134144533877361
 30
0.0
 11
-276.43850693113382
 21
-90.127022041284818
 31
0.0
  0
LINE
  8
DETAIL
  6
CONTINUOUS
 62
     5
 10
-276.43850693113382
 20
-90.127022041284818
 30
0.0
 11
-276.45299871485258
 21
-90.119931672129042
 31
0.0
  0
LINE
  8
DETAIL
  6
CONTINUOUS
 62
     5
 10
-276.45299871485258
 20
-90.119931672129042
 30
0.0
 11
-276.45299871485258
 21
-90.119931672129042
 31
0.0
  0
LINE
  8
DETAIL
  6
CONTINUOUS
 62
     5
 10
-276.45299871485258
 20
-90.119931672129042
 30
0.0
 11
-276.46627494168848
 21
-90.113180898396877
 31
0.0
  0
LINE
  8
DETAIL
  6
CONTINUOUS
 62
     5
 10
-276.46627494168848
 20
-90.113180898396877
 30
0.0
 11
-276.47892794535443
 21
-90.106483949738049
 31
0.0
  0
LINE
  8
DETAIL
  6
CONTINUOUS
 62
     5
 10
-276.47892794535443
 20
-90.106483949738049
 30
0.0
 11
-276.47892794535443
 21
-90.106483949738049
 31
0.0
  0
LINE
  8
DETAIL
  6
CONTINUOUS
 62
     5
 10
-276.47892794535443
 20
-90.106483949738049
 30
0.0
 11
-276.49165888121053
 21
-90.0994951810776
 31
0.0
  0
LINE
  8
DETAIL
  6
CONTINUOUS
 62
     5
 10
-276.49165888121053
 20
-90.0994951810776
 30
0.0
 11
-276.50442033078309
 21
-90.092222690773269
 31
0.0
  0
LINE
  8
DETAIL
  6
CONTINUOUS
 62
     5
 10
-276.50442033078309
 20
-90.092222690773269
 30
0.0
 11
-276.50442033078309
 21
-90.092222690773269
 31
0.0
  0
LINE
  8
DETAIL
  6
CONTINUOUS
 62
     5
 10
-276.50442033078309
 20
-90.092222690773269
 30
0.0
 11
-276.51701622609482
 21
-90.084748455923091
 31
0.0
  0
LINE
  8
DETAIL
  6
CONTINUOUS
 62
     5
 10
-276.51701622609482
 20
-90.084748455923091
 30
0.0
 11
-276.52940447499162
 21
-90.077096225147898
 31
0.0
  0
LINE
  8
DETAIL
  6
CONTINUOUS
 62
     5
 10
-276.52940447499162
 20
-90.077096225147898
 30
0.0
 11
-276.52940447499162
 21
-90.077096225147898
 31
0.0
  0
LINE
  8
DETAIL
  6
CONTINUOUS
 62
     5
 10
-276.52940447499162
 20
-90.077096225147898
 30
0.0
 11
-276.54161464691038
 21
-90.06924498256808
 31
0.0
  0
LINE
  8
DETAIL
  6
CONTINUOUS
 62
     5
 10
-276.54161464691038
 20
-90.06924498256808
 30
0.0
 11
-276.55380898183228
 21
-90.06105288277513
 31
0.0
  0
LINE
  8
DETAIL
  6
CONTINUOUS
 62
     5
 10
-276.55380898183228
 20
-90.06105288277513
 30
0.0
 11
-276.55380898183228
 21
-90.06105288277513
 31
0.0
  0
LINE
  8
DETAIL
  6
CONTINUOUS
 62
     5
 10
-276.55380898183228
 20
-90.06105288277513
 30
0.0
 11
-276.56601172287469
 21
-90.052483259626342
 31
0.0
  0
LINE
  8
DETAIL
  6
CONTINUOUS
 62
     5
 10
-276.56601172287469
 20
-90.052483259626342
 30
0.0
 11
-276.57756245515787
 21
-90.044040993568842
 31
0.0
  0
LINE
  8
DETAIL
  6
CONTINUOUS
 62
     5
 10
-276.57756245515787
 20
-90.044040993568842
 30
0.0
 11
-276.57756245515787
 21
-90.044040993568842
 31
0.0
  0
LINE
  8
DETAIL
  6
CONTINUOUS
 62
     5
 10
-276.57756245515787
 20
-90.044040993568842
 30
0.0
 11
-276.58790788253282
 21
-90.036157780108624
 31
0.0
  0
LINE
  8
DETAIL
  6
CONTINUOUS
 62
     5
 10
-276.58790788253282
 20
-90.036157780108624
 30
0.0
 11
-276.59760784177632
 21
-90.028431028398245
 31
0.0
  0
LINE
  8
DETAIL
  6
CONTINUOUS
 62
     5
 10
-276.59760784177632
 20
-90.028431028398245
 30
0.0
 11
-276.59760784177632
 21
-90.028431028398245
 31
0.0
  0
LINE
  8
DETAIL
  6
CONTINUOUS
 62
     5
 10
-276.59760784177632
 20
-90.028431028398245
 30
0.0
 11
-276.60732211230783
 21
-90.020375449767471
 31
0.0
  0
LINE
  8
DETAIL
  6
CONTINUOUS
 62
     5
 10
-276.60732211230783
 20
-90.020375449767471
 30
0.0
 11
-276.61699711119718
 21
-90.012009250613801
 31
0.0
  0
LINE
  8
DETAIL
  6
CONTINUOUS
 62
     5
 10
-276.61699711119718
 20
-90.012009250613801
 30
0.0
 11
-276.61699711119718
 21
-90.012009250613801
 31
0.0
  0
LINE
  8
DETAIL
  6
CONTINUOUS
 62
     5
 10
-276.61699711119718
 20
-90.012009250613801
 30
0.0
 11
-276.62644066596079
 21
-90.003453115976754
 31
0.0
  0
LINE
  8
DETAIL
  6
CONTINUOUS
 62
     5
 10
-276.62644066596079
 20
-90.003453115976754
 30
0.0
 11
-276.63561960825263
 21
-89.994734150400973
 31
0.0
  0
LINE
  8
DETAIL
  6
CONTINUOUS
 62
     5
 10
-276.63561960825263
 20
-89.994734150400973
 30
0.0
 11
-276.63561960825263
 21
-89.994734150400973
 31
0.0
  0
LINE
  8
DETAIL
  6
CONTINUOUS
 62
     5
 10
-276.63561960825263
 20
-89.994734150400973
 30
0.0
 11
-276.64455985721008
 21
-89.985823770036177
 31
0.0
  0
LINE
  8
DETAIL
  6
CONTINUOUS
 62
     5
 10
-276.64455985721008
 20
-89.985823770036177
 30
0.0
 11
-276.65336467777422
 21
-89.976564217945906
 31
0.0
  0
LINE
  8
DETAIL
  6
CONTINUOUS
 62
     5
 10
-276.65336467777422
 20
-89.976564217945906
 30
0.0
 11
-276.65336467777422
 21
-89.976564217945906
 31
0.0
  0
LINE
  8
DETAIL
  6
CONTINUOUS
 62
     5
 10
-276.65336467777422
 20
-89.976564217945906
 30
0.0
 11
-276.6620395744992
 21
-89.966918012132055
 31
0.0
  0
LINE
  8
DETAIL
  6
CONTINUOUS
 62
     5
 10
-276.6620395744992
 20
-89.966918012132055
 30
0.0
 11
-276.67012166459432
 21
-89.957457943434292
 31
0.0
  0
LINE
  8
DETAIL
  6
CONTINUOUS
 62
     5
 10
-276.67012166459432
 20
-89.957457943434292
 30
0.0
 11
-276.67012166459432
 21
-89.957457943434292
 31
0.0
  0
LINE
  8
DETAIL
  6
CONTINUOUS
 62
     5
 10
-276.67012166459432
 20
-89.957457943434292
 30
0.0
 11
-276.67722659791798
 21
-89.948673244565271
 31
0.0
  0
LINE
  8
DETAIL
  6
CONTINUOUS
 62
     5
 10
-276.67722659791798
 20
-89.948673244565271
 30
0.0
 11
-276.68375254227198
 21
-89.94010864288839
 31
0.0
  0
LINE
  8
DETAIL
  6
CONTINUOUS
 62
     5
 10
-276.68375254227198
 20
-89.94010864288839
 30
0.0
 11
-276.68375254227198
 21
-89.94010864288839
 31
0.0
  0
LINE
  8
DETAIL
  6
CONTINUOUS
 62
     5
 10
-276.68375254227198
 20
-89.94010864288839
 30
0.0
 11
-276.69016454214898
 21
-89.93121744050859
 31
0.0
  0
LINE
  8
DETAIL
  6
CONTINUOUS
 62
     5
 10
-276.69016454214898
 20
-89.93121744050859
 30
0.0
 11
-276.69641263086498
 21
-89.922031743845537
 31
0.0
  0
LINE
  8
DETAIL
  6
CONTINUOUS
 62
     5
 10
-276.69641263086498
 20
-89.922031743845537
 30
0.0
 11
-276.69641263086498
 21
-89.922031743845537
 31
0.0
  0
LINE
  8
DETAIL
  6
CONTINUOUS
 62
     5
 10
-276.69641263086498
 20
-89.922031743845537
 30
0.0
 11
-276.7023499454001
 21
-89.912697184017588
 31
0.0
  0
LINE
  8
DETAIL
  6
CONTINUOUS
 62
     5
 10
-276.7023499454001
 20
-89.912697184017588
 30
0.0
 11
-276.70795704857028
 21
-89.903234686622682
 31
0.0
  0
LINE
  8
DETAIL
  6
CONTINUOUS
 62
     5
 10
-276.70795704857028
 20
-89.903234686622682
 30
0.0
 11
-276.70795704857028
 21
-89.903234686622682
 31
0.0
  0
LINE
  8
DETAIL
  6
CONTINUOUS
 62
     5
 10
-276.70795704857028
 20
-89.903234686622682
 30
0.0
 11
-276.71324768660861
 21
-89.893614005319932
 31
0.0
  0
LINE
  8
DETAIL
  6
CONTINUOUS
 62
     5
 10
-276.71324768660861
 20
-89.893614005319932
 30
0.0
 11
-276.71824091358388
 21
-89.883724911535637
 31
0.0
  0
LINE
  8
DETAIL
  6
CONTINUOUS
 62
     5
 10
-276.71824091358388
 20
-89.883724911535637
 30
0.0
 11
-276.71824091358388
 21
-89.883724911535637
 31
0.0
  0
LINE
  8
DETAIL
  6
CONTINUOUS
 62
     5
 10
-276.71824091358388
 20
-89.883724911535637
 30
0.0
 11
-276.72291994622941
 21
-89.873548339750641
 31
0.0
  0
LINE
  8
DETAIL
  6
CONTINUOUS
 62
     5
 10
-276.72291994622941
 20
-89.873548339750641
 30
0.0
 11
-276.7271193441029
 21
-89.863509858900898
 31
0.0
  0
LINE
  8
DETAIL
  6
CONTINUOUS
 62
     5
 10
-276.7271193441029
 20
-89.863509858900898
 30
0.0
 11
-276.7271193441029
 21
-89.863509858900898
 31
0.0
  0
LINE
  8
DETAIL
  6
CONTINUOUS
 62
     5
 10
-276.7271193441029
 20
-89.863509858900898
 30
0.0
 11
-276.73070722679518
 21
-89.853972938097741
 31
0.0
  0
LINE
  8
DETAIL
  6
CONTINUOUS
 62
     5
 10
-276.73070722679518
 20
-89.853972938097741
 30
0.0
 11
-276.73383461120937
 21
-89.844608012701883
 31
0.0
  0
LINE
  8
DETAIL
  6
CONTINUOUS
 62
     5
 10
-276.73383461120937
 20
-89.844608012701883
 30
0.0
 11
-276.73383461120937
 21
-89.844608012701883
 31
0.0
  0
LINE
  8
DETAIL
  6
CONTINUOUS
 62
     5
 10
-276.73383461120937
 20
-89.844608012701883
 30
0.0
 11
-276.73667347898669
 21
-89.83502189658725
 31
0.0
  0
LINE
  8
DETAIL
  6
CONTINUOUS
 62
     5
 10
-276.73667347898669
 20
-89.83502189658725
 30
0.0
 11
-276.73919677341058
 21
-89.825259951431008
 31
0.0
  0
LINE
  8
DETAIL
  6
CONTINUOUS
 62
     5
 10
-276.73919677341058
 20
-89.825259951431008
 30
0.0
 11
-276.73919677341058
 21
-89.825259951431008
 31
0.0
  0
LINE
  8
DETAIL
  6
CONTINUOUS
 62
     5
 10
-276.73919677341058
 20
-89.825259951431008
 30
0.0
 11
-276.74134474082138
 21
-89.815447672125856
 31
0.0
  0
LINE
  8
DETAIL
  6
CONTINUOUS
 62
     5
 10
-276.74134474082138
 20
-89.815447672125856
 30
0.0
 11
-276.74312587814882
 21
-89.80559253862657
 31
0.0
  0
LINE
  8
DETAIL
  6
CONTINUOUS
 62
     5
 10
-276.74312587814882
 20
-89.80559253862657
 30
0.0
 11
-276.74312587814882
 21
-89.80559253862657
 31
0.0
  0
LINE
  8
DETAIL
  6
CONTINUOUS
 62
     5
 10
-276.74312587814882
 20
-89.80559253862657
 30
0.0
 11
-276.7445472539697
 21
-89.795680905139989
 31
0.0
  0
LINE
  8
DETAIL
  6
CONTINUOUS
 62
     5
 10
-276.7445472539697
 20
-89.795680905139989
 30
0.0
 11
-276.74554197286722
 21
-89.78573263782755
 31
0.0
  0
LINE
  8
DETAIL
  6
CONTINUOUS
 62
     5
 10
-276.74554197286722
 20
-89.78573263782755
 30
0.0
 11
-276.74554197286722
 21
-89.78573263782755
 31
0.0
  0
LINE
  8
DETAIL
  6
CONTINUOUS
 62
     5
 10
-276.74554197286722
 20
-89.78573263782755
 30
0.0
 11
-276.7460815497725
 21
-89.775771972619168
 31
0.0
  0
LINE
  8
DETAIL
  6
CONTINUOUS
 62
     5
 10
-276.7460815497725
 20
-89.775771972619168
 30
0.0
 11
-276.74636510500818
 21
-89.76580711257202
 31
0.0
  0
LINE
  8
DETAIL
  6
CONTINUOUS
 62
     5
 10
-274.44247771574572
 20
-90.33375456693102
 30
0.0
 11
-274.45413625466648
 21
-90.330456638694614
 31
0.0
  0
LINE
  8
DETAIL
  6
CONTINUOUS
 62
     5
 10
-274.45413625466648
 20
-90.330456638694614
 30
0.0
 11
-274.46582536334807
 21
-90.327216017326009
 31
0.0
  0
LINE
  8
DETAIL
  6
CONTINUOUS
 62
     5
 10
-274.46582536334807
 20
-90.327216017326009
 30
0.0
 11
-274.46582536334807
 21
-90.327216017326009
 31
0.0
  0
LINE
  8
DETAIL
  6
CONTINUOUS
 62
     5
 10
-274.46582536334807
 20
-90.327216017326009
 30
0.0
 11
-274.47755787278737
 21
-90.324079816652102
 31
0.0
  0
LINE
  8
DETAIL
  6
CONTINUOUS
 62
     5
 10
-274.47755787278737
 20
-90.324079816652102
 30
0.0
 11
-274.48927565892689
 21
-90.321054378344115
 31
0.0
  0
LINE
  8
DETAIL
  6
CONTINUOUS
 62
     5
 10
-274.48927565892689
 20
-90.321054378344115
 30
0.0
 11
-274.48927565892689
 21
-90.321054378344115
 31
0.0
  0
LINE
  8
DETAIL
  6
CONTINUOUS
 62
     5
 10
-274.48927565892689
 20
-90.321054378344115
 30
0.0
 11
-274.50095989669279
 21
-90.318128330143736
 31
0.0
  0
LINE
  8
DETAIL
  6
CONTINUOUS
 62
     5
 10
-274.50095989669279
 20
-90.318128330143736
 30
0.0
 11
-274.51281991200119
 21
-90.315260216239722
 31
0.0
  0
LINE
  8
DETAIL
  6
CONTINUOUS
 62
     5
 10
-274.51281991200119
 20
-90.315260216239722
 30
0.0
 11
-274.51281991200119
 21
-90.315260216239722
 31
0.0
  0
LINE
  8
DETAIL
  6
CONTINUOUS
 62
     5
 10
-274.51281991200119
 20
-90.315260216239722
 30
0.0
 11
-274.52491165628908
 21
-90.312441336525126
 31
0.0
  0
LINE
  8
DETAIL
  6
CONTINUOUS
 62
     5
 10
-274.52491165628908
 20
-90.312441336525126
 30
0.0
 11
-274.53644943209031
 21
-90.309824097266528
 31
0.0
  0
LINE
  8
DETAIL
  6
CONTINUOUS
 62
     5
 10
-274.53644943209031
 20
-90.309824097266528
 30
0.0
 11
-274.53644943209031
 21
-90.309824097266528
 31
0.0
  0
LINE
  8
DETAIL
  6
CONTINUOUS
 62
     5
 10
-274.53644943209031
 20
-90.309824097266528
 30
0.0
 11
-274.54722174086851
 21
-90.307447595839221
 31
0.0
  0
LINE
  8
DETAIL
  6
CONTINUOUS
 62
     5
 10
-274.54722174086851
 20
-90.307447595839221
 30
0.0
 11
-274.56015552871372
 21
-90.30473658767869
 31
0.0
  0
LINE
  8
DETAIL
  6
CONTINUOUS
 62
     5
 10
-274.56015552871372
 20
-90.30473658767869
 30
0.0
 11
-274.56015552871372
 21
-90.30473658767869
 31
0.0
  0
LINE
  8
DETAIL
  6
CONTINUOUS
 62
     5
 10
-274.56015552871372
 20
-90.30473658767869
 30
0.0
 11
-274.57772742180799
 21
-90.301217721402281
 31
0.0
  0
LINE
  8
DETAIL
  6
CONTINUOUS
 62
     5
 10
-274.57772742180799
 20
-90.301217721402281
 30
0.0
 11
-274.59747432207803
 21
-90.297439560294379
 31
0.0
  0
LINE
  8
DETAIL
  6
CONTINUOUS
 62
     5
 10
-274.59747432207803
 20
-90.297439560294379
 30
0.0
 11
-274.59747432207803
 21
-90.297439560294379
 31
0.0
  0
LINE
  8
DETAIL
  6
CONTINUOUS
 62
     5
 10
-274.59747432207803
 20
-90.297439560294379
 30
0.0
 11
-274.61647828832741
 21
-90.294035838956916
 31
0.0
  0
LINE
  8
DETAIL
  6
CONTINUOUS
 62
     5
 10
-274.61647828832741
 20
-90.294035838956916
 30
0.0
 11
-274.63494173112588
 21
-90.290959062590673
 31
0.0
  0
LINE
  8
DETAIL
  6
CONTINUOUS
 62
     5
 10
-274.63494173112588
 20
-90.290959062590673
 30
0.0
 11
-274.63494173112588
 21
-90.290959062590673
 31
0.0
  0
LINE
  8
DETAIL
  6
CONTINUOUS
 62
     5
 10
-274.63494173112588
 20
-90.290959062590673
 30
0.0
 11
-274.6536424389742
 21
-90.288036686350097
 31
0.0
  0
LINE
  8
DETAIL
  6
CONTINUOUS
 62
     5
 10
-274.6536424389742
 20
-90.288036686350097
 30
0.0
 11
-274.67253936032739
 21
-90.285277194602486
 31
0.0
  0
LINE
  8
DETAIL
  6
CONTINUOUS
 62
     5
 10
-274.67253936032739
 20
-90.285277194602486
 30
0.0
 11
-274.67253936032739
 21
-90.285277194602486
 31
0.0
  0
LINE
  8
DETAIL
  6
CONTINUOUS
 62
     5
 10
-274.67253936032739
 20
-90.285277194602486
 30
0.0
 11
-274.69142548573228
 21
-90.282723607155503
 31
0.0
  0
LINE
  8
DETAIL
  6
CONTINUOUS
 62
     5
 10
-274.69142548573228
 20
-90.282723607155503
 30
0.0
 11
-274.71024881415133
 21
-90.280376056365185
 31
0.0
  0
LINE
  8
DETAIL
  6
CONTINUOUS
 62
     5
 10
-274.71024881415133
 20
-90.280376056365185
 30
0.0
 11
-274.71024881415133
 21
-90.280376056365185
 31
0.0
  0
LINE
  8
DETAIL
  6
CONTINUOUS
 62
     5
 10
-274.71024881415133
 20
-90.280376056365185
 30
0.0
 11
-274.72904579824609
 21
-90.278221582873812
 31
0.0
  0
LINE
  8
DETAIL
  6
CONTINUOUS
 62
     5
 10
-274.72904579824609
 20
-90.278221582873812
 30
0.0
 11
-274.74805169706741
 21
-90.276237747914593
 31
0.0
  0
LINE
  8
DETAIL
  6
CONTINUOUS
 62
     5
 10
-274.74805169706741
 20
-90.276237747914593
 30
0.0
 11
-274.74805169706741
 21
-90.276237747914593
 31
0.0
  0
LINE
  8
DETAIL
  6
CONTINUOUS
 62
     5
 10
-274.74805169706741
 20
-90.276237747914593
 30
0.0
 11
-274.76745351707558
 21
-90.274409124385784
 31
0.0
  0
LINE
  8
DETAIL
  6
CONTINUOUS
 62
     5
 10
-274.76745351707558
 20
-90.274409124385784
 30
0.0
 11
-274.78704644798512
 21
-90.272757811254223
 31
0.0
  0
LINE
  8
DETAIL
  6
CONTINUOUS
 62
     5
 10
-274.78704644798512
 20
-90.272757811254223
 30
0.0
 11
-274.78704644798512
 21
-90.272757811254223
 31
0.0
  0
LINE
  8
DETAIL
  6
CONTINUOUS
 62
     5
 10
-274.78704644798512
 20
-90.272757811254223
 30
0.0
 11
-274.80659122036639
 21
-90.271308839508947
 31
0.0
  0
LINE
  8
DETAIL
  6
CONTINUOUS
 62
     5
 10
-274.80659122036639
 20
-90.271308839508947
 30
0.0
 11
-274.82610254496029
 21
-90.270061442160113
 31
0.0
  0
LINE
  8
DETAIL
  6
CONTINUOUS
 62
     5
 10
-274.82610254496029
 20
-90.270061442160113
 30
0.0
 11
-274.82610254496029
 21
-90.270061442160113
 31
0.0
  0
LINE
  8
DETAIL
  6
CONTINUOUS
 62
     5
 10
-274.82610254496029
 20
-90.270061442160113
 30
0.0
 11
-274.8456416452691
 21
-90.26900843379758
 31
0.0
  0
LINE
  8
DETAIL
  6
CONTINUOUS
 62
     5
 10
-274.8456416452691
 20
-90.26900843379758
 30
0.0
 11
-274.86520181567118
 21
-90.268142753306165
 31
0.0
  0
LINE
  8
DETAIL
  6
CONTINUOUS
 62
     5
 10
-274.86520181567118
 20
-90.268142753306165
 30
0.0
 11
-274.86520181567118
 21
-90.268142753306165
 31
0.0
  0
LINE
  8
DETAIL
  6
CONTINUOUS
 62
     5
 10
-274.86520181567118
 20
-90.268142753306165
 30
0.0
 11
-274.88476380234567
 21
-90.267463695844299
 31
0.0
  0
LINE
  8
DETAIL
  6
CONTINUOUS
 62
     5
 10
-274.88476380234567
 20
-90.267463695844299
 30
0.0
 11
-274.90432608779668
 21
-90.26699585736651
 31
0.0
  0
LINE
  8
DETAIL
  6
CONTINUOUS
 62
     5
 10
-274.90432608779668
 20
-90.26699585736651
 30
0.0
 11
-274.90432608779668
 21
-90.26699585736651
 31
0.0
  0
LINE
  8
DETAIL
  6
CONTINUOUS
 62
     5
 10
-274.90432608779668
 20
-90.26699585736651
 30
0.0
 11
-274.9238908345651
 21
-90.266744827156344
 31
0.0
  0
LINE
  8
DETAIL
  6
CONTINUOUS
 62
     5
 10
-274.9238908345651
 20
-90.266744827156344
 30
0.0
 11
-274.94345718901468
 21
-90.266614867014823
 31
0.0
  0
LINE
  8
DETAIL
  6
CONTINUOUS
 62
     5
 10
-276.24034587674561
 20
83.797346480995884
 30
0.0
 11
-276.21043643823549
 21
83.809331641386734
 31
0.0
  0
LINE
  8
DETAIL
  6
CONTINUOUS
 62
     5
 10
-276.21043643823549
 20
83.809331641386734
 30
0.0
 11
-276.18042267977268
 21
83.821083941060124
 31
0.0
  0
LINE
  8
DETAIL
  6
CONTINUOUS
 62
     5
 10
-276.18042267977268
 20
83.821083941060124
 30
0.0
 11
-276.18042267977268
 21
83.821083941060124
 31
0.0
  0
LINE
  8
DETAIL
  6
CONTINUOUS
 62
     5
 10
-276.18042267977268
 20
83.821083941060124
 30
0.0
 11
-276.15023279326363
 21
83.832420470898796
 31
0.0
  0
LINE
  8
DETAIL
  6
CONTINUOUS
 62
     5
 10
-276.15023279326363
 20
83.832420470898796
 30
0.0
 11
-276.11992501805508
 21
83.843358128187674
 31
0.0
  0
LINE
  8
DETAIL
  6
CONTINUOUS
 62
     5
 10
-276.11992501805508
 20
83.843358128187674
 30
0.0
 11
-276.11992501805508
 21
83.843358128187674
 31
0.0
  0
LINE
  8
DETAIL
  6
CONTINUOUS
 62
     5
 10
-276.11992501805508
 20
83.843358128187674
 30
0.0
 11
-276.08954145369609
 21
83.853961612902367
 31
0.0
  0
LINE
  8
DETAIL
  6
CONTINUOUS
 62
     5
 10
-276.08954145369609
 20
83.853961612902367
 30
0.0
 11
-276.05892959310421
 21
83.864287029379739
 31
0.0
  0
LINE
  8
DETAIL
  6
CONTINUOUS
 62
     5
 10
-276.05892959310421
 20
83.864287029379739
 30
0.0
 11
-276.05892959310421
 21
83.864287029379739
 31
0.0
  0
LINE
  8
DETAIL
  6
CONTINUOUS
 62
     5
 10
-276.05892959310421
 20
83.864287029379739
 30
0.0
 11
-276.02805037231082
 21
83.874346977084542
 31
0.0
  0
LINE
  8
DETAIL
  6
CONTINUOUS
 62
     5
 10
-276.02805037231082
 20
83.874346977084542
 30
0.0
 11
-275.99751310643143
 21
83.883988631636385
 31
0.0
  0
LINE
  8
DETAIL
  6
CONTINUOUS
 62
     5
 10
-275.99751310643143
 20
83.883988631636385
 30
0.0
 11
-275.99751310643143
 21
83.883988631636385
 31
0.0
  0
LINE
  8
DETAIL
  6
CONTINUOUS
 62
     5
 10
-275.99751310643143
 20
83.883988631636385
 30
0.0
 11
-275.96748947792651
 21
83.893185385448987
 31
0.0
  0
LINE
  8
DETAIL
  6
CONTINUOUS
 62
     5
 10
-275.96748947792651
 20
83.893185385448987
 30
0.0
 11
-275.93575225954748
 21
83.902580921958588
 31
0.0
  0
LINE
  8
DETAIL
  6
CONTINUOUS
 62
     5
 10
-275.93575225954748
 20
83.902580921958588
 30
0.0
 11
-275.93575225954748
 21
83.902580921958588
 31
0.0
  0
LINE
  8
DETAIL
  6
CONTINUOUS
 62
     5
 10
-275.93575225954748
 20
83.902580921958588
 30
0.0
 11
-275.90041512431787
 21
83.912710936212534
 31
0.0
  0
LINE
  8
DETAIL
  6
CONTINUOUS
 62
     5
 10
-275.90041512431787
 20
83.912710936212534
 30
0.0
 11
-275.86335425605381
 21
83.923008878675546
 31
0.0
  0
LINE
  8
DETAIL
  6
CONTINUOUS
 62
     5
 10
-275.86335425605381
 20
83.923008878675546
 30
0.0
 11
-275.86335425605381
 21
83.923008878675546
 31
0.0
  0
LINE
  8
DETAIL
  6
CONTINUOUS
 62
     5
 10
-275.86335425605381
 20
83.923008878675546
 30
0.0
 11
-275.82679870664231
 21
83.932811466979047
 31
0.0
  0
LINE
  8
DETAIL
  6
CONTINUOUS
 62
     5
 10
-275.82679870664231
 20
83.932811466979047
 30
0.0
 11
-275.79062648945938
 21
83.942170732000704
 31
0.0
  0
LINE
  8
DETAIL
  6
CONTINUOUS
 62
     5
 10
-275.79062648945938
 20
83.942170732000704
 30
0.0
 11
-275.79062648945938
 21
83.942170732000704
 31
0.0
  0
LINE
  8
DETAIL
  6
CONTINUOUS
 62
     5
 10
-275.79062648945938
 20
83.942170732000704
 30
0.0
 11
-275.75425415891289
 21
83.951275884527604
 31
0.0
  0
LINE
  8
DETAIL
  6
CONTINUOUS
 62
     5
 10
-275.75425415891289
 20
83.951275884527604
 30
0.0
 11
-275.71760347204588
 21
83.960149541740293
 31
0.0
  0
LINE
  8
DETAIL
  6
CONTINUOUS
 62
     5
 10
-275.71760347204588
 20
83.960149541740293
 30
0.0
 11
-275.71760347204588
 21
83.960149541740293
 31
0.0
  0
LINE
  8
DETAIL
  6
CONTINUOUS
 62
     5
 10
-275.71760347204588
 20
83.960149541740293
 30
0.0
 11
-275.68080504355271
 21
83.96876043771249
 31
0.0
  0
LINE
  8
DETAIL
  6
CONTINUOUS
 62
     5
 10
-275.68080504355271
 20
83.96876043771249
 30
0.0
 11
-275.64431971609378
 21
83.977028367701678
 31
0.0
  0
LINE
  8
DETAIL
  6
CONTINUOUS
 62
     5
 10
-275.64431971609378
 20
83.977028367701678
 30
0.0
 11
-275.64431971609378
 21
83.977028367701678
 31
0.0
  0
LINE
  8
DETAIL
  6
CONTINUOUS
 62
     5
 10
-275.64431971609378
 20
83.977028367701678
 30
0.0
 11
-275.60823436069631
 21
83.984951479480515
 31
0.0
  0
LINE
  8
DETAIL
  6
CONTINUOUS
 62
     5
 10
-275.60823436069631
 20
83.984951479480515
 30
0.0
 11
-275.57080973388338
 21
83.99289026969268
 31
0.0
  0
LINE
  8
DETAIL
  6
CONTINUOUS
 62
     5
 10
-275.57080973388338
 20
83.99289026969268
 30
0.0
 11
-275.57080973388338
 21
83.99289026969268
 31
0.0
  0
LINE
  8
DETAIL
  6
CONTINUOUS
 62
     5
 10
-275.57080973388338
 20
83.99289026969268
 30
0.0
 11
-275.53058251565869
 21
84.001142271584285
 31
0.0
  0
LINE
  8
DETAIL
  6
CONTINUOUS
 62
     5
 10
-275.53058251565869
 20
84.001142271584285
 30
0.0
 11
-275.48901919445052
 21
84.00939081593242
 31
0.0
  0
LINE
  8
DETAIL
  6
CONTINUOUS
 62
     5
 10
-275.48901919445052
 20
84.00939081593242
 30
0.0
 11
-275.48901919445052
 21
84.00939081593242
 31
0.0
  0
LINE
  8
DETAIL
  6
CONTINUOUS
 62
     5
 10
-275.48901919445052
 20
84.00939081593242
 30
0.0
 11
-275.4478606204957
 21
84.017265670681809
 31
0.0
  0
LINE
  8
DETAIL
  6
CONTINUOUS
 62
     5
 10
-275.4478606204957
 20
84.017265670681809
 30
0.0
 11
-275.40701528283932
 21
84.024796554916747
 31
0.0
  0
LINE
  8
DETAIL
  6
CONTINUOUS
 62
     5
 10
-275.40701528283932
 20
84.024796554916747
 30
0.0
 11
-275.40701528283932
 21
84.024796554916747
 31
0.0
  0
LINE
  8
DETAIL
  6
CONTINUOUS
 62
     5
 10
-275.40701528283932
 20
84.024796554916747
 30
0.0
 11
-275.36602792248038
 21
84.032090317655047
 31
0.0
  0
LINE
  8
DETAIL
  6
CONTINUOUS
 62
     5
 10
-275.36602792248038
 20
84.032090317655047
 30
0.0
 11
-275.32482064942849
 21
84.039162376510376
 31
0.0
  0
LINE
  8
DETAIL
  6
CONTINUOUS
 62
     5
 10
-275.32482064942849
 20
84.039162376510376
 30
0.0
 11
-275.32482064942849
 21
84.039162376510376
 31
0.0
  0
LINE
  8
DETAIL
  6
CONTINUOUS
 62
     5
 10
-275.32482064942849
 20
84.039162376510376
 30
0.0
 11
-275.28349063723368
 21
84.04599673486473
 31
0.0
  0
LINE
  8
DETAIL
  6
CONTINUOUS
 62
     5
 10
-275.28349063723368
 20
84.04599673486473
 30
0.0
 11
-275.24245794459722
 21
84.052543170578247
 31
0.0
  0
LINE
  8
DETAIL
  6
CONTINUOUS
 62
     5
 10
-275.24245794459722
 20
84.052543170578247
 30
0.0
 11
-275.24245794459722
 21
84.052543170578247
 31
0.0
  0
LINE
  8
DETAIL
  6
CONTINUOUS
 62
     5
 10
-275.24245794459722
 20
84.052543170578247
 30
0.0
 11
-275.20180612410422
 21
84.058799988503779
 31
0.0
  0
LINE
  8
DETAIL
  6
CONTINUOUS
 62
     5
 10
-275.20180612410422
 20
84.058799988503779
 30
0.0
 11
-275.15994981872387
 21
84.064993826985074
 31
0.0
  0
LINE
  8
DETAIL
  6
CONTINUOUS
 62
     5
 10
-275.15994981872387
 20
84.064993826985074
 30
0.0
 11
-275.15994981872387
 21
84.064993826985074
 31
0.0
  0
LINE
  8
DETAIL
  6
CONTINUOUS
 62
     5
 10
-275.15994981872387
 20
84.064993826985074
 30
0.0
 11
-275.11556194292763
 21
84.071310601840651
 31
0.0
  0
LINE
  8
DETAIL
  6
CONTINUOUS
 62
     5
 10
-275.11556194292763
 20
84.071310601840651
 30
0.0
 11
-275.07001740681369
 21
84.077545005297452
 31
0.0
  0
LINE
  8
DETAIL
  6
CONTINUOUS
 62
     5
 10
-275.07001740681369
 20
84.077545005297452
 30
0.0
 11
-275.07001740681369
 21
84.077545005297452
 31
0.0
  0
LINE
  8
DETAIL
  6
CONTINUOUS
 62
     5
 10
-275.07001740681369
 20
84.077545005297452
 30
0.0
 11
-275.02490328332931
 21
84.083461599109569
 31
0.0
  0
LINE
  8
DETAIL
  6
CONTINUOUS
 62
     5
 10
-275.02490328332931
 20
84.083461599109569
 30
0.0
 11
-274.97995330118988
 21
84.089095646723081
 31
0.0
  0
LINE
  8
DETAIL
  6
CONTINUOUS
 62
     5
 10
-274.97995330118988
 20
84.089095646723081
 30
0.0
 11
-274.97995330118988
 21
84.089095646723081
 31
0.0
  0
LINE
  8
DETAIL
  6
CONTINUOUS
 62
     5
 10
-274.97995330118988
 20
84.089095646723081
 30
0.0
 11
-274.93470583775701
 21
84.094519329304148
 31
0.0
  0
LINE
  8
DETAIL
  6
CONTINUOUS
 62
     5
 10
-274.93470583775701
 20
84.094519329304148
 30
0.0
 11
-274.8897712092035
 21
84.099681797199082
 31
0.0
  0
LINE
  8
DETAIL
  6
CONTINUOUS
 62
     5
 10
-274.8897712092035
 20
84.099681797199082
 30
0.0
 11
-274.8897712092035
 21
84.099681797199082
 31
0.0
  0
LINE
  8
DETAIL
  6
CONTINUOUS
 62
     5
 10
-274.8897712092035
 20
84.099681797199082
 30
0.0
 11
-274.84541911365119
 21
84.104556798446083
 31
0.0
  0
LINE
  8
DETAIL
  6
CONTINUOUS
 62
     5
 10
-274.84541911365119
 20
84.104556798446083
 30
0.0
 11
-274.79948483820522
 21
84.109339502663488
 31
0.0
  0
LINE
  8
DETAIL
  6
CONTINUOUS
 62
     5
 10
-274.79948483820522
 20
84.109339502663488
 30
0.0
 11
-274.79948483820522
 21
84.109339502663488
 31
0.0
  0
LINE
  8
DETAIL
  6
CONTINUOUS
 62
     5
 10
-274.79948483820522
 20
84.109339502663488
 30
0.0
 11
-274.75136149353023
 21
84.114089770989267
 31
0.0
  0
LINE
  8
DETAIL
  6
CONTINUOUS
 62
     5
 10
-274.75136149353023
 20
84.114089770989267
 30
0.0
 11
-274.70910789554551
 21
84.118104809053648
 31
0.0
  0
LINE
  8
DETAIL
  6
CONTINUOUS
 62
     5
 10
-274.70910789554551
 20
84.118104809053648
 30
0.0
 11
-274.70910789554551
 21
84.118104809053648
 31
0.0
  0
LINE
  8
DETAIL
  6
CONTINUOUS
 62
     5
 10
-274.70910789554551
 20
84.118104809053648
 30
0.0
 11
-274.67954378486911
 21
84.120804420339937
 31
0.0
  0
LINE
  8
DETAIL
  6
CONTINUOUS
 62
     5
 10
-274.67954378486911
 20
84.120804420339937
 30
0.0
 11
-274.65586689565708
 21
84.122861455249677
 31
0.0
  0
LINE
  8
DETAIL
  6
CONTINUOUS
 62
     5
 10
-274.65586689565708
 20
84.122861455249677
 30
0.0
 11
-274.65586689565708
 21
84.122861455249677
 31
0.0
  0
LINE
  8
DETAIL
  6
CONTINUOUS
 62
     5
 10
-274.65586689565708
 20
84.122861455249677
 30
0.0
 11
-274.63002660803858
 21
84.125053601239642
 31
0.0
  0
LINE
  8
DETAIL
  6
CONTINUOUS
 62
     5
 10
-274.63002660803858
 20
84.125053601239642
 30
0.0
 11
-274.60260089249812
 21
84.127324847069985
 31
0.0
  0
LINE
  8
DETAIL
  6
CONTINUOUS
 62
     5
 10
-274.60260089249812
 20
84.127324847069985
 30
0.0
 11
-274.60260089249812
 21
84.127324847069985
 31
0.0
  0
LINE
  8
DETAIL
  6
CONTINUOUS
 62
     5
 10
-274.60260089249812
 20
84.127324847069985
 30
0.0
 11
-274.57574710093581
 21
84.129467208024835
 31
0.0
  0
LINE
  8
DETAIL
  6
CONTINUOUS
 62
     5
 10
-274.57574710093581
 20
84.129467208024835
 30
0.0
 11
-274.54931152056162
 21
84.13149850417858
 31
0.0
  0
LINE
  8
DETAIL
  6
CONTINUOUS
 62
     5
 10
-274.54931152056162
 20
84.13149850417858
 30
0.0
 11
-274.54931152056162
 21
84.13149850417858
 31
0.0
  0
LINE
  8
DETAIL
  6
CONTINUOUS
 62
     5
 10
-274.54931152056162
 20
84.13149850417858
 30
0.0
 11
-274.52271658951372
 21
84.133475626687641
 31
0.0
  0
LINE
  8
DETAIL
  6
CONTINUOUS
 62
     5
 10
-274.52271658951372
 20
84.133475626687641
 30
0.0
 11
-274.49600041433968
 21
84.135385946239239
 31
0.0
  0
LINE
  8
DETAIL
  6
CONTINUOUS
 62
     5
 10
-274.49600041433968
 20
84.135385946239239
 30
0.0
 11
-274.49600041433968
 21
84.135385946239239
 31
0.0
  0
LINE
  8
DETAIL
  6
CONTINUOUS
 62
     5
 10
-274.49600041433968
 20
84.135385946239239
 30
0.0
 11
-274.4693171164522
 21
84.13721252267419
 31
0.0
  0
LINE
  8
DETAIL
  6
CONTINUOUS
 62
     5
 10
-274.4693171164522
 20
84.13721252267419
 30
0.0
 11
-274.44266920832558
 21
84.138990692915741
 31
0.0
  0
LINE
  8
DETAIL
  6
CONTINUOUS
 62
     5
 10
-276.74636510500818
 20
83.253038523074338
 30
0.0
 11
-276.74591065059599
 21
83.269391187288647
 31
0.0
  0
LINE
  8
DETAIL
  6
CONTINUOUS
 62
     5
 10
-276.74591065059599
 20
83.269391187288647
 30
0.0
 11
-276.74503827312901
 21
83.285741018682074
 31
0.0
  0
LINE
  8
DETAIL
  6
CONTINUOUS
 62
     5
 10
-276.74503827312901
 20
83.285741018682074
 30
0.0
 11
-276.74503827312901
 21
83.285741018682074
 31
0.0
  0
LINE
  8
DETAIL
  6
CONTINUOUS
 62
     5
 10
-276.74503827312901
 20
83.285741018682074
 30
0.0
 11
-276.74342062775611
 21
83.302077156536598
 31
0.0
  0
LINE
  8
DETAIL
  6
CONTINUOUS
 62
     5
 10
-276.74342062775611
 20
83.302077156536598
 30
0.0
 11
-276.74109268244149
 21
83.318356628547917
 31
0.0
  0
LINE
  8
DETAIL
  6
CONTINUOUS
 62
     5
 10
-276.74109268244149
 20
83.318356628547917
 30
0.0
 11
-276.74109268244149
 21
83.318356628547917
 31
0.0
  0
LINE
  8
DETAIL
  6
CONTINUOUS
 62
     5
 10
-276.74109268244149
 20
83.318356628547917
 30
0.0
 11
-276.73815156006719
 21
83.334539309945285
 31
0.0
  0
LINE
  8
DETAIL
  6
CONTINUOUS
 62
     5
 10
-276.73815156006719
 20
83.334539309945285
 30
0.0
 11
-276.73458069036968
 21
83.35062857768412
 31
0.0
  0
LINE
  8
DETAIL
  6
CONTINUOUS
 62
     5
 10
-276.73458069036968
 20
83.35062857768412
 30
0.0
 11
-276.73458069036968
 21
83.35062857768412
 31
0.0
  0
LINE
  8
DETAIL
  6
CONTINUOUS
 62
     5
 10
-276.73458069036968
 20
83.35062857768412
 30
0.0
 11
-276.73035819474109
 21
83.366603210321955
 31
0.0
  0
LINE
  8
DETAIL
  6
CONTINUOUS
 62
     5
 10
-276.73035819474109
 20
83.366603210321955
 30
0.0
 11
-276.72555465433851
 21
83.382300091103161
 31
0.0
  0
LINE
  8
DETAIL
  6
CONTINUOUS
 62
     5
 10
-276.72555465433851
 20
83.382300091103161
 30
0.0
 11
-276.72555465433851
 21
83.382300091103161
 31
0.0
  0
LINE
  8
DETAIL
  6
CONTINUOUS
 62
     5
 10
-276.72555465433851
 20
83.382300091103161
 30
0.0
 11
-276.72019972878053
 21
83.39765164932669
 31
0.0
  0
LINE
  8
DETAIL
  6
CONTINUOUS
 62
     5
 10
-276.72019972878053
 20
83.39765164932669
 30
0.0
 11
-276.71406693177238
 21
83.413114393816841
 31
0.0
  0
LINE
  8
DETAIL
  6
CONTINUOUS
 62
     5
 10
-276.71406693177238
 20
83.413114393816841
 30
0.0
 11
-276.71406693177238
 21
83.413114393816841
 31
0.0
  0
LINE
  8
DETAIL
  6
CONTINUOUS
 62
     5
 10
-276.71406693177238
 20
83.413114393816841
 30
0.0
 11
-276.70695841980142
 21
83.429070097482963
 31
0.0
  0
LINE
  8
DETAIL
  6
CONTINUOUS
 62
     5
 10
-276.70695841980142
 20
83.429070097482963
 30
0.0
 11
-276.69904706639869
 21
83.445077510040846
 31
0.0
  0
LINE
  8
DETAIL
  6
CONTINUOUS
 62
     5
 10
-276.69904706639869
 20
83.445077510040846
 30
0.0
 11
-276.69904706639869
 21
83.445077510040846
 31
0.0
  0
LINE
  8
DETAIL
  6
CONTINUOUS
 62
     5
 10
-276.69904706639869
 20
83.445077510040846
 30
0.0
 11
-276.69055310607752
 21
83.460622150458448
 31
0.0
  0
LINE
  8
DETAIL
  6
CONTINUOUS
 62
     5
 10
-276.69055310607752
 20
83.460622150458448
 30
0.0
 11
-276.68151550023458
 21
83.475719637901193
 31
0.0
  0
LINE
  8
DETAIL
  6
CONTINUOUS
 62
     5
 10
-276.68151550023458
 20
83.475719637901193
 30
0.0
 11
-276.68151550023458
 21
83.475719637901193
 31
0.0
  0
LINE
  8
DETAIL
  6
CONTINUOUS
 62
     5
 10
-276.68151550023458
 20
83.475719637901193
 30
0.0
 11
-276.67192387685418
 21
83.490498696574832
 31
0.0
  0
LINE
  8
DETAIL
  6
CONTINUOUS
 62
     5
 10
-276.67192387685418
 20
83.490498696574832
 30
0.0
 11
-276.66175180338848
 21
83.505010370645323
 31
0.0
  0
LINE
  8
DETAIL
  6
CONTINUOUS
 62
     5
 10
-276.66175180338848
 20
83.505010370645323
 30
0.0
 11
-276.66175180338848
 21
83.505010370645323
 31
0.0
  0
LINE
  8
DETAIL
  6
CONTINUOUS
 62
     5
 10
-276.66175180338848
 20
83.505010370645323
 30
0.0
 11
-276.65103021096758
 21
83.519231439259556
 31
0.0
  0
LINE
  8
DETAIL
  6
CONTINUOUS
 62
     5
 10
-276.65103021096758
 20
83.519231439259556
 30
0.0
 11
-276.640035545969
 21
83.532919301522497
 31
0.0
  0
LINE
  8
DETAIL
  6
CONTINUOUS
 62
     5
 10
-276.640035545969
 20
83.532919301522497
 30
0.0
 11
-276.640035545969
 21
83.532919301522497
 31
0.0
  0
LINE
  8
DETAIL
  6
CONTINUOUS
 62
     5
 10
-276.640035545969
 20
83.532919301522497
 30
0.0
 11
-276.62886413346769
 21
83.546015311580049
 31
0.0
  0
LINE
  8
DETAIL
  6
CONTINUOUS
 62
     5
 10
-276.62886413346769
 20
83.546015311580049
 30
0.0
 11
-276.61664629808502
 21
83.559416023779931
 31
0.0
  0
LINE
  8
DETAIL
  6
CONTINUOUS
 62
     5
 10
-276.61664629808502
 20
83.559416023779931
 30
0.0
 11
-276.61664629808502
 21
83.559416023779931
 31
0.0
  0
LINE
  8
DETAIL
  6
CONTINUOUS
 62
     5
 10
-276.61664629808502
 20
83.559416023779931
 30
0.0
 11
-276.60263747846579
 21
83.573866836422212
 31
0.0
  0
LINE
  8
DETAIL
  6
CONTINUOUS
 62
     5
 10
-276.60263747846579
 20
83.573866836422212
 30
0.0
 11
-276.58755956980372
 21
83.588553323413407
 31
0.0
  0
LINE
  8
DETAIL
  6
CONTINUOUS
 62
     5
 10
-276.58755956980372
 20
83.588553323413407
 30
0.0
 11
-276.58755956980372
 21
83.588553323413407
 31
0.0
  0
LINE
  8
DETAIL
  6
CONTINUOUS
 62
     5
 10
-276.58755956980372
 20
83.588553323413407
 30
0.0
 11
-276.57228227202609
 21
83.602525936398706
 31
0.0
  0
LINE
  8
DETAIL
  6
CONTINUOUS
 62
     5
 10
-276.57228227202609
 20
83.602525936398706
 30
0.0
 11
-276.55680004745108
 21
83.615854462372454
 31
0.0
  0
LINE
  8
DETAIL
  6
CONTINUOUS
 62
     5
 10
-276.55680004745108
 20
83.615854462372454
 30
0.0
 11
-276.55680004745108
 21
83.615854462372454
 31
0.0
  0
LINE
  8
DETAIL
  6
CONTINUOUS
 62
     5
 10
-276.55680004745108
 20
83.615854462372454
 30
0.0
 11
-276.54092240233888
 21
83.628810011995256
 31
0.0
  0
LINE
  8
DETAIL
  6
CONTINUOUS
 62
     5
 10
-276.54092240233888
 20
83.628810011995256
 30
0.0
 11
-276.52459425632748
 21
83.641449655245196
 31
0.0
  0
LINE
  8
DETAIL
  6
CONTINUOUS
 62
     5
 10
-276.52459425632748
 20
83.641449655245196
 30
0.0
 11
-276.52459425632748
 21
83.641449655245196
 31
0.0
  0
LINE
  8
DETAIL
  6
CONTINUOUS
 62
     5
 10
-276.52459425632748
 20
83.641449655245196
 30
0.0
 11
-276.50787777842379
 21
83.653736158774336
 31
0.0
  0
LINE
  8
DETAIL
  6
CONTINUOUS
 62
     5
 10
-276.50787777842379
 20
83.653736158774336
 30
0.0
 11
-276.49116872173158
 21
83.665469116620216
 31
0.0
  0
LINE
  8
DETAIL
  6
CONTINUOUS
 62
     5
 10
-276.49116872173158
 20
83.665469116620216
 30
0.0
 11
-276.49116872173158
 21
83.665469116620216
 31
0.0
  0
LINE
  8
DETAIL
  6
CONTINUOUS
 62
     5
 10
-276.49116872173158
 20
83.665469116620216
 30
0.0
 11
-276.47457879793711
 21
83.676624012451612
 31
0.0
  0
LINE
  8
DETAIL
  6
CONTINUOUS
 62
     5
 10
-276.47457879793711
 20
83.676624012451612
 30
0.0
 11
-276.45674996896321
 21
83.688043061086319
 31
0.0
  0
LINE
  8
DETAIL
  6
CONTINUOUS
 62
     5
 10
-276.45674996896321
 20
83.688043061086319
 30
0.0
 11
-276.45674996896321
 21
83.688043061086319
 31
0.0
  0
LINE
  8
DETAIL
  6
CONTINUOUS
 62
     5
 10
-276.45674996896321
 20
83.688043061086319
 30
0.0
 11
-276.43653210865858
 21
83.700423417190677
 31
0.0
  0
LINE
  8
DETAIL
  6
CONTINUOUS
 62
     5
 10
-276.43653210865858
 20
83.700423417190677
 30
0.0
 11
-276.41507648834011
 21
83.713015263682109
 31
0.0
  0
LINE
  8
DETAIL
  6
CONTINUOUS
 62
     5
 10
-276.41507648834011
 20
83.713015263682109
 30
0.0
 11
-276.41507648834011
 21
83.713015263682109
 31
0.0
  0
LINE
  8
DETAIL
  6
CONTINUOUS
 62
     5
 10
-276.41507648834011
 20
83.713015263682109
 30
0.0
 11
-276.39374818651498
 21
83.724945099862907
 31
0.0
  0
LINE
  8
DETAIL
  6
CONTINUOUS
 62
     5
 10
-276.39374818651498
 20
83.724945099862907
 30
0.0
 11
-276.3724661129902
 21
83.736291662325812
 31
0.0
  0
LINE
  8
DETAIL
  6
CONTINUOUS
 62
     5
 10
-276.3724661129902
 20
83.736291662325812
 30
0.0
 11
-276.3724661129902
 21
83.736291662325812
 31
0.0
  0
LINE
  8
DETAIL
  6
CONTINUOUS
 62
     5
 10
-276.3724661129902
 20
83.736291662325812
 30
0.0
 11
-276.35088537881637
 21
83.747310515973822
 31
0.0
  0
LINE
  8
DETAIL
  6
CONTINUOUS
 62
     5
 10
-276.35088537881637
 20
83.747310515973822
 30
0.0
 11
-276.32905206872942
 21
83.758012301662575
 31
0.0
  0
LINE
  8
DETAIL
  6
CONTINUOUS
 62
     5
 10
-276.32905206872942
 20
83.758012301662575
 30
0.0
 11
-276.32905206872942
 21
83.758012301662575
 31
0.0
  0
LINE
  8
DETAIL
  6
CONTINUOUS
 62
     5
 10
-276.32905206872942
 20
83.758012301662575
 30
0.0
 11
-276.30708057937659
 21
83.768353293960899
 31
0.0
  0
LINE
  8
DETAIL
  6
CONTINUOUS
 62
     5
 10
-276.30708057937659
 20
83.768353293960899
 30
0.0
 11
-276.28496758137561
 21
83.778317226337549
 31
0.0
  0
LINE
  8
DETAIL
  6
CONTINUOUS
 62
     5
 10
-276.28496758137561
 20
83.778317226337549
 30
0.0
 11
-276.28496758137561
 21
83.778317226337549
 31
0.0
  0
LINE
  8
DETAIL
  6
CONTINUOUS
 62
     5
 10
-276.28496758137561
 20
83.778317226337549
 30
0.0
 11
-276.26270029644519
 21
83.787928469098688
 31
0.0
  0
LINE
  8
DETAIL
  6
CONTINUOUS
 62
     5
 10
-276.26270029644519
 20
83.787928469098688
 30
0.0
 11
-276.24034587674561
 21
83.797346480995884
 31
0.0
  0
LINE
  8
DETAIL
  6
CONTINUOUS
 62
     5
 10
-79.528271405492887
 20
-228.96930533117941
 30
0.0
 11
-130.71082390953151
 21
-228.96930533117941
 31
0.0
  0
LINE
  8
DETAIL
  6
CONTINUOUS
 62
     5
 10
-303.18998082290773
 20
79.259891120887687
 30
0.0
 11
-286.9839033370904
 21
87.088913789983962
 31
0.0
  0
LINE
  8
DETAIL
  6
CONTINUOUS
 62
     5
 10
-274.44264943457199
 20
-131.31179321486249
 30
0.0
 11
-283.45718901453972
 21
-131.31179321486249
 31
0.0
  0
LINE
  8
DETAIL
  6
CONTINUOUS
 62
     5
 10
-303.18998086794159
 20
-114.81724982968259
 30
0.0
 11
-286.9839033037033
 21
-122.6462727542298
 31
0.0
  0
LINE
  8
DETAIL
  6
CONTINUOUS
 62
     5
 10
-276.74636510500818
 20
-88.642972536348907
 30
0.0
 11
-274.44264943457199
 21
-88.642972536348907
 31
0.0
  0
LINE
  8
DETAIL
  6
CONTINUOUS
 62
     5
 10
-236.38126009693059
 20
-85.638126009692996
 30
0.0
 11
-233.37641357027479
 21
-85.638126009692996
 31
0.0
  0
LINE
  8
DETAIL
  6
CONTINUOUS
 62
     5
 10
-225.36348949919241
 20
-79.628432956381175
 30
0.0
 11
-233.37641357027479
 21
-79.628432956381175
 31
0.0
  0
LINE
  8
DETAIL
  6
CONTINUOUS
 62
     5
 10
-225.36348949919241
 20
-74.620355411954733
 30
0.0
 11
-233.37641357027479
 21
-74.620355411954733
 31
0.0
  0
LINE
  8
DETAIL
  6
CONTINUOUS
 62
     5
 10
-305.79321486268191
 20
-110.6685612950118
 30
0.0
 11
-305.79321486268191
 21
75.111202564476343
 31
0.0
  0
LINE
  8
DETAIL
  6
CONTINUOUS
 62
     5
 10
-236.38126009693059
 20
-63.549721702295301
 30
0.0
 11
-233.37641357027479
 21
-63.549721702295301
 31
0.0
  0
LINE
  8
DETAIL
  6
CONTINUOUS
 62
     5
 10
-285.05977382875619
 20
-129.7092084006463
 30
0.0
 11
-285.05977382875619
 21
94.151842640167388
 31
0.0
  0
LINE
  8
DETAIL
  6
CONTINUOUS
 62
     5
 10
-225.36348949919241
 20
-79.628364702884028
 30
0.0
 11
-225.36348949919241
 21
-74.6204236646754
 31
0.0
  0
LINE
  8
DETAIL
  6
CONTINUOUS
 62
     5
 10
-225.36348949919241
 20
74.620423665452108
 30
0.0
 11
-225.36348949919241
 21
79.628364703660736
 31
0.0
  0
LINE
  8
DETAIL
  6
CONTINUOUS
 62
     5
 10
-225.36348949919241
 20
74.620355411954733
 30
0.0
 11
-233.37641357027479
 21
74.620355411954733
 31
0.0
  0
LINE
  8
DETAIL
  6
CONTINUOUS
 62
     5
 10
-225.36348949919241
 20
79.628432956381403
 30
0.0
 11
-233.37641357027479
 21
79.628432956381403
 31
0.0
  0
LINE
  8
DETAIL
  6
CONTINUOUS
 62
     5
 10
-274.44264943457199
 20
95.754442649434623
 30
0.0
 11
-283.45718901453972
 21
95.754442649434623
 31
0.0
  0
LINE
  8
DETAIL
  6
CONTINUOUS
 62
     5
 10
-79.528271405492887
 20
228.96930533117941
 30
0.0
 11
-130.71082390953151
 21
228.96930533117941
 31
0.0
  0
ARC
  8
DETAIL
  6
CONTINUOUS
 62
     5
 10
-301.18578352180958
 20
-110.6685612950118
 30
0.0
 40
4.6074313408724086
 50
180.0
 51
244.21519345939879
  0
ARC
  8
DETAIL
  6
CONTINUOUS
 62
     5
 10
-288.46526655896628
 20
-125.712694714706
 30
0.0
 40
3.4054927302100002
 50
0.0
 51
64.215193459398847
  0
ARC
  8
DETAIL
  6
CONTINUOUS
 62
     5
 10
-283.45718901453972
 20
-129.7092084006463
 30
0.0
 40
1.6025848142164709
 50
180.0
 51
270.0
  0
ARC
  8
DETAIL
  6
CONTINUOUS
 62
     5
 10
-301.18578352180958
 20
75.111202564476343
 30
0.0
 40
4.6074313408724246
 50
115.7848059174017
 51
180.0
  0
ARC
  8
DETAIL
  6
CONTINUOUS
 62
     5
 10
-288.46526655896628
 20
90.155335766765802
 30
0.0
 40
3.405492730210014
 50
295.78480591740168
 51
0.0
  0
ARC
  8
DETAIL
  6
CONTINUOUS
 62
     5
 10
-283.45718901453972
 20
94.151857835218152
 30
0.0
 40
1.6025848142164989
 50
90.0
 51
180.0
  0
LINE
  8
DETAIL
  6
CONTINUOUS
 62
     5
 10
-79.528271405492887
 20
-228.96930533117941
 30
0.0
 11
-77.9615985411304
 21
-228.98357609538769
 31
0.0
  0
LINE
  8
DETAIL
  6
CONTINUOUS
 62
     5
 10
-77.9615985411304
 20
-228.98357609538769
 30
0.0
 11
-76.398858214044481
 21
-229.01043481848731
 31
0.0
  0
LINE
  8
DETAIL
  6
CONTINUOUS
 62
     5
 10
-76.398858214044481
 20
-229.01043481848731
 30
0.0
 11
-76.398858214044481
 21
-229.01043481848731
 31
0.0
  0
LINE
  8
DETAIL
  6
CONTINUOUS
 62
     5
 10
-76.398858214044481
 20
-229.01043481848731
 30
0.0
 11
-74.841129407981327
 21
-229.0601154599162
 31
0.0
  0
LINE
  8
DETAIL
  6
CONTINUOUS
 62
     5
 10
-74.841129407981327
 20
-229.0601154599162
 30
0.0
 11
-73.27807689256457
 21
-229.13343598130251
 31
0.0
  0
LINE
  8
DETAIL
  6
CONTINUOUS
 62
     5
 10
-73.27807689256457
 20
-229.13343598130251
 30
0.0
 11
-73.27807689256457
 21
-229.13343598130251
 31
0.0
  0
LINE
  8
DETAIL
  6
CONTINUOUS
 62
     5
 10
-73.27807689256457
 20
-229.13343598130251
 30
0.0
 11
-71.707926098035671
 21
-229.22796976461041
 31
0.0
  0
LINE
  8
DETAIL
  6
CONTINUOUS
 62
     5
 10
-71.707926098035671
 20
-229.22796976461041
 30
0.0
 11
-70.174559311225778
 21
-229.33772787096129
 31
0.0
  0
LINE
  8
DETAIL
  6
CONTINUOUS
 62
     5
 10
-70.174559311225778
 20
-229.33772787096129
 30
0.0
 11
-70.174559311225778
 21
-229.33772787096129
 31
0.0
  0
LINE
  8
DETAIL
  6
CONTINUOUS
 62
     5
 10
-70.174559311225778
 20
-229.33772787096129
 30
0.0
 11
-68.69046973005419
 21
-229.46174710156171
 31
0.0
  0
LINE
  8
DETAIL
  6
CONTINUOUS
 62
     5
 10
-68.69046973005419
 20
-229.46174710156171
 30
0.0
 11
-67.096937340200441
 21
-229.62272953880051
 31
0.0
  0
LINE
  8
DETAIL
  6
CONTINUOUS
 62
     5
 10
-67.096937340200441
 20
-229.62272953880051
 30
0.0
 11
-67.096937340200441
 21
-229.62272953880051
 31
0.0
  0
LINE
  8
DETAIL
  6
CONTINUOUS
 62
     5
 10
-67.096937340200441
 20
-229.62272953880051
 30
0.0
 11
-65.352237822375855
 21
-229.8265188843902
 31
0.0
  0
LINE
  8
DETAIL
  6
CONTINUOUS
 62
     5
 10
-65.352237822375855
 20
-229.8265188843902
 30
0.0
 11
-64.053842849661009
 21
-229.98786003615649
 31
0.0
  0
LINE
  8
DETAIL
  6
CONTINUOUS
 62
     5
 10
-64.053842849661009
 20
-229.98786003615649
 30
0.0
 11
-64.053842849661009
 21
-229.98786003615649
 31
0.0
  0
LINE
  8
DETAIL
  6
CONTINUOUS
 62
     5
 10
-64.053842849661009
 20
-229.98786003615649
 30
0.0
 11
-63.705647534105942
 21
-230.03264293268759
 31
0.0
  0
LINE
  8
DETAIL
  6
CONTINUOUS
 62
     5
 10
-63.705647534105942
 20
-230.03264293268759
 30
0.0
 11
-63.798044751264847
 21
-230.02243647951289
 31
0.0
  0
LINE
  8
DETAIL
  6
CONTINUOUS
 62
     5
 10
-63.798044751264847
 20
-230.02243647951289
 30
0.0
 11
-63.798044751264847
 21
-230.02243647951289
 31
0.0
  0
LINE
  8
DETAIL
  6
CONTINUOUS
 62
     5
 10
-63.798044751264847
 20
-230.02243647951289
 30
0.0
 11
-63.729286180818349
 21
-230.03255082991521
 31
0.0
  0
LINE
  8
DETAIL
  6
CONTINUOUS
 62
     5
 10
-63.729286180818349
 20
-230.03255082991521
 30
0.0
 11
-63.542560955442411
 21
-230.05758216125079
 31
0.0
  0
LINE
  8
DETAIL
  6
CONTINUOUS
 62
     5
 10
-63.542560955442411
 20
-230.05758216125079
 30
0.0
 11
-63.542560955442411
 21
-230.05758216125079
 31
0.0
  0
LINE
  8
DETAIL
  6
CONTINUOUS
 62
     5
 10
-63.542560955442411
 20
-230.05758216125079
 30
0.0
 11
-63.399104049941513
 21
-230.07735184931951
 31
0.0
  0
LINE
  8
DETAIL
  6
CONTINUOUS
 62
     5
 10
-63.399104049941513
 20
-230.07735184931951
 30
0.0
 11
-63.287396354636201
 21
-230.09329603962101
 31
0.0
  0
LINE
  8
DETAIL
  6
CONTINUOUS
 62
     5
 10
-63.287396354636201
 20
-230.09329603962101
 30
0.0
 11
-63.287396354636201
 21
-230.09329603962101
 31
0.0
  0
LINE
  8
DETAIL
  6
CONTINUOUS
 62
     5
 10
-63.287396354636201
 20
-230.09329603962101
 30
0.0
 11
-63.164249959961069
 21
-230.11081829436151
 31
0.0
  0
LINE
  8
DETAIL
  6
CONTINUOUS
 62
     5
 10
-63.164249959961069
 20
-230.11081829436151
 30
0.0
 11
-63.032555841290844
 21
-230.12957707287339
 31
0.0
  0
LINE
  8
DETAIL
  6
CONTINUOUS
 62
     5
 10
-63.032555841290844
 20
-230.12957707287339
 30
0.0
 11
-63.032555841290844
 21
-230.12957707287339
 31
0.0
  0
LINE
  8
DETAIL
  6
CONTINUOUS
 62
     5
 10
-63.032555841290844
 20
-230.12957707287339
 30
0.0
 11
-62.903834331416142
 21
-230.14813596921931
 31
0.0
  0
LINE
  8
DETAIL
  6
CONTINUOUS
 62
     5
 10
-62.903834331416142
 20
-230.14813596921931
 30
0.0
 11
-62.778044307848461
 21
-230.16642421925829
 31
0.0
  0
LINE
  8
DETAIL
  6
CONTINUOUS
 62
     5
 10
-79.528271405492887
 20
228.96930533117941
 30
0.0
 11
-77.9615985411304
 21
228.98357609541591
 31
0.0
  0
LINE
  8
DETAIL
  6
CONTINUOUS
 62
     5
 10
-77.9615985411304
 20
228.98357609541591
 30
0.0
 11
-76.398858214044481
 21
229.01043481856229
 31
0.0
  0
LINE
  8
DETAIL
  6
CONTINUOUS
 62
     5
 10
-76.398858214044481
 20
229.01043481856229
 30
0.0
 11
-76.398858214044481
 21
229.01043481856229
 31
0.0
  0
LINE
  8
DETAIL
  6
CONTINUOUS
 62
     5
 10
-76.398858214044481
 20
229.01043481856229
 30
0.0
 11
-74.841129407981327
 21
229.06011546007039
 31
0.0
  0
LINE
  8
DETAIL
  6
CONTINUOUS
 62
     5
 10
-74.841129407981327
 20
229.06011546007039
 30
0.0
 11
-73.27807689256457
 21
229.13343598155831
 31
0.0
  0
LINE
  8
DETAIL
  6
CONTINUOUS
 62
     5
 10
-73.27807689256457
 20
229.13343598155831
 30
0.0
 11
-73.27807689256457
 21
229.13343598155831
 31
0.0
  0
LINE
  8
DETAIL
  6
CONTINUOUS
 62
     5
 10
-73.27807689256457
 20
229.13343598155831
 30
0.0
 11
-71.707926098035671
 21
229.2279697649758
 31
0.0
  0
LINE
  8
DETAIL
  6
CONTINUOUS
 62
     5
 10
-71.707926098035671
 20
229.2279697649758
 30
0.0
 11
-70.174559311225778
 21
229.33772787143721
 31
0.0
  0
LINE
  8
DETAIL
  6
CONTINUOUS
 62
     5
 10
-70.174559311225778
 20
229.33772787143721
 30
0.0
 11
-70.174559311225778
 21
229.33772787143721
 31
0.0
  0
LINE
  8
DETAIL
  6
CONTINUOUS
 62
     5
 10
-70.174559311225778
 20
229.33772787143721
 30
0.0
 11
-68.69046973005419
 21
229.46174710214251
 31
0.0
  0
LINE
  8
DETAIL
  6
CONTINUOUS
 62
     5
 10
-68.69046973005419
 20
229.46174710214251
 30
0.0
 11
-67.096937340200441
 21
229.62272953947061
 31
0.0
  0
LINE
  8
DETAIL
  6
CONTINUOUS
 62
     5
 10
-67.096937340200441
 20
229.62272953947061
 30
0.0
 11
-67.096937340200441
 21
229.62272953947061
 31
0.0
  0
LINE
  8
DETAIL
  6
CONTINUOUS
 62
     5
 10
-67.096937340200441
 20
229.62272953947061
 30
0.0
 11
-65.352237822375855
 21
229.82651888512581
 31
0.0
  0
LINE
  8
DETAIL
  6
CONTINUOUS
 62
     5
 10
-65.352237822375855
 20
229.82651888512581
 30
0.0
 11
-64.053842849661009
 21
229.9878600369284
 31
0.0
  0
LINE
  8
DETAIL
  6
CONTINUOUS
 62
     5
 10
-64.053842849661009
 20
229.9878600369284
 30
0.0
 11
-64.053842849661009
 21
229.9878600369284
 31
0.0
  0
LINE
  8
DETAIL
  6
CONTINUOUS
 62
     5
 10
-64.053842849661009
 20
229.9878600369284
 30
0.0
 11
-63.705647534105942
 21
230.0326429334666
 31
0.0
  0
LINE
  8
DETAIL
  6
CONTINUOUS
 62
     5
 10
-63.705647534105942
 20
230.0326429334666
 30
0.0
 11
-63.798044751264847
 21
230.02243648028681
 31
0.0
  0
LINE
  8
DETAIL
  6
CONTINUOUS
 62
     5
 10
-63.798044751264847
 20
230.02243648028681
 30
0.0
 11
-63.798044751264847
 21
230.02243648028681
 31
0.0
  0
LINE
  8
DETAIL
  6
CONTINUOUS
 62
     5
 10
-63.798044751264847
 20
230.02243648028681
 30
0.0
 11
-63.729286180818349
 21
230.03255083068851
 31
0.0
  0
LINE
  8
DETAIL
  6
CONTINUOUS
 62
     5
 10
-63.729286180818349
 20
230.03255083068851
 30
0.0
 11
-63.542560955442411
 21
230.05758216202659
 31
0.0
  0
LINE
  8
DETAIL
  6
CONTINUOUS
 62
     5
 10
-63.542560955442411
 20
230.05758216202659
 30
0.0
 11
-63.542560955442411
 21
230.05758216202659
 31
0.0
  0
LINE
  8
DETAIL
  6
CONTINUOUS
 62
     5
 10
-63.542560955442411
 20
230.05758216202659
 30
0.0
 11
-63.399104049941513
 21
230.07735185009619
 31
0.0
  0
LINE
  8
DETAIL
  6
CONTINUOUS
 62
     5
 10
-63.399104049941513
 20
230.07735185009619
 30
0.0
 11
-63.287396354636201
 21
230.09329604039729
 31
0.0
  0
LINE
  8
DETAIL
  6
CONTINUOUS
 62
     5
 10
-63.287396354636201
 20
230.09329604039729
 30
0.0
 11
-63.287396354636201
 21
230.09329604039729
 31
0.0
  0
LINE
  8
DETAIL
  6
CONTINUOUS
 62
     5
 10
-63.287396354636201
 20
230.09329604039729
 30
0.0
 11
-63.164249959961069
 21
230.1108182951377
 31
0.0
  0
LINE
  8
DETAIL
  6
CONTINUOUS
 62
     5
 10
-63.164249959961069
 20
230.1108182951377
 30
0.0
 11
-63.032555841290844
 21
230.1295770736499
 31
0.0
  0
LINE
  8
DETAIL
  6
CONTINUOUS
 62
     5
 10
-63.032555841290844
 20
230.1295770736499
 30
0.0
 11
-63.032555841290844
 21
230.1295770736499
 31
0.0
  0
LINE
  8
DETAIL
  6
CONTINUOUS
 62
     5
 10
-63.032555841290844
 20
230.1295770736499
 30
0.0
 11
-62.903834331416142
 21
230.14813596999599
 31
0.0
  0
LINE
  8
DETAIL
  6
CONTINUOUS
 62
     5
 10
-62.903834331416142
 20
230.14813596999599
 30
0.0
 11
-62.778044307848461
 21
230.166424220035
 31
0.0
  0
LINE
  8
DETAIL
  6
CONTINUOUS
 62
     5
 10
-236.38126009693059
 20
85.638126009693224
 30
0.0
 11
-233.37641357027479
 21
85.638126009693224
 31
0.0
  0
LINE
  8
BASIS
  6
DASHDOT
 62
     6
 10
62.933783130532447
 20
0.0
 30
0.0
 11
-347.25864515717689
 21
0.0
 31
0.0
  0
ARC
  8
DETAIL
  6
CONTINUOUS
 62
     5
 10
-168.0013513772374
 20
158.60097316726339
 30
0.0
 40
71.82823103640284
 50
85.099643108979734
 51
162.17428606662
  0
ARC
  8
DETAIL
  6
CONTINUOUS
 62
     5
 10
-169.31655107810909
 20
146.65481992088459
 30
0.0
 40
110.4673700512917
 50
88.418706914405874
 51
162.11007245110619
  0
ARC
  8
DETAIL
  6
CONTINUOUS
 62
     5
 10
-169.7238913422716
 20
153.12425356691671
 30
0.0
 40
108.2605306695614
 50
88.170786439049479
 51
165.3038335816326
  0
ARC
  8
DETAIL
  6
CONTINUOUS
 62
     5
 10
-7.4400528725273034
 20
244.74276694487531
 30
0.0
 40
2.582748692774937
 50
103.88423724558351
 51
175.88864035238811
  0
ARC
  8
DETAIL
  6
CONTINUOUS
 62
     5
 10
-14.807558491633239
 20
273.80291698268678
 30
0.0
 40
27.396835659990249
 50
284.25847007395407
 51
295.52382489021841
  0
ARC
  8
DETAIL
  6
CONTINUOUS
 62
     5
 10
-8.2239250304719462
 20
244.57435841961609
 30
0.0
 40
6.3094149169788976
 50
103.93481699272721
 51
176.7874652216658
  0
ARC
  8
DETAIL
  6
CONTINUOUS
 62
     5
 10
-9.760404138440208
 20
255.52165343395109
 30
0.0
 40
4.8235943083366486
 50
270.20263380136282
 51
344.67891879017048
  0
ARC
  8
DETAIL
  6
CONTINUOUS
 62
     5
 10
-8.4573690126890142
 20
294.2106935694826
 30
0.0
 40
6.0732093211316043
 50
103.2933544884031
 51
177.21882019409941
  0
ARC
  8
DETAIL
  6
CONTINUOUS
 62
     5
 10
-10.360498587391699
 20
306.03281114590141
 30
0.0
 40
5.9333098970508251
 50
274.89873824199219
 51
332.1477175017319
  0
ARC
  8
DETAIL
  6
CONTINUOUS
 62
     5
 10
-168.0013513772374
 20
-158.6009731672643
 30
0.0
 40
71.82823103640284
 50
197.82571393338
 51
274.90035689102018
  0
ARC
  8
DETAIL
  6
CONTINUOUS
 62
     5
 10
-169.31655107810909
 20
-146.6548199208855
 30
0.0
 40
110.4673700512917
 50
197.88992754889381
 51
271.5812930855941
  0
ARC
  8
DETAIL
  6
CONTINUOUS
 62
     5
 10
-169.7238913422716
 20
-153.1242535669171
 30
0.0
 40
108.2605306695614
 50
194.6961664183674
 51
271.82921356095051
  0
ARC
  8
DETAIL
  6
CONTINUOUS
 62
     5
 10
-7.4400528725273034
 20
-244.74276694487571
 30
0.0
 40
2.582748692774937
 50
184.11135964761189
 51
256.11576275441649
  0
ARC
  8
DETAIL
  6
CONTINUOUS
 62
     5
 10
-14.807558491633239
 20
-273.80291698268678
 30
0.0
 40
27.396835659990249
 50
64.476175109781551
 51
75.741529926045928
  0
ARC
  8
DETAIL
  6
CONTINUOUS
 62
     5
 10
-8.2239250304701272
 20
-244.57435841961609
 30
0.0
 40
6.3094149169788976
 50
183.21253477833409
 51
256.06518300727242
  0
ARC
  8
DETAIL
  6
CONTINUOUS
 62
     5
 10
-9.760404138440208
 20
-255.52165343395151
 30
0.0
 40
4.8235943083366486
 50
15.321081209829501
 51
89.79736619863715
  0
ARC
  8
DETAIL
  6
CONTINUOUS
 62
     5
 10
-8.4573690126890142
 20
-294.21069356948283
 30
0.0
 40
6.0732093211316043
 50
182.78117980590059
 51
256.70664551159678
  0
ARC
  8
DETAIL
  6
CONTINUOUS
 62
     5
 10
-10.36049858738988
 20
-306.03281114590158
 30
0.0
 40
5.9333098970508251
 50
27.85228249826805
 51
85.101261758007823
  0
ARC
  8
DETAIL
  6
CONTINUOUS
 62
     5
 10
-81.358586215279672
 20
161.03504900987289
 30
0.0
 40
62.164235523032602
 50
150.04510520473991
 51
175.05575543929581
  0
ARC
  8
DETAIL
  6
CONTINUOUS
 62
     5
 10
626.7777731422575
 20
83.585188895611964
 30
0.0
 40
774.5087444615682
 50
173.86241923925709
 51
180.26810290415409
  0
ARC
  8
DETAIL
  6
CONTINUOUS
 62
     5
 10
-142.16355630565971
 20
80.093571895552031
 30
0.0
 40
5.5556319746373468
 50
180.78132934573509
 51
280.60030093208252
  0
ARC
  8
DETAIL
  6
CONTINUOUS
 62
     5
 10
-105.3322233451136
 20
-26.960429622864691
 30
0.0
 40
107.719463867255
 50
106.1075808588771
 51
109.4164216211575
  0
ARC
  8
DETAIL
  6
CONTINUOUS
 62
     5
 10
-167.62424637171259
 20
-53.570236424608993
 30
0.0
 40
42.369257250034671
 50
40.106281807063191
 51
56.323028952847679
  0
ARC
  8
DETAIL
  6
CONTINUOUS
 62
     5
 10
-145.36577435882069
 20
-20.361233778376569
 30
0.0
 40
2.3933917150498729
 50
58.915710871914158
 51
175.45277093715029
  0
ARC
  8
DETAIL
  6
CONTINUOUS
 62
     5
 10
1038.473494365915
 20
7.1972832619999281
 30
0.0
 40
1186.5408129864149
 50
181.32170246779481
 51
186.02147156022201
  0
ARC
  8
DETAIL
  6
CONTINUOUS
 62
     5
 10
24.230142820636392
 20
-94.526490601642308
 30
0.0
 40
167.30430480879201
 50
187.81380091703301
 51
197.62713780414541
  0
ARC
  8
OUTLINE
  6
CONTINUOUS
 62
     3
 10
-169.72389134224409
 20
153.12425356769219
 30
0.0
 40
108.2605306695614
 50
88.170786439049479
 51
165.3038335816326
  0
ARC
  8
OUTLINE
  6
CONTINUOUS
 62
     3
 10
-8.457369012661502
 20
294.21069357025817
 30
0.0
 40
6.0732093211316043
 50
103.2933544884031
 51
177.21882019409941
  0
ARC
  8
OUTLINE
  6
CONTINUOUS
 62
     3
 10
-169.72389134224409
 20
-153.1242535661415
 30
0.0
 40
108.2605306695614
 50
194.6961664183674
 51
271.82921356095051
  0
ARC
  8
OUTLINE
  6
CONTINUOUS
 62
     3
 10
-8.457369012661502
 20
-294.21069356870748
 30
0.0
 40
6.0732093211316043
 50
182.78117980590059
 51
256.70664551159678
  0
ENDSEC
  0
EOF
