  0
SECTION
  2
HEADER
  9
$ACADVER
  1
AC1009
  9
$DWGCODEPAGE
  3
dos932
  9
$INSBASE
 10
0.0
 20
0.0
 30
0.0
  9
$EXTMIN
 10
-391.55271754315248
 20
-438.99534961557401
 30
-0.0015258207003583
  9
$EXTMAX
 10
965.73945241484216
 20
625.80872388301395
 30
0.0000000349246037
  9
$LIMMIN
 10
-2970.0
 20
-2100.0
  9
$LIMMAX
 10
2970.0
 20
2100.0
  9
$ORTHOMODE
 70
     1
  9
$REGENMODE
 70
     1
  9
$FILLMODE
 70
     1
  9
$QTEXTMODE
 70
     0
  9
$MIRRTEXT
 70
     0
  9
$LTSCALE
 40
20.0
  9
$ATTMODE
 70
     1
  9
$TEXTSIZE
 40
64.0
  9
$TRACEWID
 40
0.05
  9
$TEXTSTYLE
  7
STANDARD
  9
$CLAYER
  8
SIZE
  9
$CELTYPE
  6
CONTINUOUS
  9
$CECOLOR
 62
     7
  9
$DIMSCALE
 40
1.0
  9
$DIMASZ
 40
12.0
  9
$DIMEXO
 40
20.0
  9
$DIMDLI
 40
200.0
  9
$DIMRND
 40
0.0
  9
$DIMDLE
 40
0.0
  9
$DIMEXE
 40
20.0
  9
$DIMTP
 40
0.0
  9
$DIMTM
 40
0.0
  9
$DIMTXT
 40
64.0
  9
$DIMCEN
 40
0.09
  9
$DIMTSZ
 40
0.0
  9
$DIMTOL
 70
     0
  9
$DIMLIM
 70
     0
  9
$DIMTIH
 70
     0
  9
$DIMTOH
 70
     0
  9
$DIMSE1
 70
     0
  9
$DIMSE2
 70
     0
  9
$DIMTAD
 70
     1
  9
$DIMZIN
 70
     8
  9
$DIMBLK
  1

  9
$DIMASO
 70
     1
  9
$DIMSHO
 70
     0
  9
$DIMPOST
  1

  9
$DIMAPOST
  1

  9
$DIMALT
 70
     0
  9
$DIMALTD
 70
     2
  9
$DIMALTF
 40
25.399999999999999
  9
$DIMLFAC
 40
1.0
  9
$DIMTOFL
 70
     1
  9
$DIMTVP
 40
0.0
  9
$DIMTIX
 70
     1
  9
$DIMSOXD
 70
     0
  9
$DIMSAH
 70
     0
  9
$DIMBLK1
  1

  9
$DIMBLK2
  1

  9
$DIMSTYLE
  2
STANDARD
  9
$DIMCLRD
 70
     7
  9
$DIMCLRE
 70
     7
  9
$DIMCLRT
 70
     7
  9
$DIMTFAC
 40
1.0
  9
$DIMGAP
 40
25.0
  9
$LUNITS
 70
     2
  9
$LUPREC
 70
     4
  9
$SKETCHINC
 40
0.1
  9
$FILLETRAD
 40
3.0
  9
$AUNITS
 70
     1
  9
$AUPREC
 70
     3
  9
$MENU
  1
ACAD
  9
$ELEVATION
 40
0.0
  9
$PELEVATION
 40
0.0
  9
$THICKNESS
 40
0.0
  9
$LIMCHECK
 70
     0
  9
$CHAMFERA
 40
0.0
  9
$CHAMFERB
 40
0.0
  9
$SKPOLY
 70
     0
  9
$TDCREATE
 40
2453019.62301037
  9
$TDUPDATE
 40
2458949.446417801
  9
$TDINDWG
 40
1.7138122801
  9
$TDUSRTIMER
 40
1.7138122801
  9
$USRTIMER
 70
     1
  9
$ANGBASE
 50
0.0
  9
$ANGDIR
 70
     0
  9
$PDMODE
 70
     3
  9
$PDSIZE
 40
-2.0
  9
$PLINEWID
 40
0.0
  9
$SPLFRAME
 70
     0
  9
$SPLINETYPE
 70
     6
  9
$SPLINESEGS
 70
     8
  9
$SURFTAB1
 70
     6
  9
$SURFTAB2
 70
     6
  9
$SURFTYPE
 70
     6
  9
$SURFU
 70
     6
  9
$SURFV
 70
     6
  9
$UCSNAME
  2

  9
$UCSORG
 10
0.0
 20
0.0
 30
0.0
  9
$UCSXDIR
 10
1.0
 20
0.0
 30
0.0
  9
$UCSYDIR
 10
0.0
 20
1.0
 30
0.0
  9
$PUCSNAME
  2

  9
$PUCSORG
 10
0.0
 20
0.0
 30
0.0
  9
$PUCSXDIR
 10
1.0
 20
0.0
 30
0.0
  9
$PUCSYDIR
 10
0.0
 20
1.0
 30
0.0
  9
$USERI1
 70
     0
  9
$USERI2
 70
     0
  9
$USERI3
 70
     0
  9
$USERI4
 70
     0
  9
$USERI5
 70
     0
  9
$USERR1
 40
20.0
  9
$USERR2
 40
0.0
  9
$USERR3
 40
0.0
  9
$USERR4
 40
0.0
  9
$USERR5
 40
0.0
  9
$WORLDVIEW
 70
     1
  9
$SHADEDGE
 70
     3
  9
$SHADEDIF
 70
    70
  9
$TILEMODE
 70
     1
  9
$MAXACTVP
 70
    48
  9
$PINSBASE
 10
0.0
 20
0.0
 30
0.0
  9
$PLIMCHECK
 70
     0
  9
$PEXTMIN
 10
-100000000000000000000.0
 20
-100000000000000000000.0
 30
-100000000000000000000.0
  9
$PEXTMAX
 10
100000000000000000000.0
 20
100000000000000000000.0
 30
100000000000000000000.0
  9
$PLIMMIN
 10
0.0
 20
0.0
  9
$PLIMMAX
 10
12.0
 20
9.0
  9
$UNITMODE
 70
     0
  9
$VISRETAIN
 70
     0
  9
$PLINEGEN
 70
     0
  9
$PSLTSCALE
 70
     0
  9
$TREEDEPTH
 70
  3020
  9
$ATTDIA
 70
     0
  9
$ATTREQ
 70
     1
  9
$BLIPMODE
 70
     1
  9
$COORDS
 70
     1
  9
$DRAGMODE
 70
     2
  9
$OSMODE
 70
     0
  9
$HANDLING
 70
     0
  9
$HANDSEED
  5
11DA1
  0
ENDSEC
  0
SECTION
  2
TABLES
  0
TABLE
  2
LTYPE
 70
     2
  0
LTYPE
  2
CONTINUOUS
 70
     0
  3
実線
 72
    65
 73
     0
 40
0.0
  0
LTYPE
  2
DASHDOT
 70
     0
  3
____ _ ____ _ ____ _ ____ _ ____ _ ____ _ ____
 72
    65
 73
     4
 40
5.5
 49
4.0
 49
-0.6
 49
0.3
 49
-0.6
  0
ENDTAB
  0
TABLE
  2
LAYER
 70
    12
  0
LAYER
  2
0
 70
     0
 62
     7
  6
CONTINUOUS
  0
LAYER
  2
BASIS
 70
     0
 62
     6
  6
DASHDOT
  0
LAYER
  2
OUTLINE
 70
     0
 62
     3
  6
CONTINUOUS
  0
LAYER
  2
DETAIL
 70
     0
 62
     5
  6
CONTINUOUS
  0
LAYER
  2
SIZE
 70
     0
 62
    30
  6
CONTINUOUS
  0
LAYER
  2
ARRANGE
 70
     0
 62
     1
  6
CONTINUOUS
  0
LAYER
  2
DEFPOINTS
 70
     0
 62
     7
  6
CONTINUOUS
  0
LAYER
  2
ETC
 70
     0
 62
    61
  6
CONTINUOUS
  0
LAYER
  2
FIX
 70
     0
 62
    11
  6
CONTINUOUS
  0
LAYER
  2
NOTE
 70
     0
 62
     4
  6
CONTINUOUS
  0
LAYER
  2
SERVICESPACE
 70
    64
 62
     2
  6
DASHDOT
  0
LAYER
  2
SYMBOLLINE
 70
    64
 62
    15
  6
CONTINUOUS
  0
ENDTAB
  0
TABLE
  2
STYLE
 70
     1
  0
STYLE
  2
STANDARD
 70
     0
 40
64.0
 41
0.9
 50
0.0
 71
     0
 42
64.0
  3
SIMPLEX.shx
  4
BIGFONT.shx
  0
ENDTAB
  0
TABLE
  2
APPID
 70
    19
  0
APPID
  2
ACAD
 70
     0
  0
APPID
  2
AUTOCAD_POSTSCRIPT_FIGURE
 70
     0
  0
APPID
  2
ACAD_EXEMPT_FROM_CAD_STANDARDS
 70
     0
  0
APPID
  2
ACAD_PSEXT
 70
     0
  0
APPID
  2
ACAUTHENVIRON
 70
     0
  0
APPID
  2
GENIUS_GENOENT_13
 70
     0
  0
APPID
  2
GENIUS_GENCFG_13
 70
     0
  0
APPID
  2
GENIUS_GENCFG0_13
 70
     0
  0
APPID
  2
GENIUS_GENCFG1_13
 70
     0
  0
APPID
  2
GENIUS_GENCFG2_13
 70
     0
  0
APPID
  2
GENIUS_GENCFG3_13
 70
     0
  0
APPID
  2
GENIUS_GENCFG4_13
 70
     0
  0
APPID
  2
GENIUS_GEVCFG0_13
 70
     0
  0
APPID
  2
CONTENTBLOCKICON
 70
     0
  0
APPID
  2
CONTENTBLOCKDESCRIPTION
 70
     0
  0
APPID
  2
ACAD_NAV_VCDISPLAY
 70
     0
  0
APPID
  2
ACAD_MLEADERVER
 70
     0
  0
APPID
  2
ACDBDYNAMICBLOCKTRUENAME
 70
     0
  0
APPID
  2
ACDBDYNAMICBLOCKGUID
 70
     0
  0
ENDTAB
  0
TABLE
  2
DIMSTYLE
 70
     1
  0
DIMSTYLE
  2
STANDARD
 70
     0
  3

  4

  5
_ORIGIN
  6

  7

 40
1.0
 41
12.0
 42
20.0
 43
200.0
 44
20.0
 45
0.0
 46
0.0
 47
0.0
 48
0.0
140
64.0
141
0.09
142
0.0
143
25.399999999999999
144
1.0
145
0.0
146
1.0
147
25.0
 71
     0
 72
     0
 73
     0
 74
     0
 75
     0
 76
     0
 77
     1
 78
     8
170
     0
171
     2
172
     1
173
     0
174
     1
175
     0
176
     7
177
     7
178
     7
  0
ENDTAB
  0
TABLE
  2
VIEW
 70
     1
  0
VIEW
  2
ALL
 70
     0
 40
4282.6198079999986
 10
0.0
 20
41.309904000000003
 41
5940.0
 11
0.0
 21
0.0
 31
1.0
 12
0.0
 22
0.0
 32
0.0
 42
50.0
 43
0.0
 44
0.0
 50
0.0
 71
     0
  0
ENDTAB
  0
TABLE
  2
UCS
 70
     0
  0
ENDTAB
  0
TABLE
  2
VPORT
 70
     1
  0
VPORT
  2
*ACTIVE
 70
     0
 10
0.0
 20
0.0
 11
1.0
 21
1.0
 12
287.09336743584458
 22
93.406687133719913
 13
0.0
 23
0.0
 14
1.0
 24
1.0
 15
0.0
 25
0.0
 16
0.0
 26
0.0
 36
1.0
 17
0.0
 27
0.0
 37
0.0
 40
1071.863548019021
 41
1.747787610619469
 42
50.0
 43
0.0
 44
0.0
 50
0.0
 51
0.0
 71
     0
 72
  1000
 73
     1
 74
     3
 75
     0
 76
     0
 77
     0
 78
     0
  0
ENDTAB
  0
ENDSEC
  0
SECTION
  2
BLOCKS
  0
BLOCK
  8
0
  2
_ORIGIN
 70
     0
 10
0.0
 20
0.0
 30
0.0
  3
_ORIGIN
  1
_ORIGIN
  0
CIRCLE
  8
0
  6
CONTINUOUS
 62
     7
 10
0.0
 20
0.0
 30
0.0
 40
0.5
  0
LINE
  8
0
  6
CONTINUOUS
 62
     7
 10
0.0
 20
0.0
 30
0.0
 11
-1.0
 21
0.0
 31
0.0
  0
ENDBLK
  8
0
  0
ENDSEC
  0
SECTION
  2
ENTITIES
  0
CIRCLE
  8
ARRANGE
  6
CONTINUOUS
 62
     1
 10
0.0
 20
0.0
 30
0.0
 40
40.0
  0
POINT
  8
ARRANGE
  6
CONTINUOUS
 62
     1
 10
-0.0000000000000568
 20
0.0
 30
0.0
 50
359.99829045418988
  0
TEXT
  8
ETC
  6
CONTINUOUS
 62
    61
 10
345.79045797914841
 20
503.50171197505762
 30
0.0
 40
64.0
  1
EWF-45ESA2_5
 41
0.9
  0
TEXT
  8
ETC
  6
CONTINUOUS
 62
    61
 10
341.60446397914802
 20
385.54640196022638
 30
0.0
 40
64.0
  1
産業扇
 41
0.9
  0
TEXT
  8
ETC
  6
CONTINUOUS
 62
    61
 10
392.30586222770393
 20
277.39762907400109
 30
0.0
 40
40.0
  1
EWF-45ESA2
 41
0.9
  0
TEXT
  8
NOTE
  6
CONTINUOUS
 62
     4
 10
-391.52894172444911
 20
-424.37655265318813
 30
0.0
 40
64.0
  1
4-φ14
 41
0.9
 72
     2
 11
-111.2089417244491
 21
-424.37655265318813
 31
0.0
  0
LINE
  8
SIZE
  6
CONTINUOUS
 62
    30
 10
10.01615508885283
 20
323.38933764135692
 30
0.0
 11
10.01615508885283
 21
366.23899329382732
 31
0.0
  0
LINE
  8
SIZE
  6
CONTINUOUS
 62
    30
 10
-0.0000000000000568
 20
328.49757673667187
 30
0.0
 11
-0.0000000000000568
 21
366.23899329382732
 31
0.0
  0
LINE
  8
SIZE
  6
CONTINUOUS
 62
    30
 10
22.01615508885283
 20
346.23899329382732
 30
0.0
 11
34.016155088852827
 21
346.23899329382732
 31
0.0
  0
LINE
  8
SIZE
  6
CONTINUOUS
 62
    30
 10
-12.00000000000006
 20
346.23899329382732
 30
0.0
 11
-157.46056592977189
 21
346.23899329382732
 31
0.0
  0
LINE
  8
SIZE
  6
CONTINUOUS
 62
    30
 10
10.01615508885283
 20
346.23899329382732
 30
0.0
 11
-0.0000000000000568
 21
346.23899329382732
 31
0.0
  0
CIRCLE
  8
SIZE
  6
CONTINUOUS
 62
    30
 10
10.01615508885283
 20
346.23899329382732
 30
0.0
 40
6.0
  0
LINE
  8
SIZE
  6
CONTINUOUS
 62
    30
 10
10.01615508885283
 20
346.23899329382732
 30
0.0
 11
22.01615508885283
 21
346.23899329382732
 31
0.0
  0
CIRCLE
  8
SIZE
  6
CONTINUOUS
 62
    30
 10
-0.0000000000000568
 20
346.23899329382732
 30
0.0
 40
6.0
  0
LINE
  8
SIZE
  6
CONTINUOUS
 62
    30
 10
-0.0000000000000568
 20
346.23899329382732
 30
0.0
 11
-12.00000000000006
 21
346.23899329382732
 31
0.0
  0
TEXT
  8
SIZE
  6
CONTINUOUS
 62
    30
 10
-132.4605659297718
 20
371.23899329382732
 30
0.0
 40
64.0
  1
10
 41
0.9
 72
     1
 11
-91.317708786914693
 21
371.23899329382732
 31
0.0
  0
POINT
  8
DEFPOINTS
  6
CONTINUOUS
 62
    30
 10
10.01615508885283
 20
303.38933764135692
 30
0.0
  0
POINT
  8
DEFPOINTS
  6
CONTINUOUS
 62
    30
 10
-0.0000000000000568
 20
308.49757673667187
 30
0.0
  0
POINT
  8
DEFPOINTS
  6
CONTINUOUS
 62
    30
 10
-0.0000000000000568
 20
346.23899329382732
 30
0.0
  0
LINE
  8
SIZE
  6
CONTINUOUS
 62
    30
 10
20.032310177706389
 20
313.37318255250398
 30
0.0
 11
20.032310177706389
 21
366.23899329382732
 31
0.0
  0
LINE
  8
SIZE
  6
CONTINUOUS
 62
    30
 10
10.01615508885283
 20
323.38933764135692
 30
0.0
 11
10.01615508885283
 21
366.23899329382732
 31
0.0
  0
LINE
  8
SIZE
  6
CONTINUOUS
 62
    30
 10
-1.983844911147173
 20
346.23899329382732
 30
0.0
 11
-13.98384491114717
 21
346.23899329382732
 31
0.0
  0
LINE
  8
SIZE
  6
CONTINUOUS
 62
    30
 10
32.032310177706393
 20
346.23899329382732
 30
0.0
 11
276.25994873169788
 21
346.23899329382732
 31
0.0
  0
LINE
  8
SIZE
  6
CONTINUOUS
 62
    30
 10
10.01615508885283
 20
346.23899329382732
 30
0.0
 11
20.032310177706389
 21
346.23899329382732
 31
0.0
  0
CIRCLE
  8
SIZE
  6
CONTINUOUS
 62
    30
 10
10.01615508885283
 20
346.23899329382732
 30
0.0
 40
6.0
  0
LINE
  8
SIZE
  6
CONTINUOUS
 62
    30
 10
10.01615508885283
 20
346.23899329382732
 30
0.0
 11
-1.983844911147173
 21
346.23899329382732
 31
0.0
  0
CIRCLE
  8
SIZE
  6
CONTINUOUS
 62
    30
 10
20.032310177706389
 20
346.23899329382732
 30
0.0
 40
6.0
  0
LINE
  8
SIZE
  6
CONTINUOUS
 62
    30
 10
20.032310177706389
 20
346.23899329382732
 30
0.0
 11
32.032310177706393
 21
346.23899329382732
 31
0.0
  0
TEXT
  8
SIZE
  6
CONTINUOUS
 62
    30
 10
168.9742344459836
 20
371.23899329382732
 30
0.0
 40
64.0
  1
10
 41
0.9
 72
     1
 11
210.11709158884079
 21
371.23899329382732
 31
0.0
  0
POINT
  8
DEFPOINTS
  6
CONTINUOUS
 62
    30
 10
20.032310177706389
 20
293.37318255250398
 30
0.0
  0
POINT
  8
DEFPOINTS
  6
CONTINUOUS
 62
    30
 10
10.01615508885283
 20
303.38933764135692
 30
0.0
  0
POINT
  8
DEFPOINTS
  6
CONTINUOUS
 62
    30
 10
10.01615508885283
 20
346.23899329382732
 30
0.0
  0
LINE
  8
SIZE
  6
CONTINUOUS
 62
    30
 10
-18.497576736671871
 20
309.99999999999989
 30
0.0
 11
-268.99560713796342
 21
309.99999999999989
 31
0.0
  0
LINE
  8
SIZE
  6
CONTINUOUS
 62
    30
 10
-18.50000000000006
 20
-309.99999804575413
 30
0.0
 11
-268.99560713796347
 21
-309.99999804575413
 31
0.0
  0
LINE
  8
SIZE
  6
CONTINUOUS
 62
    30
 10
-248.99560713796339
 20
297.99999999999989
 30
0.0
 11
-248.99560713796339
 21
-297.99999804575413
 31
0.0
  0
CIRCLE
  8
SIZE
  6
CONTINUOUS
 62
    30
 10
-248.99560713796339
 20
309.99999999999989
 30
0.0
 40
6.0
  0
LINE
  8
SIZE
  6
CONTINUOUS
 62
    30
 10
-248.99560713796339
 20
309.99999999999989
 30
0.0
 11
-248.99560713796339
 21
297.99999999999989
 31
0.0
  0
CIRCLE
  8
SIZE
  6
CONTINUOUS
 62
    30
 10
-248.99560713796339
 20
-309.99999804575413
 30
0.0
 40
6.0
  0
LINE
  8
SIZE
  6
CONTINUOUS
 62
    30
 10
-248.99560713796339
 20
-309.99999804575413
 30
0.0
 11
-248.99560713796339
 21
-297.99999804575413
 31
0.0
  0
TEXT
  8
SIZE
  6
CONTINUOUS
 62
    30
 10
-273.99560713796347
 20
-80.859766315695964
 30
0.0
 40
64.0
  1
620
 50
90.0
 41
0.9
 72
     1
 11
-273.99560713796347
 21
-6.8026234585531142
 31
0.0
  0
POINT
  8
DEFPOINTS
  6
CONTINUOUS
 62
    30
 10
1.502423263328126
 20
309.99999999999989
 30
0.0
  0
POINT
  8
DEFPOINTS
  6
CONTINUOUS
 62
    30
 10
1.4999999999999429
 20
-309.99999804575413
 30
0.0
  0
POINT
  8
DEFPOINTS
  6
CONTINUOUS
 62
    30
 10
-248.99560713796339
 20
-309.99999804575413
 30
0.0
  0
LINE
  8
SIZE
  6
CONTINUOUS
 62
    30
 10
-42.666512094396303
 20
280.45234248788358
 30
0.0
 11
-150.43124537190661
 21
280.45234248788358
 31
0.0
  0
LINE
  8
SIZE
  6
CONTINUOUS
 62
    30
 10
-42.666512094396303
 20
-280.45234248788358
 30
0.0
 11
-150.4312453719069
 21
-280.45234248788353
 31
0.0
  0
LINE
  8
SIZE
  6
CONTINUOUS
 62
    30
 10
-130.43124537190661
 20
268.45234248788358
 30
0.0
 11
-130.4312453719069
 21
-268.45234248788353
 31
0.0
  0
CIRCLE
  8
SIZE
  6
CONTINUOUS
 62
    30
 10
-130.43124537190661
 20
280.45234248788358
 30
0.0
 40
6.0
  0
LINE
  8
SIZE
  6
CONTINUOUS
 62
    30
 10
-130.43124537190661
 20
280.45234248788358
 30
0.0
 11
-130.43124537190661
 21
268.45234248788358
 31
0.0
  0
CIRCLE
  8
SIZE
  6
CONTINUOUS
 62
    30
 10
-130.4312453719069
 20
-280.45234248788353
 30
0.0
 40
6.0
  0
LINE
  8
SIZE
  6
CONTINUOUS
 62
    30
 10
-130.4312453719069
 20
-280.45234248788353
 30
0.0
 11
-130.4312453719069
 21
-268.45234248788353
 31
0.0
  0
TEXT
  8
SIZE
  6
CONTINUOUS
 62
    30
 10
-155.43124537190681
 20
-74.057142857142793
 30
0.0
 40
64.0
  1
560
 50
90.0
 41
0.9
 72
     1
 11
-155.43124537190681
 21
0.0000000000000568
 31
0.0
  0
POINT
  8
DEFPOINTS
  6
CONTINUOUS
 62
    30
 10
-22.6665120943963
 20
280.45234248788358
 30
0.0
  0
POINT
  8
DEFPOINTS
  6
CONTINUOUS
 62
    30
 10
-22.6665120943963
 20
-280.45234248788358
 30
0.0
  0
POINT
  8
DEFPOINTS
  6
CONTINUOUS
 62
    30
 10
-130.4312453719069
 20
-280.45234248788353
 30
0.0
  0
CIRCLE
  8
FIX
  6
CONTINUOUS
 62
    11
 10
-0.0000000000000568
 20
-280.45234248788358
 30
0.0
 40
7.0
  0
CIRCLE
  8
FIX
  6
CONTINUOUS
 62
    11
 10
-0.0000000000000568
 20
280.45234248788358
 30
0.0
 40
7.0
  0
LINE
  8
SIZE
  6
CONTINUOUS
 62
    30
 10
-0.0000000000000568
 20
328.49757673667187
 30
0.0
 11
-0.0000000000000568
 21
476.47442968757059
 31
0.0
  0
LINE
  8
SIZE
  6
CONTINUOUS
 62
    30
 10
111.57996768982269
 20
288.43295638125988
 30
0.0
 11
111.57996768982269
 21
476.47442968757059
 31
0.0
  0
LINE
  8
SIZE
  6
CONTINUOUS
 62
    30
 10
99.579967689822695
 20
456.47442968757059
 30
0.0
 11
11.99999999999994
 21
456.47442968757059
 31
0.0
  0
LINE
  8
SIZE
  6
CONTINUOUS
 62
    30
 10
-0.0000000000000568
 20
456.47442968757059
 30
0.0
 11
-182.4891373583433
 21
456.47442968757059
 31
0.0
  0
CIRCLE
  8
SIZE
  6
CONTINUOUS
 62
    30
 10
111.57996768982269
 20
456.47442968757059
 30
0.0
 40
6.0
  0
LINE
  8
SIZE
  6
CONTINUOUS
 62
    30
 10
111.57996768982269
 20
456.47442968757059
 30
0.0
 11
99.579967689822695
 21
456.47442968757059
 31
0.0
  0
CIRCLE
  8
SIZE
  6
CONTINUOUS
 62
    30
 10
-0.0000000000000568
 20
456.47442968757059
 30
0.0
 40
6.0
  0
LINE
  8
SIZE
  6
CONTINUOUS
 62
    30
 10
-0.0000000000000568
 20
456.47442968757059
 30
0.0
 11
11.99999999999994
 21
456.47442968757059
 31
0.0
  0
TEXT
  8
SIZE
  6
CONTINUOUS
 62
    30
 10
-157.4891373583433
 20
481.47442968757059
 30
0.0
 40
64.0
  1
111
 41
0.9
 72
     1
 11
-106.7462802154861
 21
481.47442968757059
 31
0.0
  0
POINT
  8
DEFPOINTS
  6
CONTINUOUS
 62
    30
 10
-0.0000000000000568
 20
308.49757673667187
 30
0.0
  0
POINT
  8
DEFPOINTS
  6
CONTINUOUS
 62
    30
 10
111.57996768982269
 20
268.43295638125988
 30
0.0
  0
POINT
  8
DEFPOINTS
  6
CONTINUOUS
 62
    30
 10
111.57996768982269
 20
456.47442968757059
 30
0.0
  0
LINE
  8
SIZE
  6
CONTINUOUS
 62
    30
 10
-0.0000000000000568
 20
328.49757673667187
 30
0.0
 11
-0.0000000000000568
 21
556.65553553870768
 31
0.0
  0
LINE
  8
SIZE
  6
CONTINUOUS
 62
    30
 10
307.49596122778638
 20
-65.437803454031666
 30
0.0
 11
307.49596122778638
 21
556.65553553870768
 31
0.0
  0
LINE
  8
SIZE
  6
CONTINUOUS
 62
    30
 10
11.99999999999994
 20
536.65553553870768
 30
0.0
 11
295.49596122778638
 21
536.65553553870768
 31
0.0
  0
CIRCLE
  8
SIZE
  6
CONTINUOUS
 62
    30
 10
-0.0000000000000568
 20
536.65553553870768
 30
0.0
 40
6.0
  0
LINE
  8
SIZE
  6
CONTINUOUS
 62
    30
 10
-0.0000000000000568
 20
536.65553553870768
 30
0.0
 11
11.99999999999994
 21
536.65553553870768
 31
0.0
  0
CIRCLE
  8
SIZE
  6
CONTINUOUS
 62
    30
 10
307.49596122778638
 20
536.65553553870768
 30
0.0
 40
6.0
  0
LINE
  8
SIZE
  6
CONTINUOUS
 62
    30
 10
307.49596122778638
 20
536.65553553870768
 30
0.0
 11
295.49596122778638
 21
536.65553553870768
 31
0.0
  0
TEXT
  8
SIZE
  6
CONTINUOUS
 62
    30
 10
79.690837756750312
 20
561.65553553870768
 30
0.0
 40
64.0
  1
307
 41
0.9
 72
     1
 11
153.74798061389319
 21
561.65553553870768
 31
0.0
  0
POINT
  8
DEFPOINTS
  6
CONTINUOUS
 62
    30
 10
-0.0000000000000568
 20
308.49757673667187
 30
0.0
  0
POINT
  8
DEFPOINTS
  6
CONTINUOUS
 62
    30
 10
307.49596122778638
 20
-85.437803454031666
 30
0.0
  0
POINT
  8
DEFPOINTS
  6
CONTINUOUS
 62
    30
 10
307.49596122778638
 20
536.65553553870768
 30
0.0
  0
TEXT
  8
NOTE
  6
CONTINUOUS
 62
     4
 10
262.26614815296688
 20
-383.60710404418882
 30
0.0
 40
64.0
  1
EL
 41
0.9
  0
LINE
  8
SIZE
  6
CONTINUOUS
 62
    30
 10
306.98390333709028
 20
87.088913789207311
 30
0.0
 11
456.47185397387187
 21
87.088913789207311
 31
0.0
  0
LINE
  8
SIZE
  6
CONTINUOUS
 62
    30
 10
306.98390330370302
 20
-122.64627275500639
 30
0.0
 11
456.47185397387187
 21
-122.64627275500639
 31
0.0
  0
LINE
  8
SIZE
  6
CONTINUOUS
 62
    30
 10
436.47185397387187
 20
75.088913789207311
 30
0.0
 11
436.47185397387187
 21
-110.64627275500639
 31
0.0
  0
CIRCLE
  8
SIZE
  6
CONTINUOUS
 62
    30
 10
436.47185397387187
 20
87.088913789207311
 30
0.0
 40
6.0
  0
LINE
  8
SIZE
  6
CONTINUOUS
 62
    30
 10
436.47185397387187
 20
87.088913789207311
 30
0.0
 11
436.47185397387187
 21
75.088913789207311
 31
0.0
  0
CIRCLE
  8
SIZE
  6
CONTINUOUS
 62
    30
 10
436.47185397387187
 20
-122.64627275500639
 30
0.0
 40
6.0
  0
LINE
  8
SIZE
  6
CONTINUOUS
 62
    30
 10
436.47185397387187
 20
-122.64627275500639
 30
0.0
 11
436.47185397387187
 21
-110.64627275500639
 31
0.0
  0
TEXT
  8
SIZE
  6
CONTINUOUS
 62
    30
 10
411.47185397387187
 20
-66.303045316167484
 30
0.0
 40
64.0
  1
211
 50
90.0
 41
0.9
 72
     1
 11
411.47185397387187
 21
-10.074473887596071
 31
0.0
  0
POINT
  8
DEFPOINTS
  6
CONTINUOUS
 62
    30
 10
286.98390333709028
 20
87.088913789207311
 30
0.0
  0
POINT
  8
DEFPOINTS
  6
CONTINUOUS
 62
    30
 10
286.98390330370302
 20
-122.64627275500639
 30
0.0
  0
POINT
  8
DEFPOINTS
  6
CONTINUOUS
 62
    30
 10
436.47185397387187
 20
-122.64627275500639
 30
0.0
  0
LINE
  8
OUTLINE
  6
CONTINUOUS
 62
     3
 10
6.4103392568660524
 20
-306.99515347334432
 30
0.0
 11
3.0048465266560811
 21
-306.99515347334432
 31
0.0
  0
LINE
  8
OUTLINE
  6
CONTINUOUS
 62
     3
 10
16.42649434571894
 20
-296.97899838449109
 30
0.0
 11
13.89004062544012
 21
-296.97899838449109
 31
0.0
  0
LINE
  8
OUTLINE
  6
CONTINUOUS
 62
     3
 10
166.2681744749593
 20
-261.32961628963949
 30
0.0
 11
20.032310177706389
 21
-261.32961628963949
 31
0.0
  0
LINE
  8
OUTLINE
  6
CONTINUOUS
 62
     3
 10
305.79321486268191
 20
-93.951534733441179
 30
0.0
 11
306.99515347334398
 21
-93.951534733441179
 31
0.0
  0
LINE
  8
OUTLINE
  6
CONTINUOUS
 62
     3
 10
305.79321486268191
 20
-84.936995153473447
 30
0.0
 11
306.99515347334398
 21
-84.936995153473447
 31
0.0
  0
LINE
  8
OUTLINE
  6
CONTINUOUS
 62
     3
 10
306.794830371567
 20
-40.064620355412103
 30
0.0
 11
305.79321486268191
 21
-40.064620355412103
 31
0.0
  0
LINE
  8
OUTLINE
  6
CONTINUOUS
 62
     3
 10
3.0048465266560811
 20
308.49757673667187
 30
0.0
 11
3.0048465266560811
 21
306.99515347334398
 31
0.0
  0
LINE
  8
OUTLINE
  6
CONTINUOUS
 62
     3
 10
10.01615508885328
 20
303.38933764135692
 30
0.0
 11
10.01615508885328
 21
300.17892012222768
 31
0.0
  0
LINE
  8
OUTLINE
  6
CONTINUOUS
 62
     3
 10
10.01615508885328
 20
-300.17892012300422
 30
0.0
 11
10.01615508885328
 21
-303.38933764135697
 31
0.0
  0
LINE
  8
OUTLINE
  6
CONTINUOUS
 62
     3
 10
20.032310177706389
 20
293.37318255250398
 30
0.0
 11
20.032310177706389
 21
261.32961628886301
 31
0.0
  0
LINE
  8
OUTLINE
  6
CONTINUOUS
 62
     3
 10
20.032310177706389
 20
-261.32961628963949
 30
0.0
 11
20.032310177706389
 21
-293.37318255250398
 31
0.0
  0
LINE
  8
OUTLINE
  6
CONTINUOUS
 62
     3
 10
306.794830371567
 20
30.048465266558821
 30
0.0
 11
305.79321486268191
 21
30.048465266558821
 31
0.0
  0
LINE
  8
OUTLINE
  6
CONTINUOUS
 62
     3
 10
107.57350565428101
 20
-268.43295638126023
 30
0.0
 11
107.57350565428101
 21
-261.32961628963949
 31
0.0
  0
LINE
  8
OUTLINE
  6
CONTINUOUS
 62
     3
 10
107.57350565428101
 20
261.32961628886301
 30
0.0
 11
107.57350565428101
 21
268.43295638125988
 31
0.0
  0
LINE
  8
OUTLINE
  6
CONTINUOUS
 62
     3
 10
111.579967689822
 20
-268.43295638126023
 30
0.0
 11
111.579967689822
 21
-261.32961628963949
 31
0.0
  0
LINE
  8
OUTLINE
  6
CONTINUOUS
 62
     3
 10
111.579967689822
 20
261.32961628886301
 30
0.0
 11
111.579967689822
 21
268.43295638125988
 31
0.0
  0
LINE
  8
OUTLINE
  6
CONTINUOUS
 62
     3
 10
20.032310177706389
 20
261.32961628886301
 30
0.0
 11
166.2681744749593
 21
261.32961628886301
 31
0.0
  0
LINE
  8
OUTLINE
  6
CONTINUOUS
 62
     3
 10
274.44264943457199
 20
-180.5892167830084
 30
0.0
 11
274.44264943457199
 21
-131.31179321486269
 31
0.0
  0
LINE
  8
OUTLINE
  6
CONTINUOUS
 62
     3
 10
274.44264943457199
 20
95.754442649434452
 30
0.0
 11
274.44264943457199
 21
180.5892167830082
 31
0.0
  0
LINE
  8
OUTLINE
  6
CONTINUOUS
 62
     3
 10
13.89004062544012
 20
296.97899838449098
 30
0.0
 11
16.42649434571894
 21
296.97899838449098
 31
0.0
  0
LINE
  8
OUTLINE
  6
CONTINUOUS
 62
     3
 10
305.89337641357042
 20
35.55735056542801
 30
0.0
 11
305.89337641357042
 21
32.552504038772163
 31
0.0
  0
LINE
  8
OUTLINE
  6
CONTINUOUS
 62
     3
 10
305.89337641357042
 20
-45.573505654281178
 30
0.0
 11
305.89337641357042
 21
-48.578352180937088
 31
0.0
  0
LINE
  8
OUTLINE
  6
CONTINUOUS
 62
     3
 10
306.794830371567
 20
30.048465266558821
 30
0.0
 11
306.794830371567
 21
-40.064620355412103
 31
0.0
  0
LINE
  8
OUTLINE
  6
CONTINUOUS
 62
     3
 10
307.49596122778678
 20
-85.437803463851537
 30
0.0
 11
307.49596122778678
 21
-93.450726433156888
 31
0.0
  0
LINE
  8
OUTLINE
  6
CONTINUOUS
 62
     3
 10
3.0048465266560811
 20
306.99515347334398
 30
0.0
 11
6.4103392568660524
 21
306.99515347334398
 31
0.0
  0
ARC
  8
OUTLINE
  6
CONTINUOUS
 62
     3
 10
105.4730840690037
 20
-333.49308259971713
 30
0.0
 40
83.242090186171708
 50
119.88618495389289
 51
120.6714198391039
  0
ARC
  8
OUTLINE
  6
CONTINUOUS
 62
     3
 10
6.4103392568660524
 20
-303.38933764135697
 30
0.0
 40
3.605815831987059
 50
270.0
 51
0.0
  0
ARC
  8
OUTLINE
  6
CONTINUOUS
 62
     3
 10
16.42649434571894
 20
-293.37318255250398
 30
0.0
 40
3.605815831987059
 50
270.0
 51
0.0
  0
ARC
  8
OUTLINE
  6
CONTINUOUS
 62
     3
 10
109.57673667205189
 20
-268.43295638126023
 30
0.0
 40
2.0032310177703039
 50
180.0
 51
0.0
  0
ARC
  8
OUTLINE
  6
CONTINUOUS
 62
     3
 10
1.502423263328126
 20
-308.49757673667222
 30
0.0
 40
1.5024232633279551
 50
180.0
 51
0.0
  0
ARC
  8
OUTLINE
  6
CONTINUOUS
 62
     3
 10
305.09208400646162
 20
-47.075928917609133
 30
0.0
 40
1.7027463651050121
 50
298.07248693589969
 51
61.927513064100353
  0
ARC
  8
OUTLINE
  6
CONTINUOUS
 62
     3
 10
306.99515347334398
 20
-85.43780290791608
 30
0.0
 40
0.500807754442646
 50
359.999937520701
 51
90.0
  0
ARC
  8
OUTLINE
  6
CONTINUOUS
 62
     3
 10
306.99515347334398
 20
-93.450726978998489
 30
0.0
 40
0.500807754442675
 50
270.0
 51
0.0000624792989963
  0
ARC
  8
OUTLINE
  6
CONTINUOUS
 62
     3
 10
305.89337641357042
 20
-45.473344103392613
 30
0.0
 40
0.100161550888515
 50
180.0
 51
270.0
  0
ARC
  8
OUTLINE
  6
CONTINUOUS
 62
     3
 10
305.89337641357042
 20
-48.678513731825603
 30
0.0
 40
0.100161550888547
 50
90.0
 51
180.0
  0
ARC
  8
OUTLINE
  6
CONTINUOUS
 62
     3
 10
6.4103392568660524
 20
303.38933764135692
 30
0.0
 40
3.605815831986773
 50
0.0
 51
90.0
  0
ARC
  8
OUTLINE
  6
CONTINUOUS
 62
     3
 10
16.42649434571894
 20
293.37318255250398
 30
0.0
 40
3.6058158319870022
 50
0.0
 51
90.0
  0
ARC
  8
OUTLINE
  6
CONTINUOUS
 62
     3
 10
109.57673667205189
 20
268.43295638125988
 30
0.0
 40
2.0032310177707591
 50
0.0
 51
180.0
  0
ARC
  8
OUTLINE
  6
CONTINUOUS
 62
     3
 10
1.502423263328126
 20
308.49757673667187
 30
0.0
 40
1.5024232633279551
 50
0.0
 51
180.0
  0
ARC
  8
OUTLINE
  6
CONTINUOUS
 62
     3
 10
305.09208400646162
 20
34.054927302100047
 30
0.0
 40
1.7027463651050121
 50
298.07248693589969
 51
61.927513064100353
  0
ARC
  8
OUTLINE
  6
CONTINUOUS
 62
     3
 10
305.89337641357042
 20
35.657512116316582
 30
0.0
 40
0.100161550888515
 50
180.0
 51
270.0
  0
ARC
  8
OUTLINE
  6
CONTINUOUS
 62
     3
 10
305.89337641357042
 20
32.452342487883577
 30
0.0
 40
0.100161550888551
 50
90.0
 51
180.0
  0
LINE
  8
OUTLINE
  6
CONTINUOUS
 62
     3
 10
274.44264943457199
 20
-131.31179321486269
 30
0.0
 11
283.45718901453961
 21
-131.31179321486269
 31
0.0
  0
LINE
  8
OUTLINE
  6
CONTINUOUS
 62
     3
 10
274.44264943457199
 20
95.754442649434452
 30
0.0
 11
283.45718901453961
 21
95.754442649434452
 31
0.0
  0
LINE
  8
OUTLINE
  6
CONTINUOUS
 62
     3
 10
111.579967689822
 20
268.43295638125988
 30
0.0
 11
111.579967689822
 21
261.32961628886301
 31
0.0
  0
LINE
  8
OUTLINE
  6
CONTINUOUS
 62
     3
 10
111.579967689822
 20
-261.32961628963949
 30
0.0
 11
111.579967689822
 21
-268.43295638126023
 31
0.0
  0
LINE
  8
OUTLINE
  6
CONTINUOUS
 62
     3
 10
303.18998086794147
 20
-114.8172498304593
 30
0.0
 11
286.98390330370302
 21
-122.64627275500639
 31
0.0
  0
LINE
  8
OUTLINE
  6
CONTINUOUS
 62
     3
 10
303.18998082290773
 20
79.259891120111149
 30
0.0
 11
286.98390333709028
 21
87.088913789207311
 31
0.0
  0
LINE
  8
OUTLINE
  6
CONTINUOUS
 62
     3
 10
285.05977382875602
 20
94.151842639390736
 30
0.0
 11
285.05977382875602
 21
90.15533576598915
 31
0.0
  0
LINE
  8
OUTLINE
  6
CONTINUOUS
 62
     3
 10
305.79321486268191
 20
75.111169310064895
 30
0.0
 11
305.79321486268191
 21
-110.6685324368386
 31
0.0
  0
ARC
  8
OUTLINE
  6
CONTINUOUS
 62
     3
 10
301.18578352180953
 20
-110.66856129578851
 30
0.0
 40
4.6074313408722993
 50
295.78480654059808
 51
0.0
  0
ARC
  8
OUTLINE
  6
CONTINUOUS
 62
     3
 10
288.46526655896582
 20
-125.7126947154827
 30
0.0
 40
3.4054927302099278
 50
115.7848065405982
 51
180.0
  0
ARC
  8
OUTLINE
  6
CONTINUOUS
 62
     3
 10
283.45718901453961
 20
-129.7092084006463
 30
0.0
 40
1.6025848142165131
 50
270.0
 51
0.0
  0
ARC
  8
OUTLINE
  6
CONTINUOUS
 62
     3
 10
301.18578352180953
 20
75.111202563699919
 30
0.0
 40
4.607431340872381
 50
0.0
 51
64.2151940825987
  0
ARC
  8
OUTLINE
  6
CONTINUOUS
 62
     3
 10
288.46526655896582
 20
90.15533576598915
 30
0.0
 40
3.405492730209744
 50
180.0
 51
244.21519408259871
  0
ARC
  8
OUTLINE
  6
CONTINUOUS
 62
     3
 10
283.45718901453961
 20
94.151857835217982
 30
0.0
 40
1.6025848142166981
 50
0.0
 51
90.0
  0
LINE
  8
DETAIL
  6
CONTINUOUS
 62
     5
 10
6.4103392568660524
 20
-306.99515347334432
 30
0.0
 11
3.0048465266560811
 21
-306.99515347334432
 31
0.0
  0
LINE
  8
DETAIL
  6
CONTINUOUS
 62
     5
 10
16.4817972944108
 20
-350.92981927552569
 30
0.0
 11
11.505360261361551
 21
-349.68571001668118
 31
0.0
  0
LINE
  8
DETAIL
  6
CONTINUOUS
 62
     5
 10
22.558755590437329
 20
-331.16472928571977
 30
0.0
 11
14.59073544348888
 21
-329.17272424878843
 31
0.0
  0
LINE
  8
DETAIL
  6
CONTINUOUS
 62
     5
 10
3.0048465266560811
 20
-303.82456339745278
 30
0.0
 11
5.1082390953153549
 21
-303.82456339745278
 31
0.0
  0
LINE
  8
DETAIL
  6
CONTINUOUS
 62
     5
 10
16.42649434571894
 20
-296.97899838449109
 30
0.0
 11
13.89004062544012
 21
-296.97899838449109
 31
0.0
  0
LINE
  8
DETAIL
  6
CONTINUOUS
 62
     5
 10
84.886914378029076
 20
-262.14362758317361
 30
0.0
 11
88.392568659127789
 21
-262.14362758317361
 31
0.0
  0
LINE
  8
DETAIL
  6
CONTINUOUS
 62
     5
 10
166.2681744749593
 20
-261.32961628963949
 30
0.0
 11
14.52342487883692
 21
-261.32961628963949
 31
0.0
  0
LINE
  8
DETAIL
  6
CONTINUOUS
 62
     5
 10
14.52342487883692
 20
-257.08012157831479
 30
0.0
 11
166.2681744749593
 21
-257.08012157831479
 31
0.0
  0
LINE
  8
DETAIL
  6
CONTINUOUS
 62
     5
 10
5.1082390953153549
 20
-254.24712510435691
 30
0.0
 11
3.0048465266560811
 21
-254.24712510435691
 31
0.0
  0
LINE
  8
DETAIL
  6
CONTINUOUS
 62
     5
 10
3.0048465266560811
 20
-242.9151392093024
 30
0.0
 11
6.4103392568660524
 21
-242.9151392093024
 31
0.0
  0
LINE
  8
DETAIL
  6
CONTINUOUS
 62
     5
 10
14.52342487883692
 20
-235.94948491325101
 30
0.0
 11
18.082583470388901
 21
-235.94948491325101
 31
0.0
  0
LINE
  8
DETAIL
  6
CONTINUOUS
 62
     5
 10
14.52342487883692
 20
-233.05806999506589
 30
0.0
 11
18.082583470388901
 21
-233.05806999506589
 31
0.0
  0
LINE
  8
DETAIL
  6
CONTINUOUS
 62
     5
 10
161.86555911043999
 20
-230.16665507610639
 30
0.0
 11
18.529886914378441
 21
-230.16665507610421
 31
0.0
  0
LINE
  8
DETAIL
  6
CONTINUOUS
 62
     5
 10
14.52342487883692
 20
-227.27524015791931
 30
0.0
 11
18.082583470388901
 21
-227.27524015791931
 31
0.0
  0
LINE
  8
DETAIL
  6
CONTINUOUS
 62
     5
 10
14.52342487883692
 20
-224.38382523973411
 30
0.0
 11
18.082583470388901
 21
-224.38382523973411
 31
0.0
  0
LINE
  8
DETAIL
  6
CONTINUOUS
 62
     5
 10
14.52342487883692
 20
-213.16867623313439
 30
0.0
 11
10.01615508885328
 21
-213.16867623313439
 31
0.0
  0
LINE
  8
DETAIL
  6
CONTINUOUS
 62
     5
 10
13.021001615508739
 20
-201.12844121861991
 30
0.0
 11
16.42649434571894
 21
-201.12844121861991
 31
0.0
  0
LINE
  8
DETAIL
  6
CONTINUOUS
 62
     5
 10
236.38126009693079
 20
-110.6871533053813
 30
0.0
 11
233.67689822294051
 21
-110.6871533053813
 31
0.0
  0
LINE
  8
DETAIL
  6
CONTINUOUS
 62
     5
 10
236.38126009693079
 20
-107.6823067787254
 30
0.0
 11
233.67689822294051
 21
-107.6823067787254
 31
0.0
  0
LINE
  8
DETAIL
  6
CONTINUOUS
 62
     5
 10
181.29240710823899
 20
-95.738626137380948
 30
0.0
 11
201.82552504038779
 21
-95.738626137380948
 31
0.0
  0
LINE
  8
DETAIL
  6
CONTINUOUS
 62
     5
 10
208.83683360258479
 20
-95.738626137380948
 30
0.0
 11
229.36995153473359
 21
-95.738626137380948
 31
0.0
  0
LINE
  8
DETAIL
  6
CONTINUOUS
 62
     5
 10
305.79321486268191
 20
-93.951534733441179
 30
0.0
 11
306.99515347334398
 21
-93.951534733441179
 31
0.0
  0
LINE
  8
DETAIL
  6
CONTINUOUS
 62
     5
 10
275.74474959612269
 20
-90.266614867791361
 30
0.0
 11
274.94345718901491
 21
-90.266614867791361
 31
0.0
  0
LINE
  8
DETAIL
  6
CONTINUOUS
 62
     5
 10
275.74474959612269
 20
-89.746160182114238
 30
0.0
 11
274.94345718901491
 21
-89.746160182114238
 31
0.0
  0
LINE
  8
DETAIL
  6
CONTINUOUS
 62
     5
 10
305.79321486268191
 20
-84.936995153473447
 30
0.0
 11
306.99515347334398
 21
-84.936995153473447
 31
0.0
  0
LINE
  8
DETAIL
  6
CONTINUOUS
 62
     5
 10
181.29240710823899
 20
-81.605500137205638
 30
0.0
 11
201.82552504038779
 21
-81.605500137205638
 31
0.0
  0
LINE
  8
DETAIL
  6
CONTINUOUS
 62
     5
 10
208.83683360258479
 20
-81.605500137205638
 30
0.0
 11
229.36995153473359
 21
-81.605500137205638
 31
0.0
  0
LINE
  8
DETAIL
  6
CONTINUOUS
 62
     5
 10
272.43941841680129
 20
-76.122778675282802
 30
0.0
 11
274.74313408723759
 21
-76.122778675282802
 31
0.0
  0
LINE
  8
DETAIL
  6
CONTINUOUS
 62
     5
 10
231.37318255250409
 20
-66.106623586429862
 30
0.0
 11
229.36995153473359
 21
-66.106623586429862
 31
0.0
  0
LINE
  8
DETAIL
  6
CONTINUOUS
 62
     5
 10
181.29240710823899
 20
-65.305331179321627
 30
0.0
 11
147.8384491114704
 21
-65.305331179321627
 31
0.0
  0
LINE
  8
DETAIL
  6
CONTINUOUS
 62
     5
 10
233.3764135702751
 20
-62.052860910696317
 30
0.0
 11
227.44740724056069
 21
-62.052860910696317
 31
0.0
  0
LINE
  8
DETAIL
  6
CONTINUOUS
 62
     5
 10
233.3764135702751
 20
-58.29402151690033
 30
0.0
 11
227.44740724056069
 21
-58.29402151690033
 31
0.0
  0
LINE
  8
DETAIL
  6
CONTINUOUS
 62
     5
 10
223.66074313408731
 20
-57.79043252698159
 30
0.0
 11
226.8659127625198
 21
-57.79043252698159
 31
0.0
  0
LINE
  8
DETAIL
  6
CONTINUOUS
 62
     5
 10
181.29240710823899
 20
-55.490888453920491
 30
0.0
 11
201.82552504038779
 21
-55.490888453920491
 31
0.0
  0
LINE
  8
DETAIL
  6
CONTINUOUS
 62
     5
 10
208.83683360258479
 20
-55.490888453920491
 30
0.0
 11
229.36995153473359
 21
-55.490888453920491
 31
0.0
  0
LINE
  8
DETAIL
  6
CONTINUOUS
 62
     5
 10
233.3764135702751
 20
-50.776342728531972
 30
0.0
 11
229.36995153473359
 21
-50.776342728531972
 31
0.0
  0
LINE
  8
DETAIL
  6
CONTINUOUS
 62
     5
 10
18.082583470388901
 20
-224.38382523973411
 30
0.0
 11
18.529886914378441
 21
-225.15857753167799
 31
0.0
  0
LINE
  8
DETAIL
  6
CONTINUOUS
 62
     5
 10
233.3764135702751
 20
-47.017503334736091
 30
0.0
 11
229.36995153473359
 21
-47.017503334736091
 31
0.0
  0
LINE
  8
DETAIL
  6
CONTINUOUS
 62
     5
 10
306.794830371567
 20
-40.064620355412103
 30
0.0
 11
305.79321486268191
 21
-40.064620355412103
 31
0.0
  0
LINE
  8
DETAIL
  6
CONTINUOUS
 62
     5
 10
201.82552504038779
 20
-37.998431370051833
 30
0.0
 11
208.83683360258479
 21
-37.998431370051833
 31
0.0
  0
LINE
  8
DETAIL
  6
CONTINUOUS
 62
     5
 10
181.29240710823899
 20
-21.370503985823689
 30
0.0
 11
201.82552504038779
 21
-21.370503985823689
 31
0.0
  0
LINE
  8
DETAIL
  6
CONTINUOUS
 62
     5
 10
208.83683360258479
 20
-21.370503985823689
 30
0.0
 11
229.36995153473359
 21
-21.370503985823689
 31
0.0
  0
LINE
  8
DETAIL
  6
CONTINUOUS
 62
     5
 10
114.0840064620353
 20
-14.02261712439434
 30
0.0
 11
111.579967689822
 21
-14.02261712439434
 31
0.0
  0
LINE
  8
DETAIL
  6
CONTINUOUS
 62
     5
 10
116.08723747980611
 20
-13.867168484502489
 30
0.0
 11
114.0840064620353
 21
-13.867168484502489
 31
0.0
  0
LINE
  8
DETAIL
  6
CONTINUOUS
 62
     5
 10
114.0840064620353
 20
-13.843787214637301
 30
0.0
 11
116.08723747980611
 21
-13.843787214637301
 31
0.0
  0
LINE
  8
DETAIL
  6
CONTINUOUS
 62
     5
 10
131.42065727414811
 20
-8.5137318255251557
 30
0.0
 11
127.1050080775444
 21
-8.5137318255251557
 31
0.0
  0
LINE
  8
DETAIL
  6
CONTINUOUS
 62
     5
 10
124.1001615508889
 20
-8.5137318255251557
 30
0.0
 11
116.08723747980611
 21
-8.5137318255251557
 31
0.0
  0
LINE
  8
DETAIL
  6
CONTINUOUS
 62
     5
 10
127.1050080775444
 20
-7.2617124394185453
 30
0.0
 11
124.1001615508889
 21
-7.2617124394185453
 31
0.0
  0
LINE
  8
DETAIL
  6
CONTINUOUS
 62
     5
 10
122.15811019215759
 20
8.5137318255249284
 30
0.0
 11
116.08723747980611
 21
8.5137318255249284
 31
0.0
  0
LINE
  8
DETAIL
  6
CONTINUOUS
 62
     5
 10
116.08723747980611
 20
10.53135295082086
 30
0.0
 11
114.0840064620353
 21
10.53135295082086
 31
0.0
  0
LINE
  8
DETAIL
  6
CONTINUOUS
 62
     5
 10
114.0840064620353
 20
14.02261712439412
 30
0.0
 11
111.579967689822
 21
14.02261712439412
 31
0.0
  0
LINE
  8
DETAIL
  6
CONTINUOUS
 62
     5
 10
3.0048465266560811
 20
308.49757673667187
 30
0.0
 11
3.0048465266560811
 21
-308.49757673667222
 31
0.0
  0
LINE
  8
DETAIL
  6
CONTINUOUS
 62
     5
 10
5.1082390953153549
 20
303.82456339745272
 30
0.0
 11
5.1082390953153549
 21
253.84381916672291
 31
0.0
  0
LINE
  8
DETAIL
  6
CONTINUOUS
 62
     5
 10
5.1082390953153549
 20
-303.82456339745278
 30
0.0
 11
5.1082390953153549
 21
-253.8438191674995
 31
0.0
  0
LINE
  8
DETAIL
  6
CONTINUOUS
 62
     5
 10
10.01615508885328
 20
303.38933764135692
 30
0.0
 11
10.01615508885328
 21
300.17892012222768
 31
0.0
  0
LINE
  8
DETAIL
  6
CONTINUOUS
 62
     5
 10
10.01615508885328
 20
239.3093233765388
 30
0.0
 11
10.01615508885328
 21
-239.30932337731531
 31
0.0
  0
LINE
  8
DETAIL
  6
CONTINUOUS
 62
     5
 10
10.01615508885328
 20
-239.30932337731531
 30
0.0
 11
10.01615508885328
 21
-244.92793762657951
 31
0.0
  0
LINE
  8
DETAIL
  6
CONTINUOUS
 62
     5
 10
10.01615508885328
 20
-300.17892012300422
 30
0.0
 11
10.01615508885328
 21
-303.38933764135697
 31
0.0
  0
LINE
  8
DETAIL
  6
CONTINUOUS
 62
     5
 10
10.01615508885328
 20
239.3093233765388
 30
0.0
 11
10.01615508885328
 21
244.92793762580291
 31
0.0
  0
LINE
  8
DETAIL
  6
CONTINUOUS
 62
     5
 10
14.52342487883692
 20
294.50537591889878
 30
0.0
 11
14.52342487883692
 21
254.54418187391519
 31
0.0
  0
LINE
  8
DETAIL
  6
CONTINUOUS
 62
     5
 10
14.52342487883692
 20
250.22341240252459
 30
0.0
 11
14.52342487883692
 21
213.16867623235771
 31
0.0
  0
LINE
  8
DETAIL
  6
CONTINUOUS
 62
     5
 10
14.52342487883692
 20
-213.16867623313439
 30
0.0
 11
14.52342487883692
 21
-254.54418187469159
 31
0.0
  0
LINE
  8
DETAIL
  6
CONTINUOUS
 62
     5
 10
14.52342487883692
 20
-254.54418187469159
 30
0.0
 11
14.52342487883692
 21
-294.50537591967537
 31
0.0
  0
LINE
  8
DETAIL
  6
CONTINUOUS
 62
     5
 10
14.52342487883692
 20
250.22341240252459
 30
0.0
 11
14.52342487883692
 21
254.54418187391519
 31
0.0
  0
LINE
  8
DETAIL
  6
CONTINUOUS
 62
     5
 10
18.529886914378441
 20
266.33769383328928
 30
0.0
 11
18.529886914378441
 21
261.32961628886301
 31
0.0
  0
LINE
  8
DETAIL
  6
CONTINUOUS
 62
     5
 10
18.529886914378441
 20
-225.15857753167799
 30
0.0
 11
18.529886914378441
 21
-235.17473262053079
 31
0.0
  0
LINE
  8
DETAIL
  6
CONTINUOUS
 62
     5
 10
20.032310177706389
 20
293.37318255250398
 30
0.0
 11
20.032310177706389
 21
261.32961628886301
 31
0.0
  0
LINE
  8
DETAIL
  6
CONTINUOUS
 62
     5
 10
20.032310177706389
 20
230.16665507610421
 30
0.0
 11
20.032310177706389
 21
-230.16665507610421
 31
0.0
  0
LINE
  8
DETAIL
  6
CONTINUOUS
 62
     5
 10
20.032310177706389
 20
-261.32961628963949
 30
0.0
 11
20.032310177706389
 21
-293.37318255250398
 31
0.0
  0
LINE
  8
DETAIL
  6
CONTINUOUS
 62
     5
 10
181.29240710823899
 20
21.370503985047041
 30
0.0
 11
201.82552504038779
 21
21.370503985047041
 31
0.0
  0
LINE
  8
DETAIL
  6
CONTINUOUS
 62
     5
 10
208.83683360258479
 20
21.370503985047041
 30
0.0
 11
229.36995153473359
 21
21.370503985047041
 31
0.0
  0
LINE
  8
DETAIL
  6
CONTINUOUS
 62
     5
 10
306.794830371567
 20
30.048465266558821
 30
0.0
 11
305.79321486268191
 21
30.048465266558821
 31
0.0
  0
LINE
  8
DETAIL
  6
CONTINUOUS
 62
     5
 10
208.83683360258479
 20
37.998970423213173
 30
0.0
 11
201.82552504038779
 21
37.998970423213173
 31
0.0
  0
LINE
  8
DETAIL
  6
CONTINUOUS
 62
     5
 10
233.3764135702751
 20
47.017503334735864
 30
0.0
 11
229.36995153473359
 21
47.017503334735864
 31
0.0
  0
LINE
  8
DETAIL
  6
CONTINUOUS
 62
     5
 10
233.3764135702751
 20
50.776342728531802
 30
0.0
 11
229.36995153473359
 21
50.776342728531802
 31
0.0
  0
LINE
  8
DETAIL
  6
CONTINUOUS
 62
     5
 10
181.29240710823899
 20
55.490888453143782
 30
0.0
 11
201.82552504038779
 21
55.490888453143782
 31
0.0
  0
LINE
  8
DETAIL
  6
CONTINUOUS
 62
     5
 10
208.83683360258479
 20
55.490888453143782
 30
0.0
 11
229.36995153473359
 21
55.490888453143782
 31
0.0
  0
LINE
  8
DETAIL
  6
CONTINUOUS
 62
     5
 10
223.66074313408731
 20
57.790432526205052
 30
0.0
 11
226.8659127625198
 21
57.790432526205052
 31
0.0
  0
LINE
  8
DETAIL
  6
CONTINUOUS
 62
     5
 10
233.3764135702751
 20
58.294021516123678
 30
0.0
 11
227.44740724056069
 21
58.294021516123678
 31
0.0
  0
LINE
  8
DETAIL
  6
CONTINUOUS
 62
     5
 10
233.3764135702751
 20
62.052860909919623
 30
0.0
 11
227.44740724056069
 21
62.052860909919623
 31
0.0
  0
LINE
  8
DETAIL
  6
CONTINUOUS
 62
     5
 10
272.43941841680129
 20
65.105008077544255
 30
0.0
 11
274.74313408723759
 21
65.105008077544255
 31
0.0
  0
LINE
  8
DETAIL
  6
CONTINUOUS
 62
     5
 10
181.29240710823899
 20
65.305331179321399
 30
0.0
 11
147.8384491114704
 21
65.305331179321399
 31
0.0
  0
LINE
  8
DETAIL
  6
CONTINUOUS
 62
     5
 10
231.37318255250409
 20
66.106623586429635
 30
0.0
 11
229.36995153473359
 21
66.106623586429635
 31
0.0
  0
LINE
  8
DETAIL
  6
CONTINUOUS
 62
     5
 10
236.38126009693079
 20
66.317642057406886
 30
0.0
 11
236.18093699515359
 21
66.317642057406886
 31
0.0
  0
LINE
  8
DETAIL
  6
CONTINUOUS
 62
     5
 10
236.38126009693079
 20
75.332181637374504
 30
0.0
 11
236.18093699515359
 21
75.332181637374504
 31
0.0
  0
LINE
  8
DETAIL
  6
CONTINUOUS
 62
     5
 10
84.886914378029076
 20
-261.32961628963949
 30
0.0
 11
84.886914378029076
 21
-262.14139957643619
 31
0.0
  0
LINE
  8
DETAIL
  6
CONTINUOUS
 62
     5
 10
88.392568659127789
 20
-261.32961628963949
 30
0.0
 11
88.392568659127789
 21
-262.14139957643619
 31
0.0
  0
LINE
  8
DETAIL
  6
CONTINUOUS
 62
     5
 10
181.29240710823899
 20
81.605500136429043
 30
0.0
 11
201.82552504038779
 21
81.605500136429043
 31
0.0
  0
LINE
  8
DETAIL
  6
CONTINUOUS
 62
     5
 10
208.83683360258479
 20
81.605500136429043
 30
0.0
 11
229.36995153473359
 21
81.605500136429043
 31
0.0
  0
LINE
  8
DETAIL
  6
CONTINUOUS
 62
     5
 10
181.29240710823899
 20
95.73862613660441
 30
0.0
 11
201.82552504038779
 21
95.73862613660441
 31
0.0
  0
LINE
  8
DETAIL
  6
CONTINUOUS
 62
     5
 10
208.83683360258479
 20
95.73862613660441
 30
0.0
 11
229.36995153473359
 21
95.73862613660441
 31
0.0
  0
LINE
  8
DETAIL
  6
CONTINUOUS
 62
     5
 10
107.57350565428101
 20
-268.43295638126023
 30
0.0
 11
107.57350565428101
 21
-261.32961628963949
 31
0.0
  0
LINE
  8
DETAIL
  6
CONTINUOUS
 62
     5
 10
107.57350565428101
 20
-230.16665507610421
 30
0.0
 11
107.57350565428101
 21
230.16665507610421
 31
0.0
  0
LINE
  8
DETAIL
  6
CONTINUOUS
 62
     5
 10
107.57350565428101
 20
261.32961628886301
 30
0.0
 11
107.57350565428101
 21
268.43295638125988
 31
0.0
  0
LINE
  8
DETAIL
  6
CONTINUOUS
 62
     5
 10
111.579967689822
 20
-268.43295638126023
 30
0.0
 11
111.579967689822
 21
-261.32961628963949
 31
0.0
  0
LINE
  8
DETAIL
  6
CONTINUOUS
 62
     5
 10
111.579967689822
 20
-230.16665507610421
 30
0.0
 11
111.579967689822
 21
230.16665507610421
 31
0.0
  0
LINE
  8
DETAIL
  6
CONTINUOUS
 62
     5
 10
111.579967689822
 20
261.32961628886301
 30
0.0
 11
111.579967689822
 21
268.43295638125988
 31
0.0
  0
LINE
  8
DETAIL
  6
CONTINUOUS
 62
     5
 10
114.0840064620353
 20
-14.02261712439434
 30
0.0
 11
114.0840064620353
 21
14.02261712439412
 31
0.0
  0
LINE
  8
DETAIL
  6
CONTINUOUS
 62
     5
 10
116.08723747980611
 20
10.53080870401112
 30
0.0
 11
116.08723747980611
 21
-13.84382883991441
 31
0.0
  0
LINE
  8
DETAIL
  6
CONTINUOUS
 62
     5
 10
116.08723747980611
 20
-13.86437804348105
 30
0.0
 11
116.08723747980611
 21
-13.867242597062161
 31
0.0
  0
LINE
  8
DETAIL
  6
CONTINUOUS
 62
     5
 10
18.574745517351118
 20
-330.16872676725387
 30
0.0
 11
13.5666679729249
 21
-350.20103694496032
 31
0.0
  0
LINE
  8
DETAIL
  6
CONTINUOUS
 62
     5
 10
21.489874838837238
 20
-330.89750909781969
 30
0.0
 11
16.4817972944108
 21
-350.92981927552569
 31
0.0
  0
LINE
  8
DETAIL
  6
CONTINUOUS
 62
     5
 10
18.082583470388901
 20
-235.94948491325101
 30
0.0
 11
18.529886914378441
 21
-235.17473262053079
 31
0.0
  0
LINE
  8
DETAIL
  6
CONTINUOUS
 62
     5
 10
124.1001615508889
 20
-8.5136624764624571
 30
0.0
 11
124.1001615508889
 21
4.9282966655895279
 31
0.0
  0
LINE
  8
DETAIL
  6
CONTINUOUS
 62
     5
 10
127.1050080775444
 20
-8.5136624764624571
 30
0.0
 11
127.1050080775444
 21
-0.7696142924447713
 31
0.0
  0
LINE
  8
DETAIL
  6
CONTINUOUS
 62
     5
 10
140.42649434571891
 20
-57.893376413570422
 30
0.0
 11
140.42649434571891
 21
-22.88588393851057
 31
0.0
  0
LINE
  8
DETAIL
  6
CONTINUOUS
 62
     5
 10
140.42649434571891
 20
51.557134459180077
 30
0.0
 11
140.42649434571891
 21
57.893376413570252
 31
0.0
  0
LINE
  8
DETAIL
  6
CONTINUOUS
 62
     5
 10
227.44740724056069
 20
62.052860909919623
 30
0.0
 11
226.8659127625198
 21
61.045682930082137
 31
0.0
  0
LINE
  8
DETAIL
  6
CONTINUOUS
 62
     5
 10
18.082583470388901
 20
267.11244612600967
 30
0.0
 11
18.529886914378441
 21
266.33769383328928
 31
0.0
  0
LINE
  8
DETAIL
  6
CONTINUOUS
 62
     5
 10
181.29240710823899
 20
95.73863630882505
 30
0.0
 11
181.29240710823899
 21
92.26726523407325
 31
0.0
  0
LINE
  8
DETAIL
  6
CONTINUOUS
 62
     5
 10
181.29240710823899
 20
81.605519769645809
 30
0.0
 11
181.29240710823899
 21
77.087058652389999
 31
0.0
  0
LINE
  8
DETAIL
  6
CONTINUOUS
 62
     5
 10
181.29240710823899
 20
55.490982559191423
 30
0.0
 11
181.29240710823899
 21
50.171046186422188
 31
0.0
  0
LINE
  8
DETAIL
  6
CONTINUOUS
 62
     5
 10
181.29240710823899
 20
-50.171046187198733
 30
0.0
 11
181.29240710823899
 21
-55.490885830309033
 31
0.0
  0
LINE
  8
DETAIL
  6
CONTINUOUS
 62
     5
 10
181.29240710823899
 20
-77.087058652390169
 30
0.0
 11
181.29240710823899
 21
-81.605509664976125
 31
0.0
  0
LINE
  8
DETAIL
  6
CONTINUOUS
 62
     5
 10
181.29240710823899
 20
-92.267265234073534
 30
0.0
 11
181.29240710823899
 21
-95.73864139377099
 31
0.0
  0
LINE
  8
DETAIL
  6
CONTINUOUS
 62
     5
 10
181.29240710823899
 20
-35.493655053988107
 30
0.0
 11
181.29240710823899
 21
-15.616946741606281
 31
0.0
  0
LINE
  8
DETAIL
  6
CONTINUOUS
 62
     5
 10
181.29240710823899
 20
-10.46293237489834
 30
0.0
 11
181.29240710823899
 21
10.46293237489817
 31
0.0
  0
LINE
  8
DETAIL
  6
CONTINUOUS
 62
     5
 10
181.29240710823899
 20
15.61694674082975
 30
0.0
 11
181.29240710823899
 21
35.493655053211569
 31
0.0
  0
LINE
  8
DETAIL
  6
CONTINUOUS
 62
     5
 10
16.42649434571894
 20
201.1284412186196
 30
0.0
 11
13.021001615508739
 21
201.1284412186196
 31
0.0
  0
LINE
  8
DETAIL
  6
CONTINUOUS
 62
     5
 10
227.44740724056069
 20
-62.052860910696317
 30
0.0
 11
226.8659127625198
 21
-61.045682930858852
 31
0.0
  0
LINE
  8
DETAIL
  6
CONTINUOUS
 62
     5
 10
201.82552504038779
 20
95.738555459818883
 30
0.0
 11
201.82552504038779
 21
58.869995177993992
 31
0.0
  0
LINE
  8
DETAIL
  6
CONTINUOUS
 62
     5
 10
201.82552504038779
 20
55.490882250115817
 30
0.0
 11
201.82552504038779
 21
37.998970423213173
 31
0.0
  0
LINE
  8
DETAIL
  6
CONTINUOUS
 62
     5
 10
201.82552504038779
 20
21.370503311091799
 30
0.0
 11
201.82552504038779
 21
11.34274425732923
 31
0.0
  0
LINE
  8
DETAIL
  6
CONTINUOUS
 62
     5
 10
201.82552504038779
 20
-11.34255496752712
 30
0.0
 11
201.82552504038779
 21
-21.370464272156941
 31
0.0
  0
LINE
  8
DETAIL
  6
CONTINUOUS
 62
     5
 10
201.82552504038779
 20
-37.998431370051833
 30
0.0
 11
201.82552504038779
 21
-55.490885830309033
 31
0.0
  0
LINE
  8
DETAIL
  6
CONTINUOUS
 62
     5
 10
201.82552504038779
 20
-58.869188427947108
 30
0.0
 11
201.82552504038779
 21
-95.738565413858396
 31
0.0
  0
LINE
  8
DETAIL
  6
CONTINUOUS
 62
     5
 10
208.83683360258479
 20
95.738555459818883
 30
0.0
 11
208.83683360258479
 21
58.869995177993992
 31
0.0
  0
LINE
  8
DETAIL
  6
CONTINUOUS
 62
     5
 10
208.83683360258479
 20
55.490947672690311
 30
0.0
 11
208.83683360258479
 21
37.998970423213173
 31
0.0
  0
LINE
  8
DETAIL
  6
CONTINUOUS
 62
     5
 10
208.83683360258479
 20
21.370503311091799
 30
0.0
 11
208.83683360258479
 21
11.34274425732923
 31
0.0
  0
LINE
  8
DETAIL
  6
CONTINUOUS
 62
     5
 10
208.83683360258479
 20
-11.34255496752712
 30
0.0
 11
208.83683360258479
 21
-21.370464272156941
 31
0.0
  0
LINE
  8
DETAIL
  6
CONTINUOUS
 62
     5
 10
208.83683360258479
 20
-37.998431370051833
 30
0.0
 11
208.83683360258479
 21
-55.490853186960813
 31
0.0
  0
LINE
  8
DETAIL
  6
CONTINUOUS
 62
     5
 10
208.83683360258479
 20
-58.869188427947108
 30
0.0
 11
208.83683360258479
 21
-95.738565413858396
 31
0.0
  0
LINE
  8
DETAIL
  6
CONTINUOUS
 62
     5
 10
14.52342487883692
 20
213.16867623235771
 30
0.0
 11
10.01615508885328
 21
213.16867623235771
 31
0.0
  0
LINE
  8
DETAIL
  6
CONTINUOUS
 62
     5
 10
14.52342487883692
 20
230.16665507610421
 30
0.0
 11
166.2681744749593
 21
230.16665507610421
 31
0.0
  0
LINE
  8
DETAIL
  6
CONTINUOUS
 62
     5
 10
223.66074313408731
 20
57.790432526205052
 30
0.0
 11
223.66074313408731
 21
55.490888453143782
 31
0.0
  0
LINE
  8
DETAIL
  6
CONTINUOUS
 62
     5
 10
223.66074313408731
 20
-55.490888453920491
 30
0.0
 11
223.66074313408731
 21
-57.79043252698159
 31
0.0
  0
LINE
  8
DETAIL
  6
CONTINUOUS
 62
     5
 10
226.8659127625198
 20
-61.045682930858852
 30
0.0
 11
226.8659127625198
 21
-55.490888453920491
 31
0.0
  0
LINE
  8
DETAIL
  6
CONTINUOUS
 62
     5
 10
226.8659127625198
 20
55.490888453143782
 30
0.0
 11
226.8659127625198
 21
61.045682930082137
 31
0.0
  0
LINE
  8
DETAIL
  6
CONTINUOUS
 62
     5
 10
229.36995153473359
 20
95.738555459818883
 30
0.0
 11
229.36995153473359
 21
92.26726523407325
 31
0.0
  0
LINE
  8
DETAIL
  6
CONTINUOUS
 62
     5
 10
229.36995153473359
 20
81.605519769645809
 30
0.0
 11
229.36995153473359
 21
77.087058652389999
 31
0.0
  0
LINE
  8
DETAIL
  6
CONTINUOUS
 62
     5
 10
229.36995153473359
 20
55.490836743384477
 30
0.0
 11
229.36995153473359
 21
50.171046186422188
 31
0.0
  0
LINE
  8
DETAIL
  6
CONTINUOUS
 62
     5
 10
229.36995153473359
 20
35.493655053211569
 30
0.0
 11
229.36995153473359
 21
15.61694674082975
 31
0.0
  0
LINE
  8
DETAIL
  6
CONTINUOUS
 62
     5
 10
229.36995153473359
 20
10.46293237489817
 30
0.0
 11
229.36995153473359
 21
-10.46293237489834
 31
0.0
  0
LINE
  8
DETAIL
  6
CONTINUOUS
 62
     5
 10
229.36995153473359
 20
-50.171046187198733
 30
0.0
 11
229.36995153473359
 21
-55.490885357453351
 31
0.0
  0
LINE
  8
DETAIL
  6
CONTINUOUS
 62
     5
 10
229.36995153473359
 20
-77.087058652390169
 30
0.0
 11
229.36995153473359
 21
-81.605509664976125
 31
0.0
  0
LINE
  8
DETAIL
  6
CONTINUOUS
 62
     5
 10
229.36995153473359
 20
-92.267265234073534
 30
0.0
 11
229.36995153473359
 21
-95.73864139377099
 31
0.0
  0
LINE
  8
DETAIL
  6
CONTINUOUS
 62
     5
 10
229.36995153473359
 20
-35.493655053988107
 30
0.0
 11
229.36995153473359
 21
-15.616946741606281
 31
0.0
  0
LINE
  8
DETAIL
  6
CONTINUOUS
 62
     5
 10
233.3764135702751
 20
-85.638044237492466
 30
0.0
 11
233.3764135702751
 21
85.638044237492238
 31
0.0
  0
LINE
  8
DETAIL
  6
CONTINUOUS
 62
     5
 10
233.67689822294051
 20
-110.6818428766077
 30
0.0
 11
233.67689822294051
 21
-107.687617207499
 31
0.0
  0
LINE
  8
DETAIL
  6
CONTINUOUS
 62
     5
 10
235.68012924071101
 20
66.818450367784919
 30
0.0
 11
235.68012924071101
 21
74.831373336313789
 31
0.0
  0
LINE
  8
DETAIL
  6
CONTINUOUS
 62
     5
 10
236.38126009693079
 20
-180.5892167830084
 30
0.0
 11
236.38126009693079
 21
180.5892167830082
 31
0.0
  0
LINE
  8
DETAIL
  6
CONTINUOUS
 62
     5
 10
6.4103392568660524
 20
242.91513920852589
 30
0.0
 11
3.0048465266560811
 21
242.91513920852589
 31
0.0
  0
LINE
  8
DETAIL
  6
CONTINUOUS
 62
     5
 10
5.1082390953153549
 20
254.2471251043568
 30
0.0
 11
3.0048465266560811
 21
254.2471251043568
 31
0.0
  0
LINE
  8
DETAIL
  6
CONTINUOUS
 62
     5
 10
166.2681744749593
 20
257.08012157831467
 30
0.0
 11
14.52342487883692
 21
257.08012157831467
 31
0.0
  0
LINE
  8
DETAIL
  6
CONTINUOUS
 62
     5
 10
14.52342487883692
 20
261.32961628886301
 30
0.0
 11
166.2681744749593
 21
261.32961628886301
 31
0.0
  0
LINE
  8
DETAIL
  6
CONTINUOUS
 62
     5
 10
14.52342487883692
 20
264.22103120704799
 30
0.0
 11
18.082583470388901
 21
264.22103120704799
 31
0.0
  0
LINE
  8
DETAIL
  6
CONTINUOUS
 62
     5
 10
14.52342487883692
 20
267.11244612600967
 30
0.0
 11
18.082583470388901
 21
267.11244612600967
 31
0.0
  0
LINE
  8
DETAIL
  6
CONTINUOUS
 62
     5
 10
269.43457189014561
 20
-73.109749741894348
 30
0.0
 11
269.43457189014561
 21
62.100161550888338
 31
0.0
  0
LINE
  8
DETAIL
  6
CONTINUOUS
 62
     5
 10
274.44264943457199
 20
-180.5892167830084
 30
0.0
 11
274.44264943457199
 21
-76.122778675282802
 31
0.0
  0
LINE
  8
DETAIL
  6
CONTINUOUS
 62
     5
 10
274.44264943457199
 20
65.105008077544255
 30
0.0
 11
274.44264943457199
 21
180.5892167830082
 31
0.0
  0
LINE
  8
DETAIL
  6
CONTINUOUS
 62
     5
 10
276.7463651050079
 20
-89.765807113348671
 30
0.0
 11
276.7463651050079
 21
-78.088853709008106
 31
0.0
  0
LINE
  8
DETAIL
  6
CONTINUOUS
 62
     5
 10
276.7463651050079
 20
67.108239095315014
 30
0.0
 11
276.7463651050079
 21
83.253038523074054
 31
0.0
  0
LINE
  8
DETAIL
  6
CONTINUOUS
 62
     5
 10
13.89004062544012
 20
296.97899838449098
 30
0.0
 11
16.42649434571894
 21
296.97899838449098
 31
0.0
  0
LINE
  8
DETAIL
  6
CONTINUOUS
 62
     5
 10
5.1082390953153549
 20
303.82456339745272
 30
0.0
 11
3.0048465266560811
 21
303.82456339745272
 31
0.0
  0
LINE
  8
DETAIL
  6
CONTINUOUS
 62
     5
 10
305.89337641357042
 20
35.55735056542801
 30
0.0
 11
305.89337641357042
 21
32.552504038772163
 31
0.0
  0
LINE
  8
DETAIL
  6
CONTINUOUS
 62
     5
 10
305.89337641357042
 20
-45.573505654281178
 30
0.0
 11
305.89337641357042
 21
-48.578352180937088
 31
0.0
  0
LINE
  8
DETAIL
  6
CONTINUOUS
 62
     5
 10
306.794830371567
 20
30.048465266558821
 30
0.0
 11
306.794830371567
 21
-40.064620355412103
 31
0.0
  0
LINE
  8
DETAIL
  6
CONTINUOUS
 62
     5
 10
307.49596122778678
 20
-85.437803463851537
 30
0.0
 11
307.49596122778678
 21
-93.450726433156888
 31
0.0
  0
LINE
  8
DETAIL
  6
CONTINUOUS
 62
     5
 10
3.0048465266560811
 20
306.99515347334398
 30
0.0
 11
6.4103392568660524
 21
306.99515347334398
 31
0.0
  0
ARC
  8
DETAIL
  6
CONTINUOUS
 62
     5
 10
6.4103392568660524
 20
-303.38933764135697
 30
0.0
 40
3.605815831987059
 50
270.0
 51
0.0
  0
ARC
  8
DETAIL
  6
CONTINUOUS
 62
     5
 10
16.42649434571894
 20
-197.52262538663271
 30
0.0
 40
3.605815831987031
 50
270.0
 51
0.0
  0
ARC
  8
DETAIL
  6
CONTINUOUS
 62
     5
 10
16.42649434571894
 20
-293.37318255250398
 30
0.0
 40
3.605815831987059
 50
270.0
 51
0.0
  0
ARC
  8
DETAIL
  6
CONTINUOUS
 62
     5
 10
6.4103392568660524
 20
-239.30932337731531
 30
0.0
 40
3.605815831987059
 50
270.0
 51
0.0
  0
ARC
  8
DETAIL
  6
CONTINUOUS
 62
     5
 10
13.021001615508739
 20
-204.1332877452756
 30
0.0
 40
3.004846526655911
 50
90.0
 51
180.0
  0
ARC
  8
DETAIL
  6
CONTINUOUS
 62
     5
 10
15.800538607907299
 20
-234.38925764789431
 30
0.0
 40
2.742269039385937
 50
342.54690612130162
 51
343.89864612540521
  0
ARC
  8
DETAIL
  6
CONTINUOUS
 62
     5
 10
109.57673667205189
 20
-268.43295638126023
 30
0.0
 40
2.0032310177703039
 50
180.0
 51
0.0
  0
ARC
  8
DETAIL
  6
CONTINUOUS
 62
     5
 10
1.502423263328126
 20
-308.49757673667222
 30
0.0
 40
1.5024232633279551
 50
180.0
 51
0.0
  0
ARC
  8
DETAIL
  6
CONTINUOUS
 62
     5
 10
147.8384491114704
 20
-57.893376413570422
 30
0.0
 40
7.4119547657512621
 50
180.0
 51
270.0
  0
ARC
  8
DETAIL
  6
CONTINUOUS
 62
     5
 10
272.49612107890971
 20
-73.10987292196728
 30
0.0
 40
3.0615491910933841
 50
179.99769473420079
 51
196.1029092195042
  0
ARC
  8
DETAIL
  6
CONTINUOUS
 62
     5
 10
231.37318255250409
 20
-68.109854604200393
 30
0.0
 40
2.0032310177707591
 50
0.0000000047029463
 51
90.0
  0
ARC
  8
DETAIL
  6
CONTINUOUS
 62
     5
 10
305.09208400646162
 20
-47.075928917609133
 30
0.0
 40
1.7027463651050121
 50
298.07248693589969
 51
61.927513064100353
  0
ARC
  8
DETAIL
  6
CONTINUOUS
 62
     5
 10
306.99515347334398
 20
-85.43780290791608
 30
0.0
 40
0.500807754442646
 50
359.999937520701
 51
90.0
  0
ARC
  8
DETAIL
  6
CONTINUOUS
 62
     5
 10
306.99515347334398
 20
-93.450726978998489
 30
0.0
 40
0.500807754442675
 50
270.0
 51
0.0000624792989963
  0
ARC
  8
DETAIL
  6
CONTINUOUS
 62
     5
 10
305.89337641357042
 20
-45.473344103392613
 30
0.0
 40
0.100161550888515
 50
180.0
 51
270.0
  0
ARC
  8
DETAIL
  6
CONTINUOUS
 62
     5
 10
305.89337641357042
 20
-48.678513731825603
 30
0.0
 40
0.100161550888547
 50
90.0
 51
180.0
  0
ARC
  8
DETAIL
  6
CONTINUOUS
 62
     5
 10
147.8384491114704
 20
57.893376413570252
 30
0.0
 40
7.4119547657512017
 50
90.0
 51
180.0
  0
ARC
  8
DETAIL
  6
CONTINUOUS
 62
     5
 10
6.4103392568660524
 20
239.3093233765388
 30
0.0
 40
3.605815831986773
 50
0.0
 51
90.0
  0
ARC
  8
DETAIL
  6
CONTINUOUS
 62
     5
 10
6.4103392568660524
 20
303.38933764135692
 30
0.0
 40
3.605815831986773
 50
0.0
 51
90.0
  0
ARC
  8
DETAIL
  6
CONTINUOUS
 62
     5
 10
16.42649434571894
 20
197.52262538663251
 30
0.0
 40
3.6058158319870022
 50
0.0
 51
90.0
  0
ARC
  8
DETAIL
  6
CONTINUOUS
 62
     5
 10
16.42649434571894
 20
293.37318255250398
 30
0.0
 40
3.6058158319870022
 50
0.0
 51
90.0
  0
ARC
  8
DETAIL
  6
CONTINUOUS
 62
     5
 10
13.021001615508739
 20
204.13328774527551
 30
0.0
 40
3.004846526655911
 50
180.0
 51
270.0
  0
ARC
  8
DETAIL
  6
CONTINUOUS
 62
     5
 10
109.57673667205189
 20
268.43295638125988
 30
0.0
 40
2.0032310177707591
 50
0.0
 51
180.0
  0
ARC
  8
DETAIL
  6
CONTINUOUS
 62
     5
 10
1.502423263328126
 20
308.49757673667187
 30
0.0
 40
1.5024232633279551
 50
0.0
 51
180.0
  0
ARC
  8
DETAIL
  6
CONTINUOUS
 62
     5
 10
272.43941841680129
 20
62.100161550888338
 30
0.0
 40
3.0048465266558959
 50
90.0
 51
180.0
  0
ARC
  8
DETAIL
  6
CONTINUOUS
 62
     5
 10
231.37318255250409
 20
68.109854604200166
 30
0.0
 40
2.003231017770545
 50
270.0
 51
0.0
  0
ARC
  8
DETAIL
  6
CONTINUOUS
 62
     5
 10
274.74313408723759
 20
67.108239095315014
 30
0.0
 40
2.003231017770573
 50
270.0
 51
0.0
  0
ARC
  8
DETAIL
  6
CONTINUOUS
 62
     5
 10
305.09208400646162
 20
34.054927302100047
 30
0.0
 40
1.7027463651050121
 50
298.07248693589969
 51
61.927513064100353
  0
ARC
  8
DETAIL
  6
CONTINUOUS
 62
     5
 10
236.18093699515359
 20
74.831373882931814
 30
0.0
 40
0.5008077544426189
 50
90.0
 51
180.00006247930551
  0
ARC
  8
DETAIL
  6
CONTINUOUS
 62
     5
 10
236.18093699515359
 20
66.818449811849462
 30
0.0
 40
0.500807754442646
 50
179.99993752069449
 51
270.0
  0
ARC
  8
DETAIL
  6
CONTINUOUS
 62
     5
 10
305.89337641357042
 20
35.657512116316582
 30
0.0
 40
0.100161550888515
 50
180.0
 51
270.0
  0
ARC
  8
DETAIL
  6
CONTINUOUS
 62
     5
 10
305.89337641357042
 20
32.452342487883577
 30
0.0
 40
0.100161550888551
 50
90.0
 51
180.0
  0
LINE
  8
DETAIL
  6
CONTINUOUS
 62
     5
 10
227.4117013053594
 20
61.989939148512057
 30
0.0
 11
227.44740724056069
 21
62.052860909919623
 31
0.0
  0
LINE
  8
DETAIL
  6
CONTINUOUS
 62
     5
 10
18.529886914378441
 20
-230.16665507688069
 30
0.0
 11
18.529157103749579
 21
-230.2623439504375
 31
0.0
  0
LINE
  8
DETAIL
  6
CONTINUOUS
 62
     5
 10
18.529157103749579
 20
-230.2623439504375
 30
0.0
 11
18.527756579297321
 21
-230.35803155243761
 31
0.0
  0
LINE
  8
DETAIL
  6
CONTINUOUS
 62
     5
 10
18.527756579297321
 20
-230.35803155243761
 30
0.0
 11
18.527756579297321
 21
-230.35803155243761
 31
0.0
  0
LINE
  8
DETAIL
  6
CONTINUOUS
 62
     5
 10
18.527756579297321
 20
-230.35803155243761
 30
0.0
 11
18.52515832913031
 21
-230.45371244858521
 31
0.0
  0
LINE
  8
DETAIL
  6
CONTINUOUS
 62
     5
 10
18.52515832913031
 20
-230.45371244858521
 30
0.0
 11
18.521410149084371
 21
-230.5493645536308
 31
0.0
  0
LINE
  8
DETAIL
  6
CONTINUOUS
 62
     5
 10
18.521410149084371
 20
-230.5493645536308
 30
0.0
 11
18.521410149084371
 21
-230.5493645536308
 31
0.0
  0
LINE
  8
DETAIL
  6
CONTINUOUS
 62
     5
 10
18.521410149084371
 20
-230.5493645536308
 30
0.0
 11
18.51666409890953
 21
-230.6449705275738
 31
0.0
  0
LINE
  8
DETAIL
  6
CONTINUOUS
 62
     5
 10
18.51666409890953
 20
-230.6449705275738
 30
0.0
 11
18.510914486282839
 21
-230.74054866236651
 31
0.0
  0
LINE
  8
DETAIL
  6
CONTINUOUS
 62
     5
 10
18.510914486282839
 20
-230.74054866236651
 30
0.0
 11
18.510914486282839
 21
-230.74054866236651
 31
0.0
  0
LINE
  8
DETAIL
  6
CONTINUOUS
 62
     5
 10
18.510914486282839
 20
-230.74054866236651
 30
0.0
 11
18.50413023100435
 21
-230.83609468873499
 31
0.0
  0
LINE
  8
DETAIL
  6
CONTINUOUS
 62
     5
 10
18.50413023100435
 20
-230.83609468873499
 30
0.0
 11
18.496336453435731
 21
-230.93147846055109
 31
0.0
  0
LINE
  8
DETAIL
  6
CONTINUOUS
 62
     5
 10
18.496336453435731
 20
-230.93147846055109
 30
0.0
 11
18.496336453435731
 21
-230.93147846055109
 31
0.0
  0
LINE
  8
DETAIL
  6
CONTINUOUS
 62
     5
 10
18.496336453435731
 20
-230.93147846055109
 30
0.0
 11
18.487555561536912
 21
-231.02665533133981
 31
0.0
  0
LINE
  8
DETAIL
  6
CONTINUOUS
 62
     5
 10
18.487555561536912
 20
-231.02665533133981
 30
0.0
 11
18.47774291308809
 21
-231.12204853009101
 31
0.0
  0
LINE
  8
DETAIL
  6
CONTINUOUS
 62
     5
 10
18.47774291308809
 20
-231.12204853009101
 30
0.0
 11
18.47774291308809
 21
-231.12204853009101
 31
0.0
  0
LINE
  8
DETAIL
  6
CONTINUOUS
 62
     5
 10
18.47774291308809
 20
-231.12204853009101
 30
0.0
 11
18.466859276959159
 21
-231.21801636503741
 31
0.0
  0
LINE
  8
DETAIL
  6
CONTINUOUS
 62
     5
 10
18.466859276959159
 20
-231.21801636503741
 30
0.0
 11
18.454954116541732
 21
-231.3141895859128
 31
0.0
  0
LINE
  8
DETAIL
  6
CONTINUOUS
 62
     5
 10
18.454954116541732
 20
-231.3141895859128
 30
0.0
 11
18.454954116541732
 21
-231.3141895859128
 31
0.0
  0
LINE
  8
DETAIL
  6
CONTINUOUS
 62
     5
 10
18.454954116541732
 20
-231.3141895859128
 30
0.0
 11
18.44208962351053
 21
-231.41012545695401
 31
0.0
  0
LINE
  8
DETAIL
  6
CONTINUOUS
 62
     5
 10
18.44208962351053
 20
-231.41012545695401
 30
0.0
 11
18.428290208166519
 21
-231.50581485890129
 31
0.0
  0
LINE
  8
DETAIL
  6
CONTINUOUS
 62
     5
 10
18.428290208166519
 20
-231.50581485890129
 30
0.0
 11
18.428290208166519
 21
-231.50581485890129
 31
0.0
  0
LINE
  8
DETAIL
  6
CONTINUOUS
 62
     5
 10
18.428290208166519
 20
-231.50581485890129
 30
0.0
 11
18.413566202022992
 21
-231.60136111329811
 31
0.0
  0
LINE
  8
DETAIL
  6
CONTINUOUS
 62
     5
 10
18.413566202022992
 20
-231.60136111329811
 30
0.0
 11
18.397909402827
 21
-231.69688368839181
 31
0.0
  0
LINE
  8
DETAIL
  6
CONTINUOUS
 62
     5
 10
18.397909402827
 20
-231.69688368839181
 30
0.0
 11
18.397909402827
 21
-231.69688368839181
 31
0.0
  0
LINE
  8
DETAIL
  6
CONTINUOUS
 62
     5
 10
18.397909402827
 20
-231.69688368839181
 30
0.0
 11
18.381334953995921
 21
-231.792381538276
 31
0.0
  0
LINE
  8
DETAIL
  6
CONTINUOUS
 62
     5
 10
18.381334953995921
 20
-231.792381538276
 30
0.0
 11
18.363969915387941
 21
-231.88735541372
 31
0.0
  0
LINE
  8
DETAIL
  6
CONTINUOUS
 62
     5
 10
18.363969915387941
 20
-231.88735541372
 30
0.0
 11
18.363969915387941
 21
-231.88735541372
 31
0.0
  0
LINE
  8
DETAIL
  6
CONTINUOUS
 62
     5
 10
18.363969915387941
 20
-231.88735541372
 30
0.0
 11
18.345862042972779
 21
-231.98167568131001
 31
0.0
  0
LINE
  8
DETAIL
  6
CONTINUOUS
 62
     5
 10
18.345862042972779
 20
-231.98167568131001
 30
0.0
 11
18.326629960713429
 21
-232.07718937422109
 31
0.0
  0
LINE
  8
DETAIL
  6
CONTINUOUS
 62
     5
 10
18.326629960713429
 20
-232.07718937422109
 30
0.0
 11
18.326629960713429
 21
-232.07718937422109
 31
0.0
  0
LINE
  8
DETAIL
  6
CONTINUOUS
 62
     5
 10
18.326629960713429
 20
-232.07718937422109
 30
0.0
 11
18.305947548430311
 21
-232.17545427467471
 31
0.0
  0
LINE
  8
DETAIL
  6
CONTINUOUS
 62
     5
 10
18.305947548430311
 20
-232.17545427467471
 30
0.0
 11
18.28413884137802
 21
-232.2748944944866
 31
0.0
  0
LINE
  8
DETAIL
  6
CONTINUOUS
 62
     5
 10
18.28413884137802
 20
-232.2748944944866
 30
0.0
 11
18.28413884137802
 21
-232.2748944944866
 31
0.0
  0
LINE
  8
DETAIL
  6
CONTINUOUS
 62
     5
 10
18.28413884137802
 20
-232.2748944944866
 30
0.0
 11
18.261591433542609
 21
-232.37364861363699
 31
0.0
  0
LINE
  8
DETAIL
  6
CONTINUOUS
 62
     5
 10
18.261591433542609
 20
-232.37364861363699
 30
0.0
 11
18.238296998400699
 21
-232.4718467551713
 31
0.0
  0
LINE
  8
DETAIL
  6
CONTINUOUS
 62
     5
 10
18.238296998400699
 20
-232.4718467551713
 30
0.0
 11
18.238296998400699
 21
-232.4718467551713
 31
0.0
  0
LINE
  8
DETAIL
  6
CONTINUOUS
 62
     5
 10
18.238296998400699
 20
-232.4718467551713
 30
0.0
 11
18.214180510109539
 21
-232.56998535004729
 31
0.0
  0
LINE
  8
DETAIL
  6
CONTINUOUS
 62
     5
 10
18.214180510109539
 20
-232.56998535004729
 30
0.0
 11
18.189296066058379
 21
-232.6680345178076
 31
0.0
  0
LINE
  8
DETAIL
  6
CONTINUOUS
 62
     5
 10
18.189296066058379
 20
-232.6680345178076
 30
0.0
 11
18.189296066058379
 21
-232.6680345178076
 31
0.0
  0
LINE
  8
DETAIL
  6
CONTINUOUS
 62
     5
 10
18.189296066058379
 20
-232.6680345178076
 30
0.0
 11
18.16369990133802
 21
-232.7658612257903
 31
0.0
  0
LINE
  8
DETAIL
  6
CONTINUOUS
 62
     5
 10
18.16369990133802
 20
-232.7658612257903
 30
0.0
 11
18.137327678628878
 21
-232.8634461439284
 31
0.0
  0
LINE
  8
DETAIL
  6
CONTINUOUS
 62
     5
 10
18.137327678628878
 20
-232.8634461439284
 30
0.0
 11
18.137327678628878
 21
-232.8634461439284
 31
0.0
  0
LINE
  8
DETAIL
  6
CONTINUOUS
 62
     5
 10
18.137327678628878
 20
-232.8634461439284
 30
0.0
 11
18.11017320911191
 21
-232.96081624306271
 31
0.0
  0
LINE
  8
DETAIL
  6
CONTINUOUS
 62
     5
 10
18.11017320911191
 20
-232.96081624306271
 30
0.0
 11
18.082583470388901
 21
-233.05806999506589
 31
0.0
  0
LINE
  8
DETAIL
  6
CONTINUOUS
 62
     5
 10
18.082583470388901
 20
-227.27524015791931
 30
0.0
 11
18.110448638578131
 21
-227.3734826403718
 31
0.0
  0
LINE
  8
DETAIL
  6
CONTINUOUS
 62
     5
 10
18.110448638578131
 20
-227.3734826403718
 30
0.0
 11
18.13786910589641
 21
-227.47184204470659
 31
0.0
  0
LINE
  8
DETAIL
  6
CONTINUOUS
 62
     5
 10
18.13786910589641
 20
-227.47184204470659
 30
0.0
 11
18.13786910589641
 21
-227.47184204470659
 31
0.0
  0
LINE
  8
DETAIL
  6
CONTINUOUS
 62
     5
 10
18.13786910589641
 20
-227.47184204470659
 30
0.0
 11
18.164490605808108
 21
-227.57041891187171
 31
0.0
  0
LINE
  8
DETAIL
  6
CONTINUOUS
 62
     5
 10
18.164490605808108
 20
-227.57041891187171
 30
0.0
 11
18.190320609122129
 21
-227.6692482590791
 31
0.0
  0
LINE
  8
DETAIL
  6
CONTINUOUS
 62
     5
 10
18.190320609122129
 20
-227.6692482590791
 30
0.0
 11
18.190320609122129
 21
-227.6692482590791
 31
0.0
  0
LINE
  8
DETAIL
  6
CONTINUOUS
 62
     5
 10
18.190320609122129
 20
-227.6692482590791
 30
0.0
 11
18.21542483527486
 21
-227.76831216463671
 31
0.0
  0
LINE
  8
DETAIL
  6
CONTINUOUS
 62
     5
 10
18.21542483527486
 20
-227.76831216463671
 30
0.0
 11
18.23974026087507
 21
-227.86744647497261
 31
0.0
  0
LINE
  8
DETAIL
  6
CONTINUOUS
 62
     5
 10
18.23974026087507
 20
-227.86744647497261
 30
0.0
 11
18.23974026087507
 21
-227.86744647497261
 31
0.0
  0
LINE
  8
DETAIL
  6
CONTINUOUS
 62
     5
 10
18.23974026087507
 20
-227.86744647497261
 30
0.0
 11
18.26320998531645
 21
-227.96661309135871
 31
0.0
  0
LINE
  8
DETAIL
  6
CONTINUOUS
 62
     5
 10
18.26320998531645
 20
-227.96661309135871
 30
0.0
 11
18.285930341963361
 21
-228.06642436632251
 31
0.0
  0
LINE
  8
DETAIL
  6
CONTINUOUS
 62
     5
 10
18.285930341963361
 20
-228.06642436632251
 30
0.0
 11
18.285930341963361
 21
-228.06642436632251
 31
0.0
  0
LINE
  8
DETAIL
  6
CONTINUOUS
 62
     5
 10
18.285930341963361
 20
-228.06642436632251
 30
0.0
 11
18.307914924409431
 21
-228.16704137192019
 31
0.0
  0
LINE
  8
DETAIL
  6
CONTINUOUS
 62
     5
 10
18.307914924409431
 20
-228.16704137192019
 30
0.0
 11
18.328693133195149
 21
-228.26616960706451
 31
0.0
  0
LINE
  8
DETAIL
  6
CONTINUOUS
 62
     5
 10
18.328693133195149
 20
-228.26616960706451
 30
0.0
 11
18.328693133195149
 21
-228.26616960706451
 31
0.0
  0
LINE
  8
DETAIL
  6
CONTINUOUS
 62
     5
 10
18.328693133195149
 20
-228.26616960706451
 30
0.0
 11
18.347872656019209
 21
-228.36186634656431
 31
0.0
  0
LINE
  8
DETAIL
  6
CONTINUOUS
 62
     5
 10
18.347872656019209
 20
-228.36186634656431
 30
0.0
 11
18.36585852227444
 21
-228.45605154195491
 31
0.0
  0
LINE
  8
DETAIL
  6
CONTINUOUS
 62
     5
 10
18.36585852227444
 20
-228.45605154195491
 30
0.0
 11
18.36585852227444
 21
-228.45605154195491
 31
0.0
  0
LINE
  8
DETAIL
  6
CONTINUOUS
 62
     5
 10
18.36585852227444
 20
-228.45605154195491
 30
0.0
 11
18.383123536528899
 21
-228.5510032656872
 31
0.0
  0
LINE
  8
DETAIL
  6
CONTINUOUS
 62
     5
 10
18.383123536528899
 20
-228.5510032656872
 30
0.0
 11
18.39961426236135
 21
-228.64656939714931
 31
0.0
  0
LINE
  8
DETAIL
  6
CONTINUOUS
 62
     5
 10
18.39961426236135
 20
-228.64656939714931
 30
0.0
 11
18.39961426236135
 21
-228.64656939714931
 31
0.0
  0
LINE
  8
DETAIL
  6
CONTINUOUS
 62
     5
 10
18.39961426236135
 20
-228.64656939714931
 30
0.0
 11
18.415179438130451
 21
-228.7421372105855
 31
0.0
  0
LINE
  8
DETAIL
  6
CONTINUOUS
 62
     5
 10
18.415179438130451
 20
-228.7421372105855
 30
0.0
 11
18.429802742314621
 21
-228.83768175272789
 31
0.0
  0
LINE
  8
DETAIL
  6
CONTINUOUS
 62
     5
 10
18.429802742314621
 20
-228.83768175272789
 30
0.0
 11
18.429802742314621
 21
-228.83768175272789
 31
0.0
  0
LINE
  8
DETAIL
  6
CONTINUOUS
 62
     5
 10
18.429802742314621
 20
-228.83768175272789
 30
0.0
 11
18.443498208549439
 21
-228.9333447892088
 31
0.0
  0
LINE
  8
DETAIL
  6
CONTINUOUS
 62
     5
 10
18.443498208549439
 20
-228.9333447892088
 30
0.0
 11
18.45626635099114
 21
-229.02934718877111
 31
0.0
  0
LINE
  8
DETAIL
  6
CONTINUOUS
 62
     5
 10
18.45626635099114
 20
-229.02934718877111
 30
0.0
 11
18.45626635099114
 21
-229.02934718877111
 31
0.0
  0
LINE
  8
DETAIL
  6
CONTINUOUS
 62
     5
 10
18.45626635099114
 20
-229.02934718877111
 30
0.0
 11
18.468084088378589
 21
-229.12570354970211
 31
0.0
  0
LINE
  8
DETAIL
  6
CONTINUOUS
 62
     5
 10
18.468084088378589
 20
-229.12570354970211
 30
0.0
 11
18.478847477250099
 21
-229.22152428535881
 31
0.0
  0
LINE
  8
DETAIL
  6
CONTINUOUS
 62
     5
 10
18.478847477250099
 20
-229.22152428535881
 30
0.0
 11
18.478847477250099
 21
-229.22152428535881
 31
0.0
  0
LINE
  8
DETAIL
  6
CONTINUOUS
 62
     5
 10
18.478847477250099
 20
-229.22152428535881
 30
0.0
 11
18.488474432318242
 21
-229.31606395469009
 31
0.0
  0
LINE
  8
DETAIL
  6
CONTINUOUS
 62
     5
 10
18.488474432318242
 20
-229.31606395469009
 30
0.0
 11
18.497051163181538
 21
-229.41005788394571
 31
0.0
  0
LINE
  8
DETAIL
  6
CONTINUOUS
 62
     5
 10
18.497051163181538
 20
-229.41005788394571
 30
0.0
 11
18.497051163181538
 21
-229.41005788394571
 31
0.0
  0
LINE
  8
DETAIL
  6
CONTINUOUS
 62
     5
 10
18.497051163181538
 20
-229.41005788394571
 30
0.0
 11
18.504675178921101
 21
-229.50437524748361
 31
0.0
  0
LINE
  8
DETAIL
  6
CONTINUOUS
 62
     5
 10
18.504675178921101
 20
-229.50437524748361
 30
0.0
 11
18.51132089164815
 21
-229.59893984479481
 31
0.0
  0
LINE
  8
DETAIL
  6
CONTINUOUS
 62
     5
 10
18.51132089164815
 20
-229.59893984479481
 30
0.0
 11
18.51132089164815
 21
-229.59893984479481
 31
0.0
  0
LINE
  8
DETAIL
  6
CONTINUOUS
 62
     5
 10
18.51132089164815
 20
-229.59893984479481
 30
0.0
 11
18.516949534397501
 21
-229.69350257186221
 31
0.0
  0
LINE
  8
DETAIL
  6
CONTINUOUS
 62
     5
 10
18.516949534397501
 20
-229.69350257186221
 30
0.0
 11
18.52159272086163
 21
-229.7880680855022
 31
0.0
  0
LINE
  8
DETAIL
  6
CONTINUOUS
 62
     5
 10
18.52159272086163
 20
-229.7880680855022
 30
0.0
 11
18.52159272086163
 21
-229.7880680855022
 31
0.0
  0
LINE
  8
DETAIL
  6
CONTINUOUS
 62
     5
 10
18.52159272086163
 20
-229.7880680855022
 30
0.0
 11
18.525260053480849
 21
-229.8826870656232
 31
0.0
  0
LINE
  8
DETAIL
  6
CONTINUOUS
 62
     5
 10
18.525260053480849
 20
-229.8826870656232
 30
0.0
 11
18.527802709034351
 21
-229.97734052366539
 31
0.0
  0
LINE
  8
DETAIL
  6
CONTINUOUS
 62
     5
 10
18.527802709034351
 20
-229.97734052366539
 30
0.0
 11
18.527802709034351
 21
-229.97734052366539
 31
0.0
  0
LINE
  8
DETAIL
  6
CONTINUOUS
 62
     5
 10
18.527802709034351
 20
-229.97734052366539
 30
0.0
 11
18.529173088382041
 21
-230.07199828221181
 31
0.0
  0
LINE
  8
DETAIL
  6
CONTINUOUS
 62
     5
 10
18.529173088382041
 20
-230.07199828221181
 30
0.0
 11
18.529886914378441
 21
-230.16665507688069
 31
0.0
  0
LINE
  8
DETAIL
  6
CONTINUOUS
 62
     5
 10
18.082583470388901
 20
-224.38382523973411
 30
0.0
 11
18.109998501696911
 21
-224.43212801205701
 31
0.0
  0
LINE
  8
DETAIL
  6
CONTINUOUS
 62
     5
 10
18.109998501696911
 20
-224.43212801205701
 30
0.0
 11
18.137058171687102
 21
-224.48062430544661
 31
0.0
  0
LINE
  8
DETAIL
  6
CONTINUOUS
 62
     5
 10
18.137058171687102
 20
-224.48062430544661
 30
0.0
 11
18.137058171687102
 21
-224.48062430544661
 31
0.0
  0
LINE
  8
DETAIL
  6
CONTINUOUS
 62
     5
 10
18.137058171687102
 20
-224.48062430544661
 30
0.0
 11
18.163478148475122
 21
-224.52947602532021
 31
0.0
  0
LINE
  8
DETAIL
  6
CONTINUOUS
 62
     5
 10
18.163478148475122
 20
-224.52947602532021
 30
0.0
 11
18.189258217920891
 21
-224.5787186144976
 31
0.0
  0
LINE
  8
DETAIL
  6
CONTINUOUS
 62
     5
 10
18.189258217920891
 20
-224.5787186144976
 30
0.0
 11
18.189258217920891
 21
-224.5787186144976
 31
0.0
  0
LINE
  8
DETAIL
  6
CONTINUOUS
 62
     5
 10
18.189258217920891
 20
-224.5787186144976
 30
0.0
 11
18.214434821785691
 21
-224.62832483072711
 31
0.0
  0
LINE
  8
DETAIL
  6
CONTINUOUS
 62
     5
 10
18.214434821785691
 20
-224.62832483072711
 30
0.0
 11
18.238906907700478
 21
-224.67814315406511
 31
0.0
  0
LINE
  8
DETAIL
  6
CONTINUOUS
 62
     5
 10
18.238906907700478
 20
-224.67814315406511
 30
0.0
 11
18.238906907700478
 21
-224.67814315406511
 31
0.0
  0
LINE
  8
DETAIL
  6
CONTINUOUS
 62
     5
 10
18.238906907700478
 20
-224.67814315406511
 30
0.0
 11
18.26260551445824
 21
-224.72814688848581
 31
0.0
  0
LINE
  8
DETAIL
  6
CONTINUOUS
 62
     5
 10
18.26260551445824
 20
-224.72814688848581
 30
0.0
 11
18.285727539636301
 21
-224.77893291132631
 31
0.0
  0
LINE
  8
DETAIL
  6
CONTINUOUS
 62
     5
 10
18.285727539636301
 20
-224.77893291132631
 30
0.0
 11
18.285727539636301
 21
-224.77893291132631
 31
0.0
  0
LINE
  8
DETAIL
  6
CONTINUOUS
 62
     5
 10
18.285727539636301
 20
-224.77893291132631
 30
0.0
 11
18.308304860256101
 21
-224.8306614893238
 31
0.0
  0
LINE
  8
DETAIL
  6
CONTINUOUS
 62
     5
 10
18.308304860256101
 20
-224.8306614893238
 30
0.0
 11
18.32944341233809
 21
-224.88112287345911
 31
0.0
  0
LINE
  8
DETAIL
  6
CONTINUOUS
 62
     5
 10
18.32944341233809
 20
-224.88112287345911
 30
0.0
 11
18.32944341233809
 21
-224.88112287345911
 31
0.0
  0
LINE
  8
DETAIL
  6
CONTINUOUS
 62
     5
 10
18.32944341233809
 20
-224.88112287345911
 30
0.0
 11
18.348397951471899
 21
-224.9284408947249
 31
0.0
  0
LINE
  8
DETAIL
  6
CONTINUOUS
 62
     5
 10
18.348397951471899
 20
-224.9284408947249
 30
0.0
 11
18.365944452527341
 21
-224.97444371992299
 31
0.0
  0
LINE
  8
DETAIL
  6
CONTINUOUS
 62
     5
 10
18.365944452527341
 20
-224.97444371992299
 30
0.0
 11
18.365944452527341
 21
-224.97444371992299
 31
0.0
  0
LINE
  8
DETAIL
  6
CONTINUOUS
 62
     5
 10
18.365944452527341
 20
-224.97444371992299
 30
0.0
 11
18.382988676422599
 21
-225.02130680569761
 31
0.0
  0
LINE
  8
DETAIL
  6
CONTINUOUS
 62
     5
 10
18.382988676422599
 20
-225.02130680569761
 30
0.0
 11
18.39943430899433
 21
-225.0688904322555
 31
0.0
  0
LINE
  8
DETAIL
  6
CONTINUOUS
 62
     5
 10
18.39943430899433
 20
-225.0688904322555
 30
0.0
 11
18.39943430899433
 21
-225.0688904322555
 31
0.0
  0
LINE
  8
DETAIL
  6
CONTINUOUS
 62
     5
 10
18.39943430899433
 20
-225.0688904322555
 30
0.0
 11
18.414997790706082
 21
-225.11661080775511
 31
0.0
  0
LINE
  8
DETAIL
  6
CONTINUOUS
 62
     5
 10
18.414997790706082
 20
-225.11661080775511
 30
0.0
 11
18.42964865560538
 21
-225.16442302860131
 31
0.0
  0
LINE
  8
DETAIL
  6
CONTINUOUS
 62
     5
 10
18.42964865560538
 20
-225.16442302860131
 30
0.0
 11
18.42964865560538
 21
-225.16442302860131
 31
0.0
  0
LINE
  8
DETAIL
  6
CONTINUOUS
 62
     5
 10
18.42964865560538
 20
-225.16442302860131
 30
0.0
 11
18.44341713632156
 21
-225.21245681912421
 31
0.0
  0
LINE
  8
DETAIL
  6
CONTINUOUS
 62
     5
 10
18.44341713632156
 20
-225.21245681912421
 30
0.0
 11
18.456323166226131
 21
-225.26100152710549
 31
0.0
  0
LINE
  8
DETAIL
  6
CONTINUOUS
 62
     5
 10
18.456323166226131
 20
-225.26100152710549
 30
0.0
 11
18.456323166226131
 21
-225.26100152710549
 31
0.0
  0
LINE
  8
DETAIL
  6
CONTINUOUS
 62
     5
 10
18.456323166226131
 20
-225.26100152710549
 30
0.0
 11
18.468331129736441
 21
-225.31009206067671
 31
0.0
  0
LINE
  8
DETAIL
  6
CONTINUOUS
 62
     5
 10
18.468331129736441
 20
-225.31009206067671
 30
0.0
 11
18.479193514722681
 21
-225.35858594591301
 31
0.0
  0
LINE
  8
DETAIL
  6
CONTINUOUS
 62
     5
 10
18.479193514722681
 20
-225.35858594591301
 30
0.0
 11
18.479193514722681
 21
-225.35858594591301
 31
0.0
  0
LINE
  8
DETAIL
  6
CONTINUOUS
 62
     5
 10
18.479193514722681
 20
-225.35858594591301
 30
0.0
 11
18.488714275475271
 21
-225.40551951743751
 31
0.0
  0
LINE
  8
DETAIL
  6
CONTINUOUS
 62
     5
 10
18.488714275475271
 20
-225.40551951743751
 30
0.0
 11
18.49711512851508
 21
-225.4518217261159
 31
0.0
  0
LINE
  8
DETAIL
  6
CONTINUOUS
 62
     5
 10
18.49711512851508
 20
-225.4518217261159
 30
0.0
 11
18.49711512851508
 21
-225.4518217261159
 31
0.0
  0
LINE
  8
DETAIL
  6
CONTINUOUS
 62
     5
 10
18.49711512851508
 20
-225.4518217261159
 30
0.0
 11
18.504648048343309
 21
-225.4985931988551
 31
0.0
  0
LINE
  8
DETAIL
  6
CONTINUOUS
 62
     5
 10
18.504648048343309
 20
-225.4985931988551
 30
0.0
 11
18.511268279157949
 21
-225.54572865048431
 31
0.0
  0
LINE
  8
DETAIL
  6
CONTINUOUS
 62
     5
 10
18.511268279157949
 20
-225.54572865048431
 30
0.0
 11
18.511268279157949
 21
-225.54572865048431
 31
0.0
  0
LINE
  8
DETAIL
  6
CONTINUOUS
 62
     5
 10
18.511268279157949
 20
-225.54572865048431
 30
0.0
 11
18.516886262911331
 21
-225.59290230811121
 31
0.0
  0
LINE
  8
DETAIL
  6
CONTINUOUS
 62
     5
 10
18.516886262911331
 20
-225.59290230811121
 30
0.0
 11
18.521529962870488
 21
-225.64011236004231
 31
0.0
  0
LINE
  8
DETAIL
  6
CONTINUOUS
 62
     5
 10
18.521529962870488
 20
-225.64011236004231
 30
0.0
 11
18.521529962870488
 21
-225.64011236004231
 31
0.0
  0
LINE
  8
DETAIL
  6
CONTINUOUS
 62
     5
 10
18.521529962870488
 20
-225.64011236004231
 30
0.0
 11
18.525213383891408
 21
-225.68741550170441
 31
0.0
  0
LINE
  8
DETAIL
  6
CONTINUOUS
 62
     5
 10
18.525213383891408
 20
-225.68741550170441
 30
0.0
 11
18.527777175871218
 21
-225.73477849581479
 31
0.0
  0
LINE
  8
DETAIL
  6
CONTINUOUS
 62
     5
 10
18.527777175871218
 20
-225.73477849581479
 30
0.0
 11
18.527777175871218
 21
-225.73477849581479
 31
0.0
  0
LINE
  8
DETAIL
  6
CONTINUOUS
 62
     5
 10
18.527777175871218
 20
-225.73477849581479
 30
0.0
 11
18.52916262459593
 21
-225.7821545643238
 31
0.0
  0
LINE
  8
DETAIL
  6
CONTINUOUS
 62
     5
 10
18.52916262459593
 20
-225.7821545643238
 30
0.0
 11
18.529886914378441
 21
-225.82953269882671
 31
0.0
  0
LINE
  8
DETAIL
  6
CONTINUOUS
 62
     5
 10
18.082583470388901
 20
-233.05806999506589
 30
0.0
 11
18.10999850169668
 21
-233.10637276738771
 31
0.0
  0
LINE
  8
DETAIL
  6
CONTINUOUS
 62
     5
 10
18.10999850169668
 20
-233.10637276738771
 30
0.0
 11
18.137058171685279
 21
-233.15486906077459
 31
0.0
  0
LINE
  8
DETAIL
  6
CONTINUOUS
 62
     5
 10
18.137058171685279
 20
-233.15486906077459
 30
0.0
 11
18.137058171685279
 21
-233.15486906077459
 31
0.0
  0
LINE
  8
DETAIL
  6
CONTINUOUS
 62
     5
 10
18.137058171685279
 20
-233.15486906077459
 30
0.0
 11
18.163478148471938
 21
-233.2037207806423
 31
0.0
  0
LINE
  8
DETAIL
  6
CONTINUOUS
 62
     5
 10
18.163478148471938
 20
-233.2037207806423
 30
0.0
 11
18.189258217915441
 21
-233.25296336981
 31
0.0
  0
LINE
  8
DETAIL
  6
CONTINUOUS
 62
     5
 10
18.189258217915441
 20
-233.25296336981
 30
0.0
 11
18.189258217915441
 21
-233.25296336981
 31
0.0
  0
LINE
  8
DETAIL
  6
CONTINUOUS
 62
     5
 10
18.189258217915441
 20
-233.25296336981
 30
0.0
 11
18.214434821778639
 21
-233.30256958602459
 31
0.0
  0
LINE
  8
DETAIL
  6
CONTINUOUS
 62
     5
 10
18.214434821778639
 20
-233.30256958602459
 30
0.0
 11
18.23890690769116
 21
-233.35238790934281
 31
0.0
  0
LINE
  8
DETAIL
  6
CONTINUOUS
 62
     5
 10
18.23890690769116
 20
-233.35238790934281
 30
0.0
 11
18.23890690769116
 21
-233.35238790934281
 31
0.0
  0
LINE
  8
DETAIL
  6
CONTINUOUS
 62
     5
 10
18.23890690769116
 20
-233.35238790934281
 30
0.0
 11
18.262605514446189
 21
-233.4023916437383
 31
0.0
  0
LINE
  8
DETAIL
  6
CONTINUOUS
 62
     5
 10
18.262605514446189
 20
-233.4023916437383
 30
0.0
 11
18.285727539620609
 21
-233.45317766654401
 31
0.0
  0
LINE
  8
DETAIL
  6
CONTINUOUS
 62
     5
 10
18.285727539620609
 20
-233.45317766654401
 30
0.0
 11
18.285727539620609
 21
-233.45317766654401
 31
0.0
  0
LINE
  8
DETAIL
  6
CONTINUOUS
 62
     5
 10
18.285727539620609
 20
-233.45317766654401
 30
0.0
 11
18.308304860235861
 21
-233.50490624449671
 31
0.0
  0
LINE
  8
DETAIL
  6
CONTINUOUS
 62
     5
 10
18.308304860235861
 20
-233.50490624449671
 30
0.0
 11
18.329443412315129
 21
-233.55536762858421
 31
0.0
  0
LINE
  8
DETAIL
  6
CONTINUOUS
 62
     5
 10
18.329443412315129
 20
-233.55536762858421
 30
0.0
 11
18.329443412315129
 21
-233.55536762858421
 31
0.0
  0
LINE
  8
DETAIL
  6
CONTINUOUS
 62
     5
 10
18.329443412315129
 20
-233.55536762858421
 30
0.0
 11
18.348397951450071
 21
-233.6026856498066
 31
0.0
  0
LINE
  8
DETAIL
  6
CONTINUOUS
 62
     5
 10
18.348397951450071
 20
-233.6026856498066
 30
0.0
 11
18.36594445250779
 21
-233.6486884749618
 31
0.0
  0
LINE
  8
DETAIL
  6
CONTINUOUS
 62
     5
 10
18.36594445250779
 20
-233.6486884749618
 30
0.0
 11
18.36594445250779
 21
-233.6486884749618
 31
0.0
  0
LINE
  8
DETAIL
  6
CONTINUOUS
 62
     5
 10
18.36594445250779
 20
-233.6486884749618
 30
0.0
 11
18.382988676404182
 21
-233.69555156068921
 31
0.0
  0
LINE
  8
DETAIL
  6
CONTINUOUS
 62
     5
 10
18.382988676404182
 20
-233.69555156068921
 30
0.0
 11
18.39943430897728
 21
-233.74313518719819
 31
0.0
  0
LINE
  8
DETAIL
  6
CONTINUOUS
 62
     5
 10
18.39943430897728
 20
-233.74313518719819
 30
0.0
 11
18.39943430897728
 21
-233.74313518719819
 31
0.0
  0
LINE
  8
DETAIL
  6
CONTINUOUS
 62
     5
 10
18.39943430897728
 20
-233.74313518719819
 30
0.0
 11
18.414997790689029
 21
-233.79085556265261
 31
0.0
  0
LINE
  8
DETAIL
  6
CONTINUOUS
 62
     5
 10
18.414997790689029
 20
-233.79085556265261
 30
0.0
 11
18.429648655589229
 21
-233.83866778346029
 31
0.0
  0
LINE
  8
DETAIL
  6
CONTINUOUS
 62
     5
 10
18.429648655589229
 20
-233.83866778346029
 30
0.0
 11
18.429648655589229
 21
-233.83866778346029
 31
0.0
  0
LINE
  8
DETAIL
  6
CONTINUOUS
 62
     5
 10
18.429648655589229
 20
-233.83866778346029
 30
0.0
 11
18.443417136306099
 21
-233.8867015739531
 31
0.0
  0
LINE
  8
DETAIL
  6
CONTINUOUS
 62
     5
 10
18.443417136306099
 20
-233.8867015739531
 30
0.0
 11
18.456323166210439
 21
-233.93524628191449
 31
0.0
  0
LINE
  8
DETAIL
  6
CONTINUOUS
 62
     5
 10
18.456323166210439
 20
-233.93524628191449
 30
0.0
 11
18.456323166210439
 21
-233.93524628191449
 31
0.0
  0
LINE
  8
DETAIL
  6
CONTINUOUS
 62
     5
 10
18.456323166210439
 20
-233.93524628191449
 30
0.0
 11
18.46833112972098
 21
-233.9843368154778
 31
0.0
  0
LINE
  8
DETAIL
  6
CONTINUOUS
 62
     5
 10
18.46833112972098
 20
-233.9843368154778
 30
0.0
 11
18.479193514707902
 21
-234.0328307007274
 31
0.0
  0
LINE
  8
DETAIL
  6
CONTINUOUS
 62
     5
 10
18.479193514707902
 20
-234.0328307007274
 30
0.0
 11
18.479193514707902
 21
-234.0328307007274
 31
0.0
  0
LINE
  8
DETAIL
  6
CONTINUOUS
 62
     5
 10
18.479193514707902
 20
-234.0328307007274
 30
0.0
 11
18.488714275463909
 21
-234.07976427229161
 31
0.0
  0
LINE
  8
DETAIL
  6
CONTINUOUS
 62
     5
 10
18.488714275463909
 20
-234.07976427229161
 30
0.0
 11
18.49711512850666
 21
-234.12606648102769
 31
0.0
  0
LINE
  8
DETAIL
  6
CONTINUOUS
 62
     5
 10
18.49711512850666
 20
-234.12606648102769
 30
0.0
 11
18.49711512850666
 21
-234.12606648102769
 31
0.0
  0
LINE
  8
DETAIL
  6
CONTINUOUS
 62
     5
 10
18.49711512850666
 20
-234.12606648102769
 30
0.0
 11
18.504648048336719
 21
-234.1728379538323
 31
0.0
  0
LINE
  8
DETAIL
  6
CONTINUOUS
 62
     5
 10
18.504648048336719
 20
-234.1728379538323
 30
0.0
 11
18.511268279153398
 21
-234.21997340552991
 31
0.0
  0
LINE
  8
DETAIL
  6
CONTINUOUS
 62
     5
 10
18.511268279153398
 20
-234.21997340552991
 30
0.0
 11
18.511268279153398
 21
-234.21997340552991
 31
0.0
  0
LINE
  8
DETAIL
  6
CONTINUOUS
 62
     5
 10
18.511268279153398
 20
-234.21997340552991
 30
0.0
 11
18.516886262908368
 21
-234.26714706322659
 31
0.0
  0
LINE
  8
DETAIL
  6
CONTINUOUS
 62
     5
 10
18.516886262908368
 20
-234.26714706322659
 30
0.0
 11
18.5215299628689
 21
-234.31435711522471
 31
0.0
  0
LINE
  8
DETAIL
  6
CONTINUOUS
 62
     5
 10
18.5215299628689
 20
-234.31435711522471
 30
0.0
 11
18.5215299628689
 21
-234.31435711522471
 31
0.0
  0
LINE
  8
DETAIL
  6
CONTINUOUS
 62
     5
 10
18.5215299628689
 20
-234.31435711522471
 30
0.0
 11
18.525213383890499
 21
-234.3616602569472
 31
0.0
  0
LINE
  8
DETAIL
  6
CONTINUOUS
 62
     5
 10
18.525213383890499
 20
-234.3616602569472
 30
0.0
 11
18.52777717587054
 21
-234.40902325110369
 31
0.0
  0
LINE
  8
DETAIL
  6
CONTINUOUS
 62
     5
 10
18.52777717587054
 20
-234.40902325110369
 30
0.0
 11
18.52777717587054
 21
-234.40902325110369
 31
0.0
  0
LINE
  8
DETAIL
  6
CONTINUOUS
 62
     5
 10
18.52777717587054
 20
-234.40902325110369
 30
0.0
 11
18.52916262459593
 21
-234.45639931963959
 31
0.0
  0
LINE
  8
DETAIL
  6
CONTINUOUS
 62
     5
 10
18.52916262459593
 20
-234.45639931963959
 30
0.0
 11
18.529886914378441
 21
-234.5037774541585
 31
0.0
  0
LINE
  8
DETAIL
  6
CONTINUOUS
 62
     5
 10
18.529886914378441
 20
-234.5037774541585
 30
0.0
 11
18.529155020320729
 21
-234.55119291953301
 31
0.0
  0
LINE
  8
DETAIL
  6
CONTINUOUS
 62
     5
 10
18.529155020320729
 20
-234.55119291953301
 30
0.0
 11
18.527776723334171
 21
-234.59854157103541
 31
0.0
  0
LINE
  8
DETAIL
  6
CONTINUOUS
 62
     5
 10
18.527776723334171
 20
-234.59854157103541
 30
0.0
 11
18.527776723334171
 21
-234.59854157103541
 31
0.0
  0
LINE
  8
DETAIL
  6
CONTINUOUS
 62
     5
 10
18.527776723334171
 20
-234.59854157103541
 30
0.0
 11
18.525234730934869
 21
-234.64581239746829
 31
0.0
  0
LINE
  8
DETAIL
  6
CONTINUOUS
 62
     5
 10
18.525234730934869
 20
-234.64581239746829
 30
0.0
 11
18.52152819242718
 21
-234.69321759833511
 31
0.0
  0
LINE
  8
DETAIL
  6
CONTINUOUS
 62
     5
 10
18.52152819242718
 20
-234.69321759833511
 30
0.0
 11
18.52152819242718
 21
-234.69321759833511
 31
0.0
  0
LINE
  8
DETAIL
  6
CONTINUOUS
 62
     5
 10
18.52152819242718
 20
-234.69321759833511
 30
0.0
 11
18.516801600301449
 21
-234.74078867315711
 31
0.0
  0
LINE
  8
DETAIL
  6
CONTINUOUS
 62
     5
 10
18.516801600301449
 20
-234.74078867315711
 30
0.0
 11
18.511264378003201
 21
-234.7876111108281
 31
0.0
  0
LINE
  8
DETAIL
  6
CONTINUOUS
 62
     5
 10
18.511264378003201
 20
-234.7876111108281
 30
0.0
 11
18.511264378003201
 21
-234.7876111108281
 31
0.0
  0
LINE
  8
DETAIL
  6
CONTINUOUS
 62
     5
 10
18.511264378003201
 20
-234.7876111108281
 30
0.0
 11
18.504948140313161
 21
-234.8334241055378
 31
0.0
  0
LINE
  8
DETAIL
  6
CONTINUOUS
 62
     5
 10
18.504948140313161
 20
-234.8334241055378
 30
0.0
 11
18.49710833640955
 21
-234.88152768328459
 31
0.0
  0
LINE
  8
DETAIL
  6
CONTINUOUS
 62
     5
 10
18.49710833640955
 20
-234.88152768328459
 30
0.0
 11
18.49710833640955
 21
-234.88152768328459
 31
0.0
  0
LINE
  8
DETAIL
  6
CONTINUOUS
 62
     5
 10
18.49710833640955
 20
-234.88152768328459
 30
0.0
 11
18.48756630693487
 21
-234.93278774886701
 31
0.0
  0
LINE
  8
DETAIL
  6
CONTINUOUS
 62
     5
 10
18.48756630693487
 20
-234.93278774886701
 30
0.0
 11
18.479183123994229
 21
-234.97477289047501
 31
0.0
  0
LINE
  8
DETAIL
  6
CONTINUOUS
 62
     5
 10
18.479183123994229
 20
-234.97477289047501
 30
0.0
 11
18.479183123994229
 21
-234.97477289047501
 31
0.0
  0
LINE
  8
DETAIL
  6
CONTINUOUS
 62
     5
 10
18.479183123994229
 20
-234.97477289047501
 30
0.0
 11
18.474457605148871
 21
-234.99699477499391
 31
0.0
  0
LINE
  8
DETAIL
  6
CONTINUOUS
 62
     5
 10
18.474457605148871
 20
-234.99699477499391
 30
0.0
 11
18.47139981830713
 21
-235.0100347006985
 31
0.0
  0
LINE
  8
DETAIL
  6
CONTINUOUS
 62
     5
 10
18.47139981830713
 20
-235.0100347006985
 30
0.0
 11
18.47139981830713
 21
-235.0100347006985
 31
0.0
  0
LINE
  8
DETAIL
  6
CONTINUOUS
 62
     5
 10
18.47139981830713
 20
-235.0100347006985
 30
0.0
 11
18.467555405850991
 21
-235.02639210033121
 31
0.0
  0
LINE
  8
DETAIL
  6
CONTINUOUS
 62
     5
 10
18.467555405850991
 20
-235.02639210033121
 30
0.0
 11
18.463101057705611
 21
-235.04516931311289
 31
0.0
  0
LINE
  8
DETAIL
  6
CONTINUOUS
 62
     5
 10
18.463101057705611
 20
-235.04516931311289
 30
0.0
 11
18.463101057705611
 21
-235.04516931311289
 31
0.0
  0
LINE
  8
DETAIL
  6
CONTINUOUS
 62
     5
 10
18.463101057705611
 20
-235.04516931311289
 30
0.0
 11
18.458696079747771
 21
-235.0630168322769
 31
0.0
  0
LINE
  8
DETAIL
  6
CONTINUOUS
 62
     5
 10
18.458696079747771
 20
-235.0630168322769
 30
0.0
 11
18.454299194112021
 21
-235.0801748606261
 31
0.0
  0
LINE
  8
DETAIL
  6
CONTINUOUS
 62
     5
 10
18.454299194112021
 20
-235.0801748606261
 30
0.0
 11
18.454299194112021
 21
-235.0801748606261
 31
0.0
  0
LINE
  8
DETAIL
  6
CONTINUOUS
 62
     5
 10
18.454299194112021
 20
-235.0801748606261
 30
0.0
 11
18.44973679885328
 21
-235.09754059216661
 31
0.0
  0
LINE
  8
DETAIL
  6
CONTINUOUS
 62
     5
 10
18.44973679885328
 20
-235.09754059216661
 30
0.0
 11
18.445006579449629
 21
-235.1150494761464
 31
0.0
  0
LINE
  8
DETAIL
  6
CONTINUOUS
 62
     5
 10
18.445006579449629
 20
-235.1150494761464
 30
0.0
 11
18.445006579449629
 21
-235.1150494761464
 31
0.0
  0
LINE
  8
DETAIL
  6
CONTINUOUS
 62
     5
 10
18.445006579449629
 20
-235.1150494761464
 30
0.0
 11
18.440152901747691
 21
-235.1324608429899
 31
0.0
  0
LINE
  8
DETAIL
  6
CONTINUOUS
 62
     5
 10
18.440152901747691
 20
-235.1324608429899
 30
0.0
 11
18.435235565640991
 21
-235.14979129258251
 31
0.0
  0
LINE
  8
DETAIL
  6
CONTINUOUS
 62
     5
 10
18.41656128303924
 20
-235.21173247834099
 30
0.0
 11
18.408757090323832
 21
-235.2360434185895
 31
0.0
  0
LINE
  8
DETAIL
  6
CONTINUOUS
 62
     5
 10
18.408757090323832
 20
-235.2360434185895
 30
0.0
 11
18.40079175018985
 21
-235.26036706926189
 31
0.0
  0
LINE
  8
DETAIL
  6
CONTINUOUS
 62
     5
 10
18.40079175018985
 20
-235.26036706926189
 30
0.0
 11
18.40079175018985
 21
-235.26036706926189
 31
0.0
  0
LINE
  8
DETAIL
  6
CONTINUOUS
 62
     5
 10
18.40079175018985
 20
-235.26036706926189
 30
0.0
 11
18.39255830140559
 21
-235.28466814723231
 31
0.0
  0
LINE
  8
DETAIL
  6
CONTINUOUS
 62
     5
 10
18.39255830140559
 20
-235.28466814723231
 30
0.0
 11
18.384166527481451
 21
-235.30871939517701
 31
0.0
  0
LINE
  8
DETAIL
  6
CONTINUOUS
 62
     5
 10
18.384166527481451
 20
-235.30871939517701
 30
0.0
 11
18.384166527481451
 21
-235.30871939517701
 31
0.0
  0
LINE
  8
DETAIL
  6
CONTINUOUS
 62
     5
 10
18.384166527481451
 20
-235.30871939517701
 30
0.0
 11
18.3756750037773
 21
-235.33247215608
 31
0.0
  0
LINE
  8
DETAIL
  6
CONTINUOUS
 62
     5
 10
18.3756750037773
 20
-235.33247215608
 30
0.0
 11
18.36672072831465
 21
-235.35678414835411
 31
0.0
  0
LINE
  8
DETAIL
  6
CONTINUOUS
 62
     5
 10
18.36672072831465
 20
-235.35678414835411
 30
0.0
 11
18.36672072831465
 21
-235.35678414835411
 31
0.0
  0
LINE
  8
DETAIL
  6
CONTINUOUS
 62
     5
 10
18.36672072831465
 20
-235.35678414835411
 30
0.0
 11
18.357202695934522
 21
-235.38188130239001
 31
0.0
  0
LINE
  8
DETAIL
  6
CONTINUOUS
 62
     5
 10
18.357202695934522
 20
-235.38188130239001
 30
0.0
 11
18.348489466087759
 21
-235.40455602106101
 31
0.0
  0
LINE
  8
DETAIL
  6
CONTINUOUS
 62
     5
 10
18.348489466087759
 20
-235.40455602106101
 30
0.0
 11
18.348489466087759
 21
-235.40455602106101
 31
0.0
  0
LINE
  8
DETAIL
  6
CONTINUOUS
 62
     5
 10
18.348489466087759
 20
-235.40455602106101
 30
0.0
 11
18.340952819103169
 21
-235.42394925902141
 31
0.0
  0
LINE
  8
DETAIL
  6
CONTINUOUS
 62
     5
 10
18.340952819103169
 20
-235.42394925902141
 30
0.0
 11
18.329507854201609
 21
-235.45202970556551
 31
0.0
  0
LINE
  8
DETAIL
  6
CONTINUOUS
 62
     5
 10
18.329507854201609
 20
-235.45202970556551
 30
0.0
 11
18.329507854201609
 21
-235.45202970556551
 31
0.0
  0
LINE
  8
DETAIL
  6
CONTINUOUS
 62
     5
 10
18.329507854201609
 20
-235.45202970556551
 30
0.0
 11
18.309791305331999
 21
-235.49888524422261
 31
0.0
  0
LINE
  8
DETAIL
  6
CONTINUOUS
 62
     5
 10
18.309791305331999
 20
-235.49888524422261
 30
0.0
 11
18.285783126457488
 21
-235.55425280081829
 31
0.0
  0
LINE
  8
DETAIL
  6
CONTINUOUS
 62
     5
 10
18.285783126457488
 20
-235.55425280081829
 30
0.0
 11
18.285783126457488
 21
-235.55425280081829
 31
0.0
  0
LINE
  8
DETAIL
  6
CONTINUOUS
 62
     5
 10
18.285783126457488
 20
-235.55425280081829
 30
0.0
 11
18.262273629432851
 21
-235.60602583592561
 31
0.0
  0
LINE
  8
DETAIL
  6
CONTINUOUS
 62
     5
 10
18.262273629432851
 20
-235.60602583592561
 30
0.0
 11
18.238951337647169
 21
-235.65507490681179
 31
0.0
  0
LINE
  8
DETAIL
  6
CONTINUOUS
 62
     5
 10
18.238951337647169
 20
-235.65507490681179
 30
0.0
 11
18.238951337647169
 21
-235.65507490681179
 31
0.0
  0
LINE
  8
DETAIL
  6
CONTINUOUS
 62
     5
 10
18.238951337647169
 20
-235.65507490681179
 30
0.0
 11
18.214575427303711
 21
-235.70464865795029
 31
0.0
  0
LINE
  8
DETAIL
  6
CONTINUOUS
 62
     5
 10
18.214575427303711
 20
-235.70464865795029
 30
0.0
 11
18.18928947432795
 21
-235.75453098594761
 31
0.0
  0
LINE
  8
DETAIL
  6
CONTINUOUS
 62
     5
 10
18.18928947432795
 20
-235.75453098594761
 30
0.0
 11
18.18928947432795
 21
-235.75453098594761
 31
0.0
  0
LINE
  8
DETAIL
  6
CONTINUOUS
 62
     5
 10
18.18928947432795
 20
-235.75453098594761
 30
0.0
 11
18.163474201968882
 21
-235.8038600741364
 31
0.0
  0
LINE
  8
DETAIL
  6
CONTINUOUS
 62
     5
 10
18.163474201968882
 20
-235.8038600741364
 30
0.0
 11
18.137074523055791
 21
-235.85265600062681
 31
0.0
  0
LINE
  8
DETAIL
  6
CONTINUOUS
 62
     5
 10
18.137074523055791
 20
-235.85265600062681
 30
0.0
 11
18.137074523055791
 21
-235.85265600062681
 31
0.0
  0
LINE
  8
DETAIL
  6
CONTINUOUS
 62
     5
 10
18.137074523055791
 20
-235.85265600062681
 30
0.0
 11
18.110016108304709
 21
-235.90114360941271
 31
0.0
  0
LINE
  8
DETAIL
  6
CONTINUOUS
 62
     5
 10
18.110016108304709
 20
-235.90114360941271
 30
0.0
 11
18.082583470388901
 21
-235.94948491325101
 31
0.0
  0
LINE
  8
DETAIL
  6
CONTINUOUS
 62
     5
 10
18.529886914378441
 20
-225.82953269882671
 30
0.0
 11
18.529162461161551
 21
-225.876915818562
 31
0.0
  0
LINE
  8
DETAIL
  6
CONTINUOUS
 62
     5
 10
18.529162461161551
 20
-225.876915818562
 30
0.0
 11
18.527776722958318
 21
-225.92429681658621
 31
0.0
  0
LINE
  8
DETAIL
  6
CONTINUOUS
 62
     5
 10
18.527776722958318
 20
-225.92429681658621
 30
0.0
 11
18.527776722958318
 21
-225.92429681658621
 31
0.0
  0
LINE
  8
DETAIL
  6
CONTINUOUS
 62
     5
 10
18.527776722958318
 20
-225.92429681658621
 30
0.0
 11
18.52521240730329
 21
-225.97166468169141
 31
0.0
  0
LINE
  8
DETAIL
  6
CONTINUOUS
 62
     5
 10
18.52521240730329
 20
-225.97166468169141
 30
0.0
 11
18.521528191818049
 21
-226.018972844682
 31
0.0
  0
LINE
  8
DETAIL
  6
CONTINUOUS
 62
     5
 10
18.521528191818049
 20
-226.018972844682
 30
0.0
 11
18.521528191818049
 21
-226.018972844682
 31
0.0
  0
LINE
  8
DETAIL
  6
CONTINUOUS
 62
     5
 10
18.521528191818049
 20
-226.018972844682
 30
0.0
 11
18.5168834510593
 21
-226.0661881129096
 31
0.0
  0
LINE
  8
DETAIL
  6
CONTINUOUS
 62
     5
 10
18.5168834510593
 20
-226.0661881129096
 30
0.0
 11
18.511264377250601
 21
-226.11336635790161
 31
0.0
  0
LINE
  8
DETAIL
  6
CONTINUOUS
 62
     5
 10
18.511264377250601
 20
-226.11336635790161
 30
0.0
 11
18.511264377250601
 21
-226.11336635790161
 31
0.0
  0
LINE
  8
DETAIL
  6
CONTINUOUS
 62
     5
 10
18.511264377250601
 20
-226.11336635790161
 30
0.0
 11
18.50464305684471
 21
-226.16050554254971
 31
0.0
  0
LINE
  8
DETAIL
  6
CONTINUOUS
 62
     5
 10
18.50464305684471
 20
-226.16050554254971
 30
0.0
 11
18.497108335548941
 21
-226.20728293103139
 31
0.0
  0
LINE
  8
DETAIL
  6
CONTINUOUS
 62
     5
 10
18.497108335548941
 20
-226.20728293103139
 30
0.0
 11
18.497108335548941
 21
-226.20728293103139
 31
0.0
  0
LINE
  8
DETAIL
  6
CONTINUOUS
 62
     5
 10
18.497108335548941
 20
-226.20728293103139
 30
0.0
 11
18.488704785211841
 21
-226.25359404551631
 31
0.0
  0
LINE
  8
DETAIL
  6
CONTINUOUS
 62
     5
 10
18.488704785211841
 20
-226.25359404551631
 30
0.0
 11
18.479183123006521
 21
-226.30052813885911
 31
0.0
  0
LINE
  8
DETAIL
  6
CONTINUOUS
 62
     5
 10
18.479183123006521
 20
-226.30052813885911
 30
0.0
 11
18.479183123006521
 21
-226.30052813885911
 31
0.0
  0
LINE
  8
DETAIL
  6
CONTINUOUS
 62
     5
 10
18.479183123006521
 20
-226.30052813885911
 30
0.0
 11
18.468324009428841
 21
-226.3490045884503
 31
0.0
  0
LINE
  8
DETAIL
  6
CONTINUOUS
 62
     5
 10
18.468324009428841
 20
-226.3490045884503
 30
0.0
 11
18.45632173295229
 21
-226.3980695391339
 31
0.0
  0
LINE
  8
DETAIL
  6
CONTINUOUS
 62
     5
 10
18.45632173295229
 20
-226.3980695391339
 30
0.0
 11
18.45632173295229
 21
-226.3980695391339
 31
0.0
  0
LINE
  8
DETAIL
  6
CONTINUOUS
 62
     5
 10
18.45632173295229
 20
-226.3980695391339
 30
0.0
 11
18.443421620440571
 21
-226.4465920193561
 31
0.0
  0
LINE
  8
DETAIL
  6
CONTINUOUS
 62
     5
 10
18.443421620440571
 20
-226.4465920193561
 30
0.0
 11
18.429659524338089
 21
-226.49460582451911
 31
0.0
  0
LINE
  8
DETAIL
  6
CONTINUOUS
 62
     5
 10
18.429659524338089
 20
-226.49460582451911
 30
0.0
 11
18.429659524338089
 21
-226.49460582451911
 31
0.0
  0
LINE
  8
DETAIL
  6
CONTINUOUS
 62
     5
 10
18.429659524338089
 20
-226.49460582451911
 30
0.0
 11
18.415016074370609
 21
-226.54239715837261
 31
0.0
  0
LINE
  8
DETAIL
  6
CONTINUOUS
 62
     5
 10
18.415016074370609
 20
-226.54239715837261
 30
0.0
 11
18.39946048381324
 21
-226.59009709110461
 31
0.0
  0
LINE
  8
DETAIL
  6
CONTINUOUS
 62
     5
 10
18.39946048381324
 20
-226.59009709110461
 30
0.0
 11
18.39946048381324
 21
-226.59009709110461
 31
0.0
  0
LINE
  8
DETAIL
  6
CONTINUOUS
 62
     5
 10
18.39946048381324
 20
-226.59009709110461
 30
0.0
 11
18.38302289688562
 21
-226.63766185133551
 31
0.0
  0
LINE
  8
DETAIL
  6
CONTINUOUS
 62
     5
 10
18.38302289688562
 20
-226.63766185133551
 30
0.0
 11
18.36598859802751
 21
-226.68450343498111
 31
0.0
  0
LINE
  8
DETAIL
  6
CONTINUOUS
 62
     5
 10
18.36598859802751
 20
-226.68450343498111
 30
0.0
 11
18.36598859802751
 21
-226.68450343498111
 31
0.0
  0
LINE
  8
DETAIL
  6
CONTINUOUS
 62
     5
 10
18.36598859802751
 20
-226.68450343498111
 30
0.0
 11
18.348454370626481
 21
-226.7304807958765
 31
0.0
  0
LINE
  8
DETAIL
  6
CONTINUOUS
 62
     5
 10
18.348454370626481
 20
-226.7304807958765
 30
0.0
 11
18.32950785362954
 21
-226.77778495223851
 31
0.0
  0
LINE
  8
DETAIL
  6
CONTINUOUS
 62
     5
 10
18.32950785362954
 20
-226.77778495223851
 30
0.0
 11
18.32950785362954
 21
-226.77778495223851
 31
0.0
  0
LINE
  8
DETAIL
  6
CONTINUOUS
 62
     5
 10
18.32950785362954
 20
-226.77778495223851
 30
0.0
 11
18.308367370343088
 21
-226.82825722069151
 31
0.0
  0
LINE
  8
DETAIL
  6
CONTINUOUS
 62
     5
 10
18.308367370343088
 20
-226.82825722069151
 30
0.0
 11
18.285783125940899
 21
-226.88000804710941
 31
0.0
  0
LINE
  8
DETAIL
  6
CONTINUOUS
 62
     5
 10
18.285783125940899
 20
-226.88000804710941
 30
0.0
 11
18.285783125940899
 21
-226.88000804710941
 31
0.0
  0
LINE
  8
DETAIL
  6
CONTINUOUS
 62
     5
 10
18.285783125940899
 20
-226.88000804710941
 30
0.0
 11
18.26265520618011
 21
-226.93081189294611
 31
0.0
  0
LINE
  8
DETAIL
  6
CONTINUOUS
 62
     5
 10
18.26265520618011
 20
-226.93081189294611
 30
0.0
 11
18.238951337271772
 21
-226.98083015272391
 31
0.0
  0
LINE
  8
DETAIL
  6
CONTINUOUS
 62
     5
 10
18.238951337271772
 20
-226.98083015272391
 30
0.0
 11
18.238951337271772
 21
-226.98083015272391
 31
0.0
  0
LINE
  8
DETAIL
  6
CONTINUOUS
 62
     5
 10
18.238951337271772
 20
-226.98083015272391
 30
0.0
 11
18.214473052642632
 21
-227.03066393000901
 31
0.0
  0
LINE
  8
DETAIL
  6
CONTINUOUS
 62
     5
 10
18.214473052642632
 20
-227.03066393000901
 30
0.0
 11
18.18928947412331
 21
-227.08028623147081
 31
0.0
  0
LINE
  8
DETAIL
  6
CONTINUOUS
 62
     5
 10
18.18928947412331
 20
-227.08028623147081
 30
0.0
 11
18.18928947412331
 21
-227.08028623147081
 31
0.0
  0
LINE
  8
DETAIL
  6
CONTINUOUS
 62
     5
 10
18.18928947412331
 20
-227.08028623147081
 30
0.0
 11
18.163502122127909
 21
-227.1295444031843
 31
0.0
  0
LINE
  8
DETAIL
  6
CONTINUOUS
 62
     5
 10
18.163502122127909
 20
-227.1295444031843
 30
0.0
 11
18.137074522995761
 21
-227.1784112457398
 31
0.0
  0
LINE
  8
DETAIL
  6
CONTINUOUS
 62
     5
 10
18.137074522995761
 20
-227.1784112457398
 30
0.0
 11
18.137074522995761
 21
-227.1784112457398
 31
0.0
  0
LINE
  8
DETAIL
  6
CONTINUOUS
 62
     5
 10
18.137074522995761
 20
-227.1784112457398
 30
0.0
 11
18.11000680152091
 21
-227.22692249306431
 31
0.0
  0
LINE
  8
DETAIL
  6
CONTINUOUS
 62
     5
 10
18.11000680152091
 20
-227.22692249306431
 30
0.0
 11
18.082583470388901
 21
-227.27524015791931
 31
0.0
  0
LINE
  8
DETAIL
  6
CONTINUOUS
 62
     5
 10
274.4424777157455
 20
-89.813299882030321
 30
0.0
 11
274.45413625466648
 21
-89.810001953794256
 31
0.0
  0
LINE
  8
DETAIL
  6
CONTINUOUS
 62
     5
 10
274.45413625466648
 20
-89.810001953794256
 30
0.0
 11
274.46582536334779
 21
-89.806761332425594
 31
0.0
  0
LINE
  8
DETAIL
  6
CONTINUOUS
 62
     5
 10
274.46582536334779
 20
-89.806761332425594
 30
0.0
 11
274.46582536334779
 21
-89.806761332425594
 31
0.0
  0
LINE
  8
DETAIL
  6
CONTINUOUS
 62
     5
 10
274.46582536334779
 20
-89.806761332425594
 30
0.0
 11
274.47755787278709
 21
-89.803625131751971
 31
0.0
  0
LINE
  8
DETAIL
  6
CONTINUOUS
 62
     5
 10
274.47755787278709
 20
-89.803625131751971
 30
0.0
 11
274.48927565892689
 21
-89.800599693443758
 31
0.0
  0
LINE
  8
DETAIL
  6
CONTINUOUS
 62
     5
 10
274.48927565892689
 20
-89.800599693443758
 30
0.0
 11
274.48927565892689
 21
-89.800599693443758
 31
0.0
  0
LINE
  8
DETAIL
  6
CONTINUOUS
 62
     5
 10
274.48927565892689
 20
-89.800599693443758
 30
0.0
 11
274.50095989669279
 21
-89.797673645243435
 31
0.0
  0
LINE
  8
DETAIL
  6
CONTINUOUS
 62
     5
 10
274.50095989669279
 20
-89.797673645243435
 30
0.0
 11
274.51281991200102
 21
-89.794805531339364
 31
0.0
  0
LINE
  8
DETAIL
  6
CONTINUOUS
 62
     5
 10
274.51281991200102
 20
-89.794805531339364
 30
0.0
 11
274.51281991200102
 21
-89.794805531339364
 31
0.0
  0
LINE
  8
DETAIL
  6
CONTINUOUS
 62
     5
 10
274.51281991200102
 20
-89.794805531339364
 30
0.0
 11
274.52491165628902
 21
-89.791986651624654
 31
0.0
  0
LINE
  8
DETAIL
  6
CONTINUOUS
 62
     5
 10
274.52491165628902
 20
-89.791986651624654
 30
0.0
 11
274.53644943209008
 21
-89.789369412366113
 31
0.0
  0
LINE
  8
DETAIL
  6
CONTINUOUS
 62
     5
 10
274.53644943209008
 20
-89.789369412366113
 30
0.0
 11
274.53644943209008
 21
-89.789369412366113
 31
0.0
  0
LINE
  8
DETAIL
  6
CONTINUOUS
 62
     5
 10
274.53644943209008
 20
-89.789369412366113
 30
0.0
 11
274.54722174086822
 21
-89.786992910938807
 31
0.0
  0
LINE
  8
DETAIL
  6
CONTINUOUS
 62
     5
 10
274.54722174086822
 20
-89.786992910938807
 30
0.0
 11
274.56015552871412
 21
-89.784281902778218
 31
0.0
  0
LINE
  8
DETAIL
  6
CONTINUOUS
 62
     5
 10
274.56015552871412
 20
-89.784281902778218
 30
0.0
 11
274.56015552871412
 21
-89.784281902778218
 31
0.0
  0
LINE
  8
DETAIL
  6
CONTINUOUS
 62
     5
 10
274.56015552871412
 20
-89.784281902778218
 30
0.0
 11
274.57772742180799
 21
-89.780763036501753
 31
0.0
  0
LINE
  8
DETAIL
  6
CONTINUOUS
 62
     5
 10
274.57772742180799
 20
-89.780763036501753
 30
0.0
 11
274.59747432207791
 21
-89.776984875394021
 31
0.0
  0
LINE
  8
DETAIL
  6
CONTINUOUS
 62
     5
 10
274.59747432207791
 20
-89.776984875394021
 30
0.0
 11
274.59747432207791
 21
-89.776984875394021
 31
0.0
  0
LINE
  8
DETAIL
  6
CONTINUOUS
 62
     5
 10
274.59747432207791
 20
-89.776984875394021
 30
0.0
 11
274.61647828832702
 21
-89.773581154056501
 31
0.0
  0
LINE
  8
DETAIL
  6
CONTINUOUS
 62
     5
 10
274.61647828832702
 20
-89.773581154056501
 30
0.0
 11
274.63494173112622
 21
-89.770504377690202
 31
0.0
  0
LINE
  8
DETAIL
  6
CONTINUOUS
 62
     5
 10
274.63494173112622
 20
-89.770504377690202
 30
0.0
 11
274.63494173112622
 21
-89.770504377690202
 31
0.0
  0
LINE
  8
DETAIL
  6
CONTINUOUS
 62
     5
 10
274.63494173112622
 20
-89.770504377690202
 30
0.0
 11
274.65364243897409
 21
-89.767582001449625
 31
0.0
  0
LINE
  8
DETAIL
  6
CONTINUOUS
 62
     5
 10
274.65364243897409
 20
-89.767582001449625
 30
0.0
 11
274.67253936032728
 21
-89.764822509702071
 31
0.0
  0
LINE
  8
DETAIL
  6
CONTINUOUS
 62
     5
 10
274.67253936032728
 20
-89.764822509702071
 30
0.0
 11
274.67253936032728
 21
-89.764822509702071
 31
0.0
  0
LINE
  8
DETAIL
  6
CONTINUOUS
 62
     5
 10
274.67253936032728
 20
-89.764822509702071
 30
0.0
 11
274.69142548573222
 21
-89.762268922254918
 31
0.0
  0
LINE
  8
DETAIL
  6
CONTINUOUS
 62
     5
 10
274.69142548573222
 20
-89.762268922254918
 30
0.0
 11
274.71024881415099
 21
-89.759921371464884
 31
0.0
  0
LINE
  8
DETAIL
  6
CONTINUOUS
 62
     5
 10
274.71024881415099
 20
-89.759921371464884
 30
0.0
 11
274.71024881415099
 21
-89.759921371464884
 31
0.0
  0
LINE
  8
DETAIL
  6
CONTINUOUS
 62
     5
 10
274.71024881415099
 20
-89.759921371464884
 30
0.0
 11
274.72904579824637
 21
-89.757766897973511
 31
0.0
  0
LINE
  8
DETAIL
  6
CONTINUOUS
 62
     5
 10
274.72904579824637
 20
-89.757766897973511
 30
0.0
 11
274.74805169706718
 21
-89.755783063014178
 31
0.0
  0
LINE
  8
DETAIL
  6
CONTINUOUS
 62
     5
 10
274.74805169706718
 20
-89.755783063014178
 30
0.0
 11
274.74805169706718
 21
-89.755783063014178
 31
0.0
  0
LINE
  8
DETAIL
  6
CONTINUOUS
 62
     5
 10
274.74805169706718
 20
-89.755783063014178
 30
0.0
 11
274.76745351707541
 21
-89.753954439485369
 31
0.0
  0
LINE
  8
DETAIL
  6
CONTINUOUS
 62
     5
 10
274.76745351707541
 20
-89.753954439485369
 30
0.0
 11
274.78704644798489
 21
-89.752303126353752
 31
0.0
  0
LINE
  8
DETAIL
  6
CONTINUOUS
 62
     5
 10
274.78704644798489
 20
-89.752303126353752
 30
0.0
 11
274.78704644798489
 21
-89.752303126353752
 31
0.0
  0
LINE
  8
DETAIL
  6
CONTINUOUS
 62
     5
 10
274.78704644798489
 20
-89.752303126353752
 30
0.0
 11
274.80659122036639
 21
-89.750854154608476
 31
0.0
  0
LINE
  8
DETAIL
  6
CONTINUOUS
 62
     5
 10
274.80659122036639
 20
-89.750854154608476
 30
0.0
 11
274.82610254496052
 21
-89.749606757259755
 31
0.0
  0
LINE
  8
DETAIL
  6
CONTINUOUS
 62
     5
 10
274.82610254496052
 20
-89.749606757259755
 30
0.0
 11
274.82610254496052
 21
-89.749606757259755
 31
0.0
  0
LINE
  8
DETAIL
  6
CONTINUOUS
 62
     5
 10
274.82610254496052
 20
-89.749606757259755
 30
0.0
 11
274.84564164526932
 21
-89.748553748897166
 31
0.0
  0
LINE
  8
DETAIL
  6
CONTINUOUS
 62
     5
 10
274.84564164526932
 20
-89.748553748897166
 30
0.0
 11
274.86520181567153
 21
-89.747688068405864
 31
0.0
  0
LINE
  8
DETAIL
  6
CONTINUOUS
 62
     5
 10
274.86520181567153
 20
-89.747688068405864
 30
0.0
 11
274.86520181567153
 21
-89.747688068405864
 31
0.0
  0
LINE
  8
DETAIL
  6
CONTINUOUS
 62
     5
 10
274.86520181567153
 20
-89.747688068405864
 30
0.0
 11
274.88476380234601
 21
-89.747009010943884
 31
0.0
  0
LINE
  8
DETAIL
  6
CONTINUOUS
 62
     5
 10
274.88476380234601
 20
-89.747009010943884
 30
0.0
 11
274.90432608779668
 21
-89.746541172466152
 31
0.0
  0
LINE
  8
DETAIL
  6
CONTINUOUS
 62
     5
 10
274.90432608779668
 20
-89.746541172466152
 30
0.0
 11
274.90432608779668
 21
-89.746541172466152
 31
0.0
  0
LINE
  8
DETAIL
  6
CONTINUOUS
 62
     5
 10
274.90432608779668
 20
-89.746541172466152
 30
0.0
 11
274.92389083456499
 21
-89.746290142255759
 31
0.0
  0
LINE
  8
DETAIL
  6
CONTINUOUS
 62
     5
 10
274.92389083456499
 20
-89.746290142255759
 30
0.0
 11
274.94345718901491
 21
-89.746160182114238
 31
0.0
  0
LINE
  8
DETAIL
  6
CONTINUOUS
 62
     5
 10
275.74474959612269
 20
-89.746160182114238
 30
0.0
 11
275.76431595871497
 21
-89.746030220218302
 31
0.0
  0
LINE
  8
DETAIL
  6
CONTINUOUS
 62
     5
 10
275.76431595871497
 20
-89.746030220218302
 30
0.0
 11
275.78388069738247
 21
-89.745779191804615
 31
0.0
  0
LINE
  8
DETAIL
  6
CONTINUOUS
 62
     5
 10
275.78388069738247
 20
-89.745779191804615
 30
0.0
 11
275.78388069738247
 21
-89.745779191804615
 31
0.0
  0
LINE
  8
DETAIL
  6
CONTINUOUS
 62
     5
 10
275.78388069738247
 20
-89.745779191804615
 30
0.0
 11
275.8034429584954
 21
-89.745311358682272
 31
0.0
  0
LINE
  8
DETAIL
  6
CONTINUOUS
 62
     5
 10
275.8034429584954
 20
-89.745311358682272
 30
0.0
 11
275.82300496961551
 21
-89.744632295970405
 31
0.0
  0
LINE
  8
DETAIL
  6
CONTINUOUS
 62
     5
 10
275.82300496961551
 20
-89.744632295970405
 30
0.0
 11
275.82300496961551
 21
-89.744632295970405
 31
0.0
  0
LINE
  8
DETAIL
  6
CONTINUOUS
 62
     5
 10
275.82300496961551
 20
-89.744632295970405
 30
0.0
 11
275.84256522949607
 21
-89.743766596076625
 31
0.0
  0
LINE
  8
DETAIL
  6
CONTINUOUS
 62
     5
 10
275.84256522949607
 20
-89.743766596076625
 30
0.0
 11
275.86210424047681
 21
-89.742713607254473
 31
0.0
  0
LINE
  8
DETAIL
  6
CONTINUOUS
 62
     5
 10
275.86210424047681
 20
-89.742713607254473
 30
0.0
 11
275.86210424047681
 21
-89.742713607254473
 31
0.0
  0
LINE
  8
DETAIL
  6
CONTINUOUS
 62
     5
 10
275.86210424047681
 20
-89.742713607254473
 30
0.0
 11
275.88161523191161
 21
-89.741466282545787
 31
0.0
  0
LINE
  8
DETAIL
  6
CONTINUOUS
 62
     5
 10
275.88161523191161
 20
-89.741466282545787
 30
0.0
 11
275.9011603376195
 21
-89.740017238299288
 31
0.0
  0
LINE
  8
DETAIL
  6
CONTINUOUS
 62
     5
 10
275.9011603376195
 20
-89.740017238299288
 30
0.0
 11
275.9011603376195
 21
-89.740017238299288
 31
0.0
  0
LINE
  8
DETAIL
  6
CONTINUOUS
 62
     5
 10
275.9011603376195
 20
-89.740017238299288
 30
0.0
 11
275.92075451217443
 21
-89.738365654421898
 31
0.0
  0
LINE
  8
DETAIL
  6
CONTINUOUS
 62
     5
 10
275.92075451217443
 20
-89.738365654421898
 30
0.0
 11
275.94015508869802
 21
-89.736537301747489
 31
0.0
  0
LINE
  8
DETAIL
  6
CONTINUOUS
 62
     5
 10
275.94015508869802
 20
-89.736537301747489
 30
0.0
 11
275.94015508869802
 21
-89.736537301747489
 31
0.0
  0
LINE
  8
DETAIL
  6
CONTINUOUS
 62
     5
 10
275.94015508869802
 20
-89.736537301747489
 30
0.0
 11
275.95915634658547
 21
-89.734554477476479
 31
0.0
  0
LINE
  8
DETAIL
  6
CONTINUOUS
 62
     5
 10
275.95915634658547
 20
-89.734554477476479
 30
0.0
 11
275.97795797176173
 21
-89.732398993348909
 31
0.0
  0
LINE
  8
DETAIL
  6
CONTINUOUS
 62
     5
 10
275.97795797176173
 20
-89.732398993348909
 30
0.0
 11
275.97795797176173
 21
-89.732398993348909
 31
0.0
  0
LINE
  8
DETAIL
  6
CONTINUOUS
 62
     5
 10
275.97795797176173
 20
-89.732398993348909
 30
0.0
 11
275.99679862072043
 21
-89.730047670751617
 31
0.0
  0
LINE
  8
DETAIL
  6
CONTINUOUS
 62
     5
 10
275.99679862072043
 20
-89.730047670751617
 30
0.0
 11
276.01566742569912
 21
-89.727497855121385
 31
0.0
  0
LINE
  8
DETAIL
  6
CONTINUOUS
 62
     5
 10
276.01566742569912
 20
-89.727497855121385
 30
0.0
 11
276.01566742569912
 21
-89.727497855121385
 31
0.0
  0
LINE
  8
DETAIL
  6
CONTINUOUS
 62
     5
 10
276.01566742569912
 20
-89.727497855121385
 30
0.0
 11
276.03449970619198
 21
-89.724752439977181
 31
0.0
  0
LINE
  8
DETAIL
  6
CONTINUOUS
 62
     5
 10
276.03449970619198
 20
-89.724752439977181
 30
0.0
 11
276.05326505497499
 21
-89.721815987115974
 31
0.0
  0
LINE
  8
DETAIL
  6
CONTINUOUS
 62
     5
 10
276.05326505497499
 20
-89.721815987115974
 30
0.0
 11
276.05326505497499
 21
-89.721815987115974
 31
0.0
  0
LINE
  8
DETAIL
  6
CONTINUOUS
 62
     5
 10
276.05326505497499
 20
-89.721815987115974
 30
0.0
 11
276.07196974092722
 21
-89.718686676113748
 31
0.0
  0
LINE
  8
DETAIL
  6
CONTINUOUS
 62
     5
 10
276.07196974092722
 20
-89.718686676113748
 30
0.0
 11
276.09073246405381
 21
-89.715335489383961
 31
0.0
  0
LINE
  8
DETAIL
  6
CONTINUOUS
 62
     5
 10
276.09073246405381
 20
-89.715335489383961
 30
0.0
 11
276.09073246405381
 21
-89.715335489383961
 31
0.0
  0
LINE
  8
DETAIL
  6
CONTINUOUS
 62
     5
 10
276.09073246405381
 20
-89.715335489383961
 30
0.0
 11
276.10957903269531
 21
-89.711753390142178
 31
0.0
  0
LINE
  8
DETAIL
  6
CONTINUOUS
 62
     5
 10
276.10957903269531
 20
-89.711753390142178
 30
0.0
 11
276.12805125740158
 21
-89.708038461976685
 31
0.0
  0
LINE
  8
DETAIL
  6
CONTINUOUS
 62
     5
 10
276.12805125740158
 20
-89.708038461976685
 30
0.0
 11
276.12805125740158
 21
-89.708038461976685
 31
0.0
  0
LINE
  8
DETAIL
  6
CONTINUOUS
 62
     5
 10
276.12805125740158
 20
-89.708038461976685
 30
0.0
 11
276.14576222827708
 21
-89.704275528727749
 31
0.0
  0
LINE
  8
DETAIL
  6
CONTINUOUS
 62
     5
 10
276.14576222827708
 20
-89.704275528727749
 30
0.0
 11
276.16309415143098
 21
-89.700389254870913
 31
0.0
  0
LINE
  8
DETAIL
  6
CONTINUOUS
 62
     5
 10
276.16309415143098
 20
-89.700389254870913
 30
0.0
 11
276.16309415143098
 21
-89.700389254870913
 31
0.0
  0
LINE
  8
DETAIL
  6
CONTINUOUS
 62
     5
 10
276.16309415143098
 20
-89.700389254870913
 30
0.0
 11
276.18050170558229
 21
-89.696287021129706
 31
0.0
  0
LINE
  8
DETAIL
  6
CONTINUOUS
 62
     5
 10
276.18050170558229
 20
-89.696287021129706
 30
0.0
 11
276.19796034388872
 21
-89.69196723258284
 31
0.0
  0
LINE
  8
DETAIL
  6
CONTINUOUS
 62
     5
 10
276.19796034388872
 20
-89.69196723258284
 30
0.0
 11
276.19796034388872
 21
-89.69196723258284
 31
0.0
  0
LINE
  8
DETAIL
  6
CONTINUOUS
 62
     5
 10
276.19796034388872
 20
-89.69196723258284
 30
0.0
 11
276.21534674303729
 21
-89.687448827606431
 31
0.0
  0
LINE
  8
DETAIL
  6
CONTINUOUS
 62
     5
 10
276.21534674303729
 20
-89.687448827606431
 30
0.0
 11
276.23262169939852
 21
-89.68274185340664
 31
0.0
  0
LINE
  8
DETAIL
  6
CONTINUOUS
 62
     5
 10
276.23262169939852
 20
-89.68274185340664
 30
0.0
 11
276.23262169939852
 21
-89.68274185340664
 31
0.0
  0
LINE
  8
DETAIL
  6
CONTINUOUS
 62
     5
 10
276.23262169939852
 20
-89.68274185340664
 30
0.0
 11
276.24980272597122
 21
-89.677840269478395
 31
0.0
  0
LINE
  8
DETAIL
  6
CONTINUOUS
 62
     5
 10
276.24980272597122
 20
-89.677840269478395
 30
0.0
 11
276.26705008258358
 21
-89.672682575636486
 31
0.0
  0
LINE
  8
DETAIL
  6
CONTINUOUS
 62
     5
 10
276.26705008258358
 20
-89.672682575636486
 30
0.0
 11
276.26705008258358
 21
-89.672682575636486
 31
0.0
  0
LINE
  8
DETAIL
  6
CONTINUOUS
 62
     5
 10
276.26705008258358
 20
-89.672682575636486
 30
0.0
 11
276.28439593902112
 21
-89.667251089247429
 31
0.0
  0
LINE
  8
DETAIL
  6
CONTINUOUS
 62
     5
 10
276.28439593902112
 20
-89.667251089247429
 30
0.0
 11
276.30121735806699
 21
-89.661758857566326
 31
0.0
  0
LINE
  8
DETAIL
  6
CONTINUOUS
 62
     5
 10
276.30121735806699
 20
-89.661758857566326
 30
0.0
 11
276.30121735806699
 21
-89.661758857566326
 31
0.0
  0
LINE
  8
DETAIL
  6
CONTINUOUS
 62
     5
 10
276.30121735806699
 20
-89.661758857566326
 30
0.0
 11
276.31698940902601
 21
-89.656388893626001
 31
0.0
  0
LINE
  8
DETAIL
  6
CONTINUOUS
 62
     5
 10
276.31698940902601
 20
-89.656388893626001
 30
0.0
 11
276.33223429428921
 21
-89.65097334368545
 31
0.0
  0
LINE
  8
DETAIL
  6
CONTINUOUS
 62
     5
 10
276.33223429428921
 20
-89.65097334368545
 30
0.0
 11
276.33223429428921
 21
-89.65097334368545
 31
0.0
  0
LINE
  8
DETAIL
  6
CONTINUOUS
 62
     5
 10
276.33223429428921
 20
-89.65097334368545
 30
0.0
 11
276.34757179853841
 21
-89.64530813848387
 31
0.0
  0
LINE
  8
DETAIL
  6
CONTINUOUS
 62
     5
 10
276.34757179853841
 20
-89.64530813848387
 30
0.0
 11
276.36296490252278
 21
-89.639395213458386
 31
0.0
  0
LINE
  8
DETAIL
  6
CONTINUOUS
 62
     5
 10
276.36296490252278
 20
-89.639395213458386
 30
0.0
 11
276.36296490252278
 21
-89.639395213458386
 31
0.0
  0
LINE
  8
DETAIL
  6
CONTINUOUS
 62
     5
 10
276.36296490252278
 20
-89.639395213458386
 30
0.0
 11
276.37824390470308
 21
-89.633280718064668
 31
0.0
  0
LINE
  8
DETAIL
  6
CONTINUOUS
 62
     5
 10
276.37824390470308
 20
-89.633280718064668
 30
0.0
 11
276.39336517832402
 21
-89.626981653137932
 31
0.0
  0
LINE
  8
DETAIL
  6
CONTINUOUS
 62
     5
 10
276.39336517832402
 20
-89.626981653137932
 30
0.0
 11
276.39336517832402
 21
-89.626981653137932
 31
0.0
  0
LINE
  8
DETAIL
  6
CONTINUOUS
 62
     5
 10
276.39336517832402
 20
-89.626981653137932
 30
0.0
 11
276.40835474152681
 21
-89.620485379804279
 31
0.0
  0
LINE
  8
DETAIL
  6
CONTINUOUS
 62
     5
 10
276.40835474152681
 20
-89.620485379804279
 30
0.0
 11
276.42339111724863
 21
-89.613689848977003
 31
0.0
  0
LINE
  8
DETAIL
  6
CONTINUOUS
 62
     5
 10
276.42339111724863
 20
-89.613689848977003
 30
0.0
 11
276.42339111724863
 21
-89.613689848977003
 31
0.0
  0
LINE
  8
DETAIL
  6
CONTINUOUS
 62
     5
 10
276.42339111724863
 20
-89.613689848977003
 30
0.0
 11
276.43850693113382
 21
-89.606567356384289
 31
0.0
  0
LINE
  8
DETAIL
  6
CONTINUOUS
 62
     5
 10
276.43850693113382
 20
-89.606567356384289
 30
0.0
 11
276.45299871485207
 21
-89.59947698722857
 31
0.0
  0
LINE
  8
DETAIL
  6
CONTINUOUS
 62
     5
 10
276.45299871485207
 20
-89.59947698722857
 30
0.0
 11
276.45299871485207
 21
-89.59947698722857
 31
0.0
  0
LINE
  8
DETAIL
  6
CONTINUOUS
 62
     5
 10
276.45299871485207
 20
-89.59947698722857
 30
0.0
 11
276.46627494168843
 21
-89.592726213496235
 31
0.0
  0
LINE
  8
DETAIL
  6
CONTINUOUS
 62
     5
 10
276.46627494168843
 20
-89.592726213496235
 30
0.0
 11
276.47892794535431
 21
-89.586029264837634
 31
0.0
  0
LINE
  8
DETAIL
  6
CONTINUOUS
 62
     5
 10
276.47892794535431
 20
-89.586029264837634
 30
0.0
 11
276.47892794535431
 21
-89.586029264837634
 31
0.0
  0
LINE
  8
DETAIL
  6
CONTINUOUS
 62
     5
 10
276.47892794535431
 20
-89.586029264837634
 30
0.0
 11
276.49165888121058
 21
-89.579040496177129
 31
0.0
  0
LINE
  8
DETAIL
  6
CONTINUOUS
 62
     5
 10
276.49165888121058
 20
-89.579040496177129
 30
0.0
 11
276.50442033078309
 21
-89.571768005872855
 31
0.0
  0
LINE
  8
DETAIL
  6
CONTINUOUS
 62
     5
 10
276.50442033078309
 20
-89.571768005872855
 30
0.0
 11
276.50442033078309
 21
-89.571768005872855
 31
0.0
  0
LINE
  8
DETAIL
  6
CONTINUOUS
 62
     5
 10
276.50442033078309
 20
-89.571768005872855
 30
0.0
 11
276.51701622609488
 21
-89.564293771022506
 31
0.0
  0
LINE
  8
DETAIL
  6
CONTINUOUS
 62
     5
 10
276.51701622609488
 20
-89.564293771022506
 30
0.0
 11
276.5294044749914
 21
-89.556641540247313
 31
0.0
  0
LINE
  8
DETAIL
  6
CONTINUOUS
 62
     5
 10
276.5294044749914
 20
-89.556641540247313
 30
0.0
 11
276.5294044749914
 21
-89.556641540247313
 31
0.0
  0
LINE
  8
DETAIL
  6
CONTINUOUS
 62
     5
 10
276.5294044749914
 20
-89.556641540247313
 30
0.0
 11
276.54161464691032
 21
-89.548790297667495
 31
0.0
  0
LINE
  8
DETAIL
  6
CONTINUOUS
 62
     5
 10
276.54161464691032
 20
-89.548790297667495
 30
0.0
 11
276.55380898183211
 21
-89.540598197874715
 31
0.0
  0
LINE
  8
DETAIL
  6
CONTINUOUS
 62
     5
 10
276.55380898183211
 20
-89.540598197874715
 30
0.0
 11
276.55380898183211
 21
-89.540598197874715
 31
0.0
  0
LINE
  8
DETAIL
  6
CONTINUOUS
 62
     5
 10
276.55380898183211
 20
-89.540598197874715
 30
0.0
 11
276.56601172287458
 21
-89.532028574725928
 31
0.0
  0
LINE
  8
DETAIL
  6
CONTINUOUS
 62
     5
 10
276.56601172287458
 20
-89.532028574725928
 30
0.0
 11
276.57756245515787
 21
-89.523586308668428
 31
0.0
  0
LINE
  8
DETAIL
  6
CONTINUOUS
 62
     5
 10
276.57756245515787
 20
-89.523586308668428
 30
0.0
 11
276.57756245515787
 21
-89.523586308668428
 31
0.0
  0
LINE
  8
DETAIL
  6
CONTINUOUS
 62
     5
 10
276.57756245515787
 20
-89.523586308668428
 30
0.0
 11
276.58790788253282
 21
-89.51570309520838
 31
0.0
  0
LINE
  8
DETAIL
  6
CONTINUOUS
 62
     5
 10
276.58790788253282
 20
-89.51570309520838
 30
0.0
 11
276.5976078417761
 21
-89.507976343497944
 31
0.0
  0
LINE
  8
DETAIL
  6
CONTINUOUS
 62
     5
 10
276.5976078417761
 20
-89.507976343497944
 30
0.0
 11
276.5976078417761
 21
-89.507976343497944
 31
0.0
  0
LINE
  8
DETAIL
  6
CONTINUOUS
 62
     5
 10
276.5976078417761
 20
-89.507976343497944
 30
0.0
 11
276.60732211230783
 21
-89.49992076486717
 31
0.0
  0
LINE
  8
DETAIL
  6
CONTINUOUS
 62
     5
 10
276.60732211230783
 20
-89.49992076486717
 30
0.0
 11
276.61699711119712
 21
-89.491554565713329
 31
0.0
  0
LINE
  8
DETAIL
  6
CONTINUOUS
 62
     5
 10
276.61699711119712
 20
-89.491554565713329
 30
0.0
 11
276.61699711119712
 21
-89.491554565713329
 31
0.0
  0
LINE
  8
DETAIL
  6
CONTINUOUS
 62
     5
 10
276.61699711119712
 20
-89.491554565713329
 30
0.0
 11
276.62644066596113
 21
-89.482998431076169
 31
0.0
  0
LINE
  8
DETAIL
  6
CONTINUOUS
 62
     5
 10
276.62644066596113
 20
-89.482998431076169
 30
0.0
 11
276.63561960825263
 21
-89.474279465500558
 31
0.0
  0
LINE
  8
DETAIL
  6
CONTINUOUS
 62
     5
 10
276.63561960825263
 20
-89.474279465500558
 30
0.0
 11
276.63561960825263
 21
-89.474279465500558
 31
0.0
  0
LINE
  8
DETAIL
  6
CONTINUOUS
 62
     5
 10
276.63561960825263
 20
-89.474279465500558
 30
0.0
 11
276.64455985721042
 21
-89.465369085135706
 31
0.0
  0
LINE
  8
DETAIL
  6
CONTINUOUS
 62
     5
 10
276.64455985721042
 20
-89.465369085135706
 30
0.0
 11
276.65336467777428
 21
-89.456109533045492
 31
0.0
  0
LINE
  8
DETAIL
  6
CONTINUOUS
 62
     5
 10
276.65336467777428
 20
-89.456109533045492
 30
0.0
 11
276.65336467777428
 21
-89.456109533045492
 31
0.0
  0
LINE
  8
DETAIL
  6
CONTINUOUS
 62
     5
 10
276.65336467777428
 20
-89.456109533045492
 30
0.0
 11
276.66203957449909
 21
-89.44646332723147
 31
0.0
  0
LINE
  8
DETAIL
  6
CONTINUOUS
 62
     5
 10
276.66203957449909
 20
-89.44646332723147
 30
0.0
 11
276.67012166459398
 21
-89.437003258533935
 31
0.0
  0
LINE
  8
DETAIL
  6
CONTINUOUS
 62
     5
 10
276.67012166459398
 20
-89.437003258533935
 30
0.0
 11
276.67012166459398
 21
-89.437003258533935
 31
0.0
  0
LINE
  8
DETAIL
  6
CONTINUOUS
 62
     5
 10
276.67012166459398
 20
-89.437003258533935
 30
0.0
 11
276.6772265979177
 21
-89.428218559665083
 31
0.0
  0
LINE
  8
DETAIL
  6
CONTINUOUS
 62
     5
 10
276.6772265979177
 20
-89.428218559665083
 30
0.0
 11
276.68375254227169
 21
-89.419653957989681
 31
0.0
  0
LINE
  8
DETAIL
  6
CONTINUOUS
 62
     5
 10
276.68375254227169
 20
-89.419653957989681
 30
0.0
 11
276.68375254227169
 21
-89.419653957989681
 31
0.0
  0
LINE
  8
DETAIL
  6
CONTINUOUS
 62
     5
 10
276.68375254227169
 20
-89.419653957989681
 30
0.0
 11
276.69016454214869
 21
-89.410762755613916
 31
0.0
  0
LINE
  8
DETAIL
  6
CONTINUOUS
 62
     5
 10
276.69016454214869
 20
-89.410762755613916
 30
0.0
 11
276.69641263086498
 21
-89.401577058958935
 31
0.0
  0
LINE
  8
DETAIL
  6
CONTINUOUS
 62
     5
 10
276.69641263086498
 20
-89.401577058958935
 30
0.0
 11
276.69641263086498
 21
-89.401577058958935
 31
0.0
  0
LINE
  8
DETAIL
  6
CONTINUOUS
 62
     5
 10
276.69641263086498
 20
-89.401577058958935
 30
0.0
 11
276.70234994539999
 21
-89.392242499144004
 31
0.0
  0
LINE
  8
DETAIL
  6
CONTINUOUS
 62
     5
 10
276.70234994539999
 20
-89.392242499144004
 30
0.0
 11
276.70795704857022
 21
-89.382780001768367
 31
0.0
  0
LINE
  8
DETAIL
  6
CONTINUOUS
 62
     5
 10
276.70795704857022
 20
-89.382780001768367
 30
0.0
 11
276.70795704857022
 21
-89.382780001768367
 31
0.0
  0
LINE
  8
DETAIL
  6
CONTINUOUS
 62
     5
 10
276.70795704857022
 20
-89.382780001768367
 30
0.0
 11
276.71324768660861
 21
-89.373159320492448
 31
0.0
  0
LINE
  8
DETAIL
  6
CONTINUOUS
 62
     5
 10
276.71324768660861
 20
-89.373159320492448
 30
0.0
 11
276.71824091358411
 21
-89.363270226744532
 31
0.0
  0
LINE
  8
DETAIL
  6
CONTINUOUS
 62
     5
 10
276.71824091358411
 20
-89.363270226744532
 30
0.0
 11
276.71824091358411
 21
-89.363270226744532
 31
0.0
  0
LINE
  8
DETAIL
  6
CONTINUOUS
 62
     5
 10
276.71824091358411
 20
-89.363270226744532
 30
0.0
 11
276.72291994622958
 21
-89.353093655007228
 31
0.0
  0
LINE
  8
DETAIL
  6
CONTINUOUS
 62
     5
 10
276.72291994622958
 20
-89.353093655007228
 30
0.0
 11
276.72711934410279
 21
-89.343055174214214
 31
0.0
  0
LINE
  8
DETAIL
  6
CONTINUOUS
 62
     5
 10
276.72711934410279
 20
-89.343055174214214
 30
0.0
 11
276.72711934410279
 21
-89.343055174214214
 31
0.0
  0
LINE
  8
DETAIL
  6
CONTINUOUS
 62
     5
 10
276.72711934410279
 20
-89.343055174214214
 30
0.0
 11
276.73070722679489
 21
-89.333518253473699
 31
0.0
  0
LINE
  8
DETAIL
  6
CONTINUOUS
 62
     5
 10
276.73070722679489
 20
-89.333518253473699
 30
0.0
 11
276.73383461120937
 21
-89.32415332814179
 31
0.0
  0
LINE
  8
DETAIL
  6
CONTINUOUS
 62
     5
 10
276.73383461120937
 20
-89.32415332814179
 30
0.0
 11
276.73383461120937
 21
-89.32415332814179
 31
0.0
  0
LINE
  8
DETAIL
  6
CONTINUOUS
 62
     5
 10
276.73383461120937
 20
-89.32415332814179
 30
0.0
 11
276.73667347898657
 21
-89.314567212086445
 31
0.0
  0
LINE
  8
DETAIL
  6
CONTINUOUS
 62
     5
 10
276.73667347898657
 20
-89.314567212086445
 30
0.0
 11
276.73919677341058
 21
-89.304805266976132
 31
0.0
  0
LINE
  8
DETAIL
  6
CONTINUOUS
 62
     5
 10
276.73919677341058
 20
-89.304805266976132
 30
0.0
 11
276.73919677341058
 21
-89.304805266976132
 31
0.0
  0
LINE
  8
DETAIL
  6
CONTINUOUS
 62
     5
 10
276.73919677341058
 20
-89.304805266976132
 30
0.0
 11
276.7413447408216
 21
-89.294992987695252
 31
0.0
  0
LINE
  8
DETAIL
  6
CONTINUOUS
 62
     5
 10
276.7413447408216
 20
-89.294992987695252
 30
0.0
 11
276.74312587814859
 21
-89.285137854192556
 31
0.0
  0
LINE
  8
DETAIL
  6
CONTINUOUS
 62
     5
 10
276.74312587814859
 20
-89.285137854192556
 30
0.0
 11
276.74312587814859
 21
-89.285137854192556
 31
0.0
  0
LINE
  8
DETAIL
  6
CONTINUOUS
 62
     5
 10
276.74312587814859
 20
-89.285137854192556
 30
0.0
 11
276.74454725396981
 21
-89.27522622066823
 31
0.0
  0
LINE
  8
DETAIL
  6
CONTINUOUS
 62
     5
 10
276.74454725396981
 20
-89.27522622066823
 30
0.0
 11
276.7455419728671
 21
-89.265277953266093
 31
0.0
  0
LINE
  8
DETAIL
  6
CONTINUOUS
 62
     5
 10
276.7455419728671
 20
-89.265277953266093
 30
0.0
 11
276.7455419728671
 21
-89.265277953266093
 31
0.0
  0
LINE
  8
DETAIL
  6
CONTINUOUS
 62
     5
 10
276.7455419728671
 20
-89.265277953266093
 30
0.0
 11
276.74608154977238
 21
-89.255317287905996
 31
0.0
  0
LINE
  8
DETAIL
  6
CONTINUOUS
 62
     5
 10
276.74608154977238
 20
-89.255317287905996
 30
0.0
 11
276.7463651050079
 21
-89.245352427671662
 31
0.0
  0
LINE
  8
DETAIL
  6
CONTINUOUS
 62
     5
 10
276.2386203416865
 20
83.219475236026994
 30
0.0
 11
276.20870101508473
 21
83.231438147219194
 31
0.0
  0
LINE
  8
DETAIL
  6
CONTINUOUS
 62
     5
 10
276.20870101508473
 20
83.231438147219194
 30
0.0
 11
276.1786778681448
 21
83.243168895957126
 31
0.0
  0
LINE
  8
DETAIL
  6
CONTINUOUS
 62
     5
 10
276.1786778681448
 20
83.243168895957126
 30
0.0
 11
276.1786778681448
 21
83.243168895957126
 31
0.0
  0
LINE
  8
DETAIL
  6
CONTINUOUS
 62
     5
 10
276.1786778681448
 20
83.243168895957126
 30
0.0
 11
276.14847945856297
 21
83.254485117054912
 31
0.0
  0
LINE
  8
DETAIL
  6
CONTINUOUS
 62
     5
 10
276.14847945856297
 20
83.254485117054912
 30
0.0
 11
276.1181638561722
 21
83.26540363439932
 31
0.0
  0
LINE
  8
DETAIL
  6
CONTINUOUS
 62
     5
 10
276.1181638561722
 20
83.26540363439932
 30
0.0
 11
276.1181638561722
 21
83.26540363439932
 31
0.0
  0
LINE
  8
DETAIL
  6
CONTINUOUS
 62
     5
 10
276.1181638561722
 20
83.26540363439932
 30
0.0
 11
276.08777296493662
 21
83.275988922122281
 31
0.0
  0
LINE
  8
DETAIL
  6
CONTINUOUS
 62
     5
 10
276.08777296493662
 20
83.275988922122281
 30
0.0
 11
276.05715451321379
 21
83.286296866261694
 31
0.0
  0
LINE
  8
DETAIL
  6
CONTINUOUS
 62
     5
 10
276.05715451321379
 20
83.286296866261694
 30
0.0
 11
276.05715451321379
 21
83.286296866261694
 31
0.0
  0
LINE
  8
DETAIL
  6
CONTINUOUS
 62
     5
 10
276.05715451321379
 20
83.286296866261694
 30
0.0
 11
276.02626948303248
 21
83.296339996657309
 31
0.0
  0
LINE
  8
DETAIL
  6
CONTINUOUS
 62
     5
 10
276.02626948303248
 20
83.296339996657309
 30
0.0
 11
275.99572604671442
 21
83.305966006453616
 31
0.0
  0
LINE
  8
DETAIL
  6
CONTINUOUS
 62
     5
 10
275.99572604671442
 20
83.305966006453616
 30
0.0
 11
275.99572604671442
 21
83.305966006453616
 31
0.0
  0
LINE
  8
DETAIL
  6
CONTINUOUS
 62
     5
 10
275.99572604671442
 20
83.305966006453616
 30
0.0
 11
275.96569552776248
 21
83.315148363340597
 31
0.0
  0
LINE
  8
DETAIL
  6
CONTINUOUS
 62
     5
 10
275.96569552776248
 20
83.315148363340597
 30
0.0
 11
275.93395466411852
 21
83.324528469884228
 31
0.0
  0
LINE
  8
DETAIL
  6
CONTINUOUS
 62
     5
 10
275.93395466411852
 20
83.324528469884228
 30
0.0
 11
275.93395466411852
 21
83.324528469884228
 31
0.0
  0
LINE
  8
DETAIL
  6
CONTINUOUS
 62
     5
 10
275.93395466411852
 20
83.324528469884228
 30
0.0
 11
275.89862049703618
 21
83.334640127269779
 31
0.0
  0
LINE
  8
DETAIL
  6
CONTINUOUS
 62
     5
 10
275.89862049703618
 20
83.334640127269779
 30
0.0
 11
275.86156586659263
 21
83.344918796284048
 31
0.0
  0
LINE
  8
DETAIL
  6
CONTINUOUS
 62
     5
 10
275.86156586659263
 20
83.344918796284048
 30
0.0
 11
275.86156586659263
 21
83.344918796284048
 31
0.0
  0
LINE
  8
DETAIL
  6
CONTINUOUS
 62
     5
 10
275.86156586659263
 20
83.344918796284048
 30
0.0
 11
275.82501584458799
 21
83.354703545208793
 31
0.0
  0
LINE
  8
DETAIL
  6
CONTINUOUS
 62
     5
 10
275.82501584458799
 20
83.354703545208793
 30
0.0
 11
275.78884863089883
 21
83.364046212705887
 31
0.0
  0
LINE
  8
DETAIL
  6
CONTINUOUS
 62
     5
 10
275.78884863089883
 20
83.364046212705887
 30
0.0
 11
275.78884863089883
 21
83.364046212705887
 31
0.0
  0
LINE
  8
DETAIL
  6
CONTINUOUS
 62
     5
 10
275.78884863089883
 20
83.364046212705887
 30
0.0
 11
275.75248180028962
 21
83.373135328272781
 31
0.0
  0
LINE
  8
DETAIL
  6
CONTINUOUS
 62
     5
 10
275.75248180028962
 20
83.373135328272781
 30
0.0
 11
275.71583729900328
 21
83.381993414371266
 31
0.0
  0
LINE
  8
DETAIL
  6
CONTINUOUS
 62
     5
 10
275.71583729900328
 20
83.381993414371266
 30
0.0
 11
275.71583729900328
 21
83.381993414371266
 31
0.0
  0
LINE
  8
DETAIL
  6
CONTINUOUS
 62
     5
 10
275.71583729900328
 20
83.381993414371266
 30
0.0
 11
275.67904551265508
 21
83.390589306145387
 31
0.0
  0
LINE
  8
DETAIL
  6
CONTINUOUS
 62
     5
 10
275.67904551265508
 20
83.390589306145387
 30
0.0
 11
275.64256621287348
 21
83.398843096502276
 31
0.0
  0
LINE
  8
DETAIL
  6
CONTINUOUS
 62
     5
 10
275.64256621287348
 20
83.398843096502276
 30
0.0
 11
275.64256621287348
 21
83.398843096502276
 31
0.0
  0
LINE
  8
DETAIL
  6
CONTINUOUS
 62
     5
 10
275.64256621287348
 20
83.398843096502276
 30
0.0
 11
275.60648603890712
 21
83.406752936785722
 31
0.0
  0
LINE
  8
DETAIL
  6
CONTINUOUS
 62
     5
 10
275.60648603890712
 20
83.406752936785722
 30
0.0
 11
275.56906971447569
 21
83.414677954319757
 31
0.0
  0
LINE
  8
DETAIL
  6
CONTINUOUS
 62
     5
 10
275.56906971447569
 20
83.414677954319757
 30
0.0
 11
275.56906971447569
 21
83.414677954319757
 31
0.0
  0
LINE
  8
DETAIL
  6
CONTINUOUS
 62
     5
 10
275.56906971447569
 20
83.414677954319757
 30
0.0
 11
275.52885727211623
 21
83.422914551812198
 31
0.0
  0
LINE
  8
DETAIL
  6
CONTINUOUS
 62
     5
 10
275.52885727211623
 20
83.422914551812198
 30
0.0
 11
275.48731189518162
 21
83.4311472575219
 31
0.0
  0
LINE
  8
DETAIL
  6
CONTINUOUS
 62
     5
 10
275.48731189518162
 20
83.4311472575219
 30
0.0
 11
275.48731189518162
 21
83.4311472575219
 31
0.0
  0
LINE
  8
DETAIL
  6
CONTINUOUS
 62
     5
 10
275.48731189518162
 20
83.4311472575219
 30
0.0
 11
275.44617046331189
 21
83.439007244841889
 31
0.0
  0
LINE
  8
DETAIL
  6
CONTINUOUS
 62
     5
 10
275.44617046331189
 20
83.439007244841889
 30
0.0
 11
275.40534149048261
 21
83.446524142145392
 31
0.0
  0
LINE
  8
DETAIL
  6
CONTINUOUS
 62
     5
 10
275.40534149048261
 20
83.446524142145392
 30
0.0
 11
275.40534149048261
 21
83.446524142145392
 31
0.0
  0
LINE
  8
DETAIL
  6
CONTINUOUS
 62
     5
 10
275.40534149048261
 20
83.446524142145392
 30
0.0
 11
275.36437070366782
 21
83.453804396469025
 31
0.0
  0
LINE
  8
DETAIL
  6
CONTINUOUS
 62
     5
 10
275.36437070366782
 20
83.453804396469025
 30
0.0
 11
275.32318104748742
 21
83.460863274520364
 31
0.0
  0
LINE
  8
DETAIL
  6
CONTINUOUS
 62
     5
 10
275.32318104748742
 20
83.460863274520364
 30
0.0
 11
275.32318104748742
 21
83.460863274520364
 31
0.0
  0
LINE
  8
DETAIL
  6
CONTINUOUS
 62
     5
 10
275.32318104748742
 20
83.460863274520364
 30
0.0
 11
275.28186964474361
 21
83.467684814508232
 31
0.0
  0
LINE
  8
DETAIL
  6
CONTINUOUS
 62
     5
 10
275.28186964474361
 20
83.467684814508232
 30
0.0
 11
275.24085311330822
 21
83.474219320977284
 31
0.0
  0
LINE
  8
DETAIL
  6
CONTINUOUS
 62
     5
 10
275.24085311330822
 20
83.474219320977284
 30
0.0
 11
275.24085311330822
 21
83.474219320977284
 31
0.0
  0
LINE
  8
DETAIL
  6
CONTINUOUS
 62
     5
 10
275.24085311330822
 20
83.474219320977284
 30
0.0
 11
275.20021414534011
 21
83.480465193802786
 31
0.0
  0
LINE
  8
DETAIL
  6
CONTINUOUS
 62
     5
 10
275.20021414534011
 20
83.480465193802786
 30
0.0
 11
275.15838023505478
 21
83.48664694784685
 31
0.0
  0
LINE
  8
DETAIL
  6
CONTINUOUS
 62
     5
 10
275.15838023505478
 20
83.48664694784685
 30
0.0
 11
275.15838023505478
 21
83.48664694784685
 31
0.0
  0
LINE
  8
DETAIL
  6
CONTINUOUS
 62
     5
 10
275.15838023505478
 20
83.48664694784685
 30
0.0
 11
275.1140351702565
 21
83.492948746554646
 31
0.0
  0
LINE
  8
DETAIL
  6
CONTINUOUS
 62
     5
 10
275.1140351702565
 20
83.492948746554646
 30
0.0
 11
275.06854311103569
 21
83.499167232712409
 31
0.0
  0
LINE
  8
DETAIL
  6
CONTINUOUS
 62
     5
 10
275.06854311103569
 20
83.499167232712409
 30
0.0
 11
275.06854311103569
 21
83.499167232712409
 31
0.0
  0
LINE
  8
DETAIL
  6
CONTINUOUS
 62
     5
 10
275.06854311103569
 20
83.499167232712409
 30
0.0
 11
275.02347828899673
 21
83.505069236970883
 31
0.0
  0
LINE
  8
DETAIL
  6
CONTINUOUS
 62
     5
 10
275.02347828899673
 20
83.505069236970883
 30
0.0
 11
274.97857484951498
 21
83.510689862092192
 31
0.0
  0
LINE
  8
DETAIL
  6
CONTINUOUS
 62
     5
 10
274.97857484951498
 20
83.510689862092192
 30
0.0
 11
274.97857484951498
 21
83.510689862092192
 31
0.0
  0
LINE
  8
DETAIL
  6
CONTINUOUS
 62
     5
 10
274.97857484951498
 20
83.510689862092192
 30
0.0
 11
274.93337447590278
 21
83.516100658362745
 31
0.0
  0
LINE
  8
DETAIL
  6
CONTINUOUS
 62
     5
 10
274.93337447590278
 20
83.516100658362745
 30
0.0
 11
274.88848908947102
 21
83.521250694051389
 31
0.0
  0
LINE
  8
DETAIL
  6
CONTINUOUS
 62
     5
 10
274.88848908947102
 20
83.521250694051389
 30
0.0
 11
274.88848908947102
 21
83.521250694051389
 31
0.0
  0
LINE
  8
DETAIL
  6
CONTINUOUS
 62
     5
 10
274.88848908947102
 20
83.521250694051389
 30
0.0
 11
274.84418795459101
 21
83.526113830912038
 31
0.0
  0
LINE
  8
DETAIL
  6
CONTINUOUS
 62
     5
 10
274.84418795459101
 20
83.526113830912038
 30
0.0
 11
274.79829946988252
 21
83.530885586655643
 31
0.0
  0
LINE
  8
DETAIL
  6
CONTINUOUS
 62
     5
 10
274.79829946988252
 20
83.530885586655643
 30
0.0
 11
274.79829946988252
 21
83.530885586655643
 31
0.0
  0
LINE
  8
DETAIL
  6
CONTINUOUS
 62
     5
 10
274.79829946988252
 20
83.530885586655643
 30
0.0
 11
274.75021512377901
 21
83.535625857529737
 31
0.0
  0
LINE
  8
DETAIL
  6
CONTINUOUS
 62
     5
 10
274.75021512377901
 20
83.535625857529737
 30
0.0
 11
274.70801962972541
 21
83.539630397970029
 31
0.0
  0
LINE
  8
DETAIL
  6
CONTINUOUS
 62
     5
 10
274.70801962972541
 20
83.539630397970029
 30
0.0
 11
274.70801962972541
 21
83.539630397970029
 31
0.0
  0
LINE
  8
DETAIL
  6
CONTINUOUS
 62
     5
 10
274.70801962972541
 20
83.539630397970029
 30
0.0
 11
274.67855456719479
 21
83.542317803134722
 31
0.0
  0
LINE
  8
DETAIL
  6
CONTINUOUS
 62
     5
 10
274.67855456719479
 20
83.542317803134722
 30
0.0
 11
274.65499575476628
 21
83.544362172879403
 31
0.0
  0
LINE
  8
DETAIL
  6
CONTINUOUS
 62
     5
 10
274.65499575476628
 20
83.544362172879403
 30
0.0
 11
274.65499575476628
 21
83.544362172879403
 31
0.0
  0
LINE
  8
DETAIL
  6
CONTINUOUS
 62
     5
 10
274.65499575476628
 20
83.544362172879403
 30
0.0
 11
274.62926666066932
 21
83.546542664504898
 31
0.0
  0
LINE
  8
DETAIL
  6
CONTINUOUS
 62
     5
 10
274.62926666066932
 20
83.546542664504898
 30
0.0
 11
274.60194711262659
 21
83.548803160390946
 31
0.0
  0
LINE
  8
DETAIL
  6
CONTINUOUS
 62
     5
 10
274.60194711262659
 20
83.548803160390946
 30
0.0
 11
274.60194711262659
 21
83.548803160390946
 31
0.0
  0
LINE
  8
DETAIL
  6
CONTINUOUS
 62
     5
 10
274.60194711262659
 20
83.548803160390946
 30
0.0
 11
274.57520140218338
 21
83.550935275851941
 31
0.0
  0
LINE
  8
DETAIL
  6
CONTINUOUS
 62
     5
 10
274.57520140218338
 20
83.550935275851941
 30
0.0
 11
274.54887531667782
 21
83.552956832858683
 31
0.0
  0
LINE
  8
DETAIL
  6
CONTINUOUS
 62
     5
 10
274.54887531667782
 20
83.552956832858683
 30
0.0
 11
274.54887531667782
 21
83.552956832858683
 31
0.0
  0
LINE
  8
DETAIL
  6
CONTINUOUS
 62
     5
 10
274.54887531667782
 20
83.552956832858683
 30
0.0
 11
274.52238943172961
 21
83.554924817120138
 31
0.0
  0
LINE
  8
DETAIL
  6
CONTINUOUS
 62
     5
 10
274.52238943172961
 20
83.554924817120138
 30
0.0
 11
274.49578198029047
 21
83.556826662636297
 31
0.0
  0
LINE
  8
DETAIL
  6
CONTINUOUS
 62
     5
 10
274.49578198029047
 20
83.556826662636297
 30
0.0
 11
274.49578198029047
 21
83.556826662636297
 31
0.0
  0
LINE
  8
DETAIL
  6
CONTINUOUS
 62
     5
 10
274.49578198029047
 20
83.556826662636297
 30
0.0
 11
274.46920757836409
 21
83.558645415524722
 31
0.0
  0
LINE
  8
DETAIL
  6
CONTINUOUS
 62
     5
 10
274.46920757836409
 20
83.558645415524722
 30
0.0
 11
274.44266871683521
 21
83.560416122077243
 31
0.0
  0
LINE
  8
DETAIL
  6
CONTINUOUS
 62
     5
 10
276.7463651050079
 20
82.670714399919746
 30
0.0
 11
276.74591116179448
 21
82.68725523493157
 31
0.0
  0
LINE
  8
DETAIL
  6
CONTINUOUS
 62
     5
 10
276.74591116179448
 20
82.68725523493157
 30
0.0
 11
276.74503911214669
 21
82.703793514175743
 31
0.0
  0
LINE
  8
DETAIL
  6
CONTINUOUS
 62
     5
 10
276.74503911214669
 20
82.703793514175743
 30
0.0
 11
276.74503911214669
 21
82.703793514175743
 31
0.0
  0
LINE
  8
DETAIL
  6
CONTINUOUS
 62
     5
 10
276.74503911214669
 20
82.703793514175743
 30
0.0
 11
276.74342124044358
 21
82.720318644929819
 31
0.0
  0
LINE
  8
DETAIL
  6
CONTINUOUS
 62
     5
 10
276.74342124044358
 20
82.720318644929819
 30
0.0
 11
276.74109139431692
 21
82.736787886651598
 31
0.0
  0
LINE
  8
DETAIL
  6
CONTINUOUS
 62
     5
 10
276.74109139431692
 20
82.736787886651598
 30
0.0
 11
276.74109139431692
 21
82.736787886651598
 31
0.0
  0
LINE
  8
DETAIL
  6
CONTINUOUS
 62
     5
 10
276.74109139431692
 20
82.736787886651598
 30
0.0
 11
276.73814563847139
 21
82.753160979022766
 31
0.0
  0
LINE
  8
DETAIL
  6
CONTINUOUS
 62
     5
 10
276.73814563847139
 20
82.753160979022766
 30
0.0
 11
276.73456734264857
 21
82.769439730444731
 31
0.0
  0
LINE
  8
DETAIL
  6
CONTINUOUS
 62
     5
 10
276.73456734264857
 20
82.769439730444731
 30
0.0
 11
276.73456734264857
 21
82.769439730444731
 31
0.0
  0
LINE
  8
DETAIL
  6
CONTINUOUS
 62
     5
 10
276.73456734264857
 20
82.769439730444731
 30
0.0
 11
276.73033400699973
 21
82.785602434733448
 31
0.0
  0
LINE
  8
DETAIL
  6
CONTINUOUS
 62
     5
 10
276.73033400699973
 20
82.785602434733448
 30
0.0
 11
276.7255123482725
 21
82.801491258651197
 31
0.0
  0
LINE
  8
DETAIL
  6
CONTINUOUS
 62
     5
 10
276.7255123482725
 20
82.801491258651197
 30
0.0
 11
276.7255123482725
 21
82.801491258651197
 31
0.0
  0
LINE
  8
DETAIL
  6
CONTINUOUS
 62
     5
 10
276.7255123482725
 20
82.801491258651197
 30
0.0
 11
276.7201303445076
 21
82.817039947071123
 31
0.0
  0
LINE
  8
DETAIL
  6
CONTINUOUS
 62
     5
 10
276.7201303445076
 20
82.817039947071123
 30
0.0
 11
276.71397180231901
 21
82.832684684368758
 31
0.0
  0
LINE
  8
DETAIL
  6
CONTINUOUS
 62
     5
 10
276.71397180231901
 20
82.832684684368758
 30
0.0
 11
276.71397180231901
 21
82.832684684368758
 31
0.0
  0
LINE
  8
DETAIL
  6
CONTINUOUS
 62
     5
 10
276.71397180231901
 20
82.832684684368758
 30
0.0
 11
276.70684798443762
 21
82.848790197746609
 31
0.0
  0
LINE
  8
DETAIL
  6
CONTINUOUS
 62
     5
 10
276.70684798443762
 20
82.848790197746609
 30
0.0
 11
276.69892414948231
 21
82.864932946210445
 31
0.0
  0
LINE
  8
DETAIL
  6
CONTINUOUS
 62
     5
 10
276.69892414948231
 20
82.864932946210445
 30
0.0
 11
276.69892414948231
 21
82.864932946210445
 31
0.0
  0
LINE
  8
DETAIL
  6
CONTINUOUS
 62
     5
 10
276.69892414948231
 20
82.864932946210445
 30
0.0
 11
276.69041111113143
 21
82.880619164876236
 31
0.0
  0
LINE
  8
DETAIL
  6
CONTINUOUS
 62
     5
 10
276.69041111113143
 20
82.880619164876236
 30
0.0
 11
276.68134790740908
 21
82.895862461495256
 31
0.0
  0
LINE
  8
DETAIL
  6
CONTINUOUS
 62
     5
 10
276.68134790740908
 20
82.895862461495256
 30
0.0
 11
276.68134790740908
 21
82.895862461495256
 31
0.0
  0
LINE
  8
DETAIL
  6
CONTINUOUS
 62
     5
 10
276.68134790740908
 20
82.895862461495256
 30
0.0
 11
276.67172622469468
 21
82.910785213399492
 31
0.0
  0
LINE
  8
DETAIL
  6
CONTINUOUS
 62
     5
 10
276.67172622469468
 20
82.910785213399492
 30
0.0
 11
276.66152011844258
 21
82.92543750360943
 31
0.0
  0
LINE
  8
DETAIL
  6
CONTINUOUS
 62
     5
 10
276.66152011844258
 20
82.92543750360943
 30
0.0
 11
276.66152011844258
 21
82.92543750360943
 31
0.0
  0
LINE
  8
DETAIL
  6
CONTINUOUS
 62
     5
 10
276.66152011844258
 20
82.92543750360943
 30
0.0
 11
276.65075981121379
 21
82.939796792720642
 31
0.0
  0
LINE
  8
DETAIL
  6
CONTINUOUS
 62
     5
 10
276.65075981121379
 20
82.939796792720642
 30
0.0
 11
276.63971782492638
 21
82.95362234593955
 31
0.0
  0
LINE
  8
DETAIL
  6
CONTINUOUS
 62
     5
 10
276.63971782492638
 20
82.95362234593955
 30
0.0
 11
276.63971782492638
 21
82.95362234593955
 31
0.0
  0
LINE
  8
DETAIL
  6
CONTINUOUS
 62
     5
 10
276.63971782492638
 20
82.95362234593955
 30
0.0
 11
276.62848936471289
 21
82.966855148592288
 31
0.0
  0
LINE
  8
DETAIL
  6
CONTINUOUS
 62
     5
 10
276.62848936471289
 20
82.966855148592288
 30
0.0
 11
276.61621806920419
 21
82.980381261872083
 31
0.0
  0
LINE
  8
DETAIL
  6
CONTINUOUS
 62
     5
 10
276.61621806920419
 20
82.980381261872083
 30
0.0
 11
276.61621806920419
 21
82.980381261872083
 31
0.0
  0
LINE
  8
DETAIL
  6
CONTINUOUS
 62
     5
 10
276.61621806920419
 20
82.980381261872083
 30
0.0
 11
276.60217070479428
 21
82.994937413483228
 31
0.0
  0
LINE
  8
DETAIL
  6
CONTINUOUS
 62
     5
 10
276.60217070479428
 20
82.994937413483228
 30
0.0
 11
276.58705811543189
 21
83.00971792130764
 31
0.0
  0
LINE
  8
DETAIL
  6
CONTINUOUS
 62
     5
 10
276.58705811543189
 20
83.00971792130764
 30
0.0
 11
276.58705811543189
 21
83.00971792130764
 31
0.0
  0
LINE
  8
DETAIL
  6
CONTINUOUS
 62
     5
 10
276.58705811543189
 20
83.00971792130764
 30
0.0
 11
276.57173692456922
 21
83.023783555125476
 31
0.0
  0
LINE
  8
DETAIL
  6
CONTINUOUS
 62
     5
 10
276.57173692456922
 20
83.023783555125476
 30
0.0
 11
276.55620279611571
 21
83.037203302135765
 31
0.0
  0
LINE
  8
DETAIL
  6
CONTINUOUS
 62
     5
 10
276.55620279611571
 20
83.037203302135765
 30
0.0
 11
276.55620279611571
 21
83.037203302135765
 31
0.0
  0
LINE
  8
DETAIL
  6
CONTINUOUS
 62
     5
 10
276.55620279611571
 20
83.037203302135765
 30
0.0
 11
276.54026916299762
 21
83.050245384522952
 31
0.0
  0
LINE
  8
DETAIL
  6
CONTINUOUS
 62
     5
 10
276.54026916299762
 20
83.050245384522952
 30
0.0
 11
276.52388149374559
 21
83.06296674699621
 31
0.0
  0
LINE
  8
DETAIL
  6
CONTINUOUS
 62
     5
 10
276.52388149374559
 20
83.06296674699621
 30
0.0
 11
276.52388149374559
 21
83.06296674699621
 31
0.0
  0
LINE
  8
DETAIL
  6
CONTINUOUS
 62
     5
 10
276.52388149374559
 20
83.06296674699621
 30
0.0
 11
276.50710147007328
 21
83.075330738016476
 31
0.0
  0
LINE
  8
DETAIL
  6
CONTINUOUS
 62
     5
 10
276.50710147007328
 20
83.075330738016476
 30
0.0
 11
276.49032359081218
 21
83.087137598528841
 31
0.0
  0
LINE
  8
DETAIL
  6
CONTINUOUS
 62
     5
 10
276.49032359081218
 20
83.087137598528841
 30
0.0
 11
276.49032359081218
 21
83.087137598528841
 31
0.0
  0
LINE
  8
DETAIL
  6
CONTINUOUS
 62
     5
 10
276.49032359081218
 20
83.087137598528841
 30
0.0
 11
276.47365973305381
 21
83.098362719484101
 31
0.0
  0
LINE
  8
DETAIL
  6
CONTINUOUS
 62
     5
 10
276.47365973305381
 20
83.098362719484101
 30
0.0
 11
276.45575846980591
 21
83.109845199373069
 31
0.0
  0
LINE
  8
DETAIL
  6
CONTINUOUS
 62
     5
 10
276.45575846980591
 20
83.109845199373069
 30
0.0
 11
276.45575846980591
 21
83.109845199373069
 31
0.0
  0
LINE
  8
DETAIL
  6
CONTINUOUS
 62
     5
 10
276.45575846980591
 20
83.109845199373069
 30
0.0
 11
276.43547520644302
 21
83.122279575039272
 31
0.0
  0
LINE
  8
DETAIL
  6
CONTINUOUS
 62
     5
 10
276.43547520644302
 20
83.122279575039272
 30
0.0
 11
276.41395598189058
 21
83.134918429193533
 31
0.0
  0
LINE
  8
DETAIL
  6
CONTINUOUS
 62
     5
 10
276.41395598189058
 20
83.134918429193533
 30
0.0
 11
276.41395598189058
 21
83.134918429193533
 31
0.0
  0
LINE
  8
DETAIL
  6
CONTINUOUS
 62
     5
 10
276.41395598189058
 20
83.134918429193533
 30
0.0
 11
276.39255967237608
 21
83.146891176224756
 31
0.0
  0
LINE
  8
DETAIL
  6
CONTINUOUS
 62
     5
 10
276.39255967237608
 20
83.146891176224756
 30
0.0
 11
276.37120586978688
 21
83.158276511360611
 31
0.0
  0
LINE
  8
DETAIL
  6
CONTINUOUS
 62
     5
 10
276.37120586978688
 20
83.158276511360611
 30
0.0
 11
276.37120586978688
 21
83.158276511360611
 31
0.0
  0
LINE
  8
DETAIL
  6
CONTINUOUS
 62
     5
 10
276.37120586978688
 20
83.158276511360611
 30
0.0
 11
276.34955163495528
 21
83.16932944686215
 31
0.0
  0
LINE
  8
DETAIL
  6
CONTINUOUS
 62
     5
 10
276.34955163495528
 20
83.16932944686215
 30
0.0
 11
276.32764318882931
 21
83.180060982283237
 31
0.0
  0
LINE
  8
DETAIL
  6
CONTINUOUS
 62
     5
 10
276.32764318882931
 20
83.180060982283237
 30
0.0
 11
276.32764318882931
 21
83.180060982283237
 31
0.0
  0
LINE
  8
DETAIL
  6
CONTINUOUS
 62
     5
 10
276.32764318882931
 20
83.180060982283237
 30
0.0
 11
276.30559470335442
 21
83.190427806498235
 31
0.0
  0
LINE
  8
DETAIL
  6
CONTINUOUS
 62
     5
 10
276.30559470335442
 20
83.190427806498235
 30
0.0
 11
276.28340299435098
 21
83.200413378369205
 31
0.0
  0
LINE
  8
DETAIL
  6
CONTINUOUS
 62
     5
 10
276.28340299435098
 20
83.200413378369205
 30
0.0
 11
276.28340299435098
 21
83.200413378369205
 31
0.0
  0
LINE
  8
DETAIL
  6
CONTINUOUS
 62
     5
 10
276.28340299435098
 20
83.200413378369205
 30
0.0
 11
276.26105560470398
 21
83.210042082444318
 31
0.0
  0
LINE
  8
DETAIL
  6
CONTINUOUS
 62
     5
 10
276.26105560470398
 20
83.210042082444318
 30
0.0
 11
276.2386203416865
 21
83.219475236026994
 31
0.0
  0
LINE
  8
DETAIL
  6
CONTINUOUS
 62
     5
 10
269.55469154936071
 20
-73.959034727705443
 30
0.0
 11
269.56847381725441
 21
-74.004896320046328
 31
0.0
  0
LINE
  8
DETAIL
  6
CONTINUOUS
 62
     5
 10
269.56847381725441
 20
-74.004896320046328
 30
0.0
 11
269.58271709960212
 21
-74.050621544022022
 31
0.0
  0
LINE
  8
DETAIL
  6
CONTINUOUS
 62
     5
 10
269.58271709960212
 20
-74.050621544022022
 30
0.0
 11
269.58271709960212
 21
-74.050621544022022
 31
0.0
  0
LINE
  8
DETAIL
  6
CONTINUOUS
 62
     5
 10
269.58271709960212
 20
-74.050621544022022
 30
0.0
 11
269.5977841324347
 21
-74.096099953959367
 31
0.0
  0
LINE
  8
DETAIL
  6
CONTINUOUS
 62
     5
 10
269.5977841324347
 20
-74.096099953959367
 30
0.0
 11
269.61364453808199
 21
-74.141324794954414
 31
0.0
  0
LINE
  8
DETAIL
  6
CONTINUOUS
 62
     5
 10
269.61364453808199
 20
-74.141324794954414
 30
0.0
 11
269.61364453808199
 21
-74.141324794954414
 31
0.0
  0
LINE
  8
DETAIL
  6
CONTINUOUS
 62
     5
 10
269.61364453808199
 20
-74.141324794954414
 30
0.0
 11
269.63019597261672
 21
-74.186308247691329
 31
0.0
  0
LINE
  8
DETAIL
  6
CONTINUOUS
 62
     5
 10
269.63019597261672
 20
-74.186308247691329
 30
0.0
 11
269.64744134078012
 21
-74.231034544437591
 31
0.0
  0
LINE
  8
DETAIL
  6
CONTINUOUS
 62
     5
 10
269.64744134078012
 20
-74.231034544437591
 30
0.0
 11
269.64744134078012
 21
-74.231034544437591
 31
0.0
  0
LINE
  8
DETAIL
  6
CONTINUOUS
 62
     5
 10
269.64744134078012
 20
-74.231034544437591
 30
0.0
 11
269.66540288923608
 21
-74.275482956080793
 31
0.0
  0
LINE
  8
DETAIL
  6
CONTINUOUS
 62
     5
 10
269.66540288923608
 20
-74.275482956080793
 30
0.0
 11
269.68407498367668
 21
-74.319640856406409
 31
0.0
  0
LINE
  8
DETAIL
  6
CONTINUOUS
 62
     5
 10
269.68407498367668
 20
-74.319640856406409
 30
0.0
 11
269.68407498367668
 21
-74.319640856406409
 31
0.0
  0
LINE
  8
DETAIL
  6
CONTINUOUS
 62
     5
 10
269.68407498367668
 20
-74.319640856406409
 30
0.0
 11
269.70344658835518
 21
-74.363496529130487
 31
0.0
  0
LINE
  8
DETAIL
  6
CONTINUOUS
 62
     5
 10
269.70344658835518
 20
-74.363496529130487
 30
0.0
 11
269.72351294275097
 21
-74.40703379479595
 31
0.0
  0
LINE
  8
DETAIL
  6
CONTINUOUS
 62
     5
 10
269.72351294275097
 20
-74.40703379479595
 30
0.0
 11
269.72351294275097
 21
-74.40703379479595
 31
0.0
  0
LINE
  8
DETAIL
  6
CONTINUOUS
 62
     5
 10
269.72351294275097
 20
-74.40703379479595
 30
0.0
 11
269.744270728554
 21
-74.450237198808622
 31
0.0
  0
LINE
  8
DETAIL
  6
CONTINUOUS
 62
     5
 10
269.744270728554
 20
-74.450237198808622
 30
0.0
 11
269.76571612107489
 21
-74.493098649198146
 31
0.0
  0
LINE
  8
DETAIL
  6
CONTINUOUS
 62
     5
 10
269.76571612107489
 20
-74.493098649198146
 30
0.0
 11
269.76571612107489
 21
-74.493098649198146
 31
0.0
  0
LINE
  8
DETAIL
  6
CONTINUOUS
 62
     5
 10
269.76571612107489
 20
-74.493098649198146
 30
0.0
 11
269.78784427216073
 21
-74.535610206197475
 31
0.0
  0
LINE
  8
DETAIL
  6
CONTINUOUS
 62
     5
 10
269.78784427216073
 20
-74.535610206197475
 30
0.0
 11
269.81064674618392
 21
-74.57775717622593
 31
0.0
  0
LINE
  8
DETAIL
  6
CONTINUOUS
 62
     5
 10
269.81064674618392
 20
-74.57775717622593
 30
0.0
 11
269.81064674618392
 21
-74.57775717622593
 31
0.0
  0
LINE
  8
DETAIL
  6
CONTINUOUS
 62
     5
 10
269.81064674618392
 20
-74.57775717622593
 30
0.0
 11
269.83411717783378
 21
-74.619527457936613
 31
0.0
  0
LINE
  8
DETAIL
  6
CONTINUOUS
 62
     5
 10
269.83411717783378
 20
-74.619527457936613
 30
0.0
 11
269.85826107054339
 21
-74.660926072729069
 31
0.0
  0
LINE
  8
DETAIL
  6
CONTINUOUS
 62
     5
 10
269.85826107054339
 20
-74.660926072729069
 30
0.0
 11
269.85826107054339
 21
-74.660926072729069
 31
0.0
  0
LINE
  8
DETAIL
  6
CONTINUOUS
 62
     5
 10
269.85826107054339
 20
-74.660926072729069
 30
0.0
 11
269.88307592305841
 21
-74.701946888396208
 31
0.0
  0
LINE
  8
DETAIL
  6
CONTINUOUS
 62
     5
 10
269.88307592305841
 20
-74.701946888396208
 30
0.0
 11
269.90851534662067
 21
-74.74252203555767
 31
0.0
  0
LINE
  8
DETAIL
  6
CONTINUOUS
 62
     5
 10
269.90851534662067
 20
-74.74252203555767
 30
0.0
 11
269.90851534662067
 21
-74.74252203555767
 31
0.0
  0
LINE
  8
DETAIL
  6
CONTINUOUS
 62
     5
 10
269.90851534662067
 20
-74.74252203555767
 30
0.0
 11
269.93456290091439
 21
-74.782625667026593
 31
0.0
  0
LINE
  8
DETAIL
  6
CONTINUOUS
 62
     5
 10
269.93456290091439
 20
-74.782625667026593
 30
0.0
 11
269.96136582688149
 21
-74.822461761561215
 31
0.0
  0
LINE
  8
DETAIL
  6
CONTINUOUS
 62
     5
 10
269.96136582688149
 20
-74.822461761561215
 30
0.0
 11
269.96136582688149
 21
-74.822461761561215
 31
0.0
  0
LINE
  8
DETAIL
  6
CONTINUOUS
 62
     5
 10
269.96136582688149
 20
-74.822461761561215
 30
0.0
 11
269.9890490630209
 21
-74.862200011263212
 31
0.0
  0
LINE
  8
DETAIL
  6
CONTINUOUS
 62
     5
 10
269.9890490630209
 20
-74.862200011263212
 30
0.0
 11
270.01748465679702
 21
-74.901643135661061
 31
0.0
  0
LINE
  8
DETAIL
  6
CONTINUOUS
 62
     5
 10
270.01748465679702
 20
-74.901643135661061
 30
0.0
 11
270.01748465679702
 21
-74.901643135661061
 31
0.0
  0
LINE
  8
DETAIL
  6
CONTINUOUS
 62
     5
 10
270.01748465679702
 20
-74.901643135661061
 30
0.0
 11
270.04651998148933
 21
-74.940560857158573
 31
0.0
  0
LINE
  8
DETAIL
  6
CONTINUOUS
 62
     5
 10
270.04651998148933
 20
-74.940560857158573
 30
0.0
 11
270.07615660467189
 21
-74.978957882233715
 31
0.0
  0
LINE
  8
DETAIL
  6
CONTINUOUS
 62
     5
 10
270.07615660467189
 20
-74.978957882233715
 30
0.0
 11
270.07615660467189
 21
-74.978957882233715
 31
0.0
  0
LINE
  8
DETAIL
  6
CONTINUOUS
 62
     5
 10
270.07615660467189
 20
-74.978957882233715
 30
0.0
 11
270.10642501084402
 21
-75.016882623092954
 31
0.0
  0
LINE
  8
DETAIL
  6
CONTINUOUS
 62
     5
 10
270.10642501084402
 20
-75.016882623092954
 30
0.0
 11
270.13731715791408
 21
-75.054323330782893
 31
0.0
  0
LINE
  8
DETAIL
  6
CONTINUOUS
 62
     5
 10
270.13731715791408
 20
-75.054323330782893
 30
0.0
 11
270.13731715791408
 21
-75.054323330782893
 31
0.0
  0
LINE
  8
DETAIL
  6
CONTINUOUS
 62
     5
 10
270.13731715791408
 20
-75.054323330782893
 30
0.0
 11
270.16881535016012
 21
-75.09125463120148
 31
0.0
  0
LINE
  8
DETAIL
  6
CONTINUOUS
 62
     5
 10
270.16881535016012
 20
-75.09125463120148
 30
0.0
 11
270.20090180392998
 21
-75.127656810812425
 31
0.0
  0
LINE
  8
DETAIL
  6
CONTINUOUS
 62
     5
 10
270.20090180392998
 20
-75.127656810812425
 30
0.0
 11
270.20090180392998
 21
-75.127656810812425
 31
0.0
  0
LINE
  8
DETAIL
  6
CONTINUOUS
 62
     5
 10
270.20090180392998
 20
-75.127656810812425
 30
0.0
 11
270.23356843316651
 21
-75.163520950945042
 31
0.0
  0
LINE
  8
DETAIL
  6
CONTINUOUS
 62
     5
 10
270.23356843316651
 20
-75.163520950945042
 30
0.0
 11
270.26684603012848
 21
-75.198875651825745
 31
0.0
  0
LINE
  8
DETAIL
  6
CONTINUOUS
 62
     5
 10
270.26684603012848
 20
-75.198875651825745
 30
0.0
 11
270.26684603012848
 21
-75.198875651825745
 31
0.0
  0
LINE
  8
DETAIL
  6
CONTINUOUS
 62
     5
 10
270.26684603012848
 20
-75.198875651825745
 30
0.0
 11
270.30075867604592
 21
-75.233742522469356
 31
0.0
  0
LINE
  8
DETAIL
  6
CONTINUOUS
 62
     5
 10
270.30075867604592
 20
-75.233742522469356
 30
0.0
 11
270.33526472971943
 21
-75.268077688150925
 31
0.0
  0
LINE
  8
DETAIL
  6
CONTINUOUS
 62
     5
 10
270.33526472971943
 20
-75.268077688150925
 30
0.0
 11
270.33526472971943
 21
-75.268077688150925
 31
0.0
  0
LINE
  8
DETAIL
  6
CONTINUOUS
 62
     5
 10
270.33526472971943
 20
-75.268077688150925
 30
0.0
 11
270.37031693141603
 21
-75.301832301866682
 31
0.0
  0
LINE
  8
DETAIL
  6
CONTINUOUS
 62
     5
 10
270.37031693141603
 20
-75.301832301866682
 30
0.0
 11
270.40591126969719
 21
-75.335003111241917
 31
0.0
  0
LINE
  8
DETAIL
  6
CONTINUOUS
 62
     5
 10
270.40591126969719
 20
-75.335003111241917
 30
0.0
 11
270.40591126969719
 21
-75.335003111241917
 31
0.0
  0
LINE
  8
DETAIL
  6
CONTINUOUS
 62
     5
 10
270.40591126969719
 20
-75.335003111241917
 30
0.0
 11
270.44204864769779
 21
-75.367593043377724
 31
0.0
  0
LINE
  8
DETAIL
  6
CONTINUOUS
 62
     5
 10
270.44204864769779
 20
-75.367593043377724
 30
0.0
 11
270.47870637855652
 21
-75.39958414865265
 31
0.0
  0
LINE
  8
DETAIL
  6
CONTINUOUS
 62
     5
 10
270.47870637855652
 20
-75.39958414865265
 30
0.0
 11
270.47870637855652
 21
-75.39958414865265
 31
0.0
  0
LINE
  8
DETAIL
  6
CONTINUOUS
 62
     5
 10
270.47870637855652
 20
-75.39958414865265
 30
0.0
 11
270.51586865583488
 21
-75.430962736330173
 31
0.0
  0
LINE
  8
DETAIL
  6
CONTINUOUS
 62
     5
 10
270.51586865583488
 20
-75.430962736330173
 30
0.0
 11
270.55357078479432
 21
-75.461753027937789
 31
0.0
  0
LINE
  8
DETAIL
  6
CONTINUOUS
 62
     5
 10
270.55357078479432
 20
-75.461753027937789
 30
0.0
 11
270.55357078479432
 21
-75.461753027937789
 31
0.0
  0
LINE
  8
DETAIL
  6
CONTINUOUS
 62
     5
 10
270.55357078479432
 20
-75.461753027937789
 30
0.0
 11
270.59181563442121
 21
-75.491956029985317
 31
0.0
  0
LINE
  8
DETAIL
  6
CONTINUOUS
 62
     5
 10
270.59181563442121
 20
-75.491956029985317
 30
0.0
 11
270.63042521690608
 21
-75.521441976651033
 31
0.0
  0
LINE
  8
DETAIL
  6
CONTINUOUS
 62
     5
 10
270.63042521690608
 20
-75.521441976651033
 30
0.0
 11
270.63042521690608
 21
-75.521441976651033
 31
0.0
  0
LINE
  8
DETAIL
  6
CONTINUOUS
 62
     5
 10
270.63042521690608
 20
-75.521441976651033
 30
0.0
 11
270.6692463686922
 21
-75.550101429529946
 31
0.0
  0
LINE
  8
DETAIL
  6
CONTINUOUS
 62
     5
 10
270.6692463686922
 20
-75.550101429529946
 30
0.0
 11
270.70840608003141
 21
-75.57803703221839
 31
0.0
  0
LINE
  8
DETAIL
  6
CONTINUOUS
 62
     5
 10
270.70840608003141
 20
-75.57803703221839
 30
0.0
 11
270.70840608003141
 21
-75.57803703221839
 31
0.0
  0
LINE
  8
DETAIL
  6
CONTINUOUS
 62
     5
 10
270.70840608003141
 20
-75.57803703221839
 30
0.0
 11
270.74805698821609
 21
-75.60536997635694
 31
0.0
  0
LINE
  8
DETAIL
  6
CONTINUOUS
 62
     5
 10
270.74805698821609
 20
-75.60536997635694
 30
0.0
 11
270.788174164895
 21
-75.632083563764752
 31
0.0
  0
LINE
  8
DETAIL
  6
CONTINUOUS
 62
     5
 10
270.788174164895
 20
-75.632083563764752
 30
0.0
 11
270.788174164895
 21
-75.632083563764752
 31
0.0
  0
LINE
  8
DETAIL
  6
CONTINUOUS
 62
     5
 10
270.788174164895
 20
-75.632083563764752
 30
0.0
 11
270.82870244660211
 21
-75.658136993252867
 31
0.0
  0
LINE
  8
DETAIL
  6
CONTINUOUS
 62
     5
 10
270.82870244660211
 20
-75.658136993252867
 30
0.0
 11
270.86964329506412
 21
-75.683530941422589
 31
0.0
  0
LINE
  8
DETAIL
  6
CONTINUOUS
 62
     5
 10
270.86964329506412
 20
-75.683530941422589
 30
0.0
 11
270.86964329506412
 21
-75.683530941422589
 31
0.0
  0
LINE
  8
DETAIL
  6
CONTINUOUS
 62
     5
 10
270.86964329506412
 20
-75.683530941422589
 30
0.0
 11
270.91100009452401
 21
-75.708269448987778
 31
0.0
  0
LINE
  8
DETAIL
  6
CONTINUOUS
 62
     5
 10
270.91100009452401
 20
-75.708269448987778
 30
0.0
 11
270.95272729410698
 21
-75.732328535324484
 31
0.0
  0
LINE
  8
DETAIL
  6
CONTINUOUS
 62
     5
 10
270.95272729410698
 20
-75.732328535324484
 30
0.0
 11
270.95272729410698
 21
-75.732328535324484
 31
0.0
  0
LINE
  8
DETAIL
  6
CONTINUOUS
 62
     5
 10
270.95272729410698
 20
-75.732328535324484
 30
0.0
 11
270.99480188797992
 21
-75.755694866364536
 31
0.0
  0
LINE
  8
DETAIL
  6
CONTINUOUS
 62
     5
 10
270.99480188797992
 20
-75.755694866364536
 30
0.0
 11
271.03733998559272
 21
-75.778425715602793
 31
0.0
  0
LINE
  8
DETAIL
  6
CONTINUOUS
 62
     5
 10
271.03733998559272
 20
-75.778425715602793
 30
0.0
 11
271.03733998559272
 21
-75.778425715602793
 31
0.0
  0
LINE
  8
DETAIL
  6
CONTINUOUS
 62
     5
 10
271.03733998559272
 20
-75.778425715602793
 30
0.0
 11
271.08043913593508
 21
-75.800568370183043
 31
0.0
  0
LINE
  8
DETAIL
  6
CONTINUOUS
 62
     5
 10
271.08043913593508
 20
-75.800568370183043
 30
0.0
 11
271.12398353086451
 21
-75.822059564281744
 31
0.0
  0
LINE
  8
DETAIL
  6
CONTINUOUS
 62
     5
 10
271.12398353086451
 20
-75.822059564281744
 30
0.0
 11
271.12398353086451
 21
-75.822059564281744
 31
0.0
  0
LINE
  8
DETAIL
  6
CONTINUOUS
 62
     5
 10
271.12398353086451
 20
-75.822059564281744
 30
0.0
 11
271.1678367560516
 21
-75.84282650388775
 31
0.0
  0
LINE
  8
DETAIL
  6
CONTINUOUS
 62
     5
 10
271.1678367560516
 20
-75.84282650388775
 30
0.0
 11
271.21199332954342
 21
-75.862868835207166
 31
0.0
  0
LINE
  8
DETAIL
  6
CONTINUOUS
 62
     5
 10
271.21199332954342
 20
-75.862868835207166
 30
0.0
 11
271.21199332954342
 21
-75.862868835207166
 31
0.0
  0
LINE
  8
DETAIL
  6
CONTINUOUS
 62
     5
 10
271.21199332954342
 20
-75.862868835207166
 30
0.0
 11
271.25647399202438
 21
-75.882200167223175
 31
0.0
  0
LINE
  8
DETAIL
  6
CONTINUOUS
 62
     5
 10
271.25647399202438
 20
-75.882200167223175
 30
0.0
 11
271.30127344234143
 21
-75.900817519812279
 31
0.0
  0
LINE
  8
DETAIL
  6
CONTINUOUS
 62
     5
 10
271.30127344234143
 20
-75.900817519812279
 30
0.0
 11
271.30127344234143
 21
-75.900817519812279
 31
0.0
  0
LINE
  8
DETAIL
  6
CONTINUOUS
 62
     5
 10
271.30127344234143
 20
-75.900817519812279
 30
0.0
 11
271.34637317762463
 21
-75.918712244626704
 31
0.0
  0
LINE
  8
DETAIL
  6
CONTINUOUS
 62
     5
 10
271.34637317762463
 20
-75.918712244626704
 30
0.0
 11
271.39172792996942
 21
-75.935869609530755
 31
0.0
  0
LINE
  8
DETAIL
  6
CONTINUOUS
 62
     5
 10
271.39172792996942
 20
-75.935869609530755
 30
0.0
 11
271.39172792996942
 21
-75.935869609530755
 31
0.0
  0
LINE
  8
DETAIL
  6
CONTINUOUS
 62
     5
 10
271.39172792996942
 20
-75.935869609530755
 30
0.0
 11
271.43731901570698
 21
-75.952283592506319
 31
0.0
  0
LINE
  8
DETAIL
  6
CONTINUOUS
 62
     5
 10
271.43731901570698
 20
-75.952283592506319
 30
0.0
 11
271.48326085313892
 21
-75.967989095795986
 31
0.0
  0
LINE
  8
DETAIL
  6
CONTINUOUS
 62
     5
 10
271.48326085313892
 20
-75.967989095795986
 30
0.0
 11
271.48326085313892
 21
-75.967989095795986
 31
0.0
  0
LINE
  8
DETAIL
  6
CONTINUOUS
 62
     5
 10
271.48326085313892
 20
-75.967989095795986
 30
0.0
 11
271.52964803716941
 21
-75.983013951137252
 31
0.0
  0
LINE
  8
DETAIL
  6
CONTINUOUS
 62
     5
 10
271.52964803716941
 20
-75.983013951137252
 30
0.0
 11
271.57636276714243
 21
-75.997316783988026
 31
0.0
  0
LINE
  8
DETAIL
  6
CONTINUOUS
 62
     5
 10
271.57636276714243
 20
-75.997316783988026
 30
0.0
 11
271.57636276714243
 21
-75.997316783988026
 31
0.0
  0
LINE
  8
DETAIL
  6
CONTINUOUS
 62
     5
 10
271.57636276714243
 20
-75.997316783988026
 30
0.0
 11
271.62326830817642
 21
-76.010850837041289
 31
0.0
  0
LINE
  8
DETAIL
  6
CONTINUOUS
 62
     5
 10
271.62326830817642
 20
-76.010850837041289
 30
0.0
 11
271.6703645840484
 21
-76.023617028211902
 31
0.0
  0
LINE
  8
DETAIL
  6
CONTINUOUS
 62
     5
 10
271.6703645840484
 20
-76.023617028211902
 30
0.0
 11
271.6703645840484
 21
-76.023617028211902
 31
0.0
  0
LINE
  8
DETAIL
  6
CONTINUOUS
 62
     5
 10
271.6703645840484
 20
-76.023617028211902
 30
0.0
 11
271.71767388220701
 21
-76.035624614841197
 31
0.0
  0
LINE
  8
DETAIL
  6
CONTINUOUS
 62
     5
 10
271.71767388220701
 20
-76.035624614841197
 30
0.0
 11
271.76517128613523
 21
-76.046868536756563
 31
0.0
  0
LINE
  8
DETAIL
  6
CONTINUOUS
 62
     5
 10
271.76517128613523
 20
-76.046868536756563
 30
0.0
 11
271.76517128613523
 21
-76.046868536756563
 31
0.0
  0
LINE
  8
DETAIL
  6
CONTINUOUS
 62
     5
 10
271.76517128613523
 20
-76.046868536756563
 30
0.0
 11
271.81283311762439
 21
-76.057342553115575
 31
0.0
  0
LINE
  8
DETAIL
  6
CONTINUOUS
 62
     5
 10
271.81283311762439
 20
-76.057342553115575
 30
0.0
 11
271.86068785567971
 21
-76.06705001791164
 31
0.0
  0
LINE
  8
DETAIL
  6
CONTINUOUS
 62
     5
 10
271.86068785567971
 20
-76.06705001791164
 30
0.0
 11
271.86068785567971
 21
-76.06705001791164
 31
0.0
  0
LINE
  8
DETAIL
  6
CONTINUOUS
 62
     5
 10
271.86068785567971
 20
-76.06705001791164
 30
0.0
 11
271.90873666238889
 21
-76.075990668389693
 31
0.0
  0
LINE
  8
DETAIL
  6
CONTINUOUS
 62
     5
 10
271.90873666238889
 20
-76.075990668389693
 30
0.0
 11
271.95681927495951
 21
-76.084140179965971
 31
0.0
  0
LINE
  8
DETAIL
  6
CONTINUOUS
 62
     5
 10
271.95681927495951
 20
-76.084140179965971
 30
0.0
 11
271.95681927495951
 21
-76.084140179965971
 31
0.0
  0
LINE
  8
DETAIL
  6
CONTINUOUS
 62
     5
 10
271.95681927495951
 20
-76.084140179965971
 30
0.0
 11
272.00479725067362
 21
-76.091479176434632
 31
0.0
  0
LINE
  8
DETAIL
  6
CONTINUOUS
 62
     5
 10
272.00479725067362
 20
-76.091479176434632
 30
0.0
 11
272.05278085199359
 21
-76.098032136932886
 31
0.0
  0
LINE
  8
DETAIL
  6
CONTINUOUS
 62
     5
 10
272.05278085199359
 20
-76.098032136932886
 30
0.0
 11
272.05278085199359
 21
-76.098032136932886
 31
0.0
  0
LINE
  8
DETAIL
  6
CONTINUOUS
 62
     5
 10
272.05278085199359
 20
-76.098032136932886
 30
0.0
 11
272.10090296203822
 21
-76.103825373938605
 31
0.0
  0
LINE
  8
DETAIL
  6
CONTINUOUS
 62
     5
 10
272.10090296203822
 20
-76.103825373938605
 30
0.0
 11
272.14913824137659
 21
-76.108848677953063
 31
0.0
  0
LINE
  8
DETAIL
  6
CONTINUOUS
 62
     5
 10
272.14913824137659
 20
-76.108848677953063
 30
0.0
 11
272.14913824137659
 21
-76.108848677953063
 31
0.0
  0
LINE
  8
DETAIL
  6
CONTINUOUS
 62
     5
 10
272.14913824137659
 20
-76.108848677953063
 30
0.0
 11
272.19743254853643
 21
-76.113092079356193
 31
0.0
  0
LINE
  8
DETAIL
  6
CONTINUOUS
 62
     5
 10
272.19743254853643
 20
-76.113092079356193
 30
0.0
 11
272.24577475642712
 21
-76.116583090021606
 31
0.0
  0
LINE
  8
DETAIL
  6
CONTINUOUS
 62
     5
 10
272.24577475642712
 20
-76.116583090021606
 30
0.0
 11
272.24577475642712
 21
-76.116583090021606
 31
0.0
  0
LINE
  8
DETAIL
  6
CONTINUOUS
 62
     5
 10
272.24577475642712
 20
-76.116583090021606
 30
0.0
 11
272.29416103280931
 21
-76.119330241197133
 31
0.0
  0
LINE
  8
DETAIL
  6
CONTINUOUS
 62
     5
 10
272.29416103280931
 20
-76.119330241197133
 30
0.0
 11
272.34257371046277
 21
-76.12122866013334
 31
0.0
  0
LINE
  8
DETAIL
  6
CONTINUOUS
 62
     5
 10
272.34257371046277
 20
-76.12122866013334
 30
0.0
 11
272.34257371046277
 21
-76.12122866013334
 31
0.0
  0
LINE
  8
DETAIL
  6
CONTINUOUS
 62
     5
 10
272.34257371046277
 20
-76.12122866013334
 30
0.0
 11
272.39099474480571
 21
-76.122249156705038
 31
0.0
  0
LINE
  8
DETAIL
  6
CONTINUOUS
 62
     5
 10
272.39099474480571
 20
-76.122249156705038
 30
0.0
 11
272.43941841680129
 21
-76.122778675282802
 31
0.0
  0
LINE
  8
DETAIL
  6
CONTINUOUS
 62
     5
 10
274.74313408723759
 20
-76.122778675282802
 30
0.0
 11
274.77801041618841
 21
-76.123191053672315
 31
0.0
  0
LINE
  8
DETAIL
  6
CONTINUOUS
 62
     5
 10
274.77801041618841
 20
-76.123191053672315
 30
0.0
 11
274.81288433245589
 21
-76.123985568599664
 31
0.0
  0
LINE
  8
DETAIL
  6
CONTINUOUS
 62
     5
 10
274.81288433245589
 20
-76.123985568599664
 30
0.0
 11
274.81288433245589
 21
-76.123985568599664
 31
0.0
  0
LINE
  8
DETAIL
  6
CONTINUOUS
 62
     5
 10
274.81288433245589
 20
-76.123985568599664
 30
0.0
 11
274.8477510267823
 21
-76.12546335221316
 31
0.0
  0
LINE
  8
DETAIL
  6
CONTINUOUS
 62
     5
 10
274.8477510267823
 20
-76.12546335221316
 30
0.0
 11
274.8825961036186
 21
-76.127601519104132
 31
0.0
  0
LINE
  8
DETAIL
  6
CONTINUOUS
 62
     5
 10
274.8825961036186
 20
-76.127601519104132
 30
0.0
 11
274.8825961036186
 21
-76.127601519104132
 31
0.0
  0
LINE
  8
DETAIL
  6
CONTINUOUS
 62
     5
 10
274.8825961036186
 20
-76.127601519104132
 30
0.0
 11
274.91740491565542
 21
-76.130318178112361
 31
0.0
  0
LINE
  8
DETAIL
  6
CONTINUOUS
 62
     5
 10
274.91740491565542
 20
-76.130318178112361
 30
0.0
 11
274.95217139483259
 21
-76.133619432627142
 31
0.0
  0
LINE
  8
DETAIL
  6
CONTINUOUS
 62
     5
 10
274.95217139483259
 20
-76.133619432627142
 30
0.0
 11
274.95217139483259
 21
-76.133619432627142
 31
0.0
  0
LINE
  8
DETAIL
  6
CONTINUOUS
 62
     5
 10
274.95217139483259
 20
-76.133619432627142
 30
0.0
 11
274.98688543522621
 21
-76.137526394514964
 31
0.0
  0
LINE
  8
DETAIL
  6
CONTINUOUS
 62
     5
 10
274.98688543522621
 20
-76.137526394514964
 30
0.0
 11
275.02151220020698
 21
-76.142032214999858
 31
0.0
  0
LINE
  8
DETAIL
  6
CONTINUOUS
 62
     5
 10
275.02151220020698
 20
-76.142032214999858
 30
0.0
 11
275.02151220020698
 21
-76.142032214999858
 31
0.0
  0
LINE
  8
DETAIL
  6
CONTINUOUS
 62
     5
 10
275.02151220020698
 20
-76.142032214999858
 30
0.0
 11
275.0560332563627
 21
-76.147129017150064
 31
0.0
  0
LINE
  8
DETAIL
  6
CONTINUOUS
 62
     5
 10
275.0560332563627
 20
-76.147129017150064
 30
0.0
 11
275.09052051384867
 21
-76.152832772053046
 31
0.0
  0
LINE
  8
DETAIL
  6
CONTINUOUS
 62
     5
 10
275.09052051384867
 20
-76.152832772053046
 30
0.0
 11
275.09052051384867
 21
-76.152832772053046
 31
0.0
  0
LINE
  8
DETAIL
  6
CONTINUOUS
 62
     5
 10
275.09052051384867
 20
-76.152832772053046
 30
0.0
 11
275.12503308684012
 21
-76.159158424602253
 31
0.0
  0
LINE
  8
DETAIL
  6
CONTINUOUS
 62
     5
 10
275.12503308684012
 20
-76.159158424602253
 30
0.0
 11
275.15948856201788
 21
-76.16609296689694
 31
0.0
  0
LINE
  8
DETAIL
  6
CONTINUOUS
 62
     5
 10
275.15948856201788
 20
-76.16609296689694
 30
0.0
 11
275.15948856201788
 21
-76.16609296689694
 31
0.0
  0
LINE
  8
DETAIL
  6
CONTINUOUS
 62
     5
 10
275.15948856201788
 20
-76.16609296689694
 30
0.0
 11
275.19379240677603
 21
-76.173620225172499
 31
0.0
  0
LINE
  8
DETAIL
  6
CONTINUOUS
 62
     5
 10
275.19379240677603
 20
-76.173620225172499
 30
0.0
 11
275.22794313885032
 21
-76.181739315005416
 31
0.0
  0
LINE
  8
DETAIL
  6
CONTINUOUS
 62
     5
 10
275.22794313885032
 20
-76.181739315005416
 30
0.0
 11
275.22794313885032
 21
-76.181739315005416
 31
0.0
  0
LINE
  8
DETAIL
  6
CONTINUOUS
 62
     5
 10
275.22794313885032
 20
-76.181739315005416
 30
0.0
 11
275.2619542598249
 21
-76.190451365549507
 31
0.0
  0
LINE
  8
DETAIL
  6
CONTINUOUS
 62
     5
 10
275.2619542598249
 20
-76.190451365549507
 30
0.0
 11
275.29580615632648
 21
-76.199750270927041
 31
0.0
  0
LINE
  8
DETAIL
  6
CONTINUOUS
 62
     5
 10
275.29580615632648
 20
-76.199750270927041
 30
0.0
 11
275.29580615632648
 21
-76.199750270927041
 31
0.0
  0
LINE
  8
DETAIL
  6
CONTINUOUS
 62
     5
 10
275.29580615632648
 20
-76.199750270927041
 30
0.0
 11
275.32948078861358
 21
-76.209631529198475
 31
0.0
  0
LINE
  8
DETAIL
  6
CONTINUOUS
 62
     5
 10
275.32948078861358
 20
-76.209631529198475
 30
0.0
 11
275.36299952642702
 21
-76.220104289210667
 31
0.0
  0
LINE
  8
DETAIL
  6
CONTINUOUS
 62
     5
 10
275.36299952642702
 20
-76.220104289210667
 30
0.0
 11
275.36299952642702
 21
-76.220104289210667
 31
0.0
  0
LINE
  8
DETAIL
  6
CONTINUOUS
 62
     5
 10
275.36299952642702
 20
-76.220104289210667
 30
0.0
 11
275.39636246113491
 21
-76.231169270478631
 31
0.0
  0
LINE
  8
DETAIL
  6
CONTINUOUS
 62
     5
 10
275.39636246113491
 20
-76.231169270478631
 30
0.0
 11
275.42944516113261
 21
-76.242779824404465
 31
0.0
  0
LINE
  8
DETAIL
  6
CONTINUOUS
 62
     5
 10
275.42944516113261
 20
-76.242779824404465
 30
0.0
 11
275.42944516113261
 21
-76.242779824404465
 31
0.0
  0
LINE
  8
DETAIL
  6
CONTINUOUS
 62
     5
 10
275.42944516113261
 20
-76.242779824404465
 30
0.0
 11
275.46214096881198
 21
-76.25489480859585
 31
0.0
  0
LINE
  8
DETAIL
  6
CONTINUOUS
 62
     5
 10
275.46214096881198
 20
-76.25489480859585
 30
0.0
 11
275.49453884550678
 21
-76.267542473596677
 31
0.0
  0
LINE
  8
DETAIL
  6
CONTINUOUS
 62
     5
 10
275.49453884550678
 20
-76.267542473596677
 30
0.0
 11
275.49453884550678
 21
-76.267542473596677
 31
0.0
  0
LINE
  8
DETAIL
  6
CONTINUOUS
 62
     5
 10
275.49453884550678
 20
-76.267542473596677
 30
0.0
 11
275.52674554427762
 21
-76.28075791321254
 31
0.0
  0
LINE
  8
DETAIL
  6
CONTINUOUS
 62
     5
 10
275.52674554427762
 20
-76.28075791321254
 30
0.0
 11
275.55874336615068
 21
-76.294534201359966
 31
0.0
  0
LINE
  8
DETAIL
  6
CONTINUOUS
 62
     5
 10
275.55874336615068
 20
-76.294534201359966
 30
0.0
 11
275.55874336615068
 21
-76.294534201359966
 31
0.0
  0
LINE
  8
DETAIL
  6
CONTINUOUS
 62
     5
 10
275.55874336615068
 20
-76.294534201359966
 30
0.0
 11
275.59049162113661
 21
-76.3088565931061
 31
0.0
  0
LINE
  8
DETAIL
  6
CONTINUOUS
 62
     5
 10
275.59049162113661
 20
-76.3088565931061
 30
0.0
 11
275.62198210722272
 21
-76.323721088007062
 31
0.0
  0
LINE
  8
DETAIL
  6
CONTINUOUS
 62
     5
 10
275.62198210722272
 20
-76.323721088007062
 30
0.0
 11
275.62198210722272
 21
-76.323721088007062
 31
0.0
  0
LINE
  8
DETAIL
  6
CONTINUOUS
 62
     5
 10
275.62198210722272
 20
-76.323721088007062
 30
0.0
 11
275.6532133694231
 21
-76.339126132224521
 31
0.0
  0
LINE
  8
DETAIL
  6
CONTINUOUS
 62
     5
 10
275.6532133694231
 20
-76.339126132224521
 30
0.0
 11
275.68417845287962
 21
-76.35506921385047
 31
0.0
  0
LINE
  8
DETAIL
  6
CONTINUOUS
 62
     5
 10
275.68417845287962
 20
-76.35506921385047
 30
0.0
 11
275.68417845287962
 21
-76.35506921385047
 31
0.0
  0
LINE
  8
DETAIL
  6
CONTINUOUS
 62
     5
 10
275.68417845287962
 20
-76.35506921385047
 30
0.0
 11
275.7148664056437
 21
-76.371545853406531
 31
0.0
  0
LINE
  8
DETAIL
  6
CONTINUOUS
 62
     5
 10
275.7148664056437
 20
-76.371545853406531
 30
0.0
 11
275.74525578727793
 21
-76.388544659202978
 31
0.0
  0
LINE
  8
DETAIL
  6
CONTINUOUS
 62
     5
 10
275.74525578727793
 20
-76.388544659202978
 30
0.0
 11
275.74525578727793
 21
-76.388544659202978
 31
0.0
  0
LINE
  8
DETAIL
  6
CONTINUOUS
 62
     5
 10
275.74525578727793
 20
-76.388544659202978
 30
0.0
 11
275.775327712967
 21
-76.40605520061456
 31
0.0
  0
LINE
  8
DETAIL
  6
CONTINUOUS
 62
     5
 10
275.775327712967
 20
-76.40605520061456
 30
0.0
 11
275.80508400887987
 21
-76.424077803489013
 31
0.0
  0
LINE
  8
DETAIL
  6
CONTINUOUS
 62
     5
 10
275.80508400887987
 20
-76.424077803489013
 30
0.0
 11
275.80508400887987
 21
-76.424077803489013
 31
0.0
  0
LINE
  8
DETAIL
  6
CONTINUOUS
 62
     5
 10
275.80508400887987
 20
-76.424077803489013
 30
0.0
 11
275.83452815483832
 21
-76.442613461439748
 31
0.0
  0
LINE
  8
DETAIL
  6
CONTINUOUS
 62
     5
 10
275.83452815483832
 20
-76.442613461439748
 30
0.0
 11
275.86364953430228
 21
-76.461655082671143
 31
0.0
  0
LINE
  8
DETAIL
  6
CONTINUOUS
 62
     5
 10
275.86364953430228
 20
-76.461655082671143
 30
0.0
 11
275.86364953430228
 21
-76.461655082671143
 31
0.0
  0
LINE
  8
DETAIL
  6
CONTINUOUS
 62
     5
 10
275.86364953430228
 20
-76.461655082671143
 30
0.0
 11
275.89243596389309
 21
-76.481194970349804
 31
0.0
  0
LINE
  8
DETAIL
  6
CONTINUOUS
 62
     5
 10
275.89243596389309
 20
-76.481194970349804
 30
0.0
 11
275.92088308924531
 21
-76.501231092901151
 31
0.0
  0
LINE
  8
DETAIL
  6
CONTINUOUS
 62
     5
 10
275.92088308924531
 20
-76.501231092901151
 30
0.0
 11
275.92088308924531
 21
-76.501231092901151
 31
0.0
  0
LINE
  8
DETAIL
  6
CONTINUOUS
 62
     5
 10
275.92088308924531
 20
-76.501231092901151
 30
0.0
 11
275.94898420832232
 21
-76.52175919115848
 31
0.0
  0
LINE
  8
DETAIL
  6
CONTINUOUS
 62
     5
 10
275.94898420832232
 20
-76.52175919115848
 30
0.0
 11
275.97671539940802
 21
-76.542760430331214
 31
0.0
  0
LINE
  8
DETAIL
  6
CONTINUOUS
 62
     5
 10
275.97671539940802
 20
-76.542760430331214
 30
0.0
 11
275.97671539940802
 21
-76.542760430331214
 31
0.0
  0
LINE
  8
DETAIL
  6
CONTINUOUS
 62
     5
 10
275.97671539940802
 20
-76.542760430331214
 30
0.0
 11
276.00406369829369
 21
-76.564225491032289
 31
0.0
  0
LINE
  8
DETAIL
  6
CONTINUOUS
 62
     5
 10
276.00406369829369
 20
-76.564225491032289
 30
0.0
 11
276.03107719049262
 21
-76.586197691113398
 31
0.0
  0
LINE
  8
DETAIL
  6
CONTINUOUS
 62
     5
 10
276.03107719049262
 20
-76.586197691113398
 30
0.0
 11
276.03107719049262
 21
-76.586197691113398
 31
0.0
  0
LINE
  8
DETAIL
  6
CONTINUOUS
 62
     5
 10
276.03107719049262
 20
-76.586197691113398
 30
0.0
 11
276.05779483489698
 21
-76.608712900671264
 31
0.0
  0
LINE
  8
DETAIL
  6
CONTINUOUS
 62
     5
 10
276.05779483489698
 20
-76.608712900671264
 30
0.0
 11
276.08415803420621
 21
-76.631724561543706
 31
0.0
  0
LINE
  8
DETAIL
  6
CONTINUOUS
 62
     5
 10
276.08415803420621
 20
-76.631724561543706
 30
0.0
 11
276.08415803420621
 21
-76.631724561543706
 31
0.0
  0
LINE
  8
DETAIL
  6
CONTINUOUS
 62
     5
 10
276.08415803420621
 20
-76.631724561543706
 30
0.0
 11
276.11010016049988
 21
-76.6551788024247
 31
0.0
  0
LINE
  8
DETAIL
  6
CONTINUOUS
 62
     5
 10
276.11010016049988
 20
-76.6551788024247
 30
0.0
 11
276.13562001958343
 21
-76.679074927690635
 31
0.0
  0
LINE
  8
DETAIL
  6
CONTINUOUS
 62
     5
 10
276.13562001958343
 20
-76.679074927690635
 30
0.0
 11
276.13562001958343
 21
-76.679074927690635
 31
0.0
  0
LINE
  8
DETAIL
  6
CONTINUOUS
 62
     5
 10
276.13562001958343
 20
-76.679074927690635
 30
0.0
 11
276.16072599870489
 21
-76.703419040627523
 31
0.0
  0
LINE
  8
DETAIL
  6
CONTINUOUS
 62
     5
 10
276.16072599870489
 20
-76.703419040627523
 30
0.0
 11
276.18539937716253
 21
-76.728191264478653
 31
0.0
  0
LINE
  8
DETAIL
  6
CONTINUOUS
 62
     5
 10
276.18539937716253
 20
-76.728191264478653
 30
0.0
 11
276.18539937716253
 21
-76.728191264478653
 31
0.0
  0
LINE
  8
DETAIL
  6
CONTINUOUS
 62
     5
 10
276.18539937716253
 20
-76.728191264478653
 30
0.0
 11
276.20962540678642
 21
-76.75337791359857
 31
0.0
  0
LINE
  8
DETAIL
  6
CONTINUOUS
 62
     5
 10
276.20962540678642
 20
-76.75337791359857
 30
0.0
 11
276.23343233748272
 21
-76.779016046832055
 31
0.0
  0
LINE
  8
DETAIL
  6
CONTINUOUS
 62
     5
 10
276.23343233748272
 20
-76.779016046832055
 30
0.0
 11
276.23343233748272
 21
-76.779016046832055
 31
0.0
  0
LINE
  8
DETAIL
  6
CONTINUOUS
 62
     5
 10
276.23343233748272
 20
-76.779016046832055
 30
0.0
 11
276.25682294758781
 21
-76.805111159666865
 31
0.0
  0
LINE
  8
DETAIL
  6
CONTINUOUS
 62
     5
 10
276.25682294758781
 20
-76.805111159666865
 30
0.0
 11
276.2796551310816
 21
-76.831491749675479
 31
0.0
  0
LINE
  8
DETAIL
  6
CONTINUOUS
 62
     5
 10
276.2796551310816
 20
-76.831491749675479
 30
0.0
 11
276.2796551310816
 21
-76.831491749675479
 31
0.0
  0
LINE
  8
DETAIL
  6
CONTINUOUS
 62
     5
 10
276.2796551310816
 20
-76.831491749675479
 30
0.0
 11
276.30180886821972
 21
-76.858010158249272
 31
0.0
  0
LINE
  8
DETAIL
  6
CONTINUOUS
 62
     5
 10
276.30180886821972
 20
-76.858010158249272
 30
0.0
 11
276.32339736871342
 21
-76.884791099973484
 31
0.0
  0
LINE
  8
DETAIL
  6
CONTINUOUS
 62
     5
 10
276.32339736871342
 20
-76.884791099973484
 30
0.0
 11
276.32339736871342
 21
-76.884791099973484
 31
0.0
  0
LINE
  8
DETAIL
  6
CONTINUOUS
 62
     5
 10
276.32339736871342
 20
-76.884791099973484
 30
0.0
 11
276.34455470649158
 21
-76.911985276788585
 31
0.0
  0
LINE
  8
DETAIL
  6
CONTINUOUS
 62
     5
 10
276.34455470649158
 20
-76.911985276788585
 30
0.0
 11
276.36526518288753
 21
-76.939574966865564
 31
0.0
  0
LINE
  8
DETAIL
  6
CONTINUOUS
 62
     5
 10
276.36526518288753
 20
-76.939574966865564
 30
0.0
 11
276.36526518288753
 21
-76.939574966865564
 31
0.0
  0
LINE
  8
DETAIL
  6
CONTINUOUS
 62
     5
 10
276.36526518288753
 20
-76.939574966865564
 30
0.0
 11
276.38548477695088
 21
-76.967509995678824
 31
0.0
  0
LINE
  8
DETAIL
  6
CONTINUOUS
 62
     5
 10
276.38548477695088
 20
-76.967509995678824
 30
0.0
 11
276.405205951195
 21
-76.99577880168755
 31
0.0
  0
LINE
  8
DETAIL
  6
CONTINUOUS
 62
     5
 10
276.405205951195
 20
-76.99577880168755
 30
0.0
 11
276.405205951195
 21
-76.99577880168755
 31
0.0
  0
LINE
  8
DETAIL
  6
CONTINUOUS
 62
     5
 10
276.405205951195
 20
-76.99577880168755
 30
0.0
 11
276.42443124868481
 21
-77.024382969554836
 31
0.0
  0
LINE
  8
DETAIL
  6
CONTINUOUS
 62
     5
 10
276.42443124868481
 20
-77.024382969554836
 30
0.0
 11
276.44316705122759
 21
-77.053338055775157
 31
0.0
  0
LINE
  8
DETAIL
  6
CONTINUOUS
 62
     5
 10
276.44316705122759
 20
-77.053338055775157
 30
0.0
 11
276.44316705122759
 21
-77.053338055775157
 31
0.0
  0
LINE
  8
DETAIL
  6
CONTINUOUS
 62
     5
 10
276.44316705122759
 20
-77.053338055775157
 30
0.0
 11
276.4614077407079
 21
-77.082639484722904
 31
0.0
  0
LINE
  8
DETAIL
  6
CONTINUOUS
 62
     5
 10
276.4614077407079
 20
-77.082639484722904
 30
0.0
 11
276.47909586057489
 21
-77.112188180464045
 31
0.0
  0
LINE
  8
DETAIL
  6
CONTINUOUS
 62
     5
 10
276.47909586057489
 20
-77.112188180464045
 30
0.0
 11
276.47909586057489
 21
-77.112188180464045
 31
0.0
  0
LINE
  8
DETAIL
  6
CONTINUOUS
 62
     5
 10
276.47909586057489
 20
-77.112188180464045
 30
0.0
 11
276.49618338297842
 21
-77.141899150253323
 31
0.0
  0
LINE
  8
DETAIL
  6
CONTINUOUS
 62
     5
 10
276.49618338297842
 20
-77.141899150253323
 30
0.0
 11
276.51271183330982
 21
-77.171838234410814
 31
0.0
  0
LINE
  8
DETAIL
  6
CONTINUOUS
 62
     5
 10
276.51271183330982
 20
-77.171838234410814
 30
0.0
 11
276.51271183330982
 21
-77.171838234410814
 31
0.0
  0
LINE
  8
DETAIL
  6
CONTINUOUS
 62
     5
 10
276.51271183330982
 20
-77.171838234410814
 30
0.0
 11
276.52873048222932
 21
-77.20208506534459
 31
0.0
  0
LINE
  8
DETAIL
  6
CONTINUOUS
 62
     5
 10
276.52873048222932
 20
-77.20208506534459
 30
0.0
 11
276.54423002823268
 21
-77.232623610750807
 31
0.0
  0
LINE
  8
DETAIL
  6
CONTINUOUS
 62
     5
 10
276.54423002823268
 20
-77.232623610750807
 30
0.0
 11
276.54423002823268
 21
-77.232623610750807
 31
0.0
  0
LINE
  8
DETAIL
  6
CONTINUOUS
 62
     5
 10
276.54423002823268
 20
-77.232623610750807
 30
0.0
 11
276.55919058467822
 21
-77.263420717873942
 31
0.0
  0
LINE
  8
DETAIL
  6
CONTINUOUS
 62
     5
 10
276.55919058467822
 20
-77.263420717873942
 30
0.0
 11
276.57360849653872
 21
-77.294470416865522
 31
0.0
  0
LINE
  8
DETAIL
  6
CONTINUOUS
 62
     5
 10
276.57360849653872
 20
-77.294470416865522
 30
0.0
 11
276.57360849653872
 21
-77.294470416865522
 31
0.0
  0
LINE
  8
DETAIL
  6
CONTINUOUS
 62
     5
 10
276.57360849653872
 20
-77.294470416865522
 30
0.0
 11
276.58748257811772
 21
-77.32577026687477
 31
0.0
  0
LINE
  8
DETAIL
  6
CONTINUOUS
 62
     5
 10
276.58748257811772
 20
-77.32577026687477
 30
0.0
 11
276.60080528942302
 21
-77.357304760137424
 31
0.0
  0
LINE
  8
DETAIL
  6
CONTINUOUS
 62
     5
 10
276.60080528942302
 20
-77.357304760137424
 30
0.0
 11
276.60080528942302
 21
-77.357304760137424
 31
0.0
  0
LINE
  8
DETAIL
  6
CONTINUOUS
 62
     5
 10
276.60080528942302
 20
-77.357304760137424
 30
0.0
 11
276.61356979828258
 21
-77.389061393347617
 31
0.0
  0
LINE
  8
DETAIL
  6
CONTINUOUS
 62
     5
 10
276.61356979828258
 20
-77.389061393347617
 30
0.0
 11
276.62577845808067
 21
-77.421052747948181
 31
0.0
  0
LINE
  8
DETAIL
  6
CONTINUOUS
 62
     5
 10
276.62577845808067
 20
-77.421052747948181
 30
0.0
 11
276.62577845808067
 21
-77.421052747948181
 31
0.0
  0
LINE
  8
DETAIL
  6
CONTINUOUS
 62
     5
 10
276.62577845808067
 20
-77.421052747948181
 30
0.0
 11
276.63743271444008
 21
-77.45328825101609
 31
0.0
  0
LINE
  8
DETAIL
  6
CONTINUOUS
 62
     5
 10
276.63743271444008
 20
-77.45328825101609
 30
0.0
 11
276.64852119637771
 21
-77.485739627417445
 31
0.0
  0
LINE
  8
DETAIL
  6
CONTINUOUS
 62
     5
 10
276.64852119637771
 20
-77.485739627417445
 30
0.0
 11
276.64852119637771
 21
-77.485739627417445
 31
0.0
  0
LINE
  8
DETAIL
  6
CONTINUOUS
 62
     5
 10
276.64852119637771
 20
-77.485739627417445
 30
0.0
 11
276.65903171678212
 21
-77.518375675641323
 31
0.0
  0
LINE
  8
DETAIL
  6
CONTINUOUS
 62
     5
 10
276.65903171678212
 20
-77.518375675641323
 30
0.0
 11
276.66896164063041
 21
-77.551191190881127
 31
0.0
  0
LINE
  8
DETAIL
  6
CONTINUOUS
 62
     5
 10
276.66896164063041
 20
-77.551191190881127
 30
0.0
 11
276.66896164063041
 21
-77.551191190881127
 31
0.0
  0
LINE
  8
DETAIL
  6
CONTINUOUS
 62
     5
 10
276.66896164063041
 20
-77.551191190881127
 30
0.0
 11
276.67830963553928
 21
-77.584182966452772
 31
0.0
  0
LINE
  8
DETAIL
  6
CONTINUOUS
 62
     5
 10
276.67830963553928
 20
-77.584182966452772
 30
0.0
 11
276.68707002760209
 21
-77.617329791459667
 31
0.0
  0
LINE
  8
DETAIL
  6
CONTINUOUS
 62
     5
 10
276.68707002760209
 20
-77.617329791459667
 30
0.0
 11
276.68707002760209
 21
-77.617329791459667
 31
0.0
  0
LINE
  8
DETAIL
  6
CONTINUOUS
 62
     5
 10
276.68707002760209
 20
-77.617329791459667
 30
0.0
 11
276.69523801103242
 21
-77.650617458988734
 31
0.0
  0
LINE
  8
DETAIL
  6
CONTINUOUS
 62
     5
 10
276.69523801103242
 20
-77.650617458988734
 30
0.0
 11
276.70281659405663
 21
-77.684077782273732
 31
0.0
  0
LINE
  8
DETAIL
  6
CONTINUOUS
 62
     5
 10
276.70281659405663
 20
-77.684077782273732
 30
0.0
 11
276.70281659405663
 21
-77.684077782273732
 31
0.0
  0
LINE
  8
DETAIL
  6
CONTINUOUS
 62
     5
 10
276.70281659405663
 20
-77.684077782273732
 30
0.0
 11
276.70980400977231
 21
-77.717712560491293
 31
0.0
  0
LINE
  8
DETAIL
  6
CONTINUOUS
 62
     5
 10
276.70980400977231
 20
-77.717712560491293
 30
0.0
 11
276.71617157675757
 21
-77.751357516443761
 31
0.0
  0
LINE
  8
DETAIL
  6
CONTINUOUS
 62
     5
 10
276.71617157675757
 20
-77.751357516443761
 30
0.0
 11
276.71617157675757
 21
-77.751357516443761
 31
0.0
  0
LINE
  8
DETAIL
  6
CONTINUOUS
 62
     5
 10
276.71617157675757
 20
-77.751357516443761
 30
0.0
 11
276.72189636408712
 21
-77.784871467868641
 31
0.0
  0
LINE
  8
DETAIL
  6
CONTINUOUS
 62
     5
 10
276.72189636408712
 20
-77.784871467868641
 30
0.0
 11
276.72700535734771
 21
-77.818371688619948
 31
0.0
  0
LINE
  8
DETAIL
  6
CONTINUOUS
 62
     5
 10
276.72700535734771
 20
-77.818371688619948
 30
0.0
 11
276.72700535734771
 21
-77.818371688619948
 31
0.0
  0
LINE
  8
DETAIL
  6
CONTINUOUS
 62
     5
 10
276.72700535734771
 20
-77.818371688619948
 30
0.0
 11
276.73152817607092
 21
-77.851998932751769
 31
0.0
  0
LINE
  8
DETAIL
  6
CONTINUOUS
 62
     5
 10
276.73152817607092
 20
-77.851998932751769
 30
0.0
 11
276.73545505905997
 21
-77.885729419006168
 31
0.0
  0
LINE
  8
DETAIL
  6
CONTINUOUS
 62
     5
 10
276.73545505905997
 20
-77.885729419006168
 30
0.0
 11
276.73545505905997
 21
-77.885729419006168
 31
0.0
  0
LINE
  8
DETAIL
  6
CONTINUOUS
 62
     5
 10
276.73545505905997
 20
-77.885729419006168
 30
0.0
 11
276.73877447880881
 21
-77.91950938542459
 31
0.0
  0
LINE
  8
DETAIL
  6
CONTINUOUS
 62
     5
 10
276.73877447880881
 20
-77.91950938542459
 30
0.0
 11
276.7415072233029
 21
-77.953329682560764
 31
0.0
  0
LINE
  8
DETAIL
  6
CONTINUOUS
 62
     5
 10
276.7415072233029
 20
-77.953329682560764
 30
0.0
 11
276.7415072233029
 21
-77.953329682560764
 31
0.0
  0
LINE
  8
DETAIL
  6
CONTINUOUS
 62
     5
 10
276.7415072233029
 20
-77.953329682560764
 30
0.0
 11
276.74365968909109
 21
-77.987188835412212
 31
0.0
  0
LINE
  8
DETAIL
  6
CONTINUOUS
 62
     5
 10
276.74365968909109
 20
-77.987188835412212
 30
0.0
 11
276.74514839148299
 21
-78.021071454241962
 31
0.0
  0
LINE
  8
DETAIL
  6
CONTINUOUS
 62
     5
 10
276.74514839148299
 20
-78.021071454241962
 30
0.0
 11
276.74514839148299
 21
-78.021071454241962
 31
0.0
  0
LINE
  8
DETAIL
  6
CONTINUOUS
 62
     5
 10
276.74514839148299
 20
-78.021071454241962
 30
0.0
 11
276.74594917784418
 21
-78.054961432235757
 31
0.0
  0
LINE
  8
DETAIL
  6
CONTINUOUS
 62
     5
 10
276.74594917784418
 20
-78.054961432235757
 30
0.0
 11
276.7463651050079
 21
-78.088853709008106
 31
0.0
  0
LINE
  8
DETAIL
  6
CONTINUOUS
 62
     5
 10
274.94345718901491
 20
-90.266614867791361
 30
0.0
 11
274.92389083456499
 21
-90.266744827917421
 31
0.0
  0
LINE
  8
DETAIL
  6
CONTINUOUS
 62
     5
 10
274.92389083456499
 20
-90.266744827917421
 30
0.0
 11
274.90432608779668
 21
-90.26699585810195
 31
0.0
  0
LINE
  8
DETAIL
  6
CONTINUOUS
 62
     5
 10
274.90432608779668
 20
-90.26699585810195
 30
0.0
 11
274.90432608779668
 21
-90.26699585810195
 31
0.0
  0
LINE
  8
DETAIL
  6
CONTINUOUS
 62
     5
 10
274.90432608779668
 20
-90.26699585810195
 30
0.0
 11
274.88476380234601
 21
-90.267463696536026
 31
0.0
  0
LINE
  8
DETAIL
  6
CONTINUOUS
 62
     5
 10
274.88476380234601
 20
-90.267463696536026
 30
0.0
 11
274.86520181567153
 21
-90.268142753941618
 31
0.0
  0
LINE
  8
DETAIL
  6
CONTINUOUS
 62
     5
 10
274.86520181567153
 20
-90.268142753941618
 30
0.0
 11
274.86520181567153
 21
-90.268142753941618
 31
0.0
  0
LINE
  8
DETAIL
  6
CONTINUOUS
 62
     5
 10
274.86520181567153
 20
-90.268142753941618
 30
0.0
 11
274.84564164526932
 21
-90.269008434371756
 31
0.0
  0
LINE
  8
DETAIL
  6
CONTINUOUS
 62
     5
 10
274.84564164526932
 20
-90.269008434371756
 30
0.0
 11
274.82610254496052
 21
-90.270061442672443
 31
0.0
  0
LINE
  8
DETAIL
  6
CONTINUOUS
 62
     5
 10
274.82610254496052
 20
-90.270061442672443
 30
0.0
 11
274.82610254496052
 21
-90.270061442672443
 31
0.0
  0
LINE
  8
DETAIL
  6
CONTINUOUS
 62
     5
 10
274.82610254496052
 20
-90.270061442672443
 30
0.0
 11
274.80659122036639
 21
-90.27130883996233
 31
0.0
  0
LINE
  8
DETAIL
  6
CONTINUOUS
 62
     5
 10
274.80659122036639
 20
-90.27130883996233
 30
0.0
 11
274.78704644798489
 21
-90.272757811656277
 31
0.0
  0
LINE
  8
DETAIL
  6
CONTINUOUS
 62
     5
 10
274.78704644798489
 20
-90.272757811656277
 30
0.0
 11
274.78704644798489
 21
-90.272757811656277
 31
0.0
  0
LINE
  8
DETAIL
  6
CONTINUOUS
 62
     5
 10
274.78704644798489
 20
-90.272757811656277
 30
0.0
 11
274.76745351707541
 21
-90.2744091247489
 31
0.0
  0
LINE
  8
DETAIL
  6
CONTINUOUS
 62
     5
 10
274.76745351707541
 20
-90.2744091247489
 30
0.0
 11
274.74805169706718
 21
-90.276237748255255
 31
0.0
  0
LINE
  8
DETAIL
  6
CONTINUOUS
 62
     5
 10
274.74805169706718
 20
-90.276237748255255
 30
0.0
 11
274.74805169706718
 21
-90.276237748255255
 31
0.0
  0
LINE
  8
DETAIL
  6
CONTINUOUS
 62
     5
 10
274.74805169706718
 20
-90.276237748255255
 30
0.0
 11
274.72904579824637
 21
-90.278221583211632
 31
0.0
  0
LINE
  8
DETAIL
  6
CONTINUOUS
 62
     5
 10
274.72904579824637
 20
-90.278221583211632
 30
0.0
 11
274.71024881415099
 21
-90.280376056717273
 31
0.0
  0
LINE
  8
DETAIL
  6
CONTINUOUS
 62
     5
 10
274.71024881415099
 20
-90.280376056717273
 30
0.0
 11
274.71024881415099
 21
-90.280376056717273
 31
0.0
  0
LINE
  8
DETAIL
  6
CONTINUOUS
 62
     5
 10
274.71024881415099
 20
-90.280376056717273
 30
0.0
 11
274.69142548573222
 21
-90.282723607535331
 31
0.0
  0
LINE
  8
DETAIL
  6
CONTINUOUS
 62
     5
 10
274.69142548573222
 20
-90.282723607535331
 30
0.0
 11
274.67253936032728
 21
-90.28527719502091
 31
0.0
  0
LINE
  8
DETAIL
  6
CONTINUOUS
 62
     5
 10
274.67253936032728
 20
-90.28527719502091
 30
0.0
 11
274.67253936032728
 21
-90.28527719502091
 31
0.0
  0
LINE
  8
DETAIL
  6
CONTINUOUS
 62
     5
 10
274.67253936032728
 20
-90.28527719502091
 30
0.0
 11
274.65364243897409
 21
-90.288036686814905
 31
0.0
  0
LINE
  8
DETAIL
  6
CONTINUOUS
 62
     5
 10
274.65364243897409
 20
-90.288036686814905
 30
0.0
 11
274.63494173112622
 21
-90.290959063106243
 31
0.0
  0
LINE
  8
DETAIL
  6
CONTINUOUS
 62
     5
 10
274.63494173112622
 20
-90.290959063106243
 30
0.0
 11
274.63494173112622
 21
-90.290959063106243
 31
0.0
  0
LINE
  8
DETAIL
  6
CONTINUOUS
 62
     5
 10
274.63494173112622
 20
-90.290959063106243
 30
0.0
 11
274.61647828832702
 21
-90.294035839524611
 31
0.0
  0
LINE
  8
DETAIL
  6
CONTINUOUS
 62
     5
 10
274.61647828832702
 20
-90.294035839524611
 30
0.0
 11
274.59747432207791
 21
-90.297439560913631
 31
0.0
  0
LINE
  8
DETAIL
  6
CONTINUOUS
 62
     5
 10
274.59747432207791
 20
-90.297439560913631
 30
0.0
 11
274.59747432207791
 21
-90.297439560913631
 31
0.0
  0
LINE
  8
DETAIL
  6
CONTINUOUS
 62
     5
 10
274.59747432207791
 20
-90.297439560913631
 30
0.0
 11
274.57772742180799
 21
-90.301217722069225
 31
0.0
  0
LINE
  8
DETAIL
  6
CONTINUOUS
 62
     5
 10
274.57772742180799
 20
-90.301217722069225
 30
0.0
 11
274.56015552871372
 21
-90.304736588383093
 31
0.0
  0
LINE
  8
DETAIL
  6
CONTINUOUS
 62
     5
 10
274.56015552871372
 20
-90.304736588383093
 30
0.0
 11
274.56015552871372
 21
-90.304736588383093
 31
0.0
  0
LINE
  8
DETAIL
  6
CONTINUOUS
 62
     5
 10
274.56015552871372
 20
-90.304736588383093
 30
0.0
 11
274.54722174086822
 21
-90.307447596565794
 31
0.0
  0
LINE
  8
DETAIL
  6
CONTINUOUS
 62
     5
 10
274.54722174086822
 20
-90.307447596565794
 30
0.0
 11
274.53644943209008
 21
-90.309824098006231
 31
0.0
  0
LINE
  8
DETAIL
  6
CONTINUOUS
 62
     5
 10
274.53644943209008
 20
-90.309824098006231
 30
0.0
 11
274.53644943209008
 21
-90.309824098006231
 31
0.0
  0
LINE
  8
DETAIL
  6
CONTINUOUS
 62
     5
 10
274.53644943209008
 20
-90.309824098006231
 30
0.0
 11
274.52491165628902
 21
-90.312441337276255
 31
0.0
  0
LINE
  8
DETAIL
  6
CONTINUOUS
 62
     5
 10
274.52491165628902
 20
-90.312441337276255
 30
0.0
 11
274.51281991200102
 21
-90.315260217000798
 31
0.0
  0
LINE
  8
DETAIL
  6
CONTINUOUS
 62
     5
 10
274.51281991200102
 20
-90.315260217000798
 30
0.0
 11
274.51281991200102
 21
-90.315260217000798
 31
0.0
  0
LINE
  8
DETAIL
  6
CONTINUOUS
 62
     5
 10
274.51281991200102
 20
-90.315260217000798
 30
0.0
 11
274.50095989669279
 21
-90.318128330911691
 31
0.0
  0
LINE
  8
DETAIL
  6
CONTINUOUS
 62
     5
 10
274.50095989669279
 20
-90.318128330911691
 30
0.0
 11
274.48927565892689
 21
-90.321054379116219
 31
0.0
  0
LINE
  8
DETAIL
  6
CONTINUOUS
 62
     5
 10
274.48927565892689
 20
-90.321054379116219
 30
0.0
 11
274.48927565892689
 21
-90.321054379116219
 31
0.0
  0
LINE
  8
DETAIL
  6
CONTINUOUS
 62
     5
 10
274.48927565892689
 20
-90.321054379116219
 30
0.0
 11
274.47755787278709
 21
-90.324079817426934
 31
0.0
  0
LINE
  8
DETAIL
  6
CONTINUOUS
 62
     5
 10
274.47755787278709
 20
-90.324079817426934
 30
0.0
 11
274.46582536334779
 21
-90.327216018101979
 31
0.0
  0
LINE
  8
DETAIL
  6
CONTINUOUS
 62
     5
 10
274.46582536334779
 20
-90.327216018101979
 30
0.0
 11
274.46582536334779
 21
-90.327216018101979
 31
0.0
  0
LINE
  8
DETAIL
  6
CONTINUOUS
 62
     5
 10
274.46582536334779
 20
-90.327216018101979
 30
0.0
 11
274.45413625466648
 21
-90.330456639471208
 31
0.0
  0
LINE
  8
DETAIL
  6
CONTINUOUS
 62
     5
 10
274.45413625466648
 20
-90.330456639471208
 30
0.0
 11
274.4424777157455
 21
-90.333754567707444
 31
0.0
  0
LINE
  8
DETAIL
  6
CONTINUOUS
 62
     5
 10
276.7463651050079
 20
-89.765807113348671
 30
0.0
 11
276.74608154977238
 21
-89.775771973395592
 31
0.0
  0
LINE
  8
DETAIL
  6
CONTINUOUS
 62
     5
 10
276.74608154977238
 20
-89.775771973395592
 30
0.0
 11
276.7455419728671
 21
-89.785732638603292
 31
0.0
  0
LINE
  8
DETAIL
  6
CONTINUOUS
 62
     5
 10
276.7455419728671
 20
-89.785732638603292
 30
0.0
 11
276.7455419728671
 21
-89.785732638603292
 31
0.0
  0
LINE
  8
DETAIL
  6
CONTINUOUS
 62
     5
 10
276.7455419728671
 20
-89.785732638603292
 30
0.0
 11
276.74454725396981
 21
-89.795680905913912
 31
0.0
  0
LINE
  8
DETAIL
  6
CONTINUOUS
 62
     5
 10
276.74454725396981
 20
-89.795680905913912
 30
0.0
 11
276.74312587814859
 21
-89.805592539396287
 31
0.0
  0
LINE
  8
DETAIL
  6
CONTINUOUS
 62
     5
 10
276.74312587814859
 20
-89.805592539396287
 30
0.0
 11
276.74312587814859
 21
-89.805592539396287
 31
0.0
  0
LINE
  8
DETAIL
  6
CONTINUOUS
 62
     5
 10
276.74312587814859
 20
-89.805592539396287
 30
0.0
 11
276.7413447408216
 21
-89.815447672889036
 31
0.0
  0
LINE
  8
DETAIL
  6
CONTINUOUS
 62
     5
 10
276.7413447408216
 20
-89.815447672889036
 30
0.0
 11
276.73919677341058
 21
-89.825259952183842
 31
0.0
  0
LINE
  8
DETAIL
  6
CONTINUOUS
 62
     5
 10
276.73919677341058
 20
-89.825259952183842
 30
0.0
 11
276.73919677341058
 21
-89.825259952183842
 31
0.0
  0
LINE
  8
DETAIL
  6
CONTINUOUS
 62
     5
 10
276.73919677341058
 20
-89.825259952183842
 30
0.0
 11
276.73667347898657
 21
-89.835021897326101
 31
0.0
  0
LINE
  8
DETAIL
  6
CONTINUOUS
 62
     5
 10
276.73667347898657
 20
-89.835021897326101
 30
0.0
 11
276.73383461120937
 21
-89.844608013422487
 31
0.0
  0
LINE
  8
DETAIL
  6
CONTINUOUS
 62
     5
 10
276.73383461120937
 20
-89.844608013422487
 30
0.0
 11
276.73383461120937
 21
-89.844608013422487
 31
0.0
  0
LINE
  8
DETAIL
  6
CONTINUOUS
 62
     5
 10
276.73383461120937
 20
-89.844608013422487
 30
0.0
 11
276.73070722679489
 21
-89.85397293879538
 31
0.0
  0
LINE
  8
DETAIL
  6
CONTINUOUS
 62
     5
 10
276.73070722679489
 20
-89.85397293879538
 30
0.0
 11
276.72711934410279
 21
-89.863509859568296
 31
0.0
  0
LINE
  8
DETAIL
  6
CONTINUOUS
 62
     5
 10
276.72711934410279
 20
-89.863509859568296
 30
0.0
 11
276.72711934410279
 21
-89.863509859568296
 31
0.0
  0
LINE
  8
DETAIL
  6
CONTINUOUS
 62
     5
 10
276.72711934410279
 20
-89.863509859568296
 30
0.0
 11
276.72291994622958
 21
-89.873548340378647
 31
0.0
  0
LINE
  8
DETAIL
  6
CONTINUOUS
 62
     5
 10
276.72291994622958
 20
-89.873548340378647
 30
0.0
 11
276.71824091358411
 21
-89.883724912117316
 31
0.0
  0
LINE
  8
DETAIL
  6
CONTINUOUS
 62
     5
 10
276.71824091358411
 20
-89.883724912117316
 30
0.0
 11
276.71824091358411
 21
-89.883724912117316
 31
0.0
  0
LINE
  8
DETAIL
  6
CONTINUOUS
 62
     5
 10
276.71824091358411
 20
-89.883724912117316
 30
0.0
 11
276.71324768660861
 21
-89.893614005852157
 31
0.0
  0
LINE
  8
DETAIL
  6
CONTINUOUS
 62
     5
 10
276.71324768660861
 20
-89.893614005852157
 30
0.0
 11
276.70795704856999
 21
-89.903234687103861
 31
0.0
  0
LINE
  8
DETAIL
  6
CONTINUOUS
 62
     5
 10
276.70795704856999
 20
-89.903234687103861
 30
0.0
 11
276.70795704856999
 21
-89.903234687103861
 31
0.0
  0
LINE
  8
DETAIL
  6
CONTINUOUS
 62
     5
 10
276.70795704856999
 20
-89.903234687103861
 30
0.0
 11
276.70234994539999
 21
-89.912697184448405
 31
0.0
  0
LINE
  8
DETAIL
  6
CONTINUOUS
 62
     5
 10
276.70234994539999
 20
-89.912697184448405
 30
0.0
 11
276.69641263086498
 21
-89.922031744228605
 31
0.0
  0
LINE
  8
DETAIL
  6
CONTINUOUS
 62
     5
 10
276.69641263086498
 20
-89.922031744228605
 30
0.0
 11
276.69641263086498
 21
-89.922031744228605
 31
0.0
  0
LINE
  8
DETAIL
  6
CONTINUOUS
 62
     5
 10
276.69641263086498
 20
-89.922031744228605
 30
0.0
 11
276.69016454214869
 21
-89.931217440848513
 31
0.0
  0
LINE
  8
DETAIL
  6
CONTINUOUS
 62
     5
 10
276.69016454214869
 20
-89.931217440848513
 30
0.0
 11
276.68375254227169
 21
-89.940108643192048
 31
0.0
  0
LINE
  8
DETAIL
  6
CONTINUOUS
 62
     5
 10
276.68375254227169
 20
-89.940108643192048
 30
0.0
 11
276.68375254227169
 21
-89.940108643192048
 31
0.0
  0
LINE
  8
DETAIL
  6
CONTINUOUS
 62
     5
 10
276.68375254227169
 20
-89.940108643192048
 30
0.0
 11
276.6772265979177
 21
-89.9486732448417
 31
0.0
  0
LINE
  8
DETAIL
  6
CONTINUOUS
 62
     5
 10
276.6772265979177
 20
-89.9486732448417
 30
0.0
 11
276.67012166459398
 21
-89.957457943694919
 31
0.0
  0
LINE
  8
DETAIL
  6
CONTINUOUS
 62
     5
 10
276.67012166459398
 20
-89.957457943694919
 30
0.0
 11
276.67012166459398
 21
-89.957457943694919
 31
0.0
  0
LINE
  8
DETAIL
  6
CONTINUOUS
 62
     5
 10
276.67012166459398
 20
-89.957457943694919
 30
0.0
 11
276.66203957449909
 21
-89.966918012390465
 31
0.0
  0
LINE
  8
DETAIL
  6
CONTINUOUS
 62
     5
 10
276.66203957449909
 20
-89.966918012390465
 30
0.0
 11
276.65336467777428
 21
-89.976564218216197
 31
0.0
  0
LINE
  8
DETAIL
  6
CONTINUOUS
 62
     5
 10
276.65336467777428
 20
-89.976564218216197
 30
0.0
 11
276.65336467777428
 21
-89.976564218216197
 31
0.0
  0
LINE
  8
DETAIL
  6
CONTINUOUS
 62
     5
 10
276.65336467777428
 20
-89.976564218216197
 30
0.0
 11
276.64455985721042
 21
-89.985823770331422
 31
0.0
  0
LINE
  8
DETAIL
  6
CONTINUOUS
 62
     5
 10
276.64455985721042
 20
-89.985823770331422
 30
0.0
 11
276.63561960825263
 21
-89.994734150731745
 31
0.0
  0
LINE
  8
DETAIL
  6
CONTINUOUS
 62
     5
 10
276.63561960825263
 20
-89.994734150731745
 30
0.0
 11
276.63561960825263
 21
-89.994734150731745
 31
0.0
  0
LINE
  8
DETAIL
  6
CONTINUOUS
 62
     5
 10
276.63561960825263
 20
-89.994734150731745
 30
0.0
 11
276.62644066596113
 21
-90.003453116350499
 31
0.0
  0
LINE
  8
DETAIL
  6
CONTINUOUS
 62
     5
 10
276.62644066596113
 20
-90.003453116350499
 30
0.0
 11
276.61699711119712
 21
-90.01200925103592
 31
0.0
  0
LINE
  8
DETAIL
  6
CONTINUOUS
 62
     5
 10
276.61699711119712
 20
-90.01200925103592
 30
0.0
 11
276.61699711119712
 21
-90.01200925103592
 31
0.0
  0
LINE
  8
DETAIL
  6
CONTINUOUS
 62
     5
 10
276.61699711119712
 20
-90.01200925103592
 30
0.0
 11
276.60732211230783
 21
-90.02037545024109
 31
0.0
  0
LINE
  8
DETAIL
  6
CONTINUOUS
 62
     5
 10
276.60732211230783
 20
-90.02037545024109
 30
0.0
 11
276.5976078417761
 21
-90.028431028922967
 31
0.0
  0
LINE
  8
DETAIL
  6
CONTINUOUS
 62
     5
 10
276.5976078417761
 20
-90.028431028922967
 30
0.0
 11
276.5976078417761
 21
-90.028431028922967
 31
0.0
  0
LINE
  8
DETAIL
  6
CONTINUOUS
 62
     5
 10
276.5976078417761
 20
-90.028431028922967
 30
0.0
 11
276.58790788253282
 21
-90.036157780681776
 31
0.0
  0
LINE
  8
DETAIL
  6
CONTINUOUS
 62
     5
 10
276.58790788253282
 20
-90.036157780681776
 30
0.0
 11
276.57756245515759
 21
-90.044040994187071
 31
0.0
  0
LINE
  8
DETAIL
  6
CONTINUOUS
 62
     5
 10
276.57756245515759
 20
-90.044040994187071
 30
0.0
 11
276.57756245515759
 21
-90.044040994187071
 31
0.0
  0
LINE
  8
DETAIL
  6
CONTINUOUS
 62
     5
 10
276.57756245515759
 20
-90.044040994187071
 30
0.0
 11
276.56601172287458
 21
-90.052483260286181
 31
0.0
  0
LINE
  8
DETAIL
  6
CONTINUOUS
 62
     5
 10
276.56601172287458
 20
-90.052483260286181
 30
0.0
 11
276.55380898183211
 21
-90.06105288346987
 31
0.0
  0
LINE
  8
DETAIL
  6
CONTINUOUS
 62
     5
 10
276.55380898183211
 20
-90.06105288346987
 30
0.0
 11
276.55380898183211
 21
-90.06105288346987
 31
0.0
  0
LINE
  8
DETAIL
  6
CONTINUOUS
 62
     5
 10
276.55380898183211
 20
-90.06105288346987
 30
0.0
 11
276.54161464691032
 21
-90.069244983287604
 31
0.0
  0
LINE
  8
DETAIL
  6
CONTINUOUS
 62
     5
 10
276.54161464691032
 20
-90.069244983287604
 30
0.0
 11
276.5294044749914
 21
-90.077096225883167
 31
0.0
  0
LINE
  8
DETAIL
  6
CONTINUOUS
 62
     5
 10
276.5294044749914
 20
-90.077096225883167
 30
0.0
 11
276.5294044749914
 21
-90.077096225883167
 31
0.0
  0
LINE
  8
DETAIL
  6
CONTINUOUS
 62
     5
 10
276.5294044749914
 20
-90.077096225883167
 30
0.0
 11
276.51701622609488
 21
-90.084748456665977
 31
0.0
  0
LINE
  8
DETAIL
  6
CONTINUOUS
 62
     5
 10
276.51701622609488
 20
-90.084748456665977
 30
0.0
 11
276.50442033078309
 21
-90.092222691516213
 31
0.0
  0
LINE
  8
DETAIL
  6
CONTINUOUS
 62
     5
 10
276.50442033078309
 20
-90.092222691516213
 30
0.0
 11
276.50442033078309
 21
-90.092222691516213
 31
0.0
  0
LINE
  8
DETAIL
  6
CONTINUOUS
 62
     5
 10
276.50442033078309
 20
-90.092222691516213
 30
0.0
 11
276.49165888121058
 21
-90.099495181812301
 31
0.0
  0
LINE
  8
DETAIL
  6
CONTINUOUS
 62
     5
 10
276.49165888121058
 20
-90.099495181812301
 30
0.0
 11
276.47892794535431
 21
-90.106483950457744
 31
0.0
  0
LINE
  8
DETAIL
  6
CONTINUOUS
 62
     5
 10
276.47892794535431
 20
-90.106483950457744
 30
0.0
 11
276.47892794535431
 21
-90.106483950457744
 31
0.0
  0
LINE
  8
DETAIL
  6
CONTINUOUS
 62
     5
 10
276.47892794535431
 20
-90.106483950457744
 30
0.0
 11
276.46627494168882
 21
-90.113180899094573
 31
0.0
  0
LINE
  8
DETAIL
  6
CONTINUOUS
 62
     5
 10
276.46627494168882
 20
-90.113180899094573
 30
0.0
 11
276.45299871485207
 21
-90.119931672796667
 31
0.0
  0
LINE
  8
DETAIL
  6
CONTINUOUS
 62
     5
 10
276.45299871485207
 20
-90.119931672796667
 30
0.0
 11
276.45299871485207
 21
-90.119931672796667
 31
0.0
  0
LINE
  8
DETAIL
  6
CONTINUOUS
 62
     5
 10
276.45299871485207
 20
-90.119931672796667
 30
0.0
 11
276.43850693113382
 21
-90.127022041912312
 31
0.0
  0
LINE
  8
DETAIL
  6
CONTINUOUS
 62
     5
 10
276.43850693113382
 20
-90.127022041912312
 30
0.0
 11
276.42339111724863
 21
-90.13414453445796
 31
0.0
  0
LINE
  8
DETAIL
  6
CONTINUOUS
 62
     5
 10
276.42339111724863
 20
-90.13414453445796
 30
0.0
 11
276.42339111724863
 21
-90.13414453445796
 31
0.0
  0
LINE
  8
DETAIL
  6
CONTINUOUS
 62
     5
 10
276.42339111724863
 20
-90.13414453445796
 30
0.0
 11
276.40835474152681
 21
-90.140940065234759
 31
0.0
  0
LINE
  8
DETAIL
  6
CONTINUOUS
 62
     5
 10
276.40835474152681
 20
-90.140940065234759
 30
0.0
 11
276.39336517832402
 21
-90.147436338516798
 31
0.0
  0
LINE
  8
DETAIL
  6
CONTINUOUS
 62
     5
 10
276.39336517832402
 20
-90.147436338516798
 30
0.0
 11
276.39336517832402
 21
-90.147436338516798
 31
0.0
  0
LINE
  8
DETAIL
  6
CONTINUOUS
 62
     5
 10
276.39336517832402
 20
-90.147436338516798
 30
0.0
 11
276.37824390470308
 21
-90.153735403392602
 31
0.0
  0
LINE
  8
DETAIL
  6
CONTINUOUS
 62
     5
 10
276.37824390470308
 20
-90.153735403392602
 30
0.0
 11
276.36296490252278
 21
-90.15984989873823
 31
0.0
  0
LINE
  8
DETAIL
  6
CONTINUOUS
 62
     5
 10
276.36296490252278
 20
-90.15984989873823
 30
0.0
 11
276.36296490252278
 21
-90.15984989873823
 31
0.0
  0
LINE
  8
DETAIL
  6
CONTINUOUS
 62
     5
 10
276.36296490252278
 20
-90.15984989873823
 30
0.0
 11
276.34757179853841
 21
-90.165762823721082
 31
0.0
  0
LINE
  8
DETAIL
  6
CONTINUOUS
 62
     5
 10
276.34757179853841
 20
-90.165762823721082
 30
0.0
 11
276.33223429428921
 21
-90.171428028887533
 31
0.0
  0
LINE
  8
DETAIL
  6
CONTINUOUS
 62
     5
 10
276.33223429428921
 20
-90.171428028887533
 30
0.0
 11
276.33223429428921
 21
-90.171428028887533
 31
0.0
  0
LINE
  8
DETAIL
  6
CONTINUOUS
 62
     5
 10
276.33223429428921
 20
-90.171428028887533
 30
0.0
 11
276.31698940902601
 21
-90.176843578802561
 31
0.0
  0
LINE
  8
DETAIL
  6
CONTINUOUS
 62
     5
 10
276.31698940902601
 20
-90.176843578802561
 30
0.0
 11
276.30121735806699
 21
-90.182213542729698
 31
0.0
  0
LINE
  8
DETAIL
  6
CONTINUOUS
 62
     5
 10
276.30121735806699
 20
-90.182213542729698
 30
0.0
 11
276.30121735806699
 21
-90.182213542729698
 31
0.0
  0
LINE
  8
DETAIL
  6
CONTINUOUS
 62
     5
 10
276.30121735806699
 20
-90.182213542729698
 30
0.0
 11
276.28439593902112
 21
-90.187705774412166
 31
0.0
  0
LINE
  8
DETAIL
  6
CONTINUOUS
 62
     5
 10
276.28439593902112
 20
-90.187705774412166
 30
0.0
 11
276.26705008258358
 21
-90.1931372608164
 31
0.0
  0
LINE
  8
DETAIL
  6
CONTINUOUS
 62
     5
 10
276.26705008258358
 20
-90.1931372608164
 30
0.0
 11
276.26705008258358
 21
-90.1931372608164
 31
0.0
  0
LINE
  8
DETAIL
  6
CONTINUOUS
 62
     5
 10
276.26705008258358
 20
-90.1931372608164
 30
0.0
 11
276.24980272597122
 21
-90.198294954685991
 31
0.0
  0
LINE
  8
DETAIL
  6
CONTINUOUS
 62
     5
 10
276.24980272597122
 20
-90.198294954685991
 30
0.0
 11
276.23262169939852
 21
-90.203196538651866
 31
0.0
  0
LINE
  8
DETAIL
  6
CONTINUOUS
 62
     5
 10
276.23262169939852
 20
-90.203196538651866
 30
0.0
 11
276.23262169939852
 21
-90.203196538651866
 31
0.0
  0
LINE
  8
DETAIL
  6
CONTINUOUS
 62
     5
 10
276.23262169939852
 20
-90.203196538651866
 30
0.0
 11
276.21534674303729
 21
-90.207903512896053
 31
0.0
  0
LINE
  8
DETAIL
  6
CONTINUOUS
 62
     5
 10
276.21534674303729
 20
-90.207903512896053
 30
0.0
 11
276.19796034388872
 21
-90.212421917921858
 31
0.0
  0
LINE
  8
DETAIL
  6
CONTINUOUS
 62
     5
 10
276.19796034388872
 20
-90.212421917921858
 30
0.0
 11
276.19796034388872
 21
-90.212421917921858
 31
0.0
  0
LINE
  8
DETAIL
  6
CONTINUOUS
 62
     5
 10
276.19796034388872
 20
-90.212421917921858
 30
0.0
 11
276.18050170558229
 21
-90.216741706520395
 31
0.0
  0
LINE
  8
DETAIL
  6
CONTINUOUS
 62
     5
 10
276.18050170558229
 20
-90.216741706520395
 30
0.0
 11
276.16309415143098
 21
-90.220843940313216
 31
0.0
  0
LINE
  8
DETAIL
  6
CONTINUOUS
 62
     5
 10
276.16309415143098
 20
-90.220843940313216
 30
0.0
 11
276.16309415143098
 21
-90.220843940313216
 31
0.0
  0
LINE
  8
DETAIL
  6
CONTINUOUS
 62
     5
 10
276.16309415143098
 20
-90.220843940313216
 30
0.0
 11
276.14576222827708
 21
-90.224730214218425
 31
0.0
  0
LINE
  8
DETAIL
  6
CONTINUOUS
 62
     5
 10
276.14576222827708
 20
-90.224730214218425
 30
0.0
 11
276.12805125740158
 21
-90.228493147511358
 31
0.0
  0
LINE
  8
DETAIL
  6
CONTINUOUS
 62
     5
 10
276.12805125740158
 20
-90.228493147511358
 30
0.0
 11
276.12805125740158
 21
-90.228493147511358
 31
0.0
  0
LINE
  8
DETAIL
  6
CONTINUOUS
 62
     5
 10
276.12805125740158
 20
-90.228493147511358
 30
0.0
 11
276.10957903269531
 21
-90.232208075714993
 31
0.0
  0
LINE
  8
DETAIL
  6
CONTINUOUS
 62
     5
 10
276.10957903269531
 20
-90.232208075714993
 30
0.0
 11
276.09073246405381
 21
-90.23579017498821
 31
0.0
  0
LINE
  8
DETAIL
  6
CONTINUOUS
 62
     5
 10
276.09073246405381
 20
-90.23579017498821
 30
0.0
 11
276.09073246405381
 21
-90.23579017498821
 31
0.0
  0
LINE
  8
DETAIL
  6
CONTINUOUS
 62
     5
 10
276.09073246405381
 20
-90.23579017498821
 30
0.0
 11
276.07196974092722
 21
-90.239141361742156
 31
0.0
  0
LINE
  8
DETAIL
  6
CONTINUOUS
 62
     5
 10
276.07196974092722
 20
-90.239141361742156
 30
0.0
 11
276.05326505497499
 21
-90.242270672762174
 31
0.0
  0
LINE
  8
DETAIL
  6
CONTINUOUS
 62
     5
 10
276.05326505497499
 20
-90.242270672762174
 30
0.0
 11
276.05326505497499
 21
-90.242270672762174
 31
0.0
  0
LINE
  8
DETAIL
  6
CONTINUOUS
 62
     5
 10
276.05326505497499
 20
-90.242270672762174
 30
0.0
 11
276.03449970619198
 21
-90.245207125636227
 31
0.0
  0
LINE
  8
DETAIL
  6
CONTINUOUS
 62
     5
 10
276.03449970619198
 20
-90.245207125636227
 30
0.0
 11
276.01566742569912
 21
-90.247952540789299
 31
0.0
  0
LINE
  8
DETAIL
  6
CONTINUOUS
 62
     5
 10
276.01566742569912
 20
-90.247952540789299
 30
0.0
 11
276.01566742569912
 21
-90.247952540789299
 31
0.0
  0
LINE
  8
DETAIL
  6
CONTINUOUS
 62
     5
 10
276.01566742569912
 20
-90.247952540789299
 30
0.0
 11
275.99679862072043
 21
-90.250502356424761
 31
0.0
  0
LINE
  8
DETAIL
  6
CONTINUOUS
 62
     5
 10
275.99679862072043
 20
-90.250502356424761
 30
0.0
 11
275.97795797176173
 21
-90.252853679024895
 31
0.0
  0
LINE
  8
DETAIL
  6
CONTINUOUS
 62
     5
 10
275.97795797176173
 20
-90.252853679024895
 30
0.0
 11
275.97795797176173
 21
-90.252853679024895
 31
0.0
  0
LINE
  8
DETAIL
  6
CONTINUOUS
 62
     5
 10
275.97795797176173
 20
-90.252853679024895
 30
0.0
 11
275.95915634658581
 21
-90.255009163153431
 31
0.0
  0
LINE
  8
DETAIL
  6
CONTINUOUS
 62
     5
 10
275.95915634658581
 20
-90.255009163153431
 30
0.0
 11
275.94015508869802
 21
-90.256991987424499
 31
0.0
  0
LINE
  8
DETAIL
  6
CONTINUOUS
 62
     5
 10
275.94015508869802
 20
-90.256991987424499
 30
0.0
 11
275.94015508869802
 21
-90.256991987424499
 31
0.0
  0
LINE
  8
DETAIL
  6
CONTINUOUS
 62
     5
 10
275.94015508869802
 20
-90.256991987424499
 30
0.0
 11
275.92075451217443
 21
-90.25882034009885
 31
0.0
  0
LINE
  8
DETAIL
  6
CONTINUOUS
 62
     5
 10
275.92075451217443
 20
-90.25882034009885
 30
0.0
 11
275.90116033761967
 21
-90.260471923976354
 31
0.0
  0
LINE
  8
DETAIL
  6
CONTINUOUS
 62
     5
 10
275.90116033761967
 20
-90.260471923976354
 30
0.0
 11
275.90116033761967
 21
-90.260471923976354
 31
0.0
  0
LINE
  8
DETAIL
  6
CONTINUOUS
 62
     5
 10
275.90116033761967
 20
-90.260471923976354
 30
0.0
 11
275.88161523191161
 21
-90.261920968222853
 31
0.0
  0
LINE
  8
DETAIL
  6
CONTINUOUS
 62
     5
 10
275.88161523191161
 20
-90.261920968222853
 30
0.0
 11
275.86210424047681
 21
-90.263168292931482
 31
0.0
  0
LINE
  8
DETAIL
  6
CONTINUOUS
 62
     5
 10
275.86210424047681
 20
-90.263168292931482
 30
0.0
 11
275.86210424047681
 21
-90.263168292931482
 31
0.0
  0
LINE
  8
DETAIL
  6
CONTINUOUS
 62
     5
 10
275.86210424047681
 20
-90.263168292931482
 30
0.0
 11
275.84256522949607
 21
-90.264221281753578
 31
0.0
  0
LINE
  8
DETAIL
  6
CONTINUOUS
 62
     5
 10
275.84256522949607
 20
-90.264221281753578
 30
0.0
 11
275.82300496961551
 21
-90.265086981647471
 31
0.0
  0
LINE
  8
DETAIL
  6
CONTINUOUS
 62
     5
 10
275.82300496961551
 20
-90.265086981647471
 30
0.0
 11
275.82300496961551
 21
-90.265086981647471
 31
0.0
  0
LINE
  8
DETAIL
  6
CONTINUOUS
 62
     5
 10
275.82300496961551
 20
-90.265086981647471
 30
0.0
 11
275.8034429584954
 21
-90.265766044359339
 31
0.0
  0
LINE
  8
DETAIL
  6
CONTINUOUS
 62
     5
 10
275.8034429584954
 20
-90.265766044359339
 30
0.0
 11
275.78388069738247
 21
-90.266233877481568
 31
0.0
  0
LINE
  8
DETAIL
  6
CONTINUOUS
 62
     5
 10
275.78388069738247
 20
-90.266233877481568
 30
0.0
 11
275.78388069738247
 21
-90.266233877481568
 31
0.0
  0
LINE
  8
DETAIL
  6
CONTINUOUS
 62
     5
 10
275.78388069738247
 20
-90.266233877481568
 30
0.0
 11
275.76431595871497
 21
-90.266484905895368
 31
0.0
  0
LINE
  8
DETAIL
  6
CONTINUOUS
 62
     5
 10
275.76431595871497
 20
-90.266484905895368
 30
0.0
 11
275.74474959612269
 21
-90.266614867791361
 31
0.0
  0
LINE
  8
DETAIL
  6
CONTINUOUS
 62
     5
 10
276.24034587674498
 20
83.797346480219346
 30
0.0
 11
276.2627007323585
 21
83.787928279347909
 31
0.0
  0
LINE
  8
DETAIL
  6
CONTINUOUS
 62
     5
 10
276.2627007323585
 20
83.787928279347909
 30
0.0
 11
276.28496845129871
 21
83.778316837590467
 31
0.0
  0
LINE
  8
DETAIL
  6
CONTINUOUS
 62
     5
 10
276.28496845129871
 20
83.778316837590467
 30
0.0
 11
276.28496845129871
 21
83.778316837590467
 31
0.0
  0
LINE
  8
DETAIL
  6
CONTINUOUS
 62
     5
 10
276.28496845129871
 20
83.778316837590467
 30
0.0
 11
276.30708187783728
 21
83.768352689427104
 31
0.0
  0
LINE
  8
DETAIL
  6
CONTINUOUS
 62
     5
 10
276.30708187783728
 20
83.768352689427104
 30
0.0
 11
276.32905378002027
 21
83.758011470797157
 31
0.0
  0
LINE
  8
DETAIL
  6
CONTINUOUS
 62
     5
 10
276.32905378002027
 20
83.758011470797157
 30
0.0
 11
276.32905378002027
 21
83.758011470797157
 31
0.0
  0
LINE
  8
DETAIL
  6
CONTINUOUS
 62
     5
 10
276.32905378002027
 20
83.758011470797157
 30
0.0
 11
276.35088748557041
 21
83.747309450554724
 31
0.0
  0
LINE
  8
DETAIL
  6
CONTINUOUS
 62
     5
 10
276.35088748557041
 20
83.747309450554724
 30
0.0
 11
276.37246863714171
 21
83.736290327753125
 31
0.0
  0
LINE
  8
DETAIL
  6
CONTINUOUS
 62
     5
 10
276.37246863714171
 20
83.736290327753125
 30
0.0
 11
276.37246863714171
 21
83.736290327753125
 31
0.0
  0
LINE
  8
DETAIL
  6
CONTINUOUS
 62
     5
 10
276.37246863714171
 20
83.736290327753125
 30
0.0
 11
276.39375116024678
 21
83.724943453431536
 31
0.0
  0
LINE
  8
DETAIL
  6
CONTINUOUS
 62
     5
 10
276.39375116024678
 20
83.724943453431536
 30
0.0
 11
276.4150797968943
 21
83.713013356372528
 31
0.0
  0
LINE
  8
DETAIL
  6
CONTINUOUS
 62
     5
 10
276.4150797968943
 20
83.713013356372528
 30
0.0
 11
276.4150797968943
 21
83.713013356372528
 31
0.0
  0
LINE
  8
DETAIL
  6
CONTINUOUS
 62
     5
 10
276.4150797968943
 20
83.713013356372528
 30
0.0
 11
276.43653559798798
 21
83.700421324501633
 31
0.0
  0
LINE
  8
DETAIL
  6
CONTINUOUS
 62
     5
 10
276.43653559798798
 20
83.700421324501633
 30
0.0
 11
276.45675403350918
 21
83.688040504569074
 31
0.0
  0
LINE
  8
DETAIL
  6
CONTINUOUS
 62
     5
 10
276.45675403350918
 20
83.688040504569074
 30
0.0
 11
276.45675403350918
 21
83.688040504569074
 31
0.0
  0
LINE
  8
DETAIL
  6
CONTINUOUS
 62
     5
 10
276.45675403350918
 20
83.688040504569074
 30
0.0
 11
276.47458429080137
 21
83.676620409093459
 31
0.0
  0
LINE
  8
DETAIL
  6
CONTINUOUS
 62
     5
 10
276.47458429080137
 20
83.676620409093459
 30
0.0
 11
276.49117600758132
 21
83.665464154836457
 31
0.0
  0
LINE
  8
DETAIL
  6
CONTINUOUS
 62
     5
 10
276.49117600758132
 20
83.665464154836457
 30
0.0
 11
276.49117600758132
 21
83.665464154836457
 31
0.0
  0
LINE
  8
DETAIL
  6
CONTINUOUS
 62
     5
 10
276.49117600758132
 20
83.665464154836457
 30
0.0
 11
276.50788664847198
 21
83.65372985207722
 31
0.0
  0
LINE
  8
DETAIL
  6
CONTINUOUS
 62
     5
 10
276.50788664847198
 20
83.65372985207722
 30
0.0
 11
276.52460453534991
 21
83.641441980919865
 31
0.0
  0
LINE
  8
DETAIL
  6
CONTINUOUS
 62
     5
 10
276.52460453534991
 20
83.641441980919865
 30
0.0
 11
276.52460453534991
 21
83.641441980919865
 31
0.0
  0
LINE
  8
DETAIL
  6
CONTINUOUS
 62
     5
 10
276.52460453534991
 20
83.641441980919865
 30
0.0
 11
276.5409340556202
 21
83.628800851375047
 31
0.0
  0
LINE
  8
DETAIL
  6
CONTINUOUS
 62
     5
 10
276.5409340556202
 20
83.628800851375047
 30
0.0
 11
276.55681300155283
 21
83.615843723253249
 31
0.0
  0
LINE
  8
DETAIL
  6
CONTINUOUS
 62
     5
 10
276.55681300155283
 20
83.615843723253249
 30
0.0
 11
276.55681300155283
 21
83.615843723253249
 31
0.0
  0
LINE
  8
DETAIL
  6
CONTINUOUS
 62
     5
 10
276.55681300155283
 20
83.615843723253249
 30
0.0
 11
276.57229639745441
 21
83.60251355155907
 31
0.0
  0
LINE
  8
DETAIL
  6
CONTINUOUS
 62
     5
 10
276.57229639745441
 20
83.60251355155907
 30
0.0
 11
276.58757479092742
 21
83.588539122271243
 31
0.0
  0
LINE
  8
DETAIL
  6
CONTINUOUS
 62
     5
 10
276.58757479092742
 20
83.588539122271243
 30
0.0
 11
276.58757479092742
 21
83.588539122271243
 31
0.0
  0
LINE
  8
DETAIL
  6
CONTINUOUS
 62
     5
 10
276.58757479092742
 20
83.588539122271243
 30
0.0
 11
276.60265373588823
 21
83.573850610687543
 31
0.0
  0
LINE
  8
DETAIL
  6
CONTINUOUS
 62
     5
 10
276.60265373588823
 20
83.573850610687543
 30
0.0
 11
276.61666328821218
 21
83.559397918408479
 31
0.0
  0
LINE
  8
DETAIL
  6
CONTINUOUS
 62
     5
 10
276.61666328821218
 20
83.559397918408479
 30
0.0
 11
276.61666328821218
 21
83.559397918408479
 31
0.0
  0
LINE
  8
DETAIL
  6
CONTINUOUS
 62
     5
 10
276.61666328821218
 20
83.559397918408479
 30
0.0
 11
276.62888134973531
 21
83.545995780785063
 31
0.0
  0
LINE
  8
DETAIL
  6
CONTINUOUS
 62
     5
 10
276.62888134973531
 20
83.545995780785063
 30
0.0
 11
276.64005270417442
 21
83.532898541864881
 31
0.0
  0
LINE
  8
DETAIL
  6
CONTINUOUS
 62
     5
 10
276.64005270417442
 20
83.532898541864881
 30
0.0
 11
276.64005270417442
 21
83.532898541864881
 31
0.0
  0
LINE
  8
DETAIL
  6
CONTINUOUS
 62
     5
 10
276.64005270417442
 20
83.532898541864881
 30
0.0
 11
276.65104728729892
 21
83.519209327131364
 31
0.0
  0
LINE
  8
DETAIL
  6
CONTINUOUS
 62
     5
 10
276.65104728729892
 20
83.519209327131364
 30
0.0
 11
276.66176876120869
 21
83.504986779114518
 31
0.0
  0
LINE
  8
DETAIL
  6
CONTINUOUS
 62
     5
 10
276.66176876120869
 20
83.504986779114518
 30
0.0
 11
276.66176876120869
 21
83.504986779114518
 31
0.0
  0
LINE
  8
DETAIL
  6
CONTINUOUS
 62
     5
 10
276.66176876120869
 20
83.504986779114518
 30
0.0
 11
276.67194060552669
 21
83.490473586361475
 31
0.0
  0
LINE
  8
DETAIL
  6
CONTINUOUS
 62
     5
 10
276.67194060552669
 20
83.490473586361475
 30
0.0
 11
276.68153184363672
 21
83.475693104441632
 31
0.0
  0
LINE
  8
DETAIL
  6
CONTINUOUS
 62
     5
 10
276.68153184363672
 20
83.475693104441632
 30
0.0
 11
276.68153184363672
 21
83.475693104441632
 31
0.0
  0
LINE
  8
DETAIL
  6
CONTINUOUS
 62
     5
 10
276.68153184363672
 20
83.475693104441632
 30
0.0
 11
276.69056890952061
 21
83.460594309395958
 31
0.0
  0
LINE
  8
DETAIL
  6
CONTINUOUS
 62
     5
 10
276.69056890952061
 20
83.460594309395958
 30
0.0
 11
276.69906233577979
 21
83.44504799213081
 31
0.0
  0
LINE
  8
DETAIL
  6
CONTINUOUS
 62
     5
 10
276.69906233577979
 20
83.44504799213081
 30
0.0
 11
276.69906233577979
 21
83.44504799213081
 31
0.0
  0
LINE
  8
DETAIL
  6
CONTINUOUS
 62
     5
 10
276.69906233577979
 20
83.44504799213081
 30
0.0
 11
276.70697319510981
 21
83.429038415648449
 31
0.0
  0
LINE
  8
DETAIL
  6
CONTINUOUS
 62
     5
 10
276.70697319510981
 20
83.429038415648449
 30
0.0
 11
276.71408062195849
 21
83.413081916466751
 31
0.0
  0
LINE
  8
DETAIL
  6
CONTINUOUS
 62
     5
 10
276.71408062195849
 20
83.413081916466751
 30
0.0
 11
276.71408062195849
 21
83.413081916466751
 31
0.0
  0
LINE
  8
DETAIL
  6
CONTINUOUS
 62
     5
 10
276.71408062195849
 20
83.413081916466751
 30
0.0
 11
276.72021124834782
 21
83.397621324191107
 31
0.0
  0
LINE
  8
DETAIL
  6
CONTINUOUS
 62
     5
 10
276.72021124834782
 20
83.397621324191107
 30
0.0
 11
276.72556363485791
 21
83.382273367256687
 31
0.0
  0
LINE
  8
DETAIL
  6
CONTINUOUS
 62
     5
 10
276.72556363485791
 20
83.382273367256687
 30
0.0
 11
276.72556363485791
 21
83.382273367256687
 31
0.0
  0
LINE
  8
DETAIL
  6
CONTINUOUS
 62
     5
 10
276.72556363485791
 20
83.382273367256687
 30
0.0
 11
276.73036507494061
 21
83.366579743878731
 31
0.0
  0
LINE
  8
DETAIL
  6
CONTINUOUS
 62
     5
 10
276.73036507494061
 20
83.366579743878731
 30
0.0
 11
276.73458586498708
 21
83.350608132557738
 31
0.0
  0
LINE
  8
DETAIL
  6
CONTINUOUS
 62
     5
 10
276.73458586498708
 20
83.350608132557738
 30
0.0
 11
276.73458586498708
 21
83.350608132557738
 31
0.0
  0
LINE
  8
DETAIL
  6
CONTINUOUS
 62
     5
 10
276.73458586498708
 20
83.350608132557738
 30
0.0
 11
276.73815522130911
 21
83.334522105959593
 31
0.0
  0
LINE
  8
DETAIL
  6
CONTINUOUS
 62
     5
 10
276.73815522130911
 20
83.334522105959593
 30
0.0
 11
276.74109503697099
 21
83.318342833124291
 31
0.0
  0
LINE
  8
DETAIL
  6
CONTINUOUS
 62
     5
 10
276.74109503697099
 20
83.318342833124291
 30
0.0
 11
276.74109503697099
 21
83.318342833124291
 31
0.0
  0
LINE
  8
DETAIL
  6
CONTINUOUS
 62
     5
 10
276.74109503697099
 20
83.318342833124291
 30
0.0
 11
276.74342194673898
 21
83.30206679073973
 31
0.0
  0
LINE
  8
DETAIL
  6
CONTINUOUS
 62
     5
 10
276.74342194673898
 20
83.30206679073973
 30
0.0
 11
276.74503887543642
 21
83.285734089711525
 31
0.0
  0
LINE
  8
DETAIL
  6
CONTINUOUS
 62
     5
 10
276.74503887543642
 20
83.285734089711525
 30
0.0
 11
276.74503887543642
 21
83.285734089711525
 31
0.0
  0
LINE
  8
DETAIL
  6
CONTINUOUS
 62
     5
 10
276.74503887543642
 20
83.285734089711525
 30
0.0
 11
276.74591086115561
 21
83.26938771618876
 31
0.0
  0
LINE
  8
DETAIL
  6
CONTINUOUS
 62
     5
 10
276.74591086115561
 20
83.26938771618876
 30
0.0
 11
276.7463651050079
 21
83.253038523074054
 31
0.0
  0
LINE
  8
DETAIL
  6
CONTINUOUS
 62
     5
 10
274.44266917027937
 20
84.138990691362608
 30
0.0
 11
274.46930488797068
 21
84.137213356221025
 31
0.0
  0
LINE
  8
DETAIL
  6
CONTINUOUS
 62
     5
 10
274.46930488797068
 20
84.137213356221025
 30
0.0
 11
274.49597600044638
 21
84.13538765639845
 31
0.0
  0
LINE
  8
DETAIL
  6
CONTINUOUS
 62
     5
 10
274.49597600044638
 20
84.13538765639845
 30
0.0
 11
274.49597600044638
 21
84.13538765639845
 31
0.0
  0
LINE
  8
DETAIL
  6
CONTINUOUS
 62
     5
 10
274.49597600044638
 20
84.13538765639845
 30
0.0
 11
274.52267999757589
 21
84.13347828756315
 31
0.0
  0
LINE
  8
DETAIL
  6
CONTINUOUS
 62
     5
 10
274.52267999757589
 20
84.13347828756315
 30
0.0
 11
274.54926274956159
 21
84.131502186779073
 31
0.0
  0
LINE
  8
DETAIL
  6
CONTINUOUS
 62
     5
 10
274.54926274956159
 20
84.131502186779073
 30
0.0
 11
274.54926274956159
 21
84.131502186779073
 31
0.0
  0
LINE
  8
DETAIL
  6
CONTINUOUS
 62
     5
 10
274.54926274956159
 20
84.131502186779073
 30
0.0
 11
274.57568614746549
 21
84.129471975063495
 31
0.0
  0
LINE
  8
DETAIL
  6
CONTINUOUS
 62
     5
 10
274.57568614746549
 20
84.129471975063495
 30
0.0
 11
274.60252778544708
 21
84.127330767852357
 31
0.0
  0
LINE
  8
DETAIL
  6
CONTINUOUS
 62
     5
 10
274.60252778544708
 20
84.127330767852357
 30
0.0
 11
274.60252778544708
 21
84.127330767852357
 31
0.0
  0
LINE
  8
DETAIL
  6
CONTINUOUS
 62
     5
 10
274.60252778544708
 20
84.127330767852357
 30
0.0
 11
274.62994138525909
 21
84.125060749418424
 31
0.0
  0
LINE
  8
DETAIL
  6
CONTINUOUS
 62
     5
 10
274.62994138525909
 20
84.125060749418424
 30
0.0
 11
274.65576947592552
 21
84.122869884965837
 31
0.0
  0
LINE
  8
DETAIL
  6
CONTINUOUS
 62
     5
 10
274.65576947592552
 20
84.122869884965837
 30
0.0
 11
274.65576947592552
 21
84.122869884965837
 31
0.0
  0
LINE
  8
DETAIL
  6
CONTINUOUS
 62
     5
 10
274.65576947592552
 20
84.122869884965837
 30
0.0
 11
274.67943405524193
 21
84.120814180395598
 31
0.0
  0
LINE
  8
DETAIL
  6
CONTINUOUS
 62
     5
 10
274.67943405524193
 20
84.120814180395598
 30
0.0
 11
274.7089861888191
 21
84.118116023466712
 31
0.0
  0
LINE
  8
DETAIL
  6
CONTINUOUS
 62
     5
 10
274.7089861888191
 20
84.118116023466712
 30
0.0
 11
274.7089861888191
 21
84.118116023466712
 31
0.0
  0
LINE
  8
DETAIL
  6
CONTINUOUS
 62
     5
 10
274.7089861888191
 20
84.118116023466712
 30
0.0
 11
274.75122852793709
 21
84.114102631488606
 31
0.0
  0
LINE
  8
DETAIL
  6
CONTINUOUS
 62
     5
 10
274.75122852793709
 20
84.114102631488606
 30
0.0
 11
274.79934099872861
 21
84.109354158113945
 31
0.0
  0
LINE
  8
DETAIL
  6
CONTINUOUS
 62
     5
 10
274.79934099872861
 20
84.109354158113945
 30
0.0
 11
274.79934099872861
 21
84.109354158113945
 31
0.0
  0
LINE
  8
DETAIL
  6
CONTINUOUS
 62
     5
 10
274.79934099872861
 20
84.109354158113945
 30
0.0
 11
274.84526434429063
 21
84.10457334889287
 31
0.0
  0
LINE
  8
DETAIL
  6
CONTINUOUS
 62
     5
 10
274.84526434429063
 20
84.10457334889287
 30
0.0
 11
274.88960530073291
 21
84.099700380619026
 31
0.0
  0
LINE
  8
DETAIL
  6
CONTINUOUS
 62
     5
 10
274.88960530073291
 20
84.099700380619026
 30
0.0
 11
274.88960530073291
 21
84.099700380619026
 31
0.0
  0
LINE
  8
DETAIL
  6
CONTINUOUS
 62
     5
 10
274.88960530073291
 20
84.099700380619026
 30
0.0
 11
274.93452865480981
 21
84.094540110098535
 31
0.0
  0
LINE
  8
DETAIL
  6
CONTINUOUS
 62
     5
 10
274.93452865480981
 20
84.094540110098535
 30
0.0
 11
274.97976540285538
 21
84.089118682940864
 31
0.0
  0
LINE
  8
DETAIL
  6
CONTINUOUS
 62
     5
 10
274.97976540285538
 20
84.089118682940864
 30
0.0
 11
274.97976540285538
 21
84.089118682940864
 31
0.0
  0
LINE
  8
DETAIL
  6
CONTINUOUS
 62
     5
 10
274.97976540285538
 20
84.089118682940864
 30
0.0
 11
275.02470538576688
 21
84.083486920342523
 31
0.0
  0
LINE
  8
DETAIL
  6
CONTINUOUS
 62
     5
 10
275.02470538576688
 20
84.083486920342523
 30
0.0
 11
275.06980761311752
 21
84.077573057038819
 31
0.0
  0
LINE
  8
DETAIL
  6
CONTINUOUS
 62
     5
 10
275.06980761311752
 20
84.077573057038819
 30
0.0
 11
275.06980761311752
 21
84.077573057038819
 31
0.0
  0
LINE
  8
DETAIL
  6
CONTINUOUS
 62
     5
 10
275.06980761311752
 20
84.077573057038819
 30
0.0
 11
275.11533766557898
 21
84.071341945409642
 31
0.0
  0
LINE
  8
DETAIL
  6
CONTINUOUS
 62
     5
 10
275.11533766557898
 20
84.071341945409642
 30
0.0
 11
275.15971823954231
 21
84.065027494871231
 31
0.0
  0
LINE
  8
DETAIL
  6
CONTINUOUS
 62
     5
 10
275.15971823954231
 20
84.065027494871231
 30
0.0
 11
275.15971823954231
 21
84.065027494871231
 31
0.0
  0
LINE
  8
DETAIL
  6
CONTINUOUS
 62
     5
 10
275.15971823954231
 20
84.065027494871231
 30
0.0
 11
275.20158267587078
 21
84.058833693302461
 31
0.0
  0
LINE
  8
DETAIL
  6
CONTINUOUS
 62
     5
 10
275.20158267587078
 20
84.058833693302461
 30
0.0
 11
275.24224977760099
 21
84.052575785400734
 31
0.0
  0
LINE
  8
DETAIL
  6
CONTINUOUS
 62
     5
 10
275.24224977760099
 20
84.052575785400734
 30
0.0
 11
275.24224977760099
 21
84.052575785400734
 31
0.0
  0
LINE
  8
DETAIL
  6
CONTINUOUS
 62
     5
 10
275.24224977760099
 20
84.052575785400734
 30
0.0
 11
275.28329511434129
 21
84.046028535458902
 31
0.0
  0
LINE
  8
DETAIL
  6
CONTINUOUS
 62
     5
 10
275.28329511434129
 20
84.046028535458902
 30
0.0
 11
275.32463585980088
 21
84.039193529335819
 31
0.0
  0
LINE
  8
DETAIL
  6
CONTINUOUS
 62
     5
 10
275.32463585980088
 20
84.039193529335819
 30
0.0
 11
275.32463585980088
 21
84.039193529335819
 31
0.0
  0
LINE
  8
DETAIL
  6
CONTINUOUS
 62
     5
 10
275.32463585980088
 20
84.039193529335819
 30
0.0
 11
275.36585458225989
 21
84.032120607645027
 31
0.0
  0
LINE
  8
DETAIL
  6
CONTINUOUS
 62
     5
 10
275.36585458225989
 20
84.032120607645027
 30
0.0
 11
275.4068538241674
 21
84.024825808452704
 31
0.0
  0
LINE
  8
DETAIL
  6
CONTINUOUS
 62
     5
 10
275.4068538241674
 20
84.024825808452704
 30
0.0
 11
275.4068538241674
 21
84.024825808452704
 31
0.0
  0
LINE
  8
DETAIL
  6
CONTINUOUS
 62
     5
 10
275.4068538241674
 20
84.024825808452704
 30
0.0
 11
275.44771074631848
 21
84.017293816344193
 31
0.0
  0
LINE
  8
DETAIL
  6
CONTINUOUS
 62
     5
 10
275.44771074631848
 20
84.017293816344193
 30
0.0
 11
275.48888100872563
 21
84.009417704527948
 31
0.0
  0
LINE
  8
DETAIL
  6
CONTINUOUS
 62
     5
 10
275.48888100872563
 20
84.009417704527948
 30
0.0
 11
275.48888100872563
 21
84.009417704527948
 31
0.0
  0
LINE
  8
DETAIL
  6
CONTINUOUS
 62
     5
 10
275.48888100872563
 20
84.009417704527948
 30
0.0
 11
275.53045640344629
 21
84.001167705382215
 31
0.0
  0
LINE
  8
DETAIL
  6
CONTINUOUS
 62
     5
 10
275.53045640344629
 20
84.001167705382215
 30
0.0
 11
275.57069475150109
 21
83.992914299337656
 31
0.0
  0
LINE
  8
DETAIL
  6
CONTINUOUS
 62
     5
 10
275.57069475150109
 20
83.992914299337656
 30
0.0
 11
275.57069475150109
 21
83.992914299337656
 31
0.0
  0
LINE
  8
DETAIL
  6
CONTINUOUS
 62
     5
 10
275.57069475150109
 20
83.992914299337656
 30
0.0
 11
275.60812840105689
 21
83.984974375946706
 31
0.0
  0
LINE
  8
DETAIL
  6
CONTINUOUS
 62
     5
 10
275.60812840105689
 20
83.984974375946706
 30
0.0
 11
275.64422177989837
 21
83.9770502131949
 31
0.0
  0
LINE
  8
DETAIL
  6
CONTINUOUS
 62
     5
 10
275.64422177989837
 20
83.9770502131949
 30
0.0
 11
275.64422177989837
 21
83.9770502131949
 31
0.0
  0
LINE
  8
DETAIL
  6
CONTINUOUS
 62
     5
 10
275.64422177989837
 20
83.9770502131949
 30
0.0
 11
275.68071546095962
 21
83.968781081219788
 31
0.0
  0
LINE
  8
DETAIL
  6
CONTINUOUS
 62
     5
 10
275.68071546095962
 20
83.968781081219788
 30
0.0
 11
275.71752251816508
 21
83.96016883033559
 31
0.0
  0
LINE
  8
DETAIL
  6
CONTINUOUS
 62
     5
 10
275.71752251816508
 20
83.96016883033559
 30
0.0
 11
275.71752251816508
 21
83.96016883033559
 31
0.0
  0
LINE
  8
DETAIL
  6
CONTINUOUS
 62
     5
 10
275.71752251816508
 20
83.96016883033559
 30
0.0
 11
275.75418176050943
 21
83.951293717484816
 31
0.0
  0
LINE
  8
DETAIL
  6
CONTINUOUS
 62
     5
 10
275.75418176050943
 20
83.951293717484816
 30
0.0
 11
275.79056243628543
 21
83.942187045948742
 31
0.0
  0
LINE
  8
DETAIL
  6
CONTINUOUS
 62
     5
 10
275.79056243628543
 20
83.942187045948742
 30
0.0
 11
275.79056243628543
 21
83.942187045948742
 31
0.0
  0
LINE
  8
DETAIL
  6
CONTINUOUS
 62
     5
 10
275.79056243628543
 20
83.942187045948742
 30
0.0
 11
275.82674283906471
 21
83.932826189211085
 31
0.0
  0
LINE
  8
DETAIL
  6
CONTINUOUS
 62
     5
 10
275.82674283906471
 20
83.932826189211085
 30
0.0
 11
275.86330700424111
 21
83.923021755223488
 31
0.0
  0
LINE
  8
DETAIL
  6
CONTINUOUS
 62
     5
 10
275.86330700424111
 20
83.923021755223488
 30
0.0
 11
275.86330700424111
 21
83.923021755223488
 31
0.0
  0
LINE
  8
DETAIL
  6
CONTINUOUS
 62
     5
 10
275.86330700424111
 20
83.923021755223488
 30
0.0
 11
275.90037705101707
 21
83.912721664502271
 31
0.0
  0
LINE
  8
DETAIL
  6
CONTINUOUS
 62
     5
 10
275.90037705101707
 20
83.912721664502271
 30
0.0
 11
275.93572169201622
 21
83.902589853348616
 31
0.0
  0
LINE
  8
DETAIL
  6
CONTINUOUS
 62
     5
 10
275.93572169201622
 20
83.902589853348616
 30
0.0
 11
275.93572169201622
 21
83.902589853348616
 31
0.0
  0
LINE
  8
DETAIL
  6
CONTINUOUS
 62
     5
 10
275.93572169201622
 20
83.902589853348616
 30
0.0
 11
275.96746286149983
 21
83.893193433238991
 31
0.0
  0
LINE
  8
DETAIL
  6
CONTINUOUS
 62
     5
 10
275.96746286149983
 20
83.893193433238991
 30
0.0
 11
275.99748878687609
 21
83.883996200560716
 31
0.0
  0
LINE
  8
DETAIL
  6
CONTINUOUS
 62
     5
 10
275.99748878687609
 20
83.883996200560716
 30
0.0
 11
275.99748878687609
 21
83.883996200560716
 31
0.0
  0
LINE
  8
DETAIL
  6
CONTINUOUS
 62
     5
 10
275.99748878687609
 20
83.883996200560716
 30
0.0
 11
276.02802893943772
 21
83.87435385875591
 31
0.0
  0
LINE
  8
DETAIL
  6
CONTINUOUS
 62
     5
 10
276.02802893943772
 20
83.87435385875591
 30
0.0
 11
276.05891147288361
 21
83.864293054572101
 31
0.0
  0
LINE
  8
DETAIL
  6
CONTINUOUS
 62
     5
 10
276.05891147288361
 20
83.864293054572101
 30
0.0
 11
276.05891147288361
 21
83.864293054572101
 31
0.0
  0
LINE
  8
DETAIL
  6
CONTINUOUS
 62
     5
 10
276.05891147288361
 20
83.864293054572101
 30
0.0
 11
276.08952646780148
 21
83.853966771620719
 31
0.0
  0
LINE
  8
DETAIL
  6
CONTINUOUS
 62
     5
 10
276.08952646780148
 20
83.853966771620719
 30
0.0
 11
276.11991302993317
 21
83.843362397664407
 31
0.0
  0
LINE
  8
DETAIL
  6
CONTINUOUS
 62
     5
 10
276.11991302993317
 20
83.843362397664407
 30
0.0
 11
276.11991302993317
 21
83.843362397664407
 31
0.0
  0
LINE
  8
DETAIL
  6
CONTINUOUS
 62
     5
 10
276.11991302993317
 20
83.843362397664407
 30
0.0
 11
276.15022382555361
 21
83.832423781526302
 31
0.0
  0
LINE
  8
DETAIL
  6
CONTINUOUS
 62
     5
 10
276.15022382555361
 20
83.832423781526302
 30
0.0
 11
276.18041673792197
 21
83.82108621211961
 31
0.0
  0
LINE
  8
DETAIL
  6
CONTINUOUS
 62
     5
 10
276.18041673792197
 20
83.82108621211961
 30
0.0
 11
276.18041673792197
 21
83.82108621211961
 31
0.0
  0
LINE
  8
DETAIL
  6
CONTINUOUS
 62
     5
 10
276.18041673792197
 20
83.82108621211961
 30
0.0
 11
276.21043348127091
 21
83.80933279725258
 31
0.0
  0
LINE
  8
DETAIL
  6
CONTINUOUS
 62
     5
 10
276.21043348127091
 20
83.80933279725258
 30
0.0
 11
276.24034587674498
 21
83.797346480219346
 31
0.0
  0
LINE
  8
DETAIL
  6
CONTINUOUS
 62
     5
 10
49.479806138933952
 20
-228.96930533117941
 30
0.0
 11
71.515347334410478
 21
-228.96930533117941
 31
0.0
  0
LINE
  8
DETAIL
  6
CONTINUOUS
 62
     5
 10
274.44264943457199
 20
-131.31179321486269
 30
0.0
 11
283.45718901453961
 21
-131.31179321486269
 31
0.0
  0
LINE
  8
DETAIL
  6
CONTINUOUS
 62
     5
 10
274.44264943457199
 20
-88.642972536349077
 30
0.0
 11
276.7463651050079
 21
-88.642972536349077
 31
0.0
  0
LINE
  8
DETAIL
  6
CONTINUOUS
 62
     5
 10
236.38126009693079
 20
-85.638126009693167
 30
0.0
 11
233.3764135702751
 21
-85.638126009693167
 31
0.0
  0
LINE
  8
DETAIL
  6
CONTINUOUS
 62
     5
 10
229.36995153473359
 20
-79.628432956381346
 30
0.0
 11
233.3764135702751
 21
-79.628432956381346
 31
0.0
  0
LINE
  8
DETAIL
  6
CONTINUOUS
 62
     5
 10
229.36995153473359
 20
-74.620355411954904
 30
0.0
 11
233.3764135702751
 21
-74.620355411954904
 31
0.0
  0
LINE
  8
DETAIL
  6
CONTINUOUS
 62
     5
 10
236.38126009693079
 20
-63.549721703072123
 30
0.0
 11
233.3764135702751
 21
-63.549721703072123
 31
0.0
  0
LINE
  8
DETAIL
  6
CONTINUOUS
 62
     5
 10
236.38126009693079
 20
63.549721702295471
 30
0.0
 11
233.3764135702751
 21
63.549721702295471
 31
0.0
  0
LINE
  8
DETAIL
  6
CONTINUOUS
 62
     5
 10
229.36995153473359
 20
74.620355411954563
 30
0.0
 11
233.3764135702751
 21
74.620355411954563
 31
0.0
  0
LINE
  8
DETAIL
  6
CONTINUOUS
 62
     5
 10
229.36995153473359
 20
79.628432956381232
 30
0.0
 11
233.3764135702751
 21
79.628432956381232
 31
0.0
  0
LINE
  8
DETAIL
  6
CONTINUOUS
 62
     5
 10
274.44264943457199
 20
95.754442649434452
 30
0.0
 11
283.45718901453961
 21
95.754442649434452
 31
0.0
  0
LINE
  8
DETAIL
  6
CONTINUOUS
 62
     5
 10
111.579967689822
 20
268.43295638125988
 30
0.0
 11
111.579967689822
 21
261.32961628886301
 31
0.0
  0
LINE
  8
DETAIL
  6
CONTINUOUS
 62
     5
 10
111.579967689822
 20
230.16665507610421
 30
0.0
 11
111.579967689822
 21
-230.16665507610421
 31
0.0
  0
LINE
  8
DETAIL
  6
CONTINUOUS
 62
     5
 10
111.579967689822
 20
-261.32961628963949
 30
0.0
 11
111.579967689822
 21
-268.43295638126023
 31
0.0
  0
LINE
  8
DETAIL
  6
CONTINUOUS
 62
     5
 10
181.29240710823899
 20
92.26726523407325
 30
0.0
 11
181.29240710823899
 21
81.605519769645809
 31
0.0
  0
LINE
  8
DETAIL
  6
CONTINUOUS
 62
     5
 10
181.29240710823899
 20
77.087058652389999
 30
0.0
 11
181.29240710823899
 21
55.490982559191423
 31
0.0
  0
LINE
  8
DETAIL
  6
CONTINUOUS
 62
     5
 10
181.29240710823899
 20
50.171046186422188
 30
0.0
 11
181.29240710823899
 21
35.493655053211569
 31
0.0
  0
LINE
  8
DETAIL
  6
CONTINUOUS
 62
     5
 10
181.29240710823899
 20
15.61694674082975
 30
0.0
 11
181.29240710823899
 21
10.46293237489817
 31
0.0
  0
LINE
  8
DETAIL
  6
CONTINUOUS
 62
     5
 10
181.29240710823899
 20
-35.493655053988107
 30
0.0
 11
181.29240710823899
 21
-50.171046187198733
 31
0.0
  0
LINE
  8
DETAIL
  6
CONTINUOUS
 62
     5
 10
181.29240710823899
 20
-55.490888453920491
 30
0.0
 11
181.29240710823899
 21
-77.087058652390169
 31
0.0
  0
LINE
  8
DETAIL
  6
CONTINUOUS
 62
     5
 10
181.29240710823899
 20
-81.605500137205638
 30
0.0
 11
181.29240710823899
 21
-92.267265234073534
 31
0.0
  0
LINE
  8
DETAIL
  6
CONTINUOUS
 62
     5
 10
181.29240710823899
 20
-15.616946741606281
 30
0.0
 11
181.29240710823899
 21
-10.46293237489834
 31
0.0
  0
LINE
  8
DETAIL
  6
CONTINUOUS
 62
     5
 10
303.18998086794147
 20
-114.8172498304593
 30
0.0
 11
286.98390330370302
 21
-122.64627275500639
 31
0.0
  0
LINE
  8
DETAIL
  6
CONTINUOUS
 62
     5
 10
49.479806138933952
 20
228.96930533117921
 30
0.0
 11
71.515347334410478
 21
228.96930533117921
 31
0.0
  0
LINE
  8
DETAIL
  6
CONTINUOUS
 62
     5
 10
303.18998082290773
 20
79.259891120111149
 30
0.0
 11
286.98390333709028
 21
87.088913789207311
 31
0.0
  0
LINE
  8
DETAIL
  6
CONTINUOUS
 62
     5
 10
229.36995153473359
 20
92.26726523407325
 30
0.0
 11
229.36995153473359
 21
81.605519769645809
 31
0.0
  0
LINE
  8
DETAIL
  6
CONTINUOUS
 62
     5
 10
229.36995153473359
 20
77.087058652389999
 30
0.0
 11
229.36995153473359
 21
62.052860909919623
 31
0.0
  0
LINE
  8
DETAIL
  6
CONTINUOUS
 62
     5
 10
229.36995153473359
 20
50.171046186422188
 30
0.0
 11
229.36995153473359
 21
35.493655053211569
 31
0.0
  0
LINE
  8
DETAIL
  6
CONTINUOUS
 62
     5
 10
229.36995153473359
 20
15.61694674082975
 30
0.0
 11
229.36995153473359
 21
10.46293237489817
 31
0.0
  0
LINE
  8
DETAIL
  6
CONTINUOUS
 62
     5
 10
229.36995153473359
 20
-35.493655053988107
 30
0.0
 11
229.36995153473359
 21
-50.171046187198733
 31
0.0
  0
LINE
  8
DETAIL
  6
CONTINUOUS
 62
     5
 10
229.36995153473359
 20
-62.052860910696317
 30
0.0
 11
229.36995153473359
 21
-77.087058652390169
 31
0.0
  0
LINE
  8
DETAIL
  6
CONTINUOUS
 62
     5
 10
229.36995153473359
 20
-81.605500137205638
 30
0.0
 11
229.36995153473359
 21
-92.267265234073534
 31
0.0
  0
LINE
  8
DETAIL
  6
CONTINUOUS
 62
     5
 10
229.36995153473359
 20
-15.616946741606281
 30
0.0
 11
229.36995153473359
 21
-10.46293237489834
 31
0.0
  0
LINE
  8
DETAIL
  6
CONTINUOUS
 62
     5
 10
285.05977382875602
 20
94.151842639390736
 30
0.0
 11
285.05977382875602
 21
-129.7092084006463
 31
0.0
  0
LINE
  8
DETAIL
  6
CONTINUOUS
 62
     5
 10
305.79321486268191
 20
75.111169310064895
 30
0.0
 11
305.79321486268191
 21
-110.6685324368386
 31
0.0
  0
ARC
  8
DETAIL
  6
CONTINUOUS
 62
     5
 10
71.515347334410478
 20
-268.43295638126023
 30
0.0
 40
39.463651050080728
 50
75.872848825005065
 51
90.0
  0
ARC
  8
DETAIL
  6
CONTINUOUS
 62
     5
 10
49.479806138933952
 20
-258.41680129240717
 30
0.0
 40
29.447495961227791
 50
90.0
 51
106.3632296350999
  0
ARC
  8
DETAIL
  6
CONTINUOUS
 62
     5
 10
301.18578352180953
 20
-110.66856129578851
 30
0.0
 40
4.6074313408722993
 50
295.78480654059808
 51
0.0
  0
ARC
  8
DETAIL
  6
CONTINUOUS
 62
     5
 10
288.46526655896582
 20
-125.7126947154827
 30
0.0
 40
3.4054927302099278
 50
115.7848065405982
 51
180.0
  0
ARC
  8
DETAIL
  6
CONTINUOUS
 62
     5
 10
283.45718901453961
 20
-129.7092084006463
 30
0.0
 40
1.6025848142165131
 50
270.0
 51
0.0
  0
ARC
  8
DETAIL
  6
CONTINUOUS
 62
     5
 10
71.515347334410478
 20
268.43295638125988
 30
0.0
 40
39.46365105008077
 50
270.0
 51
284.12715117499488
  0
ARC
  8
DETAIL
  6
CONTINUOUS
 62
     5
 10
49.479806138933952
 20
258.41680129240717
 30
0.0
 40
29.447495961227769
 50
253.63677036490009
 51
270.0
  0
ARC
  8
DETAIL
  6
CONTINUOUS
 62
     5
 10
301.18578352180953
 20
75.111202563699919
 30
0.0
 40
4.607431340872381
 50
0.0
 51
64.2151940825987
  0
ARC
  8
DETAIL
  6
CONTINUOUS
 62
     5
 10
288.46526655896582
 20
90.15533576598915
 30
0.0
 40
3.405492730209744
 50
180.0
 51
244.21519408259871
  0
ARC
  8
DETAIL
  6
CONTINUOUS
 62
     5
 10
283.45718901453961
 20
94.151857835217982
 30
0.0
 40
1.6025848142166981
 50
0.0
 51
90.0
  0
LINE
  8
DETAIL
  6
CONTINUOUS
 62
     5
 10
236.38126009693079
 20
85.63812600969294
 30
0.0
 11
233.3764135702751
 21
85.63812600969294
 31
0.0
  0
LINE
  8
BASIS
  6
DASHDOT
 62
     6
 10
306.49433303630548
 20
0.0
 30
0.0
 11
-43.511073945448118
 21
0.0000000000000568
 31
0.0
  0
LINE
  8
NOTE
  6
CONTINUOUS
 62
     4
 10
-22.6665120943963
 20
280.45234248788358
 30
0.0
 11
32.533798001569437
 21
280.45234248788358
 31
0.0
  0
LINE
  8
NOTE
  6
CONTINUOUS
 62
     4
 10
-22.6665120943963
 20
-280.45234248788358
 30
0.0
 11
32.533798001569437
 21
-280.45234248788358
 31
0.0
  0
LINE
  8
OUTLINE
  6
CONTINUOUS
 62
     3
 10
285.05977382875591
 20
-125.7126947154827
 30
0.0
 11
285.05977382875602
 21
-129.7092084006463
 31
0.0
  0
LINE
  8
OUTLINE
  6
CONTINUOUS
 62
     3
 10
3.004846526655967
 20
-306.99515347334432
 30
0.0
 11
3.0048465266560811
 21
-308.49757673667222
 31
0.0
  0
LINE
  8
DETAIL
  6
CONTINUOUS
 62
     4
 10
-4.6352176254303004
 20
-284.58749143984431
 30
0.0
 11
-0.0000000000000568
 21
-280.45234248788358
 31
0.0
  0
LINE
  8
DETAIL
  6
CONTINUOUS
 62
     4
 10
-0.0000000000000568
 20
-280.45234248788358
 30
0.0
 11
-1.946632850620801
 21
-286.35109827490209
 31
0.0
  0
LINE
  8
DETAIL
  6
CONTINUOUS
 62
     4
 10
-0.0000000000000568
 20
-280.45234248788358
 30
0.0
 11
-6.581850476051045
 21
-290.48624722686282
 31
0.0
  0
LINE
  8
NOTE
  6
CONTINUOUS
 62
     4
 10
-6.581850476051045
 20
-290.48624722686282
 30
0.0
 11
-103.8777347687133
 21
-438.81195563357358
 31
0.0
  0
LINE
  8
NOTE
  6
CONTINUOUS
 62
     4
 10
-103.8777347687133
 20
-438.81195563357358
 30
0.0
 11
-389.77483711538491
 21
-438.50181524597951
 31
0.0
  0
LINE
  8
DETAIL
  6
CONTINUOUS
 62
     4
 10
110.647393274922
 20
-267.63256114610198
 30
0.0
 11
107.90489756182861
 21
-262.05910471820522
 31
0.0
  0
LINE
  8
DETAIL
  6
CONTINUOUS
 62
     4
 10
107.90489756182861
 20
-262.05910471820522
 30
0.0
 11
113.0667019403346
 21
-265.51460393655799
 31
0.0
  0
LINE
  8
DETAIL
  6
CONTINUOUS
 62
     4
 10
107.90489756182861
 20
-262.05910471820522
 30
0.0
 11
115.8091976534278
 21
-271.08806036445492
 31
0.0
  0
LINE
  8
NOTE
  6
CONTINUOUS
 62
     4
 10
115.8091976534279
 20
-271.08806036445492
 30
0.0
 11
237.26614815296739
 21
-409.8263934591954
 31
0.0
  0
LINE
  8
NOTE
  6
CONTINUOUS
 62
     4
 10
237.26614815296739
 20
-409.8263934591954
 30
0.0
 11
356.48305709991052
 21
-409.29602192148502
 31
0.0
  0
ARC
  8
DETAIL
  6
CONTINUOUS
 62
     5
 10
168.00135137723731
 20
158.6009731672635
 30
0.0
 40
71.82823103640284
 50
17.825713933383319
 51
94.900356891020138
  0
ARC
  8
DETAIL
  6
CONTINUOUS
 62
     5
 10
169.31655107810909
 20
146.65481992088471
 30
0.0
 40
110.4673700512917
 50
17.889927548890491
 51
91.581293085594183
  0
ARC
  8
DETAIL
  6
CONTINUOUS
 62
     5
 10
169.72389134227149
 20
153.12425356691671
 30
0.0
 40
108.2605306695614
 50
14.69616641836741
 51
91.829213560950421
  0
ARC
  8
DETAIL
  6
CONTINUOUS
 62
     5
 10
7.4400528725272466
 20
244.74276694487531
 30
0.0
 40
2.582748692774937
 50
4.1113596476119119
 51
76.115762754416139
  0
ARC
  8
DETAIL
  6
CONTINUOUS
 62
     5
 10
14.807558491633189
 20
273.8029169826869
 30
0.0
 40
27.396835659990249
 50
244.47617510978409
 51
255.7415299260459
  0
ARC
  8
DETAIL
  6
CONTINUOUS
 62
     5
 10
8.2239250304718894
 20
244.5743584196162
 30
0.0
 40
6.3094149169788976
 50
3.2125347783341809
 51
76.065183007272367
  0
ARC
  8
DETAIL
  6
CONTINUOUS
 62
     5
 10
9.7604041384401512
 20
255.52165343395109
 30
0.0
 40
4.8235943083366486
 50
195.32108120983631
 51
269.79736619863718
  0
ARC
  8
DETAIL
  6
CONTINUOUS
 62
     5
 10
8.4573690126889574
 20
294.21069356948271
 30
0.0
 40
6.0732093211316043
 50
2.781179805900543
 51
76.706645511596477
  0
ARC
  8
DETAIL
  6
CONTINUOUS
 62
     5
 10
10.36049858739165
 20
306.03281114590152
 30
0.0
 40
5.9333098970508251
 50
207.85228249827551
 51
265.10126175800769
  0
ARC
  8
DETAIL
  6
CONTINUOUS
 62
     5
 10
-473.65070064406979
 20
-142.18731195817381
 30
0.0
 40
644.21536455815556
 50
8.7960043290898824
 51
22.88906093171007
  0
ARC
  8
DETAIL
  6
CONTINUOUS
 62
     5
 10
1614.900688186581
 20
-490.21487285616678
 30
0.0
 40
1617.9407915258389
 50
156.89366589334659
 51
157.91461098782159
  0
ARC
  8
DETAIL
  6
CONTINUOUS
 62
     5
 10
297.26591270732303
 20
98.927162096674294
 30
0.0
 40
176.55584341569261
 50
139.6480202302003
 51
164.9648229538094
  0
ARC
  8
DETAIL
  6
CONTINUOUS
 62
     5
 10
-32.896395784135223
 20
48.820417243739428
 30
0.0
 40
163.93690539400251
 50
21.303117111361392
 51
28.19686879344793
  0
ARC
  8
DETAIL
  6
CONTINUOUS
 62
     5
 10
758.8538841891675
 20
-93.649604994090566
 30
0.0
 40
670.13495427951284
 50
152.77482517862691
 51
162.46087664004421
  0
ARC
  8
DETAIL
  6
CONTINUOUS
 62
     5
 10
241.8512334952529
 20
-55.870571716321543
 30
0.0
 40
143.39735528926539
 50
204.74794562815879
 51
210.12123314257491
  0
ARC
  8
DETAIL
  6
CONTINUOUS
 62
     5
 10
108.8363079930331
 20
-137.1419988539273
 30
0.0
 40
12.93599602647727
 50
26.742896450331571
 51
46.030400317336742
  0
ARC
  8
DETAIL
  6
CONTINUOUS
 62
     5
 10
159.18776634057019
 20
-121.26105605998551
 30
0.0
 40
40.082125961517796
 50
194.5356460602587
 51
266.37676093337558
  0
ARC
  8
DETAIL
  6
CONTINUOUS
 62
     5
 10
154.18782059065231
 20
-169.63105838395759
 30
0.0
 40
8.7240542331868305
 50
336.75040207821911
 51
73.57411245055269
  0
ARC
  8
DETAIL
  6
CONTINUOUS
 62
     5
 10
76.773686146743728
 20
-154.6280597375293
 30
0.0
 40
87.398638789650931
 50
312.97218650774948
 51
347.81528540497283
  0
ARC
  8
DETAIL
  6
CONTINUOUS
 62
     5
 10
168.00135137723731
 20
-158.6009731672643
 30
0.0
 40
71.82823103640284
 50
265.09964310897988
 51
342.17428606661667
  0
ARC
  8
DETAIL
  6
CONTINUOUS
 62
     5
 10
169.31655107810909
 20
-146.6548199208855
 30
0.0
 40
110.4673700512917
 50
268.41870691440579
 51
342.11007245110949
  0
ARC
  8
DETAIL
  6
CONTINUOUS
 62
     5
 10
169.72389134227149
 20
-153.12425356691699
 30
0.0
 40
108.2605306695614
 50
268.17078643904961
 51
345.30383358163249
  0
ARC
  8
DETAIL
  6
CONTINUOUS
 62
     5
 10
7.4400528725272466
 20
-244.7427669448756
 30
0.0
 40
2.582748692774937
 50
283.8842372455839
 51
355.88864035238811
  0
ARC
  8
DETAIL
  6
CONTINUOUS
 62
     5
 10
14.807558491633189
 20
-273.80291698268672
 30
0.0
 40
27.396835659990249
 50
104.2584700739541
 51
115.52382489021581
  0
ARC
  8
DETAIL
  6
CONTINUOUS
 62
     5
 10
8.2239250304700704
 20
-244.574358419616
 30
0.0
 40
6.3094149169788976
 50
283.93481699272758
 51
356.7874652216658
  0
ARC
  8
DETAIL
  6
CONTINUOUS
 62
     5
 10
9.7604041384401512
 20
-255.52165343395151
 30
0.0
 40
4.8235943083366486
 50
90.202633801362836
 51
164.67891879016369
  0
ARC
  8
DETAIL
  6
CONTINUOUS
 62
     5
 10
8.4573690126889574
 20
-294.21069356948283
 30
0.0
 40
6.0732093211316043
 50
283.29335448840351
 51
357.21882019409952
  0
ARC
  8
DETAIL
  6
CONTINUOUS
 62
     5
 10
10.360498587389831
 20
-306.03281114590158
 30
0.0
 40
5.9333098970508251
 50
94.898738241992334
 51
152.14771750172449
  0
ARC
  8
DETAIL
  6
CONTINUOUS
 62
     5
 10
162.69103657117549
 20
212.97295818192339
 30
0.0
 40
0.2719817083180661
 50
350.81617102481499
 51
84.730133958520867
  0
ARC
  8
DETAIL
  6
CONTINUOUS
 62
     5
 10
-81.939376736494523
 20
-112.00304702473269
 30
0.0
 40
237.1318280371554
 50
25.875453288318511
 51
35.382717077613123
  0
ARC
  8
DETAIL
  6
CONTINUOUS
 62
     5
 10
116.3774080168714
 20
-190.57543888056159
 30
0.0
 40
34.393141364601057
 50
261.98176336564308
 51
305.49748676862168
  0
ARC
  8
DETAIL
  6
CONTINUOUS
 62
     5
 10
511.61255777809822
 20
223.268853576238
 30
0.0
 40
445.27632279824081
 50
211.36841347400329
 51
217.38532442860171
  0
LINE
  8
DETAIL
  6
CONTINUOUS
 62
     5
 10
208.83683360258499
 20
-58.872113121163181
 30
0.0
 11
201.82552504038719
 21
-58.872113121163181
 31
0.0
  0
LINE
  8
DETAIL
  6
CONTINUOUS
 62
     5
 10
208.83683360258499
 20
-11.34324119760544
 30
0.0
 11
201.82552504038719
 21
-11.34324119760544
 31
0.0
  0
LINE
  8
DETAIL
  6
CONTINUOUS
 62
     5
 10
208.83683360258499
 20
11.34205802725052
 30
0.0
 11
201.82552504038719
 21
11.34205802725052
 31
0.0
  0
LINE
  8
DETAIL
  6
CONTINUOUS
 62
     5
 10
208.83683360258499
 20
58.867070484777798
 30
0.0
 11
201.82552504038719
 21
58.867070484777798
 31
0.0
  0
ARC
  8
DETAIL
  6
CONTINUOUS
 62
     5
 10
159.66176229364689
 20
-44.255624865928098
 30
0.0
 40
3.3903103186154202
 50
237.8091473262848
 51
10.969783602748731
  0
ARC
  8
DETAIL
  6
CONTINUOUS
 62
     5
 10
122.57964379783169
 20
-355.88968752412723
 30
0.0
 40
111.2447771997341
 50
121.7777259326493
 51
166.10379456172461
  0
ARC
  8
DETAIL
  6
CONTINUOUS
 62
     5
 10
119.31158213126641
 20
-354.01643481682612
 30
0.0
 40
99.414837370083504
 50
111.2848839943256
 51
166.71104553564459
  0
LINE
  8
DETAIL
  6
CONTINUOUS
 62
     5
 10
15.659616195083
 20
-329.43994443671312
 30
0.0
 11
11.505360261361551
 21
-349.68571001668118
 31
0.0
  0
ARC
  8
OUTLINE
  6
CONTINUOUS
 62
     3
 10
169.72389134227149
 20
153.12425356691671
 30
0.0
 40
108.2605306695614
 50
14.696166418370771
 51
91.829213560950421
  0
ARC
  8
OUTLINE
  6
CONTINUOUS
 62
     3
 10
8.4573690126889574
 20
294.21069356948271
 30
0.0
 40
6.0732093211316043
 50
2.781179805900543
 51
76.706645511596477
  0
ARC
  8
OUTLINE
  6
CONTINUOUS
 62
     3
 10
169.72389134227149
 20
-153.12425356691699
 30
0.0
 40
108.2605306695614
 50
268.17078643904961
 51
345.30383358162919
  0
ARC
  8
OUTLINE
  6
CONTINUOUS
 62
     3
 10
8.4573690126889574
 20
-294.21069356948283
 30
0.0
 40
6.0732093211316043
 50
283.29335448840351
 51
357.21882019409952
  0
LINE
  8
OUTLINE
  6
CONTINUOUS
 62
     3
 10
0.0000000000001705
 20
-308.49757673667222
 30
0.0
 11
0.0000000000001705
 21
308.49757673667187
 31
0.0
  0
LINE
  8
DETAIL
  6
CONTINUOUS
 62
     5
 10
0.0000000000001705
 20
-308.49757673667222
 30
0.0
 11
0.0000000000001705
 21
308.49757673667187
 31
0.0
  0
ENDSEC
  0
EOF
