  0
SECTION
  2
HEADER
  9
$ACADVER
  1
AC1009
  9
$DWGCODEPAGE
  3
dos932
  9
$INSBASE
 10
0.0
 20
0.0
 30
0.0
  9
$EXTMIN
 10
-641.71140924062638
 20
-381.31712689217778
 30
-0.0015258207003583
  9
$EXTMAX
 10
1072.6913568362249
 20
688.93433430806544
 30
0.0000000349246037
  9
$LIMMIN
 10
-2970.0
 20
-2100.0
  9
$LIMMAX
 10
2970.0
 20
2100.0
  9
$ORTHOMODE
 70
     1
  9
$REGENMODE
 70
     1
  9
$FILLMODE
 70
     1
  9
$QTEXTMODE
 70
     0
  9
$MIRRTEXT
 70
     0
  9
$LTSCALE
 40
20.0
  9
$ATTMODE
 70
     1
  9
$TEXTSIZE
 40
64.0
  9
$TRACEWID
 40
0.05
  9
$TEXTSTYLE
  7
STANDARD
  9
$CLAYER
  8
SIZE
  9
$CELTYPE
  6
CONTINUOUS
  9
$CECOLOR
 62
     7
  9
$DIMSCALE
 40
1.0
  9
$DIMASZ
 40
12.0
  9
$DIMEXO
 40
20.0
  9
$DIMDLI
 40
200.0
  9
$DIMRND
 40
0.0
  9
$DIMDLE
 40
0.0
  9
$DIMEXE
 40
20.0
  9
$DIMTP
 40
0.0
  9
$DIMTM
 40
0.0
  9
$DIMTXT
 40
64.0
  9
$DIMCEN
 40
0.09
  9
$DIMTSZ
 40
0.0
  9
$DIMTOL
 70
     0
  9
$DIMLIM
 70
     0
  9
$DIMTIH
 70
     0
  9
$DIMTOH
 70
     0
  9
$DIMSE1
 70
     0
  9
$DIMSE2
 70
     0
  9
$DIMTAD
 70
     1
  9
$DIMZIN
 70
     8
  9
$DIMBLK
  1

  9
$DIMASO
 70
     1
  9
$DIMSHO
 70
     0
  9
$DIMPOST
  1

  9
$DIMAPOST
  1

  9
$DIMALT
 70
     0
  9
$DIMALTD
 70
     2
  9
$DIMALTF
 40
25.399999999999999
  9
$DIMLFAC
 40
1.0
  9
$DIMTOFL
 70
     1
  9
$DIMTVP
 40
0.0
  9
$DIMTIX
 70
     1
  9
$DIMSOXD
 70
     0
  9
$DIMSAH
 70
     0
  9
$DIMBLK1
  1

  9
$DIMBLK2
  1

  9
$DIMSTYLE
  2
STANDARD
  9
$DIMCLRD
 70
     7
  9
$DIMCLRE
 70
     7
  9
$DIMCLRT
 70
     7
  9
$DIMTFAC
 40
1.0
  9
$DIMGAP
 40
25.0
  9
$LUNITS
 70
     2
  9
$LUPREC
 70
     4
  9
$SKETCHINC
 40
0.1
  9
$FILLETRAD
 40
3.0
  9
$AUNITS
 70
     1
  9
$AUPREC
 70
     3
  9
$MENU
  1
ACAD
  9
$ELEVATION
 40
0.0
  9
$PELEVATION
 40
0.0
  9
$THICKNESS
 40
0.0
  9
$LIMCHECK
 70
     0
  9
$CHAMFERA
 40
0.0
  9
$CHAMFERB
 40
0.0
  9
$SKPOLY
 70
     0
  9
$TDCREATE
 40
2453019.62301037
  9
$TDUPDATE
 40
2458949.447473553
  9
$TDINDWG
 40
1.7132335764
  9
$TDUSRTIMER
 40
1.7132335764
  9
$USRTIMER
 70
     1
  9
$ANGBASE
 50
0.0
  9
$ANGDIR
 70
     0
  9
$PDMODE
 70
     3
  9
$PDSIZE
 40
-2.0
  9
$PLINEWID
 40
0.0
  9
$SPLFRAME
 70
     0
  9
$SPLINETYPE
 70
     6
  9
$SPLINESEGS
 70
     8
  9
$SURFTAB1
 70
     6
  9
$SURFTAB2
 70
     6
  9
$SURFTYPE
 70
     6
  9
$SURFU
 70
     6
  9
$SURFV
 70
     6
  9
$UCSNAME
  2

  9
$UCSORG
 10
0.0
 20
0.0
 30
0.0
  9
$UCSXDIR
 10
1.0
 20
0.0
 30
0.0
  9
$UCSYDIR
 10
0.0
 20
1.0
 30
0.0
  9
$PUCSNAME
  2

  9
$PUCSORG
 10
0.0
 20
0.0
 30
0.0
  9
$PUCSXDIR
 10
1.0
 20
0.0
 30
0.0
  9
$PUCSYDIR
 10
0.0
 20
1.0
 30
0.0
  9
$USERI1
 70
     0
  9
$USERI2
 70
     0
  9
$USERI3
 70
     0
  9
$USERI4
 70
     0
  9
$USERI5
 70
     0
  9
$USERR1
 40
20.0
  9
$USERR2
 40
0.0
  9
$USERR3
 40
0.0
  9
$USERR4
 40
0.0
  9
$USERR5
 40
0.0
  9
$WORLDVIEW
 70
     1
  9
$SHADEDGE
 70
     3
  9
$SHADEDIF
 70
    70
  9
$TILEMODE
 70
     1
  9
$MAXACTVP
 70
    48
  9
$PINSBASE
 10
0.0
 20
0.0
 30
0.0
  9
$PLIMCHECK
 70
     0
  9
$PEXTMIN
 10
-100000000000000000000.0
 20
-100000000000000000000.0
 30
-100000000000000000000.0
  9
$PEXTMAX
 10
100000000000000000000.0
 20
100000000000000000000.0
 30
100000000000000000000.0
  9
$PLIMMIN
 10
0.0
 20
0.0
  9
$PLIMMAX
 10
12.0
 20
9.0
  9
$UNITMODE
 70
     0
  9
$VISRETAIN
 70
     0
  9
$PLINEGEN
 70
     0
  9
$PSLTSCALE
 70
     0
  9
$TREEDEPTH
 70
  3020
  9
$ATTDIA
 70
     0
  9
$ATTREQ
 70
     1
  9
$BLIPMODE
 70
     1
  9
$COORDS
 70
     1
  9
$DRAGMODE
 70
     2
  9
$OSMODE
 70
     0
  9
$HANDLING
 70
     0
  9
$HANDSEED
  5
FEBD
  0
ENDSEC
  0
SECTION
  2
TABLES
  0
TABLE
  2
LTYPE
 70
     2
  0
LTYPE
  2
CONTINUOUS
 70
     0
  3
実線
 72
    65
 73
     0
 40
0.0
  0
LTYPE
  2
DASHDOT
 70
     0
  3
____ _ ____ _ ____ _ ____ _ ____ _ ____ _ ____
 72
    65
 73
     4
 40
5.5
 49
4.0
 49
-0.6
 49
0.3
 49
-0.6
  0
ENDTAB
  0
TABLE
  2
LAYER
 70
    12
  0
LAYER
  2
0
 70
     0
 62
     7
  6
CONTINUOUS
  0
LAYER
  2
BASIS
 70
     0
 62
     6
  6
DASHDOT
  0
LAYER
  2
OUTLINE
 70
     0
 62
     3
  6
CONTINUOUS
  0
LAYER
  2
DETAIL
 70
     0
 62
     5
  6
CONTINUOUS
  0
LAYER
  2
SIZE
 70
     0
 62
    30
  6
CONTINUOUS
  0
LAYER
  2
ARRANGE
 70
     0
 62
     1
  6
CONTINUOUS
  0
LAYER
  2
DEFPOINTS
 70
     0
 62
     7
  6
CONTINUOUS
  0
LAYER
  2
ETC
 70
     0
 62
    61
  6
CONTINUOUS
  0
LAYER
  2
FIX
 70
     0
 62
    11
  6
CONTINUOUS
  0
LAYER
  2
NOTE
 70
     0
 62
     4
  6
CONTINUOUS
  0
LAYER
  2
SERVICESPACE
 70
    64
 62
     2
  6
DASHDOT
  0
LAYER
  2
SYMBOLLINE
 70
    64
 62
    15
  6
CONTINUOUS
  0
ENDTAB
  0
TABLE
  2
STYLE
 70
     1
  0
STYLE
  2
STANDARD
 70
     0
 40
64.0
 41
0.9
 50
0.0
 71
     0
 42
64.0
  3
SIMPLEX.shx
  4
BIGFONT.shx
  0
ENDTAB
  0
TABLE
  2
APPID
 70
    19
  0
APPID
  2
ACAD
 70
     0
  0
APPID
  2
AUTOCAD_POSTSCRIPT_FIGURE
 70
     0
  0
APPID
  2
ACAD_EXEMPT_FROM_CAD_STANDARDS
 70
     0
  0
APPID
  2
ACAD_PSEXT
 70
     0
  0
APPID
  2
ACAUTHENVIRON
 70
     0
  0
APPID
  2
GENIUS_GENOENT_13
 70
     0
  0
APPID
  2
GENIUS_GENCFG_13
 70
     0
  0
APPID
  2
GENIUS_GENCFG0_13
 70
     0
  0
APPID
  2
GENIUS_GENCFG1_13
 70
     0
  0
APPID
  2
GENIUS_GENCFG2_13
 70
     0
  0
APPID
  2
GENIUS_GENCFG3_13
 70
     0
  0
APPID
  2
GENIUS_GENCFG4_13
 70
     0
  0
APPID
  2
GENIUS_GEVCFG0_13
 70
     0
  0
APPID
  2
CONTENTBLOCKICON
 70
     0
  0
APPID
  2
CONTENTBLOCKDESCRIPTION
 70
     0
  0
APPID
  2
ACAD_NAV_VCDISPLAY
 70
     0
  0
APPID
  2
ACAD_MLEADERVER
 70
     0
  0
APPID
  2
ACDBDYNAMICBLOCKTRUENAME
 70
     0
  0
APPID
  2
ACDBDYNAMICBLOCKGUID
 70
     0
  0
ENDTAB
  0
TABLE
  2
DIMSTYLE
 70
     1
  0
DIMSTYLE
  2
STANDARD
 70
     0
  3

  4

  5
_ORIGIN
  6

  7

 40
1.0
 41
12.0
 42
20.0
 43
200.0
 44
20.0
 45
0.0
 46
0.0
 47
0.0
 48
0.0
140
64.0
141
0.09
142
0.0
143
25.399999999999999
144
1.0
145
0.0
146
1.0
147
25.0
 71
     0
 72
     0
 73
     0
 74
     0
 75
     0
 76
     0
 77
     1
 78
     8
170
     0
171
     2
172
     1
173
     0
174
     1
175
     0
176
     7
177
     7
178
     7
  0
ENDTAB
  0
TABLE
  2
VIEW
 70
     1
  0
VIEW
  2
ALL
 70
     0
 40
4282.6198079999986
 10
0.0
 20
41.309904000000003
 41
5940.0
 11
0.0
 21
0.0
 31
1.0
 12
0.0
 22
0.0
 32
0.0
 42
50.0
 43
0.0
 44
0.0
 50
0.0
 71
     0
  0
ENDTAB
  0
TABLE
  2
UCS
 70
     0
  0
ENDTAB
  0
TABLE
  2
VPORT
 70
     1
  0
VPORT
  2
*ACTIVE
 70
     0
 10
0.0
 20
0.0
 11
1.0
 21
1.0
 12
215.48997379779931
 22
153.80860370794389
 13
0.0
 23
0.0
 14
1.0
 24
1.0
 15
0.0
 25
0.0
 16
0.0
 26
0.0
 36
1.0
 17
0.0
 27
0.0
 37
0.0
 40
1077.347050998256
 41
1.747787610619469
 42
50.0
 43
0.0
 44
0.0
 50
0.0
 51
0.0
 71
     0
 72
  1000
 73
     1
 74
     3
 75
     0
 76
     0
 77
     0
 78
     0
  0
ENDTAB
  0
ENDSEC
  0
SECTION
  2
BLOCKS
  0
BLOCK
  8
0
  2
_ORIGIN
 70
     0
 10
0.0
 20
0.0
 30
0.0
  3
_ORIGIN
  1
_ORIGIN
  0
CIRCLE
  8
0
  6
CONTINUOUS
 62
     7
 10
0.0
 20
0.0
 30
0.0
 40
0.5
  0
LINE
  8
0
  6
CONTINUOUS
 62
     7
 10
0.0
 20
0.0
 30
0.0
 11
-1.0
 21
0.0
 31
0.0
  0
ENDBLK
  8
0
  0
ENDSEC
  0
SECTION
  2
ENTITIES
  0
POINT
  8
ARRANGE
  6
CONTINUOUS
 62
     1
 10
0.0
 20
0.0
 30
0.0
  0
CIRCLE
  8
ARRANGE
  6
CONTINUOUS
 62
     1
 10
0.0
 20
0.0
 30
0.0
 40
40.0
  0
TEXT
  8
ETC
  6
CONTINUOUS
 62
    61
 10
326.28785804585459
 20
624.70590174295694
 30
0.0
 40
64.0
  1
EWF-45ETA2-Q_3
 41
0.9
  0
TEXT
  8
ETC
  6
CONTINUOUS
 62
    61
 10
322.10186404585431
 20
506.75059172812553
 30
0.0
 40
64.0
  1
産業扇
 41
0.9
  0
TEXT
  8
ETC
  6
CONTINUOUS
 62
    61
 10
372.80326229441039
 20
398.60181884190018
 30
0.0
 40
40.0
  1
EWF-45ETA2-Q
 41
0.9
  0
TEXT
  8
NOTE
  6
CONTINUOUS
 62
     4
 10
-634.56398072592901
 20
390.89763131369892
 30
0.0
 40
64.0
  1
4-φ14
 41
0.9
  0
LINE
  8
SIZE
  6
CONTINUOUS
 62
    30
 10
-310.00000000000028
 20
289.93537964458801
 30
0.0
 11
-310.00000000000028
 21
494.90249446868069
 31
0.0
  0
LINE
  8
SIZE
  6
CONTINUOUS
 62
    30
 10
309.99999999999949
 20
289.93537964458801
 30
0.0
 11
309.99999999999949
 21
494.90249446868069
 31
0.0
  0
LINE
  8
SIZE
  6
CONTINUOUS
 62
    30
 10
-298.00000000000028
 20
474.90249446868069
 30
0.0
 11
297.99999999999949
 21
474.90249446868069
 31
0.0
  0
CIRCLE
  8
SIZE
  6
CONTINUOUS
 62
    30
 10
-310.00000000000028
 20
474.90249446868069
 30
0.0
 40
6.0
  0
LINE
  8
SIZE
  6
CONTINUOUS
 62
    30
 10
-310.00000000000028
 20
474.90249446868069
 30
0.0
 11
-298.00000000000028
 21
474.90249446868069
 31
0.0
  0
CIRCLE
  8
SIZE
  6
CONTINUOUS
 62
    30
 10
309.99999999999949
 20
474.90249446868069
 30
0.0
 40
6.0
  0
LINE
  8
SIZE
  6
CONTINUOUS
 62
    30
 10
309.99999999999949
 20
474.90249446868069
 30
0.0
 11
297.99999999999949
 21
474.90249446868069
 31
0.0
  0
TEXT
  8
SIZE
  6
CONTINUOUS
 62
    30
 10
-72.174068952043768
 20
499.90249446868069
 30
0.0
 40
64.0
  1
620
 41
0.9
 72
     1
 11
1.883073905099081
 21
499.90249446868069
 31
0.0
  0
POINT
  8
DEFPOINTS
  6
CONTINUOUS
 62
    30
 10
-310.00000000000028
 20
269.93537964458801
 30
0.0
  0
POINT
  8
DEFPOINTS
  6
CONTINUOUS
 62
    30
 10
309.99999999999949
 20
269.93537964458801
 30
0.0
  0
POINT
  8
DEFPOINTS
  6
CONTINUOUS
 62
    30
 10
309.99999999999949
 20
474.90249446868069
 30
0.0
  0
LINE
  8
SIZE
  6
CONTINUOUS
 62
    30
 10
-280.45234248788398
 20
312.4636510500809
 30
0.0
 11
-280.45234248788398
 21
382.62244768570139
 31
0.0
  0
LINE
  8
SIZE
  6
CONTINUOUS
 62
    30
 10
280.45234248788358
 20
312.4636510500809
 30
0.0
 11
280.45234248788358
 21
382.62244768570139
 31
0.0
  0
LINE
  8
SIZE
  6
CONTINUOUS
 62
    30
 10
-268.45234248788398
 20
362.62244768570139
 30
0.0
 11
268.45234248788358
 21
362.62244768570139
 31
0.0
  0
CIRCLE
  8
SIZE
  6
CONTINUOUS
 62
    30
 10
-280.45234248788398
 20
362.62244768570139
 30
0.0
 40
6.0
  0
LINE
  8
SIZE
  6
CONTINUOUS
 62
    30
 10
-280.45234248788398
 20
362.62244768570139
 30
0.0
 11
-268.45234248788398
 21
362.62244768570139
 31
0.0
  0
CIRCLE
  8
SIZE
  6
CONTINUOUS
 62
    30
 10
280.45234248788358
 20
362.62244768570139
 30
0.0
 40
6.0
  0
LINE
  8
SIZE
  6
CONTINUOUS
 62
    30
 10
280.45234248788358
 20
362.62244768570139
 30
0.0
 11
268.45234248788358
 21
362.62244768570139
 31
0.0
  0
TEXT
  8
SIZE
  6
CONTINUOUS
 62
    30
 10
-73.613882513831669
 20
387.62244768570139
 30
0.0
 40
64.0
  1
560
 41
0.9
 72
     1
 11
0.4432603433111808
 21
387.62244768570139
 31
0.0
  0
POINT
  8
DEFPOINTS
  6
CONTINUOUS
 62
    30
 10
-280.45234248788398
 20
292.4636510500809
 30
0.0
  0
POINT
  8
DEFPOINTS
  6
CONTINUOUS
 62
    30
 10
280.45234248788358
 20
292.4636510500809
 30
0.0
  0
POINT
  8
DEFPOINTS
  6
CONTINUOUS
 62
    30
 10
280.45234248788358
 20
362.62244768570139
 30
0.0
  0
LINE
  8
SIZE
  6
CONTINUOUS
 62
    30
 10
-289.93537964458852
 20
310.0
 30
0.0
 11
-507.77332855358873
 21
310.0
 31
0.0
  0
LINE
  8
SIZE
  6
CONTINUOUS
 62
    30
 10
-289.93537964458852
 20
-310.0
 30
0.0
 11
-507.77332855358873
 21
-309.99999999999989
 31
0.0
  0
LINE
  8
SIZE
  6
CONTINUOUS
 62
    30
 10
-487.77332855358873
 20
298.0
 30
0.0
 11
-487.77332855358873
 21
-297.99999999999989
 31
0.0
  0
CIRCLE
  8
SIZE
  6
CONTINUOUS
 62
    30
 10
-487.77332855358873
 20
310.0
 30
0.0
 40
6.0
  0
LINE
  8
SIZE
  6
CONTINUOUS
 62
    30
 10
-487.77332855358873
 20
310.0
 30
0.0
 11
-487.77332855358873
 21
298.0
 31
0.0
  0
CIRCLE
  8
SIZE
  6
CONTINUOUS
 62
    30
 10
-487.77332855358873
 20
-309.99999999999989
 30
0.0
 40
6.0
  0
LINE
  8
SIZE
  6
CONTINUOUS
 62
    30
 10
-487.77332855358873
 20
-309.99999999999989
 30
0.0
 11
-487.77332855358873
 21
-297.99999999999989
 31
0.0
  0
TEXT
  8
SIZE
  6
CONTINUOUS
 62
    30
 10
-512.77332855358873
 20
-82.938012793663717
 30
0.0
 40
64.0
  1
620
 50
90.0
 41
0.9
 72
     1
 11
-512.77332855358873
 21
-8.8808699365208668
 31
0.0
  0
POINT
  8
DEFPOINTS
  6
CONTINUOUS
 62
    30
 10
-269.93537964458841
 20
310.0
 30
0.0
  0
POINT
  8
DEFPOINTS
  6
CONTINUOUS
 62
    30
 10
-269.93537964458841
 20
-310.0
 30
0.0
  0
POINT
  8
DEFPOINTS
  6
CONTINUOUS
 62
    30
 10
-487.77332855358873
 20
-309.99999999999989
 30
0.0
  0
LINE
  8
SIZE
  6
CONTINUOUS
 62
    30
 10
-312.46365105008118
 20
280.4523424878837
 30
0.0
 11
-386.50515638425878
 21
280.45234248788393
 31
0.0
  0
LINE
  8
SIZE
  6
CONTINUOUS
 62
    30
 10
-312.46365105008118
 20
-280.4523424878837
 30
0.0
 11
-386.50515638425901
 21
-280.45234248788353
 31
0.0
  0
LINE
  8
SIZE
  6
CONTINUOUS
 62
    30
 10
-366.50515638425878
 20
268.4523424878837
 30
0.0
 11
-366.50515638425901
 21
-268.4523424878837
 31
0.0
  0
CIRCLE
  8
SIZE
  6
CONTINUOUS
 62
    30
 10
-366.50515638425878
 20
280.4523424878837
 30
0.0
 40
6.0
  0
LINE
  8
SIZE
  6
CONTINUOUS
 62
    30
 10
-366.50515638425878
 20
280.4523424878837
 30
0.0
 11
-366.50515638425878
 21
268.4523424878837
 31
0.0
  0
CIRCLE
  8
SIZE
  6
CONTINUOUS
 62
    30
 10
-366.50515638425901
 20
-280.4523424878837
 30
0.0
 40
6.0
  0
LINE
  8
SIZE
  6
CONTINUOUS
 62
    30
 10
-366.50515638425901
 20
-280.4523424878837
 30
0.0
 11
-366.50515638425901
 21
-268.4523424878837
 31
0.0
  0
TEXT
  8
SIZE
  6
CONTINUOUS
 62
    30
 10
-391.50515638425901
 20
-73.873285525816215
 30
0.0
 40
64.0
  1
560
 50
90.0
 41
0.9
 72
     1
 11
-391.50515638425901
 21
0.1838573313266352
 31
0.0
  0
POINT
  8
DEFPOINTS
  6
CONTINUOUS
 62
    30
 10
-292.46365105008118
 20
280.4523424878837
 30
0.0
  0
POINT
  8
DEFPOINTS
  6
CONTINUOUS
 62
    30
 10
-292.46365105008118
 20
-280.4523424878837
 30
0.0
  0
POINT
  8
DEFPOINTS
  6
CONTINUOUS
 62
    30
 10
-366.50515638425901
 20
-280.4523424878837
 30
0.0
  0
CIRCLE
  8
FIX
  6
CONTINUOUS
 62
    11
 10
280.45234248788358
 20
-280.4523424878837
 30
0.0
 40
7.0
  0
CIRCLE
  8
FIX
  6
CONTINUOUS
 62
    11
 10
280.45234248788358
 20
280.4523424878837
 30
0.0
 40
7.0
  0
CIRCLE
  8
FIX
  6
CONTINUOUS
 62
    11
 10
-280.45234248788398
 20
280.16765190823162
 30
0.0
 40
7.0
  0
CIRCLE
  8
FIX
  6
CONTINUOUS
 62
    11
 10
-280.45234248788398
 20
-280.4523424878837
 30
0.0
 40
7.0
  0
LINE
  8
NOTE
  6
CONTINUOUS
 62
     4
 10
292.46365105008039
 20
-280.4523424878837
 30
0.0
 11
268.44103392568661
 21
-280.4523424878837
 31
0.0
  0
LINE
  8
NOTE
  6
CONTINUOUS
 62
     4
 10
280.45234248788358
 20
-268.4410339256865
 30
0.0
 11
280.45234248788358
 21
-292.46365105008101
 31
0.0
  0
LINE
  8
NOTE
  6
CONTINUOUS
 62
     4
 10
-268.44103392568701
 20
-280.4523424878837
 30
0.0
 11
-292.46365105008118
 21
-280.4523424878837
 31
0.0
  0
LINE
  8
NOTE
  6
CONTINUOUS
 62
     4
 10
-280.45234248788398
 20
-268.44103392568672
 30
0.0
 11
-280.45234248788398
 21
-292.46365105008078
 31
0.0
  0
LINE
  8
NOTE
  6
CONTINUOUS
 62
     4
 10
-268.44103392568701
 20
280.4523424878837
 30
0.0
 11
-292.46365105008118
 21
280.4523424878837
 31
0.0
  0
LINE
  8
NOTE
  6
CONTINUOUS
 62
     4
 10
-280.45234248788398
 20
292.4636510500809
 30
0.0
 11
-280.45234248788398
 21
268.4410339256865
 31
0.0
  0
LINE
  8
NOTE
  6
CONTINUOUS
 62
     4
 10
292.46365105008039
 20
280.4523424878837
 30
0.0
 11
268.44103392568661
 21
280.4523424878837
 31
0.0
  0
LINE
  8
NOTE
  6
CONTINUOUS
 62
     4
 10
280.45234248788358
 20
292.4636510500809
 30
0.0
 11
280.45234248788358
 21
268.4410339256865
 31
0.0
  0
LINE
  8
SIZE
  6
CONTINUOUS
 62
    30
 10
616.49992971585652
 20
237.7194321378395
 30
0.0
 11
224.2730200883565
 21
86.478606743417913
 31
0.0
  0
LINE
  8
SIZE
  6
CONTINUOUS
 62
    30
 10
-224.27302008835639
 20
-86.478606743417913
 30
0.0
 11
-235.46948749981641
 21
-90.795911169111378
 31
0.0
  0
TEXT
  8
SIZE
  6
CONTINUOUS
 62
    30
 10
386.60990676985239
 20
175.86910131127931
 30
0.0
 40
64.0
  1
φ456
 50
21.08640129791825
 41
0.9
 72
     1
 11
492.04863987891582
 21
216.5257738458115
 31
0.0
  0
LINE
  8
SIZE
  6
CONTINUOUS
 62
    30
 10
-213.0765526768964
 20
-82.161302317724221
 30
0.0
 11
213.0765526768964
 21
82.161302317724221
 31
0.0
  0
CIRCLE
  8
SIZE
  6
CONTINUOUS
 62
    30
 10
-213.0765526768964
 20
-82.161302317724221
 30
0.0
 40
6.0
  0
LINE
  8
SIZE
  6
CONTINUOUS
 62
    30
 10
-213.0765526768964
 20
-82.161302317724221
 30
0.0
 11
-224.27302008835639
 21
-86.478606743417913
 31
0.0
  0
CIRCLE
  8
SIZE
  6
CONTINUOUS
 62
    30
 10
213.0765526768964
 20
82.161302317724221
 30
0.0
 40
6.0
  0
LINE
  8
SIZE
  6
CONTINUOUS
 62
    30
 10
213.0765526768964
 20
82.161302317724221
 30
0.0
 11
224.2730200883565
 21
86.478606743417913
 31
0.0
  0
POINT
  8
DEFPOINTS
  6
CONTINUOUS
 62
    30
 10
213.0765526768964
 20
82.161302317724221
 30
0.0
  0
POINT
  8
DEFPOINTS
  6
CONTINUOUS
 62
    30
 10
-213.0765526768964
 20
-82.161302317724221
 30
0.0
  0
LINE
  8
SIZE
  6
CONTINUOUS
 62
    30
 10
617.33119190795333
 20
-99.945150758602267
 30
0.0
 11
234.96703431304971
 21
-38.040870080028299
 31
0.0
  0
LINE
  8
SIZE
  6
CONTINUOUS
 62
    30
 10
-234.96703431304971
 20
38.040870080028299
 30
0.0
 11
-246.8127926806724
 21
39.958683599612407
 31
0.0
  0
TEXT
  8
SIZE
  6
CONTINUOUS
 62
    30
 10
384.91350390926249
 20
-36.991495864489657
 30
0.0
 40
64.0
  1
φ450
 50
350.80367954497672
 41
0.9
 72
     1
 11
497.82050366465961
 21
-55.27099843972519
 31
0.0
  0
LINE
  8
SIZE
  6
CONTINUOUS
 62
    30
 10
-223.1212759454271
 20
36.123056560444176
 30
0.0
 11
223.1212759454273
 21
-36.123056560444176
 31
0.0
  0
CIRCLE
  8
SIZE
  6
CONTINUOUS
 62
    30
 10
-223.1212759454271
 20
36.123056560444176
 30
0.0
 40
6.0
  0
LINE
  8
SIZE
  6
CONTINUOUS
 62
    30
 10
-223.1212759454271
 20
36.123056560444176
 30
0.0
 11
-234.96703431304971
 21
38.040870080028299
 31
0.0
  0
CIRCLE
  8
SIZE
  6
CONTINUOUS
 62
    30
 10
223.1212759454273
 20
-36.123056560444176
 30
0.0
 40
6.0
  0
LINE
  8
SIZE
  6
CONTINUOUS
 62
    30
 10
223.1212759454273
 20
-36.123056560444176
 30
0.0
 11
234.96703431304971
 21
-38.040870080028299
 31
0.0
  0
POINT
  8
DEFPOINTS
  6
CONTINUOUS
 62
    30
 10
223.1212759454273
 20
-36.123056560444176
 30
0.0
  0
POINT
  8
DEFPOINTS
  6
CONTINUOUS
 62
    30
 10
-223.1212759454271
 20
36.123056560444176
 30
0.0
  0
LINE
  8
DETAIL
  6
CONTINUOUS
 62
     4
 10
-282.74601036975821
 20
285.9173265464367
 30
0.0
 11
-280.43908782977672
 21
280.14993478893263
 31
0.0
  0
LINE
  8
DETAIL
  6
CONTINUOUS
 62
     4
 10
-280.43908782977672
 20
280.14993478893263
 30
0.0
 11
-285.32064302125252
 21
283.99117393829277
 31
0.0
  0
LINE
  8
DETAIL
  6
CONTINUOUS
 62
     4
 10
-280.43908782977672
 20
280.14993478893263
 30
0.0
 11
-287.62756556123372
 21
289.75856569579668
 31
0.0
  0
LINE
  8
NOTE
  6
CONTINUOUS
 62
     4
 10
-287.62756556123372
 20
289.75856569579668
 30
0.0
 11
-343.81886908478072
 21
364.86786086278562
 31
0.0
  0
LINE
  8
NOTE
  6
CONTINUOUS
 62
     4
 10
-343.81886908478072
 20
364.86786086278562
 30
0.0
 11
-641.68743132981433
 21
365.02931571196609
 31
0.0
  0
LINE
  8
OUTLINE
  6
CONTINUOUS
 62
     3
 10
269.93537964458761
 20
-310.0
 30
0.0
 11
-269.93537964458801
 21
-310.0
 31
0.0
  0
ARC
  8
OUTLINE
  6
CONTINUOUS
 62
     3
 10
-269.93537964458801
 20
-269.93537964458801
 30
0.0
 40
40.064620355411989
 50
180.0
 51
270.0
  0
LINE
  8
OUTLINE
  6
CONTINUOUS
 62
     3
 10
-309.99999999999989
 20
-269.93537964458801
 30
0.0
 11
-309.99999999999989
 21
269.93537964458801
 31
0.0
  0
ARC
  8
OUTLINE
  6
CONTINUOUS
 62
     3
 10
-269.93537964458801
 20
269.93537964458801
 30
0.0
 40
40.064620355411883
 50
90.0
 51
180.0
  0
LINE
  8
OUTLINE
  6
CONTINUOUS
 62
     3
 10
-269.93537964458801
 20
310.0
 30
0.0
 11
269.93537964458761
 21
310.0
 31
0.0
  0
ARC
  8
OUTLINE
  6
CONTINUOUS
 62
     3
 10
269.93537964458761
 20
269.93537964458801
 30
0.0
 40
40.064620355412451
 50
0.0
 51
90.0
  0
LINE
  8
OUTLINE
  6
CONTINUOUS
 62
     3
 10
310.0
 20
269.93537964458801
 30
0.0
 11
310.0
 21
-269.93537964458801
 31
0.0
  0
ARC
  8
OUTLINE
  6
CONTINUOUS
 62
     3
 10
269.93537964458761
 20
-269.93537964458801
 30
0.0
 40
40.064620355411989
 50
270.0
 51
0.0
  0
CIRCLE
  8
DETAIL
  6
CONTINUOUS
 62
     5
 10
280.45234248788381
 20
280.4523424878837
 30
0.0
 40
7.0113085621971996
  0
CIRCLE
  8
DETAIL
  6
CONTINUOUS
 62
     5
 10
280.45234248788381
 20
280.4523424878837
 30
0.0
 40
8.0129240710823524
  0
CIRCLE
  8
DETAIL
  6
CONTINUOUS
 62
     5
 10
280.45234248788381
 20
-280.45234248788393
 30
0.0
 40
7.0113085621971996
  0
CIRCLE
  8
DETAIL
  6
CONTINUOUS
 62
     5
 10
280.45234248788381
 20
-280.45234248788393
 30
0.0
 40
8.0129240710823524
  0
CIRCLE
  8
DETAIL
  6
CONTINUOUS
 62
     5
 10
0.0
 20
0.0
 30
0.0
 40
228.36833602584821
  0
CIRCLE
  8
DETAIL
  6
CONTINUOUS
 62
     5
 10
-70.824911847390695
 20
70.824911847390695
 30
0.0
 40
3.004846526655911
  0
CIRCLE
  8
DETAIL
  6
CONTINUOUS
 62
     5
 10
-280.45234248788341
 20
280.4523424878837
 30
0.0
 40
7.0113085621970876
  0
CIRCLE
  8
DETAIL
  6
CONTINUOUS
 62
     5
 10
-280.45234248788341
 20
280.4523424878837
 30
0.0
 40
8.0129240710823524
  0
ARC
  8
DETAIL
  6
CONTINUOUS
 62
     5
 10
0.0
 20
-77.124394184168068
 30
0.0
 40
2.5040387722132511
 50
300.49872495589898
 51
224.69254506820681
  0
CIRCLE
  8
DETAIL
  6
CONTINUOUS
 62
     5
 10
-280.45234248788341
 20
-280.45234248788393
 30
0.0
 40
7.0113085621970876
  0
CIRCLE
  8
DETAIL
  6
CONTINUOUS
 62
     5
 10
-280.45234248788341
 20
-280.45234248788393
 30
0.0
 40
8.0129240710823524
  0
CIRCLE
  8
DETAIL
  6
CONTINUOUS
 62
     5
 10
230.16665507610449
 20
261.32961628886301
 30
0.0
 40
3.004846526655911
  0
CIRCLE
  8
DETAIL
  6
CONTINUOUS
 62
     5
 10
261.32961628886318
 20
-230.16665507610421
 30
0.0
 40
3.004846526655911
  0
CIRCLE
  8
DETAIL
  6
CONTINUOUS
 62
     5
 10
-261.32961628886272
 20
230.16665507610421
 30
0.0
 40
3.004846526655911
  0
CIRCLE
  8
DETAIL
  6
CONTINUOUS
 62
     5
 10
-230.16665507610401
 20
-261.32961628886301
 30
0.0
 40
3.004846526655911
  0
LINE
  8
DETAIL
  6
CONTINUOUS
 62
     5
 10
-15.54987649091402
 20
-54.152520038596784
 30
0.0
 11
-15.479816515461151
 21
-54.172744458051511
 31
0.0
  0
LINE
  8
DETAIL
  6
CONTINUOUS
 62
     5
 10
-15.479816515461151
 20
-54.172744458051511
 30
0.0
 11
-15.40978028519419
 21
-54.193061038537508
 31
0.0
  0
LINE
  8
DETAIL
  6
CONTINUOUS
 62
     5
 10
-15.40978028519419
 20
-54.193061038537508
 30
0.0
 11
-15.40978028519419
 21
-54.193061038537508
 31
0.0
  0
LINE
  8
DETAIL
  6
CONTINUOUS
 62
     5
 10
-15.40978028519419
 20
-54.193061038537508
 30
0.0
 11
-15.339788627064991
 21
-54.213541786659327
 31
0.0
  0
LINE
  8
DETAIL
  6
CONTINUOUS
 62
     5
 10
-15.339788627064991
 20
-54.213541786659327
 30
0.0
 11
-15.269850695093959
 21
-54.23417809131297
 31
0.0
  0
LINE
  8
DETAIL
  6
CONTINUOUS
 62
     5
 10
-15.269850695093959
 20
-54.23417809131297
 30
0.0
 11
-15.269850695093959
 21
-54.23417809131297
 31
0.0
  0
LINE
  8
DETAIL
  6
CONTINUOUS
 62
     5
 10
-15.269850695093959
 20
-54.23417809131297
 30
0.0
 11
-15.19996388598099
 21
-54.254949589802663
 31
0.0
  0
LINE
  8
DETAIL
  6
CONTINUOUS
 62
     5
 10
-15.19996388598099
 20
-54.254949589802663
 30
0.0
 11
-15.13009024008716
 21
-54.275869530769569
 31
0.0
  0
LINE
  8
DETAIL
  6
CONTINUOUS
 62
     5
 10
-15.13009024008716
 20
-54.275869530769569
 30
0.0
 11
-15.13009024008716
 21
-54.275869530769569
 31
0.0
  0
LINE
  8
DETAIL
  6
CONTINUOUS
 62
     5
 10
-15.13009024008716
 20
-54.275869530769569
 30
0.0
 11
-15.06022123326284
 21
-54.296946108779139
 31
0.0
  0
LINE
  8
DETAIL
  6
CONTINUOUS
 62
     5
 10
-15.06022123326284
 20
-54.296946108779139
 30
0.0
 11
-14.990501439647231
 21
-54.318133690753477
 31
0.0
  0
LINE
  8
DETAIL
  6
CONTINUOUS
 62
     5
 10
-14.990501439647231
 20
-54.318133690753477
 30
0.0
 11
-14.990501439647231
 21
-54.318133690753477
 31
0.0
  0
LINE
  8
DETAIL
  6
CONTINUOUS
 62
     5
 10
-14.990501439647231
 20
-54.318133690753477
 30
0.0
 11
-14.920969448747311
 21
-54.339418611512883
 31
0.0
  0
LINE
  8
DETAIL
  6
CONTINUOUS
 62
     5
 10
-14.920969448747311
 20
-54.339418611512883
 30
0.0
 11
-14.85108681324925
 21
-54.360968905111122
 31
0.0
  0
LINE
  8
DETAIL
  6
CONTINUOUS
 62
     5
 10
-14.85108681324925
 20
-54.360968905111122
 30
0.0
 11
-14.85108681324925
 21
-54.360968905111122
 31
0.0
  0
LINE
  8
DETAIL
  6
CONTINUOUS
 62
     5
 10
-151.2608439465501
 20
-167.09280456535291
 30
0.0
 11
-153.37571114981611
 21
-169.18628194254299
 31
0.0
  0
ARC
  8
DETAIL
  6
CONTINUOUS
 62
     5
 10
287.18249766680492
 20
277.97168201951132
 30
0.0
 40
35.657512116316752
 50
224.99999999999079
 51
270.0
  0
ARC
  8
DETAIL
  6
CONTINUOUS
 62
     5
 10
277.97168201951172
 20
287.18249766680452
 30
0.0
 40
35.657512116316653
 50
180.0
 51
224.99999999999079
  0
ARC
  8
DETAIL
  6
CONTINUOUS
 62
     5
 10
269.93537964458818
 20
269.93537964458801
 30
0.0
 40
40.064620355411989
 50
0.0
 51
90.0
  0
ARC
  8
DETAIL
  6
CONTINUOUS
 62
     5
 10
291.97092084006499
 20
227.89090657524639
 30
0.0
 40
14.42326332794801
 50
0.0
 51
90.0
  0
ARC
  8
DETAIL
  6
CONTINUOUS
 62
     5
 10
260.42003231017787
 20
221.16075139632559
 30
0.0
 40
20.633279483037079
 50
224.99999999999079
 51
270.0
  0
ARC
  8
DETAIL
  6
CONTINUOUS
 62
     5
 10
266.93053311793221
 20
171.07997595206069
 30
0.0
 40
29.447495961228011
 50
0.0
 51
90.0
  0
ARC
  8
DETAIL
  6
CONTINUOUS
 62
     5
 10
227.8909065752465
 20
291.97092084006448
 30
0.0
 40
14.42326332794801
 50
0.0
 51
90.0
  0
CIRCLE
  8
DETAIL
  6
CONTINUOUS
 62
     5
 10
230.16665507610449
 20
261.32961628886301
 30
0.0
 40
2.504038772213335
  0
CIRCLE
  8
DETAIL
  6
CONTINUOUS
 62
     5
 10
230.16665507610449
 20
261.32961628886301
 30
0.0
 40
3.505654281098487
  0
CIRCLE
  8
DETAIL
  6
CONTINUOUS
 62
     5
 10
230.16665507610449
 20
261.32961628886301
 30
0.0
 40
5.0080775444264409
  0
ARC
  8
DETAIL
  6
CONTINUOUS
 62
     5
 10
221.16075139632611
 20
260.4200323101777
 30
0.0
 40
20.633279483037089
 50
180.0
 51
224.99999999999079
  0
ARC
  8
DETAIL
  6
CONTINUOUS
 62
     5
 10
171.07997595206129
 20
266.9305331179321
 30
0.0
 40
29.44749596122756
 50
0.0
 51
90.0
  0
ARC
  8
DETAIL
  6
CONTINUOUS
 62
     5
 10
54.535182122328017
 20
54.535182122327797
 30
0.0
 40
3.2552504038772629
 50
271.33329717439949
 51
20.510727165305759
  0
ARC
  8
DETAIL
  6
CONTINUOUS
 62
     5
 10
54.535182122328017
 20
54.535182122327797
 30
0.0
 40
4.256865912762553
 50
265.32566224090169
 51
29.361271098502371
  0
CIRCLE
  8
DETAIL
  6
CONTINUOUS
 62
     5
 10
77.124394184168295
 20
0.0
 30
0.0
 40
4.2568659127624633
  0
ARC
  8
DETAIL
  6
CONTINUOUS
 62
     5
 10
54.535182122328017
 20
54.535182122327797
 30
0.0
 40
4.7576736672051414
 50
263.58814551679791
 51
14.013625292199441
  0
ARC
  8
DETAIL
  6
CONTINUOUS
 62
     5
 10
54.535182122328017
 20
54.535182122327797
 30
0.0
 40
6.5105008077544184
 50
260.36884636629679
 51
349.16725186339642
  0
ARC
  8
DETAIL
  6
CONTINUOUS
 62
     5
 10
77.124394184168295
 20
0.0
 30
0.0
 40
9.0145395799677317
 50
281.81289415340387
 51
78.18710584659604
  0
ARC
  8
DETAIL
  6
CONTINUOUS
 62
     5
 10
54.535182122328017
 20
54.535182122327797
 30
0.0
 40
9.0145395799677424
 50
326.81289415339347
 51
334.821392866802
  0
ARC
  8
DETAIL
  6
CONTINUOUS
 62
     5
 10
81.020288273459755
 20
-18.627650115565299
 30
0.0
 40
10.016155088853001
 50
101.812894153404
 51
167.0519479840984
  0
ARC
  8
DETAIL
  6
CONTINUOUS
 62
     5
 10
81.020288273459755
 20
18.627650115565299
 30
0.0
 40
10.01615508885298
 50
192.9480520159016
 51
258.18710584659601
  0
ARC
  8
DETAIL
  6
CONTINUOUS
 62
     5
 10
70.461732966474983
 20
44.118257538039423
 30
0.0
 40
10.01615508885304
 50
146.8128941533935
 51
212.05194798409451
  0
ARC
  8
DETAIL
  6
CONTINUOUS
 62
     5
 10
291.97092084006499
 20
-227.89090657524639
 30
0.0
 40
14.423263327948289
 50
270.0
 51
0.0
  0
ARC
  8
DETAIL
  6
CONTINUOUS
 62
     5
 10
266.93053311793221
 20
-171.07997595206069
 30
0.0
 40
29.447495961227819
 50
270.0
 51
0.0
  0
CIRCLE
  8
DETAIL
  6
CONTINUOUS
 62
     5
 10
261.32961628886318
 20
-230.16665507610421
 30
0.0
 40
2.504038772213335
  0
CIRCLE
  8
DETAIL
  6
CONTINUOUS
 62
     5
 10
261.32961628886318
 20
-230.16665507610421
 30
0.0
 40
3.505654281098487
  0
CIRCLE
  8
DETAIL
  6
CONTINUOUS
 62
     5
 10
261.32961628886318
 20
-230.16665507610421
 30
0.0
 40
5.0080775444264409
  0
ARC
  8
DETAIL
  6
CONTINUOUS
 62
     5
 10
260.42003231017787
 20
-221.16075139632559
 30
0.0
 40
20.633279483037171
 50
90.0
 51
135.00000000000921
  0
ARC
  8
DETAIL
  6
CONTINUOUS
 62
     5
 10
227.8909065752465
 20
-291.97092084006448
 30
0.0
 40
14.42326332794835
 50
270.0
 51
0.0
  0
ARC
  8
DETAIL
  6
CONTINUOUS
 62
     5
 10
221.16075139632611
 20
-260.4200323101777
 30
0.0
 40
20.633279483037089
 50
135.00000000000921
 51
180.0
  0
ARC
  8
DETAIL
  6
CONTINUOUS
 62
     5
 10
277.97168201951172
 20
-287.18249766680452
 30
0.0
 40
35.657512116316568
 50
135.00000000000921
 51
180.0
  0
ARC
  8
DETAIL
  6
CONTINUOUS
 62
     5
 10
287.18249766680492
 20
-277.97168201951132
 30
0.0
 40
35.657512116316688
 50
90.0
 51
135.00000000000921
  0
ARC
  8
DETAIL
  6
CONTINUOUS
 62
     5
 10
269.93537964458818
 20
-269.93537964458801
 30
0.0
 40
40.064620355411989
 50
270.0
 51
0.0
  0
ARC
  8
DETAIL
  6
CONTINUOUS
 62
     5
 10
171.07997595206129
 20
-266.9305331179321
 30
0.0
 40
29.44749596122784
 50
270.0
 51
0.0
  0
ARC
  8
DETAIL
  6
CONTINUOUS
 62
     5
 10
0.0
 20
205.83198707592899
 30
0.0
 40
300.48465266558969
 50
254.10061059640381
 51
265.8246329990003
  0
ARC
  8
DETAIL
  6
CONTINUOUS
 62
     5
 10
-42.535476561620953
 20
66.12797937000164
 30
0.0
 40
6.5105008077543474
 50
122.75032539679
 51
237.62818490880471
  0
ARC
  8
DETAIL
  6
CONTINUOUS
 62
     5
 10
-44.118257538039423
 20
70.461732966475211
 30
0.0
 40
10.01615508885294
 50
236.812894153408
 51
302.0519479840973
  0
CIRCLE
  8
DETAIL
  6
CONTINUOUS
 62
     5
 10
0.0
 20
0.0
 30
0.0
 40
6.0096930533118211
  0
CIRCLE
  8
DETAIL
  6
CONTINUOUS
 62
     5
 10
0.0
 20
0.0
 30
0.0
 40
6.5301477389888323
  0
CIRCLE
  8
DETAIL
  6
CONTINUOUS
 62
     5
 10
0.0
 20
0.0
 30
0.0
 40
9.5153473344103059
  0
CIRCLE
  8
DETAIL
  6
CONTINUOUS
 62
     5
 10
0.0
 20
0.0
 30
0.0
 40
12.01938610662364
  0
CIRCLE
  8
DETAIL
  6
CONTINUOUS
 62
     5
 10
0.0
 20
0.0
 30
0.0
 40
18.02908144113405
  0
CIRCLE
  8
DETAIL
  6
CONTINUOUS
 62
     5
 10
0.0
 20
0.0
 30
0.0
 40
19.030694668820729
  0
CIRCLE
  8
DETAIL
  6
CONTINUOUS
 62
     5
 10
0.0
 20
0.0
 30
0.0
 40
23.037156704361909
  0
ARC
  8
DETAIL
  6
CONTINUOUS
 62
     5
 10
0.0285650199000429
 20
-0.0054720693292438
 30
0.0
 40
56.311829178995943
 50
345.87996408880059
 51
1.1055183243974991
  0
ARC
  8
DETAIL
  6
CONTINUOUS
 62
     5
 10
0.0000000297250153
 20
-0.0000001334492481
 30
0.0
 40
56.340871189173527
 50
1.099399587736448
 51
241.15473336140931
  0
ARC
  8
DETAIL
  6
CONTINUOUS
 62
     5
 10
-0.0000006576498208
 20
-0.0000112864208859
 30
0.0
 40
56.340861088377132
 50
241.1547285017966
 51
345.881654069001
  0
ARC
  8
DETAIL
  6
CONTINUOUS
 62
     5
 10
0.0
 20
0.0
 30
0.0
 40
65.305331179321428
 50
108.9090661558982
 51
157.11058964850699
  0
ARC
  8
DETAIL
  6
CONTINUOUS
 62
     5
 10
0.0
 20
0.0
 30
0.0
 40
65.305331179321826
 50
348.90822313190711
 51
37.110589648490823
  0
ARC
  8
DETAIL
  6
CONTINUOUS
 62
     5
 10
0.0
 20
0.0
 30
0.0
 40
65.305331179321513
 50
228.90693586150161
 51
277.11027940760209
  0
ARC
  8
DETAIL
  6
CONTINUOUS
 62
     5
 10
0.0
 20
0.0
 30
0.0
 40
66.106623586429819
 50
348.53227193059718
 51
37.890320183003972
  0
ARC
  8
DETAIL
  6
CONTINUOUS
 62
     5
 10
0.0
 20
0.0
 30
0.0
 40
66.106623586429578
 50
228.52792332540301
 51
277.89383536819872
  0
ARC
  8
DETAIL
  6
CONTINUOUS
 62
     5
 10
0.0
 20
0.0
 30
0.0
 40
66.106623586429649
 50
108.533263369202
 51
157.89958612519379
  0
ARC
  8
DETAIL
  6
CONTINUOUS
 62
     5
 10
0.0
 20
0.0
 30
0.0
 40
73.117932148626906
 50
12.94805201590159
 51
32.051947984094532
  0
ARC
  8
DETAIL
  6
CONTINUOUS
 62
     5
 10
0.0
 20
0.0
 30
0.0
 40
73.117932148627091
 50
345.72670421229839
 51
347.05194798409838
  0
ARC
  8
DETAIL
  6
CONTINUOUS
 62
     5
 10
0.0
 20
0.0
 30
0.0
 40
73.11793214862675
 50
237.9480520159027
 51
257.43254818250108
  0
ARC
  8
DETAIL
  6
CONTINUOUS
 62
     5
 10
0.0
 20
0.0
 30
0.0
 40
73.11793214862665
 50
147.94805201590549
 51
162.54287221560071
  0
ARC
  8
DETAIL
  6
CONTINUOUS
 62
     5
 10
0.0
 20
0.0
 30
0.0
 40
73.11793214862675
 50
105.7291434570993
 51
122.0519479840973
  0
ARC
  8
DETAIL
  6
CONTINUOUS
 62
     5
 10
0.0
 20
0.0
 30
0.0
 40
85.137318255250648
 50
343.24532854530747
 51
349.99999999999488
  0
ARC
  8
DETAIL
  6
CONTINUOUS
 62
     5
 10
0.0
 20
0.0
 30
0.0
 40
85.137318255250577
 50
10.00000000000502
 51
13.649867502606471
  0
ARC
  8
DETAIL
  6
CONTINUOUS
 62
     5
 10
0.0
 20
0.0
 30
0.0
 40
85.137318255250307
 50
237.24967460321011
 51
253.65207373579631
  0
ARC
  8
DETAIL
  6
CONTINUOUS
 62
     5
 10
0.0
 20
0.0
 30
0.0
 40
85.137318255250335
 50
103.2438014222016
 51
122.75032539679
  0
ARC
  8
DETAIL
  6
CONTINUOUS
 62
     5
 10
-54.535182122327342
 20
54.535182122327797
 30
0.0
 40
3.255250403877421
 50
226.2981070713027
 51
83.436156949100862
  0
ARC
  8
DETAIL
  6
CONTINUOUS
 62
     5
 10
-54.535182122327342
 20
54.535182122327797
 30
0.0
 40
4.2568659127625406
 50
225.22163099778871
 51
92.992616381601493
  0
ARC
  8
DETAIL
  6
CONTINUOUS
 62
     5
 10
-54.535182122327342
 20
54.535182122327797
 30
0.0
 40
4.7576736672051432
 50
224.93966627540161
 51
97.264860228401815
  0
ARC
  8
DETAIL
  6
CONTINUOUS
 62
     5
 10
-54.535182122327342
 20
54.535182122327797
 30
0.0
 40
6.510500807754493
 50
224.41970654479539
 51
110.2466798770002
  0
ARC
  8
DETAIL
  6
CONTINUOUS
 62
     5
 10
-54.535182122327342
 20
54.535182122327797
 30
0.0
 40
9.0145395799675843
 50
56.812894153407981
 51
124.43272742869659
  0
ARC
  8
DETAIL
  6
CONTINUOUS
 62
     5
 10
-101.6639741518578
 20
88.91549001943622
 30
0.0
 40
6.0096930533118211
 50
0.0
 51
44.999999999990777
  0
ARC
  8
DETAIL
  6
CONTINUOUS
 62
     5
 10
-81.631663974151593
 20
75.016697207799552
 30
0.0
 40
8.0129240710823186
 50
106.2070693974004
 51
180.0
  0
ARC
  8
DETAIL
  6
CONTINUOUS
 62
     5
 10
-101.6639741518578
 20
88.91549001943622
 30
0.0
 40
12.01938610662364
 50
0.0
 51
44.999999999990777
  0
ARC
  8
DETAIL
  6
CONTINUOUS
 62
     5
 10
-70.461732966474528
 20
44.118257538039423
 30
0.0
 40
10.016155088852811
 50
327.94805201590549
 51
22.65938436370314
  0
ARC
  8
DETAIL
  6
CONTINUOUS
 62
     5
 10
-171.07997595206041
 20
266.9305331179321
 30
0.0
 40
29.44749596122773
 50
90.0
 51
180.0
  0
ARC
  8
DETAIL
  6
CONTINUOUS
 62
     5
 10
-227.89090657524599
 20
291.97092084006448
 30
0.0
 40
14.423263327948289
 50
90.0
 51
180.0
  0
ARC
  8
DETAIL
  6
CONTINUOUS
 62
     5
 10
-221.16075139632531
 20
260.4200323101777
 30
0.0
 40
20.633279483037128
 50
315.00000000000921
 51
0.0
  0
ARC
  8
DETAIL
  6
CONTINUOUS
 62
     5
 10
-277.97168201951092
 20
287.18249766680452
 30
0.0
 40
35.657512116316511
 50
315.00000000000921
 51
0.0
  0
ARC
  8
DETAIL
  6
CONTINUOUS
 62
     5
 10
-287.18249766680412
 20
277.97168201951132
 30
0.0
 40
35.65751211631661
 50
270.0
 51
315.00000000000921
  0
ARC
  8
DETAIL
  6
CONTINUOUS
 62
     5
 10
-269.93537964458761
 20
269.93537964458801
 30
0.0
 40
40.064620355411883
 50
90.0
 51
180.0
  0
CIRCLE
  8
DETAIL
  6
CONTINUOUS
 62
     5
 10
-261.32961628886272
 20
230.16665507610421
 30
0.0
 40
2.50403877221322
  0
CIRCLE
  8
DETAIL
  6
CONTINUOUS
 62
     5
 10
-261.32961628886272
 20
230.16665507610421
 30
0.0
 40
3.5056542810985998
  0
CIRCLE
  8
DETAIL
  6
CONTINUOUS
 62
     5
 10
-261.32961628886272
 20
230.16665507610421
 30
0.0
 40
5.0080775444264409
  0
ARC
  8
DETAIL
  6
CONTINUOUS
 62
     5
 10
-291.97092084006431
 20
227.89090657524639
 30
0.0
 40
14.42326332794835
 50
90.0
 51
180.0
  0
ARC
  8
DETAIL
  6
CONTINUOUS
 62
     5
 10
-260.42003231017742
 20
221.16075139632559
 30
0.0
 40
20.633279483037111
 50
270.0
 51
315.00000000000921
  0
ARC
  8
DETAIL
  6
CONTINUOUS
 62
     5
 10
-266.93053311793187
 20
171.07997595206069
 30
0.0
 40
29.447495961227759
 50
90.0
 51
180.0
  0
ARC
  8
DETAIL
  6
CONTINUOUS
 62
     5
 10
-54.535182122327342
 20
-54.535182122327797
 30
0.0
 40
3.2552504038772891
 50
192.97488209929921
 51
34.45741190310148
  0
ARC
  8
DETAIL
  6
CONTINUOUS
 62
     5
 10
-54.535182122327342
 20
-54.535182122327797
 30
0.0
 40
4.2568659127625903
 50
195.68843019090011
 51
31.705694079001759
  0
ARC
  8
DETAIL
  6
CONTINUOUS
 62
     5
 10
-54.535182122327342
 20
-54.535182122327797
 30
0.0
 40
4.7576736672052018
 50
196.60848403119411
 51
30.80328955750625
  0
ARC
  8
DETAIL
  6
CONTINUOUS
 62
     5
 10
-42.535476561620953
 20
-66.12797937000164
 30
0.0
 40
6.5105008077543758
 50
122.3718150911953
 51
237.24967460321011
  0
ARC
  8
DETAIL
  6
CONTINUOUS
 62
     5
 10
-54.535182122327342
 20
-54.535182122327797
 30
0.0
 40
6.5105008077545241
 50
198.7490503901021
 51
28.576037000598969
  0
ARC
  8
DETAIL
  6
CONTINUOUS
 62
     5
 10
0.0
 20
-77.124394184168068
 30
0.0
 40
8.5137318255250403
 50
342.26872070209498
 51
347.47706103939652
  0
ARC
  8
DETAIL
  6
CONTINUOUS
 62
     5
 10
-54.535182122327342
 20
-54.535182122327797
 30
0.0
 40
9.0145395799677726
 50
210.16452104099881
 51
303.18710584659198
  0
ARC
  8
DETAIL
  6
CONTINUOUS
 62
     5
 10
18.089047470614101
 20
-81.142238214199097
 30
0.0
 40
10.016155088853001
 50
102.73308462739971
 51
167.47706103939649
  0
ARC
  8
DETAIL
  6
CONTINUOUS
 62
     5
 10
-18.089047471390131
 20
-81.142238214199097
 30
0.0
 40
10.016155088852919
 50
21.052907089898799
 51
77.432548182501094
  0
ARC
  8
DETAIL
  6
CONTINUOUS
 62
     5
 10
-44.118257538039423
 20
-70.461732966475211
 30
0.0
 40
10.01615508885301
 50
57.948052015902718
 51
123.187105846592
  0
ARC
  8
DETAIL
  6
CONTINUOUS
 62
     5
 10
0.0
 20
-205.83198707592899
 30
0.0
 40
300.48465266558969
 50
94.319379369798355
 51
106.2070693974004
  0
ARC
  8
DETAIL
  6
CONTINUOUS
 62
     5
 10
-266.93053311793187
 20
-171.07997595206069
 30
0.0
 40
29.447495961227901
 50
180.0
 51
270.0
  0
ARC
  8
DETAIL
  6
CONTINUOUS
 62
     5
 10
-171.07997595206041
 20
-266.9305331179321
 30
0.0
 40
29.44749596122756
 50
180.0
 51
270.0
  0
CIRCLE
  8
DETAIL
  6
CONTINUOUS
 62
     5
 10
-230.16665507610401
 20
-261.32961628886301
 30
0.0
 40
2.50403877221322
  0
CIRCLE
  8
DETAIL
  6
CONTINUOUS
 62
     5
 10
-230.16665507610401
 20
-261.32961628886301
 30
0.0
 40
3.5056542810985998
  0
CIRCLE
  8
DETAIL
  6
CONTINUOUS
 62
     5
 10
-230.16665507610401
 20
-261.32961628886301
 30
0.0
 40
5.0080775444264409
  0
ARC
  8
DETAIL
  6
CONTINUOUS
 62
     5
 10
-221.16075139632531
 20
-260.4200323101777
 30
0.0
 40
20.63327948303732
 50
0.0
 51
44.999999999990777
  0
ARC
  8
DETAIL
  6
CONTINUOUS
 62
     5
 10
-227.89090657524599
 20
-291.97092084006448
 30
0.0
 40
14.423263327948231
 50
180.0
 51
270.0
  0
ARC
  8
DETAIL
  6
CONTINUOUS
 62
     5
 10
-291.97092084006431
 20
-227.89090657524639
 30
0.0
 40
14.423263327948121
 50
180.0
 51
270.0
  0
ARC
  8
DETAIL
  6
CONTINUOUS
 62
     5
 10
-260.42003231017742
 20
-221.16075139632559
 30
0.0
 40
20.633279483037239
 50
44.999999999990777
 51
90.0
  0
ARC
  8
DETAIL
  6
CONTINUOUS
 62
     5
 10
-287.18249766680412
 20
-277.97168201951132
 30
0.0
 40
35.657512116316681
 50
44.999999999990777
 51
90.0
  0
ARC
  8
DETAIL
  6
CONTINUOUS
 62
     5
 10
-277.97168201951092
 20
-287.18249766680452
 30
0.0
 40
35.657512116316518
 50
0.0
 51
44.999999999990777
  0
ARC
  8
DETAIL
  6
CONTINUOUS
 62
     5
 10
-269.93537964458761
 20
-269.93537964458801
 30
0.0
 40
40.064620355411989
 50
180.0
 51
270.0
  0
LINE
  8
DETAIL
  6
CONTINUOUS
 62
     5
 10
261.96882904927952
 20
252.75801340198629
 30
0.0
 11
252.7580134019868
 21
261.96882904927929
 31
0.0
  0
LINE
  8
DETAIL
  6
CONTINUOUS
 62
     5
 10
235.1747326205309
 20
264.2210312070481
 30
0.0
 11
230.16665507610449
 21
267.11244612600967
 31
0.0
  0
LINE
  8
DETAIL
  6
CONTINUOUS
 62
     5
 10
206.57081955594839
 20
245.8301004698001
 30
0.0
 11
245.83010046980081
 21
206.57081955594799
 31
0.0
  0
LINE
  8
DETAIL
  6
CONTINUOUS
 62
     5
 10
225.15857753167811
 20
258.43820137067792
 30
0.0
 11
230.16665507610449
 21
255.5467864524928
 31
0.0
  0
LINE
  8
DETAIL
  6
CONTINUOUS
 62
     5
 10
-269.93537964458761
 20
310.0
 30
0.0
 11
269.93537964458818
 21
310.0
 31
0.0
  0
LINE
  8
DETAIL
  6
CONTINUOUS
 62
     5
 10
227.8909065752465
 20
306.394184168013
 30
0.0
 11
-227.89090657524599
 21
306.394184168013
 31
0.0
  0
LINE
  8
DETAIL
  6
CONTINUOUS
 62
     5
 10
-171.07997595206041
 20
296.37802907915989
 30
0.0
 11
171.07997595206129
 21
296.37802907915989
 31
0.0
  0
LINE
  8
DETAIL
  6
CONTINUOUS
 62
     5
 10
252.7580134019868
 20
-261.96882904927929
 30
0.0
 11
261.96882904927952
 21
-252.75801340198629
 31
0.0
  0
LINE
  8
DETAIL
  6
CONTINUOUS
 62
     5
 10
261.32961628886318
 20
-235.9494849132509
 30
0.0
 11
266.33769383328968
 21
-233.0580699942893
 31
0.0
  0
LINE
  8
DETAIL
  6
CONTINUOUS
 62
     5
 10
261.32961628886318
 20
-224.38382523973411
 30
0.0
 11
256.32153874443702
 21
-227.27524015791909
 31
0.0
  0
LINE
  8
DETAIL
  6
CONTINUOUS
 62
     5
 10
245.83010046980081
 20
-206.57081955594799
 30
0.0
 11
206.57081955594839
 21
-245.8301004698001
 31
0.0
  0
LINE
  8
DETAIL
  6
CONTINUOUS
 62
     5
 10
310.00000000000023
 20
269.93537964458801
 30
0.0
 11
310.00000000000023
 21
-269.93537964458801
 31
0.0
  0
LINE
  8
DETAIL
  6
CONTINUOUS
 62
     5
 10
306.39418416801311
 20
-227.89090657524639
 30
0.0
 11
306.39418416801311
 21
227.89090657524639
 31
0.0
  0
LINE
  8
DETAIL
  6
CONTINUOUS
 62
     5
 10
296.37802907916023
 20
171.07997595206069
 30
0.0
 11
296.37802907916023
 21
-171.07997595206069
 31
0.0
  0
LINE
  8
DETAIL
  6
CONTINUOUS
 62
     5
 10
-287.18249766680412
 20
242.3141699031946
 30
0.0
 11
-291.97092084006431
 21
242.3141699031946
 31
0.0
  0
LINE
  8
DETAIL
  6
CONTINUOUS
 62
     5
 10
291.97092084006499
 20
242.3141699031946
 30
0.0
 11
287.18249766680492
 21
242.3141699031946
 31
0.0
  0
LINE
  8
DETAIL
  6
CONTINUOUS
 62
     5
 10
266.33769383328968
 20
-233.0580699942893
 30
0.0
 11
266.33769383328968
 21
-227.27524015791909
 31
0.0
  0
LINE
  8
DETAIL
  6
CONTINUOUS
 62
     5
 10
256.32153874443702
 20
-227.27524015791909
 30
0.0
 11
256.32153874443702
 21
-233.0580699942893
 31
0.0
  0
LINE
  8
DETAIL
  6
CONTINUOUS
 62
     5
 10
260.42003231017787
 20
200.52747191328851
 30
0.0
 11
266.93053311793221
 21
200.52747191328851
 31
0.0
  0
LINE
  8
DETAIL
  6
CONTINUOUS
 62
     5
 10
-266.93053311793187
 20
200.52747191328851
 30
0.0
 11
-260.42003231017742
 21
200.52747191328851
 31
0.0
  0
LINE
  8
DETAIL
  6
CONTINUOUS
 62
     5
 10
242.31416990319491
 20
287.18249766680452
 30
0.0
 11
242.31416990319491
 21
291.97092084006448
 31
0.0
  0
LINE
  8
DETAIL
  6
CONTINUOUS
 62
     5
 10
242.31416990319491
 20
-291.97092084006448
 30
0.0
 11
242.31416990319491
 21
-287.18249766680452
 31
0.0
  0
LINE
  8
DETAIL
  6
CONTINUOUS
 62
     5
 10
235.1747326205309
 20
258.43820137067792
 30
0.0
 11
235.1747326205309
 21
264.2210312070481
 31
0.0
  0
LINE
  8
DETAIL
  6
CONTINUOUS
 62
     5
 10
225.15857753167811
 20
264.2210312070481
 30
0.0
 11
225.15857753167811
 21
258.43820137067792
 31
0.0
  0
LINE
  8
DETAIL
  6
CONTINUOUS
 62
     5
 10
200.52747191328879
 20
-260.4200323101777
 30
0.0
 11
200.52747191328879
 21
-266.9305331179321
 31
0.0
  0
LINE
  8
DETAIL
  6
CONTINUOUS
 62
     5
 10
200.52747191328879
 20
266.9305331179321
 30
0.0
 11
200.52747191328879
 21
260.4200323101777
 31
0.0
  0
LINE
  8
DETAIL
  6
CONTINUOUS
 62
     5
 10
-256.3215387444364
 20
233.0580699942893
 30
0.0
 11
-261.32961628886272
 21
235.9494849132509
 31
0.0
  0
LINE
  8
DETAIL
  6
CONTINUOUS
 62
     5
 10
53.331019686090833
 20
47.712726841266893
 30
0.0
 11
54.535182122328017
 21
47.01750333473592
 31
0.0
  0
LINE
  8
DETAIL
  6
CONTINUOUS
 62
     5
 10
-266.33769383328888
 20
227.27524015791909
 30
0.0
 11
-261.32961628886272
 21
224.38382523973411
 31
0.0
  0
LINE
  8
DETAIL
  6
CONTINUOUS
 62
     5
 10
-230.16665507610401
 20
-267.1124461260099
 30
0.0
 11
-225.15857753167751
 21
-264.22103120782458
 31
0.0
  0
LINE
  8
DETAIL
  6
CONTINUOUS
 62
     5
 10
-230.16665507610401
 20
-255.5467864524928
 30
0.0
 11
-235.17473262053039
 21
-258.43820137067792
 31
0.0
  0
LINE
  8
DETAIL
  6
CONTINUOUS
 62
     5
 10
95.654281098546562
 20
31.251103727717918
 30
0.0
 11
95.654281098546562
 21
-27.583607464652911
 31
0.0
  0
LINE
  8
DETAIL
  6
CONTINUOUS
 62
     5
 10
89.644588045234514
 20
25.686272609935941
 30
0.0
 11
89.644588045234514
 21
-26.705447986925719
 31
0.0
  0
LINE
  8
DETAIL
  6
CONTINUOUS
 62
     5
 10
-48.024681314572938
 20
58.294021516123848
 30
0.0
 11
-54.535182122327342
 21
62.052860909919673
 31
0.0
  0
LINE
  8
DETAIL
  6
CONTINUOUS
 62
     5
 10
-59.365737629258888
 20
49.80642585655778
 30
0.0
 11
-54.535182122327342
 21
47.01750333473592
 31
0.0
  0
LINE
  8
DETAIL
  6
CONTINUOUS
 62
     5
 10
9.5153473344106487
 20
5.4936883450177447
 30
0.0
 11
0.0
 21
10.98737669003526
 31
0.0
  0
LINE
  8
DETAIL
  6
CONTINUOUS
 62
     5
 10
61.045682930082421
 20
50.776342728531972
 30
0.0
 11
61.045682930082421
 21
53.135459440758503
 31
0.0
  0
LINE
  8
DETAIL
  6
CONTINUOUS
 62
     5
 10
-93.164984729984326
 20
97.414479441309368
 30
0.0
 11
-159.3322110472503
 21
163.5817057577988
 31
0.0
  0
LINE
  8
DETAIL
  6
CONTINUOUS
 62
     5
 10
-97.414479441308913
 20
93.164984729984553
 30
0.0
 11
-163.5817057577986
 21
159.33221104725041
 31
0.0
  0
LINE
  8
DETAIL
  6
CONTINUOUS
 62
     5
 10
-9.515347334410194
 20
-5.4936883450177447
 30
0.0
 11
0.0
 21
-10.98737669003526
 31
0.0
  0
LINE
  8
DETAIL
  6
CONTINUOUS
 62
     5
 10
72.845580276841247
 20
-12.8446412283879
 30
0.0
 11
83.843891088602732
 21
-14.783940166334791
 31
0.0
  0
LINE
  8
DETAIL
  6
CONTINUOUS
 62
     5
 10
72.845580276841247
 20
12.8446412283879
 30
0.0
 11
83.843891088602732
 21
14.783940166334791
 31
0.0
  0
LINE
  8
DETAIL
  6
CONTINUOUS
 62
     5
 10
9.5153473344106487
 20
-5.4936883450177447
 30
0.0
 11
9.5153473344106487
 21
5.4936883450177447
 31
0.0
  0
LINE
  8
DETAIL
  6
CONTINUOUS
 62
     5
 10
-54.535182122327342
 20
-62.052860910696147
 30
0.0
 11
-48.024681314572938
 21
-58.294021516123848
 31
0.0
  0
LINE
  8
DETAIL
  6
CONTINUOUS
 62
     5
 10
0.0
 20
-10.98737669003526
 30
0.0
 11
9.5153473344106487
 21
-5.4936883450177447
 31
0.0
  0
LINE
  8
DETAIL
  6
CONTINUOUS
 62
     5
 10
-159.3322110472503
 20
-163.5817057577988
 30
0.0
 11
-157.19742906911591
 21
-161.44692377966479
 31
0.0
  0
LINE
  8
DETAIL
  6
CONTINUOUS
 62
     5
 10
163.5817057577996
 20
159.33221104725041
 30
0.0
 11
138.15147299830971
 21
133.90197828776101
 31
0.0
  0
LINE
  8
DETAIL
  6
CONTINUOUS
 62
     5
 10
-9.515347334410194
 20
5.4936883450177447
 30
0.0
 11
-9.515347334410194
 21
-5.4936883450177447
 31
0.0
  0
LINE
  8
DETAIL
  6
CONTINUOUS
 62
     5
 10
266.33769383328968
 20
-227.27524015791909
 30
0.0
 11
261.32961628886318
 21
-224.38382523973411
 31
0.0
  0
LINE
  8
DETAIL
  6
CONTINUOUS
 62
     5
 10
256.32153874443702
 20
-233.0580699942893
 30
0.0
 11
261.32961628886318
 21
-235.9494849132509
 31
0.0
  0
LINE
  8
DETAIL
  6
CONTINUOUS
 62
     5
 10
-61.045682930082307
 20
-58.294021516123848
 30
0.0
 11
-54.535182122327342
 21
-62.052860910696147
 31
0.0
  0
LINE
  8
DETAIL
  6
CONTINUOUS
 62
     5
 10
0.0
 20
10.98737669003526
 30
0.0
 11
-9.515347334410194
 21
5.4936883450177447
 31
0.0
  0
LINE
  8
DETAIL
  6
CONTINUOUS
 62
     5
 10
54.535182122328017
 20
47.01750333473592
 30
0.0
 11
61.045682930082421
 21
50.776342728531972
 31
0.0
  0
LINE
  8
DETAIL
  6
CONTINUOUS
 62
     5
 10
-163.5817057577986
 20
-159.33221104725041
 30
0.0
 11
-161.42566325904511
 21
-157.17616854849669
 31
0.0
  0
LINE
  8
DETAIL
  6
CONTINUOUS
 62
     5
 10
159.33221104725101
 20
163.5817057577988
 30
0.0
 11
138.4364759937387
 21
142.68597070506331
 31
0.0
  0
LINE
  8
DETAIL
  6
CONTINUOUS
 62
     5
 10
-40.064620355411762
 20
-95.153473344103531
 30
0.0
 11
-40.064620355411762
 21
-94.652665589660728
 31
0.0
  0
LINE
  8
DETAIL
  6
CONTINUOUS
 62
     5
 10
-48.024681314572938
 20
50.776342728531972
 30
0.0
 11
-48.024681314572938
 21
58.294021516123848
 31
0.0
  0
LINE
  8
DETAIL
  6
CONTINUOUS
 62
     5
 10
-48.024681314572938
 20
-58.294021516123848
 30
0.0
 11
-48.024681314572938
 21
-51.104618982329612
 31
0.0
  0
LINE
  8
DETAIL
  6
CONTINUOUS
 62
     5
 10
-40.064620355411762
 20
-94.652665589660728
 30
0.0
 11
-21.694974037795191
 21
-94.652665589660728
 31
0.0
  0
LINE
  8
DETAIL
  6
CONTINUOUS
 62
     5
 10
-21.578988890558659
 20
-95.153473344103531
 30
0.0
 11
-40.064620355411762
 21
-95.153473344103531
 31
0.0
  0
LINE
  8
DETAIL
  6
CONTINUOUS
 62
     5
 10
-61.045682930082307
 20
-56.790003816007363
 30
0.0
 11
-61.045682930082307
 21
-58.294021516123848
 31
0.0
  0
LINE
  8
DETAIL
  6
CONTINUOUS
 62
     5
 10
-54.535182122327342
 20
47.01750333473592
 30
0.0
 11
-48.024681314572938
 21
50.776342728531972
 31
0.0
  0
LINE
  8
DETAIL
  6
CONTINUOUS
 62
     5
 10
-54.535182122327342
 20
62.052860909919673
 30
0.0
 11
-56.886288987539047
 21
60.695448729233249
 31
0.0
  0
LINE
  8
DETAIL
  6
CONTINUOUS
 62
     5
 10
-89.644588045233945
 20
70.368395926738685
 30
0.0
 11
-89.644588045233945
 21
88.91549001943622
 31
0.0
  0
LINE
  8
DETAIL
  6
CONTINUOUS
 62
     5
 10
-95.65428109854588
 20
71.151553181275176
 30
0.0
 11
-95.65428109854588
 21
88.91549001943622
 31
0.0
  0
LINE
  8
DETAIL
  6
CONTINUOUS
 62
     5
 10
230.16665507610449
 20
255.5467864524928
 30
0.0
 11
235.1747326205309
 21
258.43820137067792
 31
0.0
  0
LINE
  8
DETAIL
  6
CONTINUOUS
 62
     5
 10
230.16665507610449
 20
267.11244612600967
 30
0.0
 11
225.15857753167811
 21
264.2210312070481
 31
0.0
  0
LINE
  8
DETAIL
  6
CONTINUOUS
 62
     5
 10
-260.42003231017742
 20
-200.52747191328851
 30
0.0
 11
-266.93053311793187
 21
-200.52747191328851
 31
0.0
  0
LINE
  8
DETAIL
  6
CONTINUOUS
 62
     5
 10
266.93053311793221
 20
-200.52747191328851
 30
0.0
 11
260.42003231017787
 21
-200.52747191328851
 31
0.0
  0
LINE
  8
DETAIL
  6
CONTINUOUS
 62
     5
 10
287.18249766680492
 20
-242.3141699031946
 30
0.0
 11
291.97092084006499
 21
-242.3141699031946
 31
0.0
  0
LINE
  8
DETAIL
  6
CONTINUOUS
 62
     5
 10
-291.97092084006431
 20
-242.3141699031946
 30
0.0
 11
-287.18249766680412
 21
-242.3141699031946
 31
0.0
  0
LINE
  8
DETAIL
  6
CONTINUOUS
 62
     5
 10
-200.527471913288
 20
260.4200323101777
 30
0.0
 11
-200.527471913288
 21
266.9305331179321
 31
0.0
  0
LINE
  8
DETAIL
  6
CONTINUOUS
 62
     5
 10
-200.527471913288
 20
-266.9305331179321
 30
0.0
 11
-200.527471913288
 21
-260.4200323101777
 31
0.0
  0
LINE
  8
DETAIL
  6
CONTINUOUS
 62
     5
 10
-225.15857753167751
 20
-264.22103120782458
 30
0.0
 11
-225.15857753167751
 21
-258.43820137067792
 31
0.0
  0
LINE
  8
DETAIL
  6
CONTINUOUS
 62
     5
 10
-235.17473262053039
 20
-258.43820137067792
 30
0.0
 11
-235.17473262053039
 21
-264.22103120782458
 31
0.0
  0
LINE
  8
DETAIL
  6
CONTINUOUS
 62
     5
 10
-242.31416990319411
 20
-287.18249766680452
 30
0.0
 11
-242.31416990319411
 21
-291.97092084006448
 31
0.0
  0
LINE
  8
DETAIL
  6
CONTINUOUS
 62
     5
 10
-242.31416990319411
 20
291.97092084006448
 30
0.0
 11
-242.31416990319411
 21
287.18249766680452
 31
0.0
  0
LINE
  8
DETAIL
  6
CONTINUOUS
 62
     5
 10
171.07997595206129
 20
-296.37802907916011
 30
0.0
 11
-171.07997595206041
 21
-296.37802907916011
 31
0.0
  0
LINE
  8
DETAIL
  6
CONTINUOUS
 62
     5
 10
-227.89090657524599
 20
-306.394184168013
 30
0.0
 11
227.8909065752465
 21
-306.394184168013
 31
0.0
  0
LINE
  8
DETAIL
  6
CONTINUOUS
 62
     5
 10
-256.3215387444364
 20
227.27524015791909
 30
0.0
 11
-256.3215387444364
 21
233.0580699942893
 31
0.0
  0
LINE
  8
DETAIL
  6
CONTINUOUS
 62
     5
 10
-266.33769383328888
 20
233.0580699942893
 30
0.0
 11
-266.33769383328888
 21
227.27524015791909
 31
0.0
  0
LINE
  8
DETAIL
  6
CONTINUOUS
 62
     5
 10
-206.57081955594779
 20
-245.8301004698001
 30
0.0
 11
-245.83010046979959
 21
-206.57081955594799
 31
0.0
  0
LINE
  8
DETAIL
  6
CONTINUOUS
 62
     5
 10
269.93537964458818
 20
-310.0
 30
0.0
 11
-269.93537964458761
 21
-310.0
 31
0.0
  0
LINE
  8
DETAIL
  6
CONTINUOUS
 62
     5
 10
-296.37802907915972
 20
-171.07997595206069
 30
0.0
 11
-296.37802907915972
 21
171.07997595206069
 31
0.0
  0
LINE
  8
DETAIL
  6
CONTINUOUS
 62
     5
 10
-225.15857753167751
 20
-258.43820137067792
 30
0.0
 11
-230.16665507610401
 21
-255.5467864524928
 31
0.0
  0
LINE
  8
DETAIL
  6
CONTINUOUS
 62
     5
 10
-235.17473262053039
 20
-264.22103120782458
 30
0.0
 11
-230.16665507610401
 21
-267.1124461260099
 31
0.0
  0
LINE
  8
DETAIL
  6
CONTINUOUS
 62
     5
 10
-306.39418416801237
 20
227.89090657524639
 30
0.0
 11
-306.39418416801237
 21
-227.89090657524639
 31
0.0
  0
LINE
  8
DETAIL
  6
CONTINUOUS
 62
     5
 10
-309.99999999999972
 20
-269.93537964458801
 30
0.0
 11
-309.99999999999972
 21
269.93537964458801
 31
0.0
  0
LINE
  8
DETAIL
  6
CONTINUOUS
 62
     5
 10
-261.96882904927901
 20
-252.75801340198629
 30
0.0
 11
-252.75801340198601
 21
-261.96882904927929
 31
0.0
  0
LINE
  8
DETAIL
  6
CONTINUOUS
 62
     5
 10
-261.32961628886272
 20
224.38382523973411
 30
0.0
 11
-256.3215387444364
 21
227.27524015791909
 31
0.0
  0
LINE
  8
DETAIL
  6
CONTINUOUS
 62
     5
 10
-261.32961628886272
 20
235.9494849132509
 30
0.0
 11
-266.33769383328888
 21
233.0580699942893
 31
0.0
  0
LINE
  8
DETAIL
  6
CONTINUOUS
 62
     5
 10
-245.83010046979959
 20
206.57081955594799
 30
0.0
 11
-206.57081955594779
 21
245.8301004698001
 31
0.0
  0
LINE
  8
DETAIL
  6
CONTINUOUS
 62
     5
 10
-252.75801340198601
 20
261.96882904927929
 30
0.0
 11
-261.96882904927901
 21
252.75801340198629
 31
0.0
  0
LINE
  8
BASIS
  6
DASHDOT
 62
     6
 10
-329.18210166434972
 20
0.0
 30
0.0
 11
329.18210166434977
 21
0.0
 31
0.0
  0
LINE
  8
BASIS
  6
DASHDOT
 62
     6
 10
0.0
 20
-339.15166998534772
 30
0.0
 11
0.0
 21
331.38720867615939
 31
0.0
  0
CIRCLE
  8
DETAIL
  6
CONTINUOUS
 62
     5
 10
0.0
 20
0.0
 30
0.0
 40
225.36348949919221
  0
ARC
  8
DETAIL
  6
CONTINUOUS
 62
     5
 10
-56.863267478179182
 20
141.64094275795449
 30
0.0
 40
195.1682365921198
 50
357.72746687297712
 51
11.398276712177219
  0
ARC
  8
DETAIL
  6
CONTINUOUS
 62
     5
 10
-0.7136775799936004
 20
-0.783607617644293
 30
0.0
 40
225.89827632077811
 50
53.247191894040292
 51
130.7481720857424
  0
ARC
  8
DETAIL
  6
CONTINUOUS
 62
     5
 10
-145.015208955936
 20
166.31541788750539
 30
0.0
 40
5.1217531269792964
 50
127.95807260542441
 51
256.8426425762529
  0
ARC
  8
DETAIL
  6
CONTINUOUS
 62
     5
 10
-163.29745620187171
 20
-24.902601582533411
 30
0.0
 40
187.01564678916651
 50
58.872256276484357
 51
84.748717809693943
  0
ARC
  8
DETAIL
  6
CONTINUOUS
 62
     5
 10
-57.317831338634278
 20
110.5698899298156
 30
0.0
 40
17.942941206988799
 50
41.699243791056041
 51
74.252962959868427
  0
ARC
  8
DETAIL
  6
CONTINUOUS
 62
     5
 10
-28.265911855507511
 20
133.54536919672
 30
0.0
 40
19.15580857939139
 50
215.19062942832551
 51
246.52278612828391
  0
ARC
  8
DETAIL
  6
CONTINUOUS
 62
     5
 10
-38.29553371552538
 20
106.2580907408724
 30
0.0
 40
10.0087890430445
 50
0.1130902999627272
 51
76.136229139174944
  0
ARC
  8
DETAIL
  6
CONTINUOUS
 62
     5
 10
20.020924981356071
 20
120.6276679878608
 30
0.0
 40
50.393950237130262
 50
196.54407697402559
 51
212.18220780032451
  0
ARC
  8
DETAIL
  6
CONTINUOUS
 62
     5
 10
-88.68215405148112
 20
-54.297759811200883
 30
0.0
 40
46.000457511118242
 50
275.74325217272678
 51
311.17333722711987
  0
ARC
  8
DETAIL
  6
CONTINUOUS
 62
     5
 10
-90.326015785457571
 20
-52.771390632158273
 30
0.0
 40
57.143855367628333
 50
275.93071426247189
 51
318.09651076030491
  0
ARC
  8
DETAIL
  6
CONTINUOUS
 62
     5
 10
-46.010569038902759
 20
157.60045765798671
 30
0.0
 40
30.449360766897151
 50
227.4022937579679
 51
257.79420453560903
  0
ARC
  8
DETAIL
  6
CONTINUOUS
 62
     5
 10
-9.4962341650524422
 20
135.89656786943991
 30
0.0
 40
147.6611791176891
 50
307.31248430699821
 51
359.22603191158868
  0
ARC
  8
DETAIL
  6
CONTINUOUS
 62
     5
 10
156.74538107143229
 20
-7.1422353449584079
 30
0.0
 40
210.65075764860509
 50
240.9164884020804
 51
251.19429101893309
  0
ARC
  8
DETAIL
  6
CONTINUOUS
 62
     5
 10
-2.0680832067746451
 20
1.102278310518614
 30
0.0
 40
227.59708471177069
 50
314.41546489383637
 51
10.64333095080919
  0
ARC
  8
DETAIL
  6
CONTINUOUS
 62
     5
 10
-6.8604157476602268
 20
13.00244479245748
 30
0.0
 40
239.50136349385349
 50
293.55204490083639
 51
313.24188599390033
  0
ARC
  8
DETAIL
  6
CONTINUOUS
 62
     5
 10
216.54098140957291
 20
42.429145947197412
 30
0.0
 40
5.1217531269792964
 50
7.9580726054504876
 51
136.84264257623661
  0
ARC
  8
DETAIL
  6
CONTINUOUS
 62
     5
 10
60.082442510140027
 20
153.87104623546429
 30
0.0
 40
187.01564678916651
 50
298.87225627656341
 51
324.74871780966942
  0
ARC
  8
DETAIL
  6
CONTINUOUS
 62
     5
 10
124.4152492421872
 20
-5.6462469358191356
 30
0.0
 40
17.942941206988799
 50
281.69924379108988
 51
314.2529629598385
  0
ARC
  8
DETAIL
  6
CONTINUOUS
 62
     5
 10
129.7866382098855
 20
-42.293686870358208
 30
0.0
 40
19.15580857939139
 50
95.190629428328862
 51
126.5227861281824
  0
ARC
  8
DETAIL
  6
CONTINUOUS
 62
     5
 10
111.1699727969899
 20
-19.964140321307919
 30
0.0
 40
10.008789043044491
 50
240.11309029996471
 51
316.13622913922609
  0
ARC
  8
DETAIL
  6
CONTINUOUS
 62
     5
 10
94.456162386084543
 20
-77.652463635048207
 30
0.0
 40
50.393950237130539
 50
76.544076974063245
 51
88.637661583015131
  0
ARC
  8
DETAIL
  6
CONTINUOUS
 62
     5
 10
159.49128449932141
 20
-38.953907198725567
 30
0.0
 40
30.449360766897151
 50
107.4022937579589
 51
137.794204535652
  0
ARC
  8
DETAIL
  6
CONTINUOUS
 62
     5
 10
112.71940825678951
 20
-67.061689583957104
 30
0.0
 40
137.20498457116511
 50
184.74846209321359
 51
244.8235674884985
  0
ARC
  8
DETAIL
  6
CONTINUOUS
 62
     5
 10
-94.233020917174144
 20
-120.06550554238081
 30
0.0
 40
195.16823657308379
 50
117.7274668787601
 51
131.398276712513
  0
ARC
  8
DETAIL
  6
CONTINUOUS
 62
     5
 10
1.4021182179508289
 20
0.5518988651597283
 30
0.0
 40
226.75383009890371
 50
224.0887928125436
 51
250.72553802728899
  0
ARC
  8
DETAIL
  6
CONTINUOUS
 62
     5
 10
1.035462893474687
 20
-0.2262591055628036
 30
0.0
 40
225.89827632077811
 50
173.24719189408691
 51
224.01175247374579
  0
ARC
  8
DETAIL
  6
CONTINUOUS
 62
     5
 10
-71.525772453636819
 20
-208.7445638347026
 30
0.0
 40
5.1217531269792964
 50
247.95807260542401
 51
16.84264257629561
  0
ARC
  8
DETAIL
  6
CONTINUOUS
 62
     5
 10
103.2150136917317
 20
-128.96844465293091
 30
0.0
 40
187.01564678916651
 50
178.87225627650881
 51
204.7487178097289
  0
ARC
  8
DETAIL
  6
CONTINUOUS
 62
     5
 10
-102.8653272985557
 20
-91.220928321932206
 30
0.0
 40
20.489031925521999
 50
334.17825467668149
 51
6.0101987087933644
  0
ARC
  8
DETAIL
  6
CONTINUOUS
 62
     5
 10
-72.047050259350044
 20
-86.572503753814772
 30
0.0
 40
10.737698245224021
 50
121.34112202516791
 51
193.4804903900046
  0
ARC
  8
DETAIL
  6
CONTINUOUS
 62
     5
 10
-113.48071546041869
 20
-118.64655045926069
 30
0.0
 40
30.449360766897151
 50
347.40229375792512
 51
17.79420453558788
  0
ARC
  8
DETAIL
  6
CONTINUOUS
 62
     5
 10
-113.3778539601944
 20
-68.691004943493454
 30
0.0
 40
140.95734336238669
 50
66.045998347159212
 51
120.5562199743712
  0
ARC
  8
DETAIL
  6
CONTINUOUS
 62
     5
 10
95.637307456788221
 20
4.1183577901449553
 30
0.0
 40
31.391120456713171
 50
247.38766963116811
 51
270.03098067439362
  0
ARC
  8
DETAIL
  6
CONTINUOUS
 62
     5
 10
82.265909649991727
 20
-26.54379538685771
 30
0.0
 40
2.1285616881918008
 50
52.299064219384732
 51
141.50364572293859
  0
ARC
  8
DETAIL
  6
CONTINUOUS
 62
     5
 10
223.87964515337191
 20
179.46384855861521
 30
0.0
 40
249.81732072332241
 50
230.23470688289819
 51
235.00785027643491
  0
ARC
  8
DETAIL
  6
CONTINUOUS
 62
     5
 10
75.024414809646828
 20
2.679761845116218
 30
0.0
 40
18.762155321279099
 50
184.88818781202789
 51
234.33579976453589
  0
ARC
  8
DETAIL
  6
CONTINUOUS
 62
     5
 10
-204.26760248538261
 20
-10.404625683971741
 30
0.0
 40
260.05611333589849
 50
5.2913472681877849
 51
9.0171429175760363
  0
ARC
  8
DETAIL
  6
CONTINUOUS
 62
     5
 10
79.288951038692062
 20
38.329726246279279
 30
0.0
 40
27.879546080723792
 50
138.53409778371
 51
196.62338040231469
  0
ARC
  8
DETAIL
  6
CONTINUOUS
 62
     5
 10
-7.0070830679043183
 20
6.8541583446567529
 30
0.0
 40
82.288643503815351
 50
9.5717424977756682
 51
37.361927578078728
  0
ARC
  8
DETAIL
  6
CONTINUOUS
 62
     5
 10
77.963620217613766
 20
21.960475477514361
 30
0.0
 40
4.0836787798042344
 50
200.39556756424639
 51
302.30449236780368
  0
ARC
  8
DETAIL
  6
CONTINUOUS
 62
     5
 10
-51.431834537006239
 20
80.737031128850504
 30
0.0
 40
31.391120456713171
 50
7.3876696311767116
 51
30.030980674391209
  0
ARC
  8
DETAIL
  6
CONTINUOUS
 62
     5
 10
-18.19193204759404
 20
84.48813753255854
 30
0.0
 40
2.1285616881917999
 50
172.2990642193821
 51
261.50364572294143
  0
ARC
  8
DETAIL
  6
CONTINUOUS
 62
     5
 10
-267.40665282984298
 20
104.1254080305598
 30
0.0
 40
249.81732072332241
 50
350.23470688289751
 51
355.00785027643991
  0
ARC
  8
DETAIL
  6
CONTINUOUS
 62
     5
 10
-39.879527579259268
 20
63.605040423459059
 30
0.0
 40
18.762155321279099
 50
304.88818781203332
 51
354.33579976453598
  0
ARC
  8
DETAIL
  6
CONTINUOUS
 62
     5
 10
111.0978930614057
 20
-171.72674786369541
 30
0.0
 40
260.05611333589849
 50
125.2913472681899
 51
129.01714291758111
  0
ARC
  8
DETAIL
  6
CONTINUOUS
 62
     5
 10
-72.885570509200193
 20
49.473254932589498
 30
0.0
 40
27.879546080723792
 50
258.53409778371241
 51
316.62338040232271
  0
ARC
  8
DETAIL
  6
CONTINUOUS
 62
     5
 10
-2.478912054554598
 20
-9.5235188987599031
 30
0.0
 40
82.288643503815351
 50
129.57174249777509
 51
157.3619275780807
  0
ARC
  8
DETAIL
  6
CONTINUOUS
 62
     5
 10
-58.046718091992489
 20
56.510110157499639
 30
0.0
 40
4.0836787798042344
 50
320.39556756424878
 51
62.304492367811598
  0
ARC
  8
DETAIL
  6
CONTINUOUS
 62
     5
 10
-42.137735432736577
 20
-88.110349737371052
 30
0.0
 40
35.213705658285853
 50
126.9011746554514
 51
152.97843579898321
  0
ARC
  8
DETAIL
  6
CONTINUOUS
 62
     5
 10
-64.088997515375468
 20
-57.981543874259607
 30
0.0
 40
2.1285616881918008
 50
292.29906421938392
 51
21.50364572294756
  0
ARC
  8
DETAIL
  6
CONTINUOUS
 62
     5
 10
43.51198776349338
 20
-283.62645831773352
 30
0.0
 40
249.81732072332241
 50
110.2347068828964
 51
115.00785027644299
  0
ARC
  8
DETAIL
  6
CONTINUOUS
 62
     5
 10
-35.159907143365331
 20
-66.322003997133834
 30
0.0
 40
18.762155321279099
 50
64.888187812035696
 51
114.3357997645389
  0
ARC
  8
DETAIL
  6
CONTINUOUS
 62
     5
 10
93.154689510998992
 20
182.0941718191084
 30
0.0
 40
260.05611333589849
 50
245.29134726818421
 51
249.01714291758611
  0
ARC
  8
DETAIL
  6
CONTINUOUS
 62
     5
 10
-6.4184004424696468
 20
-87.840182907427788
 30
0.0
 40
27.879546080723792
 50
18.534097783710699
 51
76.62338040232305
  0
ARC
  8
DETAIL
  6
CONTINUOUS
 62
     5
 10
9.4709752094811392
 20
2.6321588255443662
 30
0.0
 40
82.288643503815351
 50
249.5717424977737
 51
277.36192757807459
  0
ARC
  8
DETAIL
  6
CONTINUOUS
 62
     5
 10
-19.931922038598941
 20
-78.507787363573016
 30
0.0
 40
4.0836787798042344
 50
80.395567564247528
 51
182.30449236780831
  0
ARC
  8
DETAIL
  6
CONTINUOUS
 62
     5
 10
-72.112022361189929
 20
-104.82839046644931
 30
0.0
 40
13.17069943005346
 50
159.17211894367239
 51
199.93434400985771
  0
ARC
  8
DETAIL
  6
CONTINUOUS
 62
     5
 10
-88.276475446589643
 20
-64.848517483440219
 30
0.0
 40
16.458520486550729
 50
310.29634553463671
 51
333.81240048864368
  0
LINE
  8
DETAIL
  6
CONTINUOUS
 62
     5
 10
-242.8783847940943
 20
-380.413857792925
 30
0.0
 11
-239.90029048691051
 21
-380.81392896482538
 31
0.0
  0
LINE
  8
DETAIL
  6
CONTINUOUS
 62
     5
 10
-246.75234271650359
 20
-352.03867533087617
 30
0.0
 11
-237.81464292283289
 21
-350.25113537245369
 31
0.0
  0
LINE
  8
DETAIL
  6
CONTINUOUS
 62
     5
 10
-248.047373355443
 20
-381.26316466678941
 30
0.0
 11
-250.75715006769519
 21
-379.96462209134262
 31
0.0
  0
ARC
  8
DETAIL
  6
CONTINUOUS
 62
     5
 10
-23.557623560787992
 20
-314.91252872290261
 30
0.0
 40
217.15176136946329
 50
178.70371221313579
 51
189.36579212156221
  0
ARC
  8
DETAIL
  6
CONTINUOUS
 62
     5
 10
-46.428828763051797
 20
-316.53150127627958
 30
0.0
 40
203.5461244570873
 50
178.16104887792139
 51
190.05185484653759
  0
LINE
  8
DETAIL
  6
CONTINUOUS
 62
     5
 10
-234.849660788161
 20
-380.90854282242913
 30
0.0
 11
-231.9031663506469
 21
-380.31924393492642
 31
0.0
  0
ARC
  8
DETAIL
  6
CONTINUOUS
 62
     5
 10
-289.35268479571312
 20
-360.17957494019743
 30
0.0
 40
43.371227694345322
 50
332.85917539721618
 51
10.818750785065591
  0
ARC
  8
DETAIL
  6
CONTINUOUS
 62
     5
 10
-289.67203221293693
 20
-360.13273061260378
 30
0.0
 40
46.680911177064459
 50
333.08572732216493
 51
10.720320447420811
  0
ARC
  8
DETAIL
  6
CONTINUOUS
 62
     5
 10
-319.44381252410341
 20
-368.36844805315877
 30
0.0
 40
77.507139150389932
 50
351.05940543395332
 51
12.60864523802859
  0
ARC
  8
DETAIL
  6
CONTINUOUS
 62
     5
 10
-328.85662912840439
 20
-368.67057128143603
 30
0.0
 40
89.78135285417973
 50
352.2266468080652
 51
11.30993247403746
  0
ARC
  8
DETAIL
  6
CONTINUOUS
 62
     5
 10
27771.024398696511
 20
5235.7859516788767
 30
0.0
 40
28563.547379138279
 50
191.27940599773771
 51
191.34045895030241
  0
ARC
  8
DETAIL
  6
CONTINUOUS
 62
     5
 10
912.70342063834869
 20
-139.6711379120234
 30
0.0
 40
1169.6306040417239
 50
190.37207493497431
 51
191.87323711969589
  0
ENDSEC
  0
EOF
