  0
SECTION
  2
HEADER
  9
$ACADVER
  1
AC1009
  9
$DWGCODEPAGE
  3
dos932
  9
$INSBASE
 10
0.0
 20
0.0
 30
0.0
  9
$EXTMIN
 10
-707.87657045046581
 20
-430.02318163637938
 30
-0.0000000349181948
  9
$EXTMAX
 10
1106.2271234768291
 20
678.68042804612742
 30
0.0000000814935746
  9
$LIMMIN
 10
-2970.0
 20
-2100.0
  9
$LIMMAX
 10
2970.0
 20
2100.0
  9
$ORTHOMODE
 70
     1
  9
$REGENMODE
 70
     1
  9
$FILLMODE
 70
     1
  9
$QTEXTMODE
 70
     0
  9
$MIRRTEXT
 70
     0
  9
$LTSCALE
 40
20.0
  9
$ATTMODE
 70
     1
  9
$TEXTSIZE
 40
64.0
  9
$TRACEWID
 40
0.05
  9
$TEXTSTYLE
  7
STANDARD
  9
$CLAYER
  8
SIZE
  9
$CELTYPE
  6
CONTINUOUS
  9
$CECOLOR
 62
     7
  9
$DIMSCALE
 40
1.0
  9
$DIMASZ
 40
12.0
  9
$DIMEXO
 40
20.0
  9
$DIMDLI
 40
200.0
  9
$DIMRND
 40
0.0
  9
$DIMDLE
 40
0.0
  9
$DIMEXE
 40
20.0
  9
$DIMTP
 40
0.0
  9
$DIMTM
 40
0.0
  9
$DIMTXT
 40
64.0
  9
$DIMCEN
 40
0.09
  9
$DIMTSZ
 40
0.0
  9
$DIMTOL
 70
     0
  9
$DIMLIM
 70
     0
  9
$DIMTIH
 70
     0
  9
$DIMTOH
 70
     0
  9
$DIMSE1
 70
     0
  9
$DIMSE2
 70
     0
  9
$DIMTAD
 70
     1
  9
$DIMZIN
 70
     8
  9
$DIMBLK
  1

  9
$DIMASO
 70
     1
  9
$DIMSHO
 70
     0
  9
$DIMPOST
  1

  9
$DIMAPOST
  1

  9
$DIMALT
 70
     0
  9
$DIMALTD
 70
     2
  9
$DIMALTF
 40
25.399999999999999
  9
$DIMLFAC
 40
1.0
  9
$DIMTOFL
 70
     1
  9
$DIMTVP
 40
0.0
  9
$DIMTIX
 70
     1
  9
$DIMSOXD
 70
     0
  9
$DIMSAH
 70
     0
  9
$DIMBLK1
  1

  9
$DIMBLK2
  1

  9
$DIMSTYLE
  2
STANDARD
  9
$DIMCLRD
 70
     7
  9
$DIMCLRE
 70
     7
  9
$DIMCLRT
 70
     7
  9
$DIMTFAC
 40
1.0
  9
$DIMGAP
 40
25.0
  9
$LUNITS
 70
     2
  9
$LUPREC
 70
     4
  9
$SKETCHINC
 40
0.1
  9
$FILLETRAD
 40
3.0
  9
$AUNITS
 70
     1
  9
$AUPREC
 70
     3
  9
$MENU
  1
ACAD
  9
$ELEVATION
 40
0.0
  9
$PELEVATION
 40
0.0
  9
$THICKNESS
 40
0.0
  9
$LIMCHECK
 70
     0
  9
$CHAMFERA
 40
0.0
  9
$CHAMFERB
 40
0.0
  9
$SKPOLY
 70
     0
  9
$TDCREATE
 40
2453019.62301037
  9
$TDUPDATE
 40
2458949.621547986
  9
$TDINDWG
 40
1.7133493171
  9
$TDUSRTIMER
 40
1.7133493171
  9
$USRTIMER
 70
     1
  9
$ANGBASE
 50
0.0
  9
$ANGDIR
 70
     0
  9
$PDMODE
 70
     3
  9
$PDSIZE
 40
-2.0
  9
$PLINEWID
 40
0.0
  9
$SPLFRAME
 70
     0
  9
$SPLINETYPE
 70
     6
  9
$SPLINESEGS
 70
     8
  9
$SURFTAB1
 70
     6
  9
$SURFTAB2
 70
     6
  9
$SURFTYPE
 70
     6
  9
$SURFU
 70
     6
  9
$SURFV
 70
     6
  9
$UCSNAME
  2

  9
$UCSORG
 10
0.0
 20
0.0
 30
0.0
  9
$UCSXDIR
 10
1.0
 20
0.0
 30
0.0
  9
$UCSYDIR
 10
0.0
 20
1.0
 30
0.0
  9
$PUCSNAME
  2

  9
$PUCSORG
 10
0.0
 20
0.0
 30
0.0
  9
$PUCSXDIR
 10
1.0
 20
0.0
 30
0.0
  9
$PUCSYDIR
 10
0.0
 20
1.0
 30
0.0
  9
$USERI1
 70
     0
  9
$USERI2
 70
     0
  9
$USERI3
 70
     0
  9
$USERI4
 70
     0
  9
$USERI5
 70
     0
  9
$USERR1
 40
20.0
  9
$USERR2
 40
0.0
  9
$USERR3
 40
0.0
  9
$USERR4
 40
0.0
  9
$USERR5
 40
0.0
  9
$WORLDVIEW
 70
     1
  9
$SHADEDGE
 70
     3
  9
$SHADEDIF
 70
    70
  9
$TILEMODE
 70
     1
  9
$MAXACTVP
 70
    48
  9
$PINSBASE
 10
0.0
 20
0.0
 30
0.0
  9
$PLIMCHECK
 70
     0
  9
$PEXTMIN
 10
-100000000000000000000.0
 20
-100000000000000000000.0
 30
-100000000000000000000.0
  9
$PEXTMAX
 10
100000000000000000000.0
 20
100000000000000000000.0
 30
100000000000000000000.0
  9
$PLIMMIN
 10
0.0
 20
0.0
  9
$PLIMMAX
 10
12.0
 20
9.0
  9
$UNITMODE
 70
     0
  9
$VISRETAIN
 70
     0
  9
$PLINEGEN
 70
     0
  9
$PSLTSCALE
 70
     0
  9
$TREEDEPTH
 70
  3020
  9
$ATTDIA
 70
     0
  9
$ATTREQ
 70
     1
  9
$BLIPMODE
 70
     1
  9
$COORDS
 70
     1
  9
$DRAGMODE
 70
     2
  9
$OSMODE
 70
     0
  9
$HANDLING
 70
     0
  9
$HANDSEED
  5
FCA9
  0
ENDSEC
  0
SECTION
  2
TABLES
  0
TABLE
  2
LTYPE
 70
     2
  0
LTYPE
  2
CONTINUOUS
 70
     0
  3
実線
 72
    65
 73
     0
 40
0.0
  0
LTYPE
  2
DASHDOT
 70
     0
  3
____ _ ____ _ ____ _ ____ _ ____ _ ____ _ ____
 72
    65
 73
     4
 40
5.5
 49
4.0
 49
-0.6
 49
0.3
 49
-0.6
  0
ENDTAB
  0
TABLE
  2
LAYER
 70
    12
  0
LAYER
  2
0
 70
     0
 62
     7
  6
CONTINUOUS
  0
LAYER
  2
BASIS
 70
     0
 62
     6
  6
DASHDOT
  0
LAYER
  2
OUTLINE
 70
     0
 62
     3
  6
CONTINUOUS
  0
LAYER
  2
DETAIL
 70
     0
 62
     5
  6
CONTINUOUS
  0
LAYER
  2
SIZE
 70
     0
 62
    30
  6
CONTINUOUS
  0
LAYER
  2
ARRANGE
 70
     0
 62
     1
  6
CONTINUOUS
  0
LAYER
  2
DEFPOINTS
 70
     0
 62
     7
  6
CONTINUOUS
  0
LAYER
  2
ETC
 70
     0
 62
    61
  6
CONTINUOUS
  0
LAYER
  2
FIX
 70
     0
 62
    11
  6
CONTINUOUS
  0
LAYER
  2
NOTE
 70
     0
 62
     4
  6
CONTINUOUS
  0
LAYER
  2
SERVICESPACE
 70
    64
 62
     2
  6
DASHDOT
  0
LAYER
  2
SYMBOLLINE
 70
    64
 62
    15
  6
CONTINUOUS
  0
ENDTAB
  0
TABLE
  2
STYLE
 70
     1
  0
STYLE
  2
STANDARD
 70
     0
 40
64.0
 41
0.9
 50
0.0
 71
     0
 42
64.0
  3
SIMPLEX.shx
  4
BIGFONT.shx
  0
ENDTAB
  0
TABLE
  2
APPID
 70
    19
  0
APPID
  2
ACAD
 70
     0
  0
APPID
  2
AUTOCAD_POSTSCRIPT_FIGURE
 70
     0
  0
APPID
  2
ACAD_EXEMPT_FROM_CAD_STANDARDS
 70
     0
  0
APPID
  2
ACAD_PSEXT
 70
     0
  0
APPID
  2
ACAUTHENVIRON
 70
     0
  0
APPID
  2
GENIUS_GENOENT_13
 70
     0
  0
APPID
  2
GENIUS_GENCFG_13
 70
     0
  0
APPID
  2
GENIUS_GENCFG0_13
 70
     0
  0
APPID
  2
GENIUS_GENCFG1_13
 70
     0
  0
APPID
  2
GENIUS_GENCFG2_13
 70
     0
  0
APPID
  2
GENIUS_GENCFG3_13
 70
     0
  0
APPID
  2
GENIUS_GENCFG4_13
 70
     0
  0
APPID
  2
GENIUS_GEVCFG0_13
 70
     0
  0
APPID
  2
CONTENTBLOCKICON
 70
     0
  0
APPID
  2
CONTENTBLOCKDESCRIPTION
 70
     0
  0
APPID
  2
ACAD_NAV_VCDISPLAY
 70
     0
  0
APPID
  2
ACAD_MLEADERVER
 70
     0
  0
APPID
  2
ACDBDYNAMICBLOCKTRUENAME
 70
     0
  0
APPID
  2
ACDBDYNAMICBLOCKGUID
 70
     0
  0
ENDTAB
  0
TABLE
  2
DIMSTYLE
 70
     1
  0
DIMSTYLE
  2
STANDARD
 70
     0
  3

  4

  5
_ORIGIN
  6

  7

 40
1.0
 41
12.0
 42
20.0
 43
200.0
 44
20.0
 45
0.0
 46
0.0
 47
0.0
 48
0.0
140
64.0
141
0.09
142
0.0
143
25.399999999999999
144
1.0
145
0.0
146
1.0
147
25.0
 71
     0
 72
     0
 73
     0
 74
     0
 75
     0
 76
     0
 77
     1
 78
     8
170
     0
171
     2
172
     1
173
     0
174
     1
175
     0
176
     7
177
     7
178
     7
  0
ENDTAB
  0
TABLE
  2
VIEW
 70
     1
  0
VIEW
  2
ALL
 70
     0
 40
4282.6198079999986
 10
0.0
 20
41.309904000000003
 41
5940.0
 11
0.0
 21
0.0
 31
1.0
 12
0.0
 22
0.0
 32
0.0
 42
50.0
 43
0.0
 44
0.0
 50
0.0
 71
     0
  0
ENDTAB
  0
TABLE
  2
UCS
 70
     0
  0
ENDTAB
  0
TABLE
  2
VPORT
 70
     1
  0
VPORT
  2
*ACTIVE
 70
     0
 10
0.0
 20
0.0
 11
1.0
 21
1.0
 12
199.17527651318139
 22
124.32862320487411
 13
0.0
 23
0.0
 14
1.0
 24
1.0
 15
0.0
 25
0.0
 16
0.0
 26
0.0
 36
1.0
 17
0.0
 27
0.0
 37
0.0
 40
1116.0541308516731
 41
1.747787610619469
 42
50.0
 43
0.0
 44
0.0
 50
0.0
 51
0.0
 71
     0
 72
  1000
 73
     1
 74
     3
 75
     0
 76
     0
 77
     0
 78
     0
  0
ENDTAB
  0
ENDSEC
  0
SECTION
  2
BLOCKS
  0
BLOCK
  8
0
  2
_ORIGIN
 70
     0
 10
0.0
 20
0.0
 30
0.0
  3
_ORIGIN
  1
_ORIGIN
  0
CIRCLE
  8
0
  6
CONTINUOUS
 62
     7
 10
0.0
 20
0.0
 30
0.0
 40
0.5
  0
LINE
  8
0
  6
CONTINUOUS
 62
     7
 10
0.0
 20
0.0
 30
0.0
 11
-1.0
 21
0.0
 31
0.0
  0
ENDBLK
  8
0
  0
ENDSEC
  0
SECTION
  2
ENTITIES
  0
CIRCLE
  8
ARRANGE
  6
CONTINUOUS
 62
     1
 10
0.0
 20
0.0
 30
0.0
 40
40.0
  0
POINT
  8
ARRANGE
  6
CONTINUOUS
 62
     1
 10
0.0
 20
0.0
 30
0.0
 50
359.99829045418988
  0
TEXT
  8
ETC
  6
CONTINUOUS
 62
    61
 10
491.70080710425901
 20
614.51412067233741
 30
0.0
 40
64.0
  1
EWF-45ETA2_2
 41
0.9
  0
TEXT
  8
ETC
  6
CONTINUOUS
 62
    61
 10
487.51481310425862
 20
496.558810657506
 30
0.0
 40
64.0
  1
産業扇
 41
0.9
  0
TEXT
  8
ETC
  6
CONTINUOUS
 62
    61
 10
538.21621135281453
 20
388.41003777128071
 30
0.0
 40
40.0
  1
EWF-45ETA2
 41
0.9
  0
CIRCLE
  8
FIX
  6
CONTINUOUS
 62
    11
 10
-280.45234248788381
 20
280.4523424878837
 30
0.0
 40
7.0
  0
CIRCLE
  8
FIX
  6
CONTINUOUS
 62
    11
 10
-280.45234248788381
 20
-280.4523424878837
 30
0.0
 40
7.0
  0
CIRCLE
  8
FIX
  6
CONTINUOUS
 62
    11
 10
280.45234248788319
 20
-280.4523424878837
 30
0.0
 40
7.0
  0
CIRCLE
  8
FIX
  6
CONTINUOUS
 62
    11
 10
280.45234248788353
 20
280.45234248788353
 30
0.0
 40
7.0
  0
LINE
  8
SIZE
  6
CONTINUOUS
 62
    30
 10
-310.00000000000028
 20
289.93537964458801
 30
0.0
 11
-310.00000000000028
 21
496.98818270582802
 31
0.0
  0
LINE
  8
SIZE
  6
CONTINUOUS
 62
    30
 10
309.99999999999977
 20
289.93537964458801
 30
0.0
 11
309.99999999999977
 21
496.98818270582802
 31
0.0
  0
LINE
  8
SIZE
  6
CONTINUOUS
 62
    30
 10
-298.00000000000028
 20
476.98818270582802
 30
0.0
 11
297.99999999999977
 21
476.98818270582802
 31
0.0
  0
CIRCLE
  8
SIZE
  6
CONTINUOUS
 62
    30
 10
-310.00000000000028
 20
476.98818270582802
 30
0.0
 40
6.0
  0
LINE
  8
SIZE
  6
CONTINUOUS
 62
    30
 10
-310.00000000000028
 20
476.98818270582802
 30
0.0
 11
-298.00000000000028
 21
476.98818270582802
 31
0.0
  0
CIRCLE
  8
SIZE
  6
CONTINUOUS
 62
    30
 10
309.99999999999977
 20
476.98818270582802
 30
0.0
 40
6.0
  0
LINE
  8
SIZE
  6
CONTINUOUS
 62
    30
 10
309.99999999999977
 20
476.98818270582802
 30
0.0
 11
297.99999999999977
 21
476.98818270582802
 31
0.0
  0
TEXT
  8
SIZE
  6
CONTINUOUS
 62
    30
 10
-74.057142857143077
 20
501.98818270582802
 30
0.0
 40
64.0
  1
620
 41
0.9
 72
     1
 11
-0.0000000000002274
 21
501.98818270582802
 31
0.0
  0
POINT
  8
DEFPOINTS
  6
CONTINUOUS
 62
    30
 10
-310.00000000000028
 20
269.93537964458801
 30
0.0
  0
POINT
  8
DEFPOINTS
  6
CONTINUOUS
 62
    30
 10
309.99999999999977
 20
269.93537964458801
 30
0.0
  0
POINT
  8
DEFPOINTS
  6
CONTINUOUS
 62
    30
 10
309.99999999999977
 20
476.98818270582802
 30
0.0
  0
LINE
  8
SIZE
  6
CONTINUOUS
 62
    30
 10
-280.45234248788381
 20
331.51018772463698
 30
0.0
 11
-280.45234248788381
 21
391.28524152930049
 31
0.0
  0
LINE
  8
SIZE
  6
CONTINUOUS
 62
    30
 10
280.45234248788319
 20
331.51018772463698
 30
0.0
 11
280.45234248788319
 21
391.28524152930049
 31
0.0
  0
LINE
  8
SIZE
  6
CONTINUOUS
 62
    30
 10
-268.45234248788381
 20
371.28524152930049
 30
0.0
 11
268.45234248788319
 21
371.28524152930049
 31
0.0
  0
CIRCLE
  8
SIZE
  6
CONTINUOUS
 62
    30
 10
-280.45234248788381
 20
371.28524152930049
 30
0.0
 40
6.0
  0
LINE
  8
SIZE
  6
CONTINUOUS
 62
    30
 10
-280.45234248788381
 20
371.28524152930049
 30
0.0
 11
-268.45234248788381
 21
371.28524152930049
 31
0.0
  0
CIRCLE
  8
SIZE
  6
CONTINUOUS
 62
    30
 10
280.45234248788319
 20
371.28524152930049
 30
0.0
 40
6.0
  0
LINE
  8
SIZE
  6
CONTINUOUS
 62
    30
 10
280.45234248788319
 20
371.28524152930049
 30
0.0
 11
268.45234248788319
 21
371.28524152930049
 31
0.0
  0
TEXT
  8
SIZE
  6
CONTINUOUS
 62
    30
 10
-74.057142856880461
 20
396.28524152930049
 30
0.0
 40
64.0
  1
560
 41
0.9
 72
     1
 11
0.0000000002623892
 21
396.28524152930049
 31
0.0
  0
POINT
  8
DEFPOINTS
  6
CONTINUOUS
 62
    30
 10
-280.45234248788381
 20
311.51018772463698
 30
0.0
  0
POINT
  8
DEFPOINTS
  6
CONTINUOUS
 62
    30
 10
280.45234248788319
 20
311.51018772463698
 30
0.0
  0
POINT
  8
DEFPOINTS
  6
CONTINUOUS
 62
    30
 10
280.45234248788319
 20
371.28524152930049
 30
0.0
  0
LINE
  8
SIZE
  6
CONTINUOUS
 62
    30
 10
-289.93537964458818
 20
310.0
 30
0.0
 11
-638.63796098190198
 21
310.0
 31
0.0
  0
LINE
  8
SIZE
  6
CONTINUOUS
 62
    30
 10
-289.93537964458818
 20
-310.0
 30
0.0
 11
-638.63796098190221
 21
-310.0
 31
0.0
  0
LINE
  8
SIZE
  6
CONTINUOUS
 62
    30
 10
-618.63796098190198
 20
298.0
 30
0.0
 11
-618.63796098190221
 21
-298.0
 31
0.0
  0
CIRCLE
  8
SIZE
  6
CONTINUOUS
 62
    30
 10
-618.63796098190198
 20
310.0
 30
0.0
 40
6.0
  0
LINE
  8
SIZE
  6
CONTINUOUS
 62
    30
 10
-618.63796098190198
 20
310.0
 30
0.0
 11
-618.63796098190198
 21
298.0
 31
0.0
  0
CIRCLE
  8
SIZE
  6
CONTINUOUS
 62
    30
 10
-618.63796098190221
 20
-310.0
 30
0.0
 40
6.0
  0
LINE
  8
SIZE
  6
CONTINUOUS
 62
    30
 10
-618.63796098190221
 20
-310.0
 30
0.0
 11
-618.63796098190221
 21
-298.0
 31
0.0
  0
TEXT
  8
SIZE
  6
CONTINUOUS
 62
    30
 10
-643.63796098190221
 20
-80.859766315696021
 30
0.0
 40
64.0
  1
620
 50
90.0
 41
0.9
 72
     1
 11
-643.63796098190221
 21
-6.8026234585531711
 31
0.0
  0
POINT
  8
DEFPOINTS
  6
CONTINUOUS
 62
    30
 10
-269.93537964458818
 20
310.0
 30
0.0
  0
POINT
  8
DEFPOINTS
  6
CONTINUOUS
 62
    30
 10
-269.93537964458818
 20
-310.0
 30
0.0
  0
POINT
  8
DEFPOINTS
  6
CONTINUOUS
 62
    30
 10
-618.63796098190221
 20
-310.0
 30
0.0
  0
LINE
  8
SIZE
  6
CONTINUOUS
 62
    30
 10
-331.51018772463721
 20
280.4523424878837
 30
0.0
 11
-531.35754604625367
 21
280.45234248788393
 31
0.0
  0
LINE
  8
SIZE
  6
CONTINUOUS
 62
    30
 10
-331.51018772463721
 20
-280.4523424878837
 30
0.0
 11
-531.3575460462539
 21
-280.45234248788353
 31
0.0
  0
LINE
  8
SIZE
  6
CONTINUOUS
 62
    30
 10
-511.35754604625367
 20
268.45234248788393
 30
0.0
 11
-511.35754604625367
 21
-268.45234248788353
 31
0.0
  0
CIRCLE
  8
SIZE
  6
CONTINUOUS
 62
    30
 10
-511.35754604625367
 20
280.45234248788393
 30
0.0
 40
6.0
  0
LINE
  8
SIZE
  6
CONTINUOUS
 62
    30
 10
-511.35754604625367
 20
280.45234248788393
 30
0.0
 11
-511.35754604625367
 21
268.45234248788393
 31
0.0
  0
CIRCLE
  8
SIZE
  6
CONTINUOUS
 62
    30
 10
-511.35754604625367
 20
-280.45234248788353
 30
0.0
 40
6.0
  0
LINE
  8
SIZE
  6
CONTINUOUS
 62
    30
 10
-511.35754604625367
 20
-280.45234248788353
 30
0.0
 11
-511.35754604625367
 21
-268.45234248788353
 31
0.0
  0
TEXT
  8
SIZE
  6
CONTINUOUS
 62
    30
 10
-536.35754604625379
 20
-74.05714285714285
 30
0.0
 40
64.0
  1
560
 50
90.0
 41
0.9
 72
     1
 11
-536.35754604625379
 21
0.0
 31
0.0
  0
POINT
  8
DEFPOINTS
  6
CONTINUOUS
 62
    30
 10
-311.51018772463721
 20
280.4523424878837
 30
0.0
  0
POINT
  8
DEFPOINTS
  6
CONTINUOUS
 62
    30
 10
-311.51018772463721
 20
-280.4523424878837
 30
0.0
  0
POINT
  8
DEFPOINTS
  6
CONTINUOUS
 62
    30
 10
-511.35754604625367
 20
-280.45234248788353
 30
0.0
  0
LINE
  8
SIZE
  6
CONTINUOUS
 62
    30
 10
-20.000000000000231
 20
65.305331179321456
 30
0.0
 11
-393.98015678251681
 21
65.305331179321684
 31
0.0
  0
LINE
  8
SIZE
  6
CONTINUOUS
 62
    30
 10
-20.000000000000231
 20
-65.305331179321456
 30
0.0
 11
-393.98015678251681
 21
-65.305331179321456
 31
0.0
  0
LINE
  8
SIZE
  6
CONTINUOUS
 62
    30
 10
-373.98015678251681
 20
53.305331179321684
 30
0.0
 11
-373.98015678251681
 21
-53.305331179321463
 31
0.0
  0
CIRCLE
  8
SIZE
  6
CONTINUOUS
 62
    30
 10
-373.98015678251681
 20
65.305331179321684
 30
0.0
 40
6.0
  0
LINE
  8
SIZE
  6
CONTINUOUS
 62
    30
 10
-373.98015678251681
 20
65.305331179321684
 30
0.0
 11
-373.98015678251681
 21
53.305331179321684
 31
0.0
  0
CIRCLE
  8
SIZE
  6
CONTINUOUS
 62
    30
 10
-373.98015678251681
 20
-65.305331179321456
 30
0.0
 40
6.0
  0
LINE
  8
SIZE
  6
CONTINUOUS
 62
    30
 10
-373.98015678251681
 20
-65.305331179321456
 30
0.0
 11
-373.98015678251681
 21
-53.305331179321463
 31
0.0
  0
TEXT
  8
SIZE
  6
CONTINUOUS
 62
    30
 10
-409.64682344918327
 20
-96.548571428571194
 30
0.0
 40
64.0
  1
φ131
 50
90.0
 41
0.9
 72
     1
 11
-409.64682344918327
 21
0.0000000000002274
 31
0.0
  0
POINT
  8
DEFPOINTS
  6
CONTINUOUS
 62
    30
 10
-0.0000000000002274
 20
65.305331179321456
 30
0.0
  0
POINT
  8
DEFPOINTS
  6
CONTINUOUS
 62
    30
 10
-0.0000000000002274
 20
-65.305331179321456
 30
0.0
  0
POINT
  8
DEFPOINTS
  6
CONTINUOUS
 62
    30
 10
-373.98015678251681
 20
-65.305331179321456
 30
0.0
  0
TEXT
  8
NOTE
  6
CONTINUOUS
 62
     4
 10
-627.91141437069984
 20
370.5871302558312
 30
0.0
 40
64.0
  1
4-φ14
 41
0.9
  0
TEXT
  8
NOTE
  6
CONTINUOUS
 62
     4
 10
405.83083862514059
 20
-405.93649603330317
 30
0.0
 40
64.0
  1
EL
 41
0.9
  0
LINE
  8
SIZE
  6
CONTINUOUS
 62
    30
 10
596.06466722980667
 20
195.9545943536707
 30
0.0
 11
268.30935530807199
 21
88.205951084193202
 31
0.0
  0
LINE
  8
SIZE
  6
CONTINUOUS
 62
    30
 10
-268.30935530807238
 20
-88.205951084193202
 30
0.0
 11
-279.70914190534722
 21
-91.953599084818734
 31
0.0
  0
TEXT
  8
SIZE
  6
CONTINUOUS
 62
    30
 10
360.74446909593922
 20
144.91001864360129
 30
0.0
 40
64.0
  1
φ540
 50
18.19813522114498
 41
0.9
 72
     1
 11
469.40072077739268
 21
180.63045787242211
 31
0.0
  0
LINE
  8
SIZE
  6
CONTINUOUS
 62
    30
 10
-256.9095687107976
 20
-84.458303083567444
 30
0.0
 11
256.9095687107972
 21
84.458303083567444
 31
0.0
  0
CIRCLE
  8
SIZE
  6
CONTINUOUS
 62
    30
 10
-256.9095687107976
 20
-84.458303083567444
 30
0.0
 40
6.0
  0
LINE
  8
SIZE
  6
CONTINUOUS
 62
    30
 10
-256.9095687107976
 20
-84.458303083567444
 30
0.0
 11
-268.30935530807238
 21
-88.205951084193202
 31
0.0
  0
CIRCLE
  8
SIZE
  6
CONTINUOUS
 62
    30
 10
256.9095687107972
 20
84.458303083567444
 30
0.0
 40
6.0
  0
LINE
  8
SIZE
  6
CONTINUOUS
 62
    30
 10
256.9095687107972
 20
84.458303083567444
 30
0.0
 11
268.30935530807187
 21
88.205951084193202
 31
0.0
  0
POINT
  8
DEFPOINTS
  6
CONTINUOUS
 62
    30
 10
256.9095687107972
 20
84.458303083567444
 30
0.0
  0
POINT
  8
DEFPOINTS
  6
CONTINUOUS
 62
    30
 10
-256.9095687107976
 20
-84.458303083567444
 30
0.0
  0
LINE
  8
SIZE
  6
CONTINUOUS
 62
    30
 10
604.5246498954341
 20
-72.068259807121649
 30
0.0
 11
238.67825318793459
 21
-28.453970179765751
 31
0.0
  0
LINE
  8
SIZE
  6
CONTINUOUS
 62
    30
 10
-238.67825318793521
 20
28.453970179765751
 30
0.0
 11
-250.59387853863541
 21
29.874488571674419
 31
0.0
  0
TEXT
  8
SIZE
  6
CONTINUOUS
 62
    30
 10
372.40012325721489
 20
-19.21856532879767
 30
0.0
 40
64.0
  1
φ456
 50
353.20158308038378
 41
0.9
 72
     1
 11
484.6112694169517
 21
-32.595789956600129
 31
0.0
  0
LINE
  8
SIZE
  6
CONTINUOUS
 62
    30
 10
-226.76262783723499
 20
27.033451787857299
 30
0.0
 11
226.7626278372345
 21
-27.033451787857299
 31
0.0
  0
CIRCLE
  8
SIZE
  6
CONTINUOUS
 62
    30
 10
-226.76262783723499
 20
27.033451787857299
 30
0.0
 40
6.0
  0
LINE
  8
SIZE
  6
CONTINUOUS
 62
    30
 10
-226.76262783723499
 20
27.033451787857299
 30
0.0
 11
-238.67825318793521
 21
28.453970179765751
 31
0.0
  0
CIRCLE
  8
SIZE
  6
CONTINUOUS
 62
    30
 10
226.7626278372345
 20
-27.033451787857299
 30
0.0
 40
6.0
  0
LINE
  8
SIZE
  6
CONTINUOUS
 62
    30
 10
226.7626278372345
 20
-27.033451787857299
 30
0.0
 11
238.67825318793459
 21
-28.453970179765751
 31
0.0
  0
POINT
  8
DEFPOINTS
  6
CONTINUOUS
 62
    30
 10
226.7626278372345
 20
-27.033451787857299
 30
0.0
  0
POINT
  8
DEFPOINTS
  6
CONTINUOUS
 62
    30
 10
-226.76262783723499
 20
27.033451787857299
 30
0.0
  0
LINE
  8
SIZE
  6
CONTINUOUS
 62
    30
 10
572.65441533483204
 20
-260.30770865723252
 30
0.0
 11
216.0863071667367
 21
-98.224915384416363
 31
0.0
  0
LINE
  8
SIZE
  6
CONTINUOUS
 62
    30
 10
-216.0863071667371
 20
98.224915384416363
 30
0.0
 11
-227.01063125496071
 21
103.1907127237623
 31
0.0
  0
TEXT
  8
SIZE
  6
CONTINUOUS
 62
    30
 10
364.97632795297409
 20
-138.4432085737505
 30
0.0
 40
64.0
  1
φ450
 50
335.55519552600771
 41
0.9
 72
     1
 11
469.10074269101437
 21
-185.7743512139177
 31
0.0
  0
LINE
  8
SIZE
  6
CONTINUOUS
 62
    30
 10
-205.16198307851349
 20
93.259118045070181
 30
0.0
 11
205.161983078513
 21
-93.259118045070181
 31
0.0
  0
CIRCLE
  8
SIZE
  6
CONTINUOUS
 62
    30
 10
-205.16198307851349
 20
93.259118045070181
 30
0.0
 40
6.0
  0
LINE
  8
SIZE
  6
CONTINUOUS
 62
    30
 10
-205.16198307851349
 20
93.259118045070181
 30
0.0
 11
-216.0863071667371
 21
98.224915384416363
 31
0.0
  0
CIRCLE
  8
SIZE
  6
CONTINUOUS
 62
    30
 10
205.161983078513
 20
-93.259118045070181
 30
0.0
 40
6.0
  0
LINE
  8
SIZE
  6
CONTINUOUS
 62
    30
 10
205.161983078513
 20
-93.259118045070181
 30
0.0
 11
216.0863071667367
 21
-98.224915384416363
 31
0.0
  0
POINT
  8
DEFPOINTS
  6
CONTINUOUS
 62
    30
 10
205.161983078513
 20
-93.259118045070181
 30
0.0
  0
POINT
  8
DEFPOINTS
  6
CONTINUOUS
 62
    30
 10
-205.16198307851349
 20
93.259118045070181
 30
0.0
  0
LINE
  8
DETAIL
  6
CONTINUOUS
 62
     4
 10
-283.82610848968238
 20
286.51758690474048
 30
0.0
 11
-281.06270985005011
 21
280.95446482730239
 31
0.0
  0
LINE
  8
DETAIL
  6
CONTINUOUS
 62
     4
 10
-281.06270985005011
 20
280.95446482730239
 30
0.0
 11
-286.23744948948598
 21
284.39056275286413
 31
0.0
  0
LINE
  8
DETAIL
  6
CONTINUOUS
 62
     4
 10
-281.06270985005011
 20
280.95446482730239
 30
0.0
 11
-289.00084812911831
 21
289.95368483030228
 31
0.0
  0
LINE
  8
NOTE
  6
CONTINUOUS
 62
     4
 10
-289.00084812911831
 20
289.95368483030228
 30
0.0
 11
-337.1663027295516
 21
344.55735980491801
 31
0.0
  0
LINE
  8
NOTE
  6
CONTINUOUS
 62
     4
 10
-337.1663027295516
 20
344.55735980491801
 30
0.0
 11
-635.0348649745855
 21
344.71881465409842
 31
0.0
  0
LINE
  8
DETAIL
  6
CONTINUOUS
 62
     4
 10
237.6418162896272
 20
-245.8227336727407
 30
0.0
 11
235.02848147654981
 21
-240.18756016656039
 31
0.0
  0
LINE
  8
DETAIL
  6
CONTINUOUS
 62
     4
 10
235.02848147654981
 20
-240.18756016656039
 30
0.0
 11
240.1092879514712
 21
-243.76108851462141
 31
0.0
  0
LINE
  8
DETAIL
  6
CONTINUOUS
 62
     4
 10
235.02848147654981
 20
-240.18756016656039
 30
0.0
 11
242.7226227645485
 21
-249.39626202080169
 31
0.0
  0
LINE
  8
NOTE
  6
CONTINUOUS
 62
     4
 10
242.72262276454879
 20
-249.39626202080169
 30
0.0
 11
392.72276569569181
 21
-429.87910515757812
 31
0.0
  0
LINE
  8
NOTE
  6
CONTINUOUS
 62
     4
 10
392.72276569569181
 20
-429.87910515757812
 30
0.0
 11
492.56947368739088
 21
-429.79172874594587
 31
0.0
  0
ARC
  8
OUTLINE
  6
CONTINUOUS
 62
     3
 10
269.93537964458778
 20
269.93537964458801
 30
0.0
 40
40.064620355411932
 50
0.0
 51
90.0
  0
ARC
  8
OUTLINE
  6
CONTINUOUS
 62
     3
 10
269.93537964458778
 20
-269.93537964458801
 30
0.0
 40
40.064620355412053
 50
270.0
 51
0.0
  0
ARC
  8
OUTLINE
  6
CONTINUOUS
 62
     3
 10
-269.93537964458869
 20
269.93537964458801
 30
0.0
 40
40.064620355411883
 50
90.0
 51
180.0
  0
ARC
  8
OUTLINE
  6
CONTINUOUS
 62
     3
 10
-269.93537964458869
 20
-269.93537964458801
 30
0.0
 40
40.064620355411883
 50
180.0
 51
270.0
  0
LINE
  8
OUTLINE
  6
CONTINUOUS
 62
     3
 10
269.93537964458778
 20
310.0
 30
0.0
 11
-269.93537964458869
 21
310.0
 31
0.0
  0
LINE
  8
OUTLINE
  6
CONTINUOUS
 62
     3
 10
309.99999999999977
 20
-269.93537964458801
 30
0.0
 11
309.99999999999977
 21
269.93537964458801
 31
0.0
  0
LINE
  8
OUTLINE
  6
CONTINUOUS
 62
     3
 10
-269.93537964458869
 20
-310.0
 30
0.0
 11
269.93537964458778
 21
-310.00000000000023
 31
0.0
  0
LINE
  8
OUTLINE
  6
CONTINUOUS
 62
     3
 10
-310.00000000000051
 20
269.93537964458801
 30
0.0
 11
-310.00000000000051
 21
-269.93537964458801
 31
0.0
  0
LINE
  8
DETAIL
  6
CONTINUOUS
 62
     5
 10
-257.87782285063457
 20
-269.7391535563238
 30
0.0
 11
-257.78879164911518
 21
-269.82983657532941
 31
0.0
  0
LINE
  8
DETAIL
  6
CONTINUOUS
 62
     5
 10
-257.78879164911518
 20
-269.82983657532941
 30
0.0
 11
-257.7005322377251
 21
-269.92128093606948
 31
0.0
  0
LINE
  8
DETAIL
  6
CONTINUOUS
 62
     5
 10
-257.7005322377251
 20
-269.92128093606948
 30
0.0
 11
-257.7005322377251
 21
-269.92128093606948
 31
0.0
  0
LINE
  8
DETAIL
  6
CONTINUOUS
 62
     5
 10
-257.7005322377251
 20
-269.92128093606948
 30
0.0
 11
-257.61365680496391
 21
-270.01408390676278
 31
0.0
  0
LINE
  8
DETAIL
  6
CONTINUOUS
 62
     5
 10
-257.61365680496391
 20
-270.01408390676278
 30
0.0
 11
-257.52813913281761
 21
-270.10818646156758
 31
0.0
  0
LINE
  8
DETAIL
  6
CONTINUOUS
 62
     5
 10
-257.52813913281761
 20
-270.10818646156758
 30
0.0
 11
-257.52813913281761
 21
-270.10818646156758
 31
0.0
  0
LINE
  8
DETAIL
  6
CONTINUOUS
 62
     5
 10
-257.52813913281761
 20
-270.10818646156758
 30
0.0
 11
-257.4438392041136
 21
-270.20340534020062
 31
0.0
  0
LINE
  8
DETAIL
  6
CONTINUOUS
 62
     5
 10
-257.4438392041136
 20
-270.20340534020062
 30
0.0
 11
-257.36080021157261
 21
-270.29971663867991
 31
0.0
  0
LINE
  8
DETAIL
  6
CONTINUOUS
 62
     5
 10
-257.36080021157261
 20
-270.29971663867991
 30
0.0
 11
-257.36080021157261
 21
-270.29971663867991
 31
0.0
  0
LINE
  8
DETAIL
  6
CONTINUOUS
 62
     5
 10
-257.36080021157261
 20
-270.29971663867991
 30
0.0
 11
-257.27908754212501
 21
-270.39714100931309
 31
0.0
  0
LINE
  8
DETAIL
  6
CONTINUOUS
 62
     5
 10
-257.27908754212501
 20
-270.39714100931309
 30
0.0
 11
-257.19867214964842
 21
-270.49571797326922
 31
0.0
  0
LINE
  8
DETAIL
  6
CONTINUOUS
 62
     5
 10
-257.19867214964842
 20
-270.49571797326922
 30
0.0
 11
-257.19867214964842
 21
-270.49571797326922
 31
0.0
  0
LINE
  8
DETAIL
  6
CONTINUOUS
 62
     5
 10
-257.19867214964842
 20
-270.49571797326922
 30
0.0
 11
-257.11955001033721
 21
-270.59543306099607
 31
0.0
  0
LINE
  8
DETAIL
  6
CONTINUOUS
 62
     5
 10
-257.11955001033721
 20
-270.59543306099607
 30
0.0
 11
-257.04191162270507
 21
-270.69603697119783
 31
0.0
  0
LINE
  8
DETAIL
  6
CONTINUOUS
 62
     5
 10
-257.04191162270507
 20
-270.69603697119783
 30
0.0
 11
-257.04191162270507
 21
-270.69603697119783
 31
0.0
  0
LINE
  8
DETAIL
  6
CONTINUOUS
 62
     5
 10
-257.04191162270507
 20
-270.69603697119783
 30
0.0
 11
-256.9659207204665
 21
-270.79731742710828
 31
0.0
  0
LINE
  8
DETAIL
  6
CONTINUOUS
 62
     5
 10
-256.9659207204665
 20
-270.79731742710828
 30
0.0
 11
-256.89143945581208
 21
-270.89944508182879
 31
0.0
  0
LINE
  8
DETAIL
  6
CONTINUOUS
 62
     5
 10
-256.89143945581208
 20
-270.89944508182879
 30
0.0
 11
-256.89143945581208
 21
-270.89944508182879
 31
0.0
  0
LINE
  8
DETAIL
  6
CONTINUOUS
 62
     5
 10
-256.89143945581208
 20
-270.89944508182879
 30
0.0
 11
-256.81830230308759
 21
-271.00262611350541
 31
0.0
  0
LINE
  8
DETAIL
  6
CONTINUOUS
 62
     5
 10
-256.81830230308759
 20
-271.00262611350541
 30
0.0
 11
-256.74653460678451
 21
-271.10682587059608
 31
0.0
  0
LINE
  8
DETAIL
  6
CONTINUOUS
 62
     5
 10
-256.74653460678451
 20
-271.10682587059608
 30
0.0
 11
-256.74653460678451
 21
-271.10682587059608
 31
0.0
  0
LINE
  8
DETAIL
  6
CONTINUOUS
 62
     5
 10
-256.74653460678451
 20
-271.10682587059608
 30
0.0
 11
-256.67619664707189
 21
-271.21196561725537
 31
0.0
  0
LINE
  8
DETAIL
  6
CONTINUOUS
 62
     5
 10
-256.67619664707189
 20
-271.21196561725537
 30
0.0
 11
-256.6072975766873
 21
-271.31803111010981
 31
0.0
  0
LINE
  8
DETAIL
  6
CONTINUOUS
 62
     5
 10
-256.6072975766873
 20
-271.31803111010981
 30
0.0
 11
-256.6072975766873
 21
-271.31803111010981
 31
0.0
  0
LINE
  8
DETAIL
  6
CONTINUOUS
 62
     5
 10
-256.6072975766873
 20
-271.31803111010981
 30
0.0
 11
-256.53983717640608
 21
-271.42501994385412
 31
0.0
  0
LINE
  8
DETAIL
  6
CONTINUOUS
 62
     5
 10
-256.53983717640608
 20
-271.42501994385412
 30
0.0
 11
-256.47382886658511
 21
-271.53291257298002
 31
0.0
  0
LINE
  8
DETAIL
  6
CONTINUOUS
 62
     5
 10
-256.47382886658511
 20
-271.53291257298002
 30
0.0
 11
-256.47382886658511
 21
-271.53291257298002
 31
0.0
  0
LINE
  8
DETAIL
  6
CONTINUOUS
 62
     5
 10
-256.47382886658511
 20
-271.53291257298002
 30
0.0
 11
-256.40928861975311
 21
-271.64168618401408
 31
0.0
  0
LINE
  8
DETAIL
  6
CONTINUOUS
 62
     5
 10
-256.40928861975311
 20
-271.64168618401408
 30
0.0
 11
-256.34622897754298
 21
-271.75132203181738
 31
0.0
  0
LINE
  8
DETAIL
  6
CONTINUOUS
 62
     5
 10
-256.34622897754298
 20
-271.75132203181738
 30
0.0
 11
-256.34622897754298
 21
-271.75132203181738
 31
0.0
  0
LINE
  8
DETAIL
  6
CONTINUOUS
 62
     5
 10
-256.34622897754298
 20
-271.75132203181738
 30
0.0
 11
-256.28466117011772
 21
-271.86180221801419
 31
0.0
  0
LINE
  8
DETAIL
  6
CONTINUOUS
 62
     5
 10
-256.28466117011772
 20
-271.86180221801419
 30
0.0
 11
-256.22459461265493
 21
-271.97310816294288
 31
0.0
  0
LINE
  8
DETAIL
  6
CONTINUOUS
 62
     5
 10
-256.22459461265493
 20
-271.97310816294288
 30
0.0
 11
-256.22459461265493
 21
-271.97310816294288
 31
0.0
  0
LINE
  8
DETAIL
  6
CONTINUOUS
 62
     5
 10
-256.22459461265493
 20
-271.97310816294288
 30
0.0
 11
-256.16603874574071
 21
-272.08521977560531
 31
0.0
  0
LINE
  8
DETAIL
  6
CONTINUOUS
 62
     5
 10
-256.16603874574071
 20
-272.08521977560531
 30
0.0
 11
-256.10900492657811
 21
-272.19811160094082
 31
0.0
  0
LINE
  8
DETAIL
  6
CONTINUOUS
 62
     5
 10
-256.10900492657811
 20
-272.19811160094082
 30
0.0
 11
-256.10900492657811
 21
-272.19811160094082
 31
0.0
  0
LINE
  8
DETAIL
  6
CONTINUOUS
 62
     5
 10
-256.10900492657811
 20
-272.19811160094082
 30
0.0
 11
-256.05350305876681
 21
-272.31176199297119
 31
0.0
  0
LINE
  8
DETAIL
  6
CONTINUOUS
 62
     5
 10
-256.05350305876681
 20
-272.31176199297119
 30
0.0
 11
-255.99953531486449
 21
-272.42616990611123
 31
0.0
  0
LINE
  8
DETAIL
  6
CONTINUOUS
 62
     5
 10
-255.99953531486449
 20
-272.42616990611123
 30
0.0
 11
-255.99953531486449
 21
-272.42616990611123
 31
0.0
  0
LINE
  8
DETAIL
  6
CONTINUOUS
 62
     5
 10
-255.99953531486449
 20
-272.42616990611123
 30
0.0
 11
-255.94710918655551
 21
-272.54132018549649
 31
0.0
  0
LINE
  8
DETAIL
  6
CONTINUOUS
 62
     5
 10
-255.94710918655551
 20
-272.54132018549649
 30
0.0
 11
-255.89626117306369
 21
-272.6571206387539
 31
0.0
  0
LINE
  8
DETAIL
  6
CONTINUOUS
 62
     5
 10
-255.89626117306369
 20
-272.6571206387539
 30
0.0
 11
-255.89626117306369
 21
-272.6571206387539
 31
0.0
  0
LINE
  8
DETAIL
  6
CONTINUOUS
 62
     5
 10
-255.89626117306369
 20
-272.6571206387539
 30
0.0
 11
-255.8470079507176
 21
-272.77353170154362
 31
0.0
  0
LINE
  8
DETAIL
  6
CONTINUOUS
 62
     5
 10
-255.8470079507176
 20
-272.77353170154362
 30
0.0
 11
-255.79925789672669
 21
-272.89080135916862
 31
0.0
  0
LINE
  8
DETAIL
  6
CONTINUOUS
 62
     5
 10
-255.79925789672669
 20
-272.89080135916862
 30
0.0
 11
-255.79925789672669
 21
-272.89080135916862
 31
0.0
  0
LINE
  8
DETAIL
  6
CONTINUOUS
 62
     5
 10
-255.79925789672669
 20
-272.89080135916862
 30
0.0
 11
-255.75293560796851
 21
-273.00913559165519
 31
0.0
  0
LINE
  8
DETAIL
  6
CONTINUOUS
 62
     5
 10
-255.75293560796851
 20
-273.00913559165519
 30
0.0
 11
-255.7081388591107
 21
-273.12828480828239
 31
0.0
  0
LINE
  8
DETAIL
  6
CONTINUOUS
 62
     5
 10
-255.7081388591107
 20
-273.12828480828239
 30
0.0
 11
-255.7081388591107
 21
-273.12828480828239
 31
0.0
  0
LINE
  8
DETAIL
  6
CONTINUOUS
 62
     5
 10
-255.7081388591107
 20
-273.12828480828239
 30
0.0
 11
-255.66498340113711
 21
-273.24795742313108
 31
0.0
  0
LINE
  8
DETAIL
  6
CONTINUOUS
 62
     5
 10
-255.66498340113711
 20
-273.24795742313108
 30
0.0
 11
-255.6234837125038
 21
-273.36814944023672
 31
0.0
  0
LINE
  8
DETAIL
  6
CONTINUOUS
 62
     5
 10
-255.6234837125038
 20
-273.36814944023672
 30
0.0
 11
-255.6234837125038
 21
-273.36814944023672
 31
0.0
  0
LINE
  8
DETAIL
  6
CONTINUOUS
 62
     5
 10
-255.6234837125038
 20
-273.36814944023672
 30
0.0
 11
-255.58362085139731
 21
-273.48890609235099
 31
0.0
  0
LINE
  8
DETAIL
  6
CONTINUOUS
 62
     5
 10
-255.58362085139731
 20
-273.48890609235099
 30
0.0
 11
-255.54534346745561
 21
-273.6101819371379
 31
0.0
  0
LINE
  8
DETAIL
  6
CONTINUOUS
 62
     5
 10
-255.54534346745561
 20
-273.6101819371379
 30
0.0
 11
-255.54534346745561
 21
-273.6101819371379
 31
0.0
  0
LINE
  8
DETAIL
  6
CONTINUOUS
 62
     5
 10
-255.54534346745561
 20
-273.6101819371379
 30
0.0
 11
-255.50864983486159
 21
-273.73192764108882
 31
0.0
  0
LINE
  8
DETAIL
  6
CONTINUOUS
 62
     5
 10
-255.50864983486159
 20
-273.73192764108882
 30
0.0
 11
-255.47376913451649
 21
-273.85416898109378
 31
0.0
  0
LINE
  8
DETAIL
  6
CONTINUOUS
 62
     5
 10
-255.47376913451649
 20
-273.85416898109378
 30
0.0
 11
-255.47376913451649
 21
-273.85416898109378
 31
0.0
  0
LINE
  8
DETAIL
  6
CONTINUOUS
 62
     5
 10
-255.47376913451649
 20
-273.85416898109378
 30
0.0
 11
-255.44076546941909
 21
-273.97689807001598
 31
0.0
  0
LINE
  8
DETAIL
  6
CONTINUOUS
 62
     5
 10
-255.44076546941909
 20
-273.97689807001598
 30
0.0
 11
-255.40881172423661
 21
-274.0998972542111
 31
0.0
  0
LINE
  8
DETAIL
  6
CONTINUOUS
 62
     5
 10
-274.09989725498798
 20
-255.4088117234601
 30
0.0
 11
-273.97689760101071
 21
-255.44076559529589
 31
0.0
  0
LINE
  8
DETAIL
  6
CONTINUOUS
 62
     5
 10
-273.97689760101071
 20
-255.44076559529589
 30
0.0
 11
-273.85416804453968
 21
-255.47376939504969
 31
0.0
  0
LINE
  8
DETAIL
  6
CONTINUOUS
 62
     5
 10
-273.85416804453968
 20
-255.47376939504969
 30
0.0
 11
-273.85416804453968
 21
-255.47376939504969
 31
0.0
  0
LINE
  8
DETAIL
  6
CONTINUOUS
 62
     5
 10
-273.85416804453968
 20
-255.47376939504969
 30
0.0
 11
-273.73192624093559
 21
-255.50865024439489
 31
0.0
  0
LINE
  8
DETAIL
  6
CONTINUOUS
 62
     5
 10
-273.73192624093559
 20
-255.50865024439489
 30
0.0
 11
-273.61018007697612
 21
-255.545344040027
 31
0.0
  0
LINE
  8
DETAIL
  6
CONTINUOUS
 62
     5
 10
-273.61018007697612
 20
-255.545344040027
 30
0.0
 11
-273.61018007697612
 21
-255.545344040027
 31
0.0
  0
LINE
  8
DETAIL
  6
CONTINUOUS
 62
     5
 10
-273.61018007697612
 20
-255.545344040027
 30
0.0
 11
-273.48890377555591
 21
-255.5836215993013
 31
0.0
  0
LINE
  8
DETAIL
  6
CONTINUOUS
 62
     5
 10
-273.48890377555591
 20
-255.5836215993013
 30
0.0
 11
-273.36814667262138
 21
-255.62348464719071
 31
0.0
  0
LINE
  8
DETAIL
  6
CONTINUOUS
 62
     5
 10
-273.36814667262138
 20
-255.62348464719071
 30
0.0
 11
-273.36814667262138
 21
-255.62348464719071
 31
0.0
  0
LINE
  8
DETAIL
  6
CONTINUOUS
 62
     5
 10
-273.36814667262138
 20
-255.62348464719071
 30
0.0
 11
-273.24795421147581
 21
-255.6649845342001
 31
0.0
  0
LINE
  8
DETAIL
  6
CONTINUOUS
 62
     5
 10
-273.24795421147581
 20
-255.6649845342001
 30
0.0
 11
-273.12828115179832
 21
-255.70814020534141
 31
0.0
  0
LINE
  8
DETAIL
  6
CONTINUOUS
 62
     5
 10
-273.12828115179832
 20
-255.70814020534141
 30
0.0
 11
-273.12828115179832
 21
-255.70814020534141
 31
0.0
  0
LINE
  8
DETAIL
  6
CONTINUOUS
 62
     5
 10
-273.12828115179832
 20
-255.70814020534141
 30
0.0
 11
-273.00913148772281
 21
-255.75293718284209
 31
0.0
  0
LINE
  8
DETAIL
  6
CONTINUOUS
 62
     5
 10
-273.00913148772281
 20
-255.75293718284209
 30
0.0
 11
-272.89079683483232
 21
-255.79925970327781
 31
0.0
  0
LINE
  8
DETAIL
  6
CONTINUOUS
 62
     5
 10
-272.89079683483232
 20
-255.79925970327781
 30
0.0
 11
-272.89079683483232
 21
-255.79925970327781
 31
0.0
  0
LINE
  8
DETAIL
  6
CONTINUOUS
 62
     5
 10
-272.89079683483232
 20
-255.79925970327781
 30
0.0
 11
-272.77352680912031
 21
-255.8470099811216
 31
0.0
  0
LINE
  8
DETAIL
  6
CONTINUOUS
 62
     5
 10
-272.77352680912031
 20
-255.8470099811216
 30
0.0
 11
-272.65711540676841
 21
-255.8962634280856
 31
0.0
  0
LINE
  8
DETAIL
  6
CONTINUOUS
 62
     5
 10
-272.65711540676841
 20
-255.8962634280856
 30
0.0
 11
-272.65711540676841
 21
-255.8962634280856
 31
0.0
  0
LINE
  8
DETAIL
  6
CONTINUOUS
 62
     5
 10
-272.65711540676841
 20
-255.8962634280856
 30
0.0
 11
-272.54131461291598
 21
-255.94711167822271
 31
0.0
  0
LINE
  8
DETAIL
  6
CONTINUOUS
 62
     5
 10
-272.54131461291598
 20
-255.94711167822271
 30
0.0
 11
-272.42616398835497
 21
-255.99953805771219
 31
0.0
  0
LINE
  8
DETAIL
  6
CONTINUOUS
 62
     5
 10
-272.42616398835497
 20
-255.99953805771219
 30
0.0
 11
-272.42616398835497
 21
-255.99953805771219
 31
0.0
  0
LINE
  8
DETAIL
  6
CONTINUOUS
 62
     5
 10
-272.42616398835497
 20
-255.99953805771219
 30
0.0
 11
-272.31175573216092
 21
-256.0535060650127
 31
0.0
  0
LINE
  8
DETAIL
  6
CONTINUOUS
 62
     5
 10
-272.31175573216092
 20
-256.0535060650127
 30
0.0
 11
-272.19810502089581
 21
-256.10900819557492
 31
0.0
  0
LINE
  8
DETAIL
  6
CONTINUOUS
 62
     5
 10
-272.19810502089581
 20
-256.10900819557492
 30
0.0
 11
-272.19810502089581
 21
-256.10900819557492
 31
0.0
  0
LINE
  8
DETAIL
  6
CONTINUOUS
 62
     5
 10
-272.19810502089581
 20
-256.10900819557492
 30
0.0
 11
-272.08521290409368
 21
-256.16604227407379
 31
0.0
  0
LINE
  8
DETAIL
  6
CONTINUOUS
 62
     5
 10
-272.08521290409368
 20
-256.16604227407379
 30
0.0
 11
-271.97310094569548
 21
-256.2245984450899
 31
0.0
  0
LINE
  8
DETAIL
  6
CONTINUOUS
 62
     5
 10
-271.97310094569548
 20
-256.2245984450899
 30
0.0
 11
-271.97310094569548
 21
-256.2245984450899
 31
0.0
  0
LINE
  8
DETAIL
  6
CONTINUOUS
 62
     5
 10
-271.97310094569548
 20
-256.2245984450899
 30
0.0
 11
-271.86179457946508
 21
-256.28466536402613
 31
0.0
  0
LINE
  8
DETAIL
  6
CONTINUOUS
 62
     5
 10
-271.86179457946508
 20
-256.28466536402613
 30
0.0
 11
-271.75131420405762
 21
-256.34623340967369
 31
0.0
  0
LINE
  8
DETAIL
  6
CONTINUOUS
 62
     5
 10
-271.75131420405762
 20
-256.34623340967369
 30
0.0
 11
-271.75131420405762
 21
-256.34623340967369
 31
0.0
  0
LINE
  8
DETAIL
  6
CONTINUOUS
 62
     5
 10
-271.75131420405762
 20
-256.34623340967369
 30
0.0
 11
-271.64167865789511
 21
-256.40929301217187
 31
0.0
  0
LINE
  8
DETAIL
  6
CONTINUOUS
 62
     5
 10
-271.64167865789511
 20
-256.40929301217187
 30
0.0
 11
-271.53290557358309
 21
-256.47383308366369
 31
0.0
  0
LINE
  8
DETAIL
  6
CONTINUOUS
 62
     5
 10
-271.53290557358309
 20
-256.47383308366369
 30
0.0
 11
-271.53290557358309
 21
-256.47383308366369
 31
0.0
  0
LINE
  8
DETAIL
  6
CONTINUOUS
 62
     5
 10
-271.53290557358309
 20
-256.47383308366369
 30
0.0
 11
-271.42501338309148
 21
-256.5398412534048
 31
0.0
  0
LINE
  8
DETAIL
  6
CONTINUOUS
 62
     5
 10
-271.42501338309148
 20
-256.5398412534048
 30
0.0
 11
-271.31802492166412
 21
-256.60730153709619
 31
0.0
  0
LINE
  8
DETAIL
  6
CONTINUOUS
 62
     5
 10
-271.31802492166412
 20
-256.60730153709619
 30
0.0
 11
-271.31802492166412
 21
-256.60730153709619
 31
0.0
  0
LINE
  8
DETAIL
  6
CONTINUOUS
 62
     5
 10
-271.31802492166412
 20
-256.60730153709619
 30
0.0
 11
-271.21195981833051
 21
-256.67620046882689
 31
0.0
  0
LINE
  8
DETAIL
  6
CONTINUOUS
 62
     5
 10
-271.21195981833051
 20
-256.67620046882689
 30
0.0
 11
-271.1068204739945
 21
-256.74653826979062
 31
0.0
  0
LINE
  8
DETAIL
  6
CONTINUOUS
 62
     5
 10
-271.1068204739945
 20
-256.74653826979062
 30
0.0
 11
-271.1068204739945
 21
-256.74653826979062
 31
0.0
  0
LINE
  8
DETAIL
  6
CONTINUOUS
 62
     5
 10
-271.1068204739945
 20
-256.74653826979062
 30
0.0
 11
-271.00262110983641
 21
-256.81830579924048
 31
0.0
  0
LINE
  8
DETAIL
  6
CONTINUOUS
 62
     5
 10
-271.00262110983641
 20
-256.81830579924048
 30
0.0
 11
-270.89944045626788
 21
-256.89144278156732
 31
0.0
  0
LINE
  8
DETAIL
  6
CONTINUOUS
 62
     5
 10
-270.89944045626788
 20
-256.89144278156732
 30
0.0
 11
-270.89944045626788
 21
-256.89144278156732
 31
0.0
  0
LINE
  8
DETAIL
  6
CONTINUOUS
 62
     5
 10
-270.89944045626788
 20
-256.89144278156732
 30
0.0
 11
-270.79731316880788
 21
-256.96592387053352
 31
0.0
  0
LINE
  8
DETAIL
  6
CONTINUOUS
 62
     5
 10
-270.79731316880788
 20
-256.96592387053352
 30
0.0
 11
-270.69603309417761
 21
-257.04191457224721
 31
0.0
  0
LINE
  8
DETAIL
  6
CONTINUOUS
 62
     5
 10
-270.69603309417761
 20
-257.04191457224721
 30
0.0
 11
-270.69603309417761
 21
-257.04191457224721
 31
0.0
  0
LINE
  8
DETAIL
  6
CONTINUOUS
 62
     5
 10
-270.69603309417761
 20
-257.04191457224721
 30
0.0
 11
-270.59542959888307
 21
-257.11955271853958
 31
0.0
  0
LINE
  8
DETAIL
  6
CONTINUOUS
 62
     5
 10
-270.59542959888307
 20
-257.11955271853958
 30
0.0
 11
-270.49571493737858
 21
-257.1986745917834
 31
0.0
  0
LINE
  8
DETAIL
  6
CONTINUOUS
 62
     5
 10
-270.49571493737858
 20
-257.1986745917834
 30
0.0
 11
-270.49571493737858
 21
-257.1986745917834
 31
0.0
  0
LINE
  8
DETAIL
  6
CONTINUOUS
 62
     5
 10
-270.49571493737858
 20
-257.1986745917834
 30
0.0
 11
-270.3971383850328
 21
-257.27908971250167
 31
0.0
  0
LINE
  8
DETAIL
  6
CONTINUOUS
 62
     5
 10
-270.3971383850328
 20
-257.27908971250167
 30
0.0
 11
-270.29971441292668
 21
-257.36080210328532
 31
0.0
  0
LINE
  8
DETAIL
  6
CONTINUOUS
 62
     5
 10
-270.29971441292668
 20
-257.36080210328532
 30
0.0
 11
-270.29971441292668
 21
-257.36080210328532
 31
0.0
  0
LINE
  8
DETAIL
  6
CONTINUOUS
 62
     5
 10
-270.29971441292668
 20
-257.36080210328532
 30
0.0
 11
-270.2034035065314
 21
-257.44384080541289
 31
0.0
  0
LINE
  8
DETAIL
  6
CONTINUOUS
 62
     5
 10
-270.2034035065314
 20
-257.44384080541289
 30
0.0
 11
-270.10818501316652
 21
-257.52814043285798
 31
0.0
  0
LINE
  8
DETAIL
  6
CONTINUOUS
 62
     5
 10
-270.10818501316652
 20
-257.52814043285798
 30
0.0
 11
-270.10818501316652
 21
-257.52814043285798
 31
0.0
  0
LINE
  8
DETAIL
  6
CONTINUOUS
 62
     5
 10
-270.10818501316652
 20
-257.52814043285798
 30
0.0
 11
-270.01408283483568
 21
-257.61365779455627
 31
0.0
  0
LINE
  8
DETAIL
  6
CONTINUOUS
 62
     5
 10
-270.01408283483568
 20
-257.61365779455627
 30
0.0
 11
-269.92128023044279
 21
-257.70053290660599
 31
0.0
  0
LINE
  8
DETAIL
  6
CONTINUOUS
 62
     5
 10
-269.92128023044279
 20
-257.70053290660599
 30
0.0
 11
-269.92128023044279
 21
-257.70053290660599
 31
0.0
  0
LINE
  8
DETAIL
  6
CONTINUOUS
 62
     5
 10
-269.92128023044279
 20
-257.70053290660599
 30
0.0
 11
-269.82983622575529
 21
-257.78879198656051
 31
0.0
  0
LINE
  8
DETAIL
  6
CONTINUOUS
 62
     5
 10
-269.82983622575529
 20
-257.78879198656051
 30
0.0
 11
-269.73915355710051
 21
-257.8778228506344
 31
0.0
  0
LINE
  8
DETAIL
  6
CONTINUOUS
 62
     5
 10
-271.53141770029231
 20
-261.04330253667467
 30
0.0
 11
-271.6221003689468
 21
-260.95427167260073
 31
0.0
  0
LINE
  8
DETAIL
  6
CONTINUOUS
 62
     5
 10
-271.6221003689468
 20
-260.95427167260073
 30
0.0
 11
-271.71354437363311
 21
-260.86601259264631
 31
0.0
  0
LINE
  8
DETAIL
  6
CONTINUOUS
 62
     5
 10
-271.71354437363311
 20
-260.86601259264631
 30
0.0
 11
-271.71354437363311
 21
-260.86601259264631
 31
0.0
  0
LINE
  8
DETAIL
  6
CONTINUOUS
 62
     5
 10
-271.71354437363311
 20
-260.86601259264631
 30
0.0
 11
-271.80634697802378
 21
-260.77913748059677
 31
0.0
  0
LINE
  8
DETAIL
  6
CONTINUOUS
 62
     5
 10
-271.80634697802378
 20
-260.77913748059677
 30
0.0
 11
-271.90044915634991
 21
-260.69362011889802
 31
0.0
  0
LINE
  8
DETAIL
  6
CONTINUOUS
 62
     5
 10
-271.90044915634991
 20
-260.69362011889802
 30
0.0
 11
-271.90044915634991
 21
-260.69362011889802
 31
0.0
  0
LINE
  8
DETAIL
  6
CONTINUOUS
 62
     5
 10
-271.90044915634991
 20
-260.69362011889802
 30
0.0
 11
-271.995667649707
 21
-260.60932049145322
 31
0.0
  0
LINE
  8
DETAIL
  6
CONTINUOUS
 62
     5
 10
-271.995667649707
 20
-260.60932049145322
 30
0.0
 11
-272.09197855609023
 21
-260.52628178932542
 31
0.0
  0
LINE
  8
DETAIL
  6
CONTINUOUS
 62
     5
 10
-272.09197855609023
 20
-260.52628178932542
 30
0.0
 11
-272.09197855609023
 21
-260.52628178932542
 31
0.0
  0
LINE
  8
DETAIL
  6
CONTINUOUS
 62
     5
 10
-272.09197855609023
 20
-260.52628178932542
 30
0.0
 11
-272.18940252817998
 21
-260.44456939854189
 31
0.0
  0
LINE
  8
DETAIL
  6
CONTINUOUS
 62
     5
 10
-272.18940252817998
 20
-260.44456939854189
 30
0.0
 11
-272.28797908050359
 21
-260.36415427782339
 31
0.0
  0
LINE
  8
DETAIL
  6
CONTINUOUS
 62
     5
 10
-272.28797908050359
 20
-260.36415427782339
 30
0.0
 11
-272.28797908050359
 21
-260.36415427782339
 31
0.0
  0
LINE
  8
DETAIL
  6
CONTINUOUS
 62
     5
 10
-272.28797908050359
 20
-260.36415427782339
 30
0.0
 11
-272.38769374197972
 21
-260.28503240457991
 31
0.0
  0
LINE
  8
DETAIL
  6
CONTINUOUS
 62
     5
 10
-272.38769374197972
 20
-260.28503240457991
 30
0.0
 11
-272.48829723723901
 21
-260.20739425828742
 31
0.0
  0
LINE
  8
DETAIL
  6
CONTINUOUS
 62
     5
 10
-272.48829723723901
 20
-260.20739425828742
 30
0.0
 11
-272.48829723723901
 21
-260.20739425828742
 31
0.0
  0
LINE
  8
DETAIL
  6
CONTINUOUS
 62
     5
 10
-272.48829723723901
 20
-260.20739425828742
 30
0.0
 11
-272.58957731182761
 21
-260.13140355657379
 31
0.0
  0
LINE
  8
DETAIL
  6
CONTINUOUS
 62
     5
 10
-272.58957731182761
 20
-260.13140355657379
 30
0.0
 11
-272.6917045992393
 21
-260.05692246760782
 31
0.0
  0
LINE
  8
DETAIL
  6
CONTINUOUS
 62
     5
 10
-272.6917045992393
 20
-260.05692246760782
 30
0.0
 11
-272.6917045992393
 21
-260.05692246760782
 31
0.0
  0
LINE
  8
DETAIL
  6
CONTINUOUS
 62
     5
 10
-272.6917045992393
 20
-260.05692246760782
 30
0.0
 11
-272.79488525275679
 21
-259.98378548528081
 31
0.0
  0
LINE
  8
DETAIL
  6
CONTINUOUS
 62
     5
 10
-272.79488525275679
 20
-259.98378548528081
 30
0.0
 11
-272.89908461686349
 21
-259.91201795583078
 31
0.0
  0
LINE
  8
DETAIL
  6
CONTINUOUS
 62
     5
 10
-272.89908461686349
 20
-259.91201795583078
 30
0.0
 11
-272.89908461686349
 21
-259.91201795583078
 31
0.0
  0
LINE
  8
DETAIL
  6
CONTINUOUS
 62
     5
 10
-272.89908461686349
 20
-259.91201795583078
 30
0.0
 11
-273.00422396114931
 21
-259.84168015486722
 31
0.0
  0
LINE
  8
DETAIL
  6
CONTINUOUS
 62
     5
 10
-273.00422396114931
 20
-259.84168015486722
 30
0.0
 11
-273.1102890644367
 21
-259.77278122313652
 31
0.0
  0
LINE
  8
DETAIL
  6
CONTINUOUS
 62
     5
 10
-273.1102890644367
 20
-259.77278122313652
 30
0.0
 11
-273.1102890644367
 21
-259.77278122313652
 31
0.0
  0
LINE
  8
DETAIL
  6
CONTINUOUS
 62
     5
 10
-273.1102890644367
 20
-259.77278122313652
 30
0.0
 11
-273.21727752582478
 21
-259.70532093944507
 31
0.0
  0
LINE
  8
DETAIL
  6
CONTINUOUS
 62
     5
 10
-273.21727752582478
 20
-259.70532093944507
 30
0.0
 11
-273.32516971628479
 21
-259.63931276970419
 31
0.0
  0
LINE
  8
DETAIL
  6
CONTINUOUS
 62
     5
 10
-273.32516971628479
 20
-259.63931276970419
 30
0.0
 11
-273.32516971628479
 21
-259.63931276970419
 31
0.0
  0
LINE
  8
DETAIL
  6
CONTINUOUS
 62
     5
 10
-273.32516971628479
 20
-259.63931276970419
 30
0.0
 11
-273.43394280057601
 21
-259.5747726982122
 31
0.0
  0
LINE
  8
DETAIL
  6
CONTINUOUS
 62
     5
 10
-273.43394280057601
 20
-259.5747726982122
 30
0.0
 11
-273.54357834673118
 21
-259.51171309571401
 31
0.0
  0
LINE
  8
DETAIL
  6
CONTINUOUS
 62
     5
 10
-273.54357834673118
 20
-259.51171309571401
 30
0.0
 11
-273.54357834673118
 21
-259.51171309571401
 31
0.0
  0
LINE
  8
DETAIL
  6
CONTINUOUS
 62
     5
 10
-273.54357834673118
 20
-259.51171309571401
 30
0.0
 11
-273.65405872214609
 21
-259.45014505006628
 31
0.0
  0
LINE
  8
DETAIL
  6
CONTINUOUS
 62
     5
 10
-273.65405872214609
 20
-259.45014505006628
 30
0.0
 11
-273.76536508839689
 21
-259.39007813113039
 31
0.0
  0
LINE
  8
DETAIL
  6
CONTINUOUS
 62
     5
 10
-273.76536508839689
 20
-259.39007813113039
 30
0.0
 11
-273.76536508839689
 21
-259.39007813113039
 31
0.0
  0
LINE
  8
DETAIL
  6
CONTINUOUS
 62
     5
 10
-273.76536508839689
 20
-259.39007813113039
 30
0.0
 11
-273.87747704682693
 21
-259.33152196011429
 31
0.0
  0
LINE
  8
DETAIL
  6
CONTINUOUS
 62
     5
 10
-273.87747704682693
 20
-259.33152196011429
 30
0.0
 11
-273.9903691636689
 21
-259.27448788161519
 31
0.0
  0
LINE
  8
DETAIL
  6
CONTINUOUS
 62
     5
 10
-273.9903691636689
 20
-259.27448788161519
 30
0.0
 11
-273.9903691636689
 21
-259.27448788161519
 31
0.0
  0
LINE
  8
DETAIL
  6
CONTINUOUS
 62
     5
 10
-273.9903691636689
 20
-259.27448788161519
 30
0.0
 11
-274.10401987497988
 21
-259.21898575105303
 31
0.0
  0
LINE
  8
DETAIL
  6
CONTINUOUS
 62
     5
 10
-274.10401987497988
 20
-259.21898575105303
 30
0.0
 11
-274.21842813122367
 21
-259.16501774375251
 31
0.0
  0
LINE
  8
DETAIL
  6
CONTINUOUS
 62
     5
 10
-274.21842813122367
 20
-259.16501774375251
 30
0.0
 11
-274.21842813122367
 21
-259.16501774375251
 31
0.0
  0
LINE
  8
DETAIL
  6
CONTINUOUS
 62
     5
 10
-274.21842813122367
 20
-259.16501774375251
 30
0.0
 11
-274.33357875583641
 21
-259.11259136426293
 31
0.0
  0
LINE
  8
DETAIL
  6
CONTINUOUS
 62
     5
 10
-274.33357875583641
 20
-259.11259136426293
 30
0.0
 11
-274.44937954973989
 21
-259.06174311412587
 31
0.0
  0
LINE
  8
DETAIL
  6
CONTINUOUS
 62
     5
 10
-274.44937954973989
 20
-259.06174311412587
 30
0.0
 11
-274.44937954973989
 21
-259.06174311412587
 31
0.0
  0
LINE
  8
DETAIL
  6
CONTINUOUS
 62
     5
 10
-274.44937954973989
 20
-259.06174311412587
 30
0.0
 11
-274.56579095213988
 21
-259.01248966716162
 31
0.0
  0
LINE
  8
DETAIL
  6
CONTINUOUS
 62
     5
 10
-274.56579095213988
 20
-259.01248966716162
 30
0.0
 11
-274.68306097789417
 21
-258.96473938931808
 31
0.0
  0
LINE
  8
DETAIL
  6
CONTINUOUS
 62
     5
 10
-274.68306097789417
 20
-258.96473938931808
 30
0.0
 11
-274.68306097789417
 21
-258.96473938931808
 31
0.0
  0
LINE
  8
DETAIL
  6
CONTINUOUS
 62
     5
 10
-274.68306097789417
 20
-258.96473938931808
 30
0.0
 11
-274.80139563081929
 21
-258.91841686888228
 31
0.0
  0
LINE
  8
DETAIL
  6
CONTINUOUS
 62
     5
 10
-274.80139563081929
 20
-258.91841686888228
 30
0.0
 11
-274.92054529492361
 21
-258.87361989138162
 31
0.0
  0
LINE
  8
DETAIL
  6
CONTINUOUS
 62
     5
 10
-274.92054529492361
 20
-258.87361989138162
 30
0.0
 11
-274.92054529492361
 21
-258.87361989138162
 31
0.0
  0
LINE
  8
DETAIL
  6
CONTINUOUS
 62
     5
 10
-274.92054529492361
 20
-258.87361989138162
 30
0.0
 11
-275.04021835462271
 21
-258.83046422024017
 31
0.0
  0
LINE
  8
DETAIL
  6
CONTINUOUS
 62
     5
 10
-275.04021835462271
 20
-258.83046422024017
 30
0.0
 11
-275.16041081578459
 21
-258.78896433323121
 31
0.0
  0
LINE
  8
DETAIL
  6
CONTINUOUS
 62
     5
 10
-275.16041081578459
 20
-258.78896433323121
 30
0.0
 11
-275.16041081578459
 21
-258.78896433323121
 31
0.0
  0
LINE
  8
DETAIL
  6
CONTINUOUS
 62
     5
 10
-275.16041081578459
 20
-258.78896433323121
 30
0.0
 11
-275.28116791873151
 21
-258.74910128534162
 31
0.0
  0
LINE
  8
DETAIL
  6
CONTINUOUS
 62
     5
 10
-275.28116791873151
 20
-258.74910128534162
 30
0.0
 11
-275.40244422015962
 21
-258.71082372606702
 31
0.0
  0
LINE
  8
DETAIL
  6
CONTINUOUS
 62
     5
 10
-275.40244422015962
 20
-258.71082372606702
 30
0.0
 11
-275.40244422015962
 21
-258.71082372606702
 31
0.0
  0
LINE
  8
DETAIL
  6
CONTINUOUS
 62
     5
 10
-275.40244422015962
 20
-258.71082372606702
 30
0.0
 11
-275.52419038412398
 21
-258.6741299304349
 31
0.0
  0
LINE
  8
DETAIL
  6
CONTINUOUS
 62
     5
 10
-275.52419038412398
 20
-258.6741299304349
 30
0.0
 11
-275.64643218773051
 21
-258.63924908108987
 31
0.0
  0
LINE
  8
DETAIL
  6
CONTINUOUS
 62
     5
 10
-275.64643218773051
 20
-258.63924908108987
 30
0.0
 11
-275.64643218773051
 21
-258.63924908108987
 31
0.0
  0
LINE
  8
DETAIL
  6
CONTINUOUS
 62
     5
 10
-275.64643218773051
 20
-258.63924908108987
 30
0.0
 11
-275.76916174420211
 21
-258.60624528133621
 31
0.0
  0
LINE
  8
DETAIL
  6
CONTINUOUS
 62
     5
 10
-275.76916174420211
 20
-258.60624528133621
 30
0.0
 11
-275.89216139817961
 21
-258.57429140950012
 31
0.0
  0
LINE
  8
DETAIL
  6
CONTINUOUS
 62
     5
 10
-258.57429141027711
 20
-275.89216139740279
 30
0.0
 11
-258.60624515545942
 21
-275.76916221319289
 31
0.0
  0
LINE
  8
DETAIL
  6
CONTINUOUS
 62
     5
 10
-258.60624515545942
 20
-275.76916221319289
 30
0.0
 11
-258.63924882055761
 21
-275.6464331242446
 31
0.0
  0
LINE
  8
DETAIL
  6
CONTINUOUS
 62
     5
 10
-258.63924882055761
 20
-275.6464331242446
 30
0.0
 11
-258.63924882055761
 21
-275.6464331242446
 31
0.0
  0
LINE
  8
DETAIL
  6
CONTINUOUS
 62
     5
 10
-258.63924882055761
 20
-275.6464331242446
 30
0.0
 11
-258.67412952090513
 21
-275.52419178419592
 31
0.0
  0
LINE
  8
DETAIL
  6
CONTINUOUS
 62
     5
 10
-258.67412952090513
 20
-275.52419178419592
 30
0.0
 11
-258.71082315350412
 21
-275.40244608018861
 31
0.0
  0
LINE
  8
DETAIL
  6
CONTINUOUS
 62
     5
 10
-258.71082315350412
 20
-275.40244608018861
 30
0.0
 11
-258.71082315350412
 21
-275.40244608018861
 31
0.0
  0
LINE
  8
DETAIL
  6
CONTINUOUS
 62
     5
 10
-258.71082315350412
 20
-275.40244608018861
 30
0.0
 11
-258.74910053745339
 21
-275.28117023533991
 31
0.0
  0
LINE
  8
DETAIL
  6
CONTINUOUS
 62
     5
 10
-258.74910053745339
 20
-275.28117023533991
 30
0.0
 11
-258.78896339857209
 21
-275.16041358316238
 31
0.0
  0
LINE
  8
DETAIL
  6
CONTINUOUS
 62
     5
 10
-258.78896339857209
 20
-275.16041358316238
 30
0.0
 11
-258.78896339857209
 21
-275.16041358316238
 31
0.0
  0
LINE
  8
DETAIL
  6
CONTINUOUS
 62
     5
 10
-258.78896339857209
 20
-275.16041358316238
 30
0.0
 11
-258.83046308722231
 21
-275.04022156599558
 31
0.0
  0
LINE
  8
DETAIL
  6
CONTINUOUS
 62
     5
 10
-258.83046308722231
 20
-275.04022156599558
 30
0.0
 11
-258.87361854521788
 21
-274.92054895109283
 31
0.0
  0
LINE
  8
DETAIL
  6
CONTINUOUS
 62
     5
 10
-258.87361854521788
 20
-274.92054895109283
 30
0.0
 11
-258.87361854521788
 21
-274.92054895109283
 31
0.0
  0
LINE
  8
DETAIL
  6
CONTINUOUS
 62
     5
 10
-258.87361854521788
 20
-274.92054895109283
 30
0.0
 11
-258.91841529410362
 21
-274.80139973442209
 31
0.0
  0
LINE
  8
DETAIL
  6
CONTINUOUS
 62
     5
 10
-258.91841529410362
 20
-274.80139973442209
 30
0.0
 11
-258.96473758289738
 21
-274.68306550190732
 31
0.0
  0
LINE
  8
DETAIL
  6
CONTINUOUS
 62
     5
 10
-258.96473758289738
 20
-274.68306550190732
 30
0.0
 11
-258.96473758289738
 21
-274.68306550190732
 31
0.0
  0
LINE
  8
DETAIL
  6
CONTINUOUS
 62
     5
 10
-258.96473758289738
 20
-274.68306550190732
 30
0.0
 11
-259.0124876369307
 21
-274.56579584427232
 31
0.0
  0
LINE
  8
DETAIL
  6
CONTINUOUS
 62
     5
 10
-259.0124876369307
 20
-274.56579584427232
 30
0.0
 11
-259.06174085932412
 21
-274.44938478148828
 31
0.0
  0
LINE
  8
DETAIL
  6
CONTINUOUS
 62
     5
 10
-259.06174085932412
 20
-274.44938478148828
 30
0.0
 11
-259.06174085932412
 21
-274.44938478148828
 31
0.0
  0
LINE
  8
DETAIL
  6
CONTINUOUS
 62
     5
 10
-259.06174085932412
 20
-274.44938478148828
 30
0.0
 11
-259.11258887286681
 21
-274.33358432824912
 31
0.0
  0
LINE
  8
DETAIL
  6
CONTINUOUS
 62
     5
 10
-259.11258887286681
 20
-274.33358432824912
 30
0.0
 11
-259.1650150012274
 21
-274.21843404889091
 31
0.0
  0
LINE
  8
DETAIL
  6
CONTINUOUS
 62
     5
 10
-259.1650150012274
 20
-274.21843404889091
 30
0.0
 11
-259.1650150012274
 21
-274.21843404889091
 31
0.0
  0
LINE
  8
DETAIL
  6
CONTINUOUS
 62
     5
 10
-259.1650150012274
 20
-274.21843404889091
 30
0.0
 11
-259.21898274517952
 21
-274.10402613578322
 31
0.0
  0
LINE
  8
DETAIL
  6
CONTINUOUS
 62
     5
 10
-259.21898274517952
 20
-274.10402613578322
 30
0.0
 11
-259.27448461303737
 21
-273.99037574378713
 31
0.0
  0
LINE
  8
DETAIL
  6
CONTINUOUS
 62
     5
 10
-259.27448461303737
 20
-273.99037574378713
 30
0.0
 11
-259.27448461303737
 21
-273.99037574378713
 31
0.0
  0
LINE
  8
DETAIL
  6
CONTINUOUS
 62
     5
 10
-259.27448461303737
 20
-273.99037574378713
 30
0.0
 11
-259.3315184322397
 21
-273.87748391848459
 31
0.0
  0
LINE
  8
DETAIL
  6
CONTINUOUS
 62
     5
 10
-259.3315184322397
 20
-273.87748391848459
 30
0.0
 11
-259.39007429918519
 21
-273.76537230584972
 31
0.0
  0
LINE
  8
DETAIL
  6
CONTINUOUS
 62
     5
 10
-259.39007429918519
 20
-273.76537230584972
 30
0.0
 11
-259.39007429918519
 21
-273.76537230584972
 31
0.0
  0
LINE
  8
DETAIL
  6
CONTINUOUS
 62
     5
 10
-259.39007429918519
 20
-273.76537230584972
 30
0.0
 11
-259.45014085666838
 21
-273.65406636094031
 31
0.0
  0
LINE
  8
DETAIL
  6
CONTINUOUS
 62
     5
 10
-259.45014085666838
 20
-273.65406636094031
 30
0.0
 11
-259.51170866410121
 21
-273.543586174751
 31
0.0
  0
LINE
  8
DETAIL
  6
CONTINUOUS
 62
     5
 10
-259.51170866410121
 20
-273.543586174751
 30
0.0
 11
-259.51170866410121
 21
-273.543586174751
 31
0.0
  0
LINE
  8
DETAIL
  6
CONTINUOUS
 62
     5
 10
-259.51170866410121
 20
-273.543586174751
 30
0.0
 11
-259.57476830630412
 21
-273.43395032694048
 31
0.0
  0
LINE
  8
DETAIL
  6
CONTINUOUS
 62
     5
 10
-259.57476830630412
 20
-273.43395032694048
 30
0.0
 11
-259.63930855311571
 21
-273.32517671588721
 31
0.0
  0
LINE
  8
DETAIL
  6
CONTINUOUS
 62
     5
 10
-259.63930855311571
 20
-273.32517671588721
 30
0.0
 11
-259.63930855311571
 21
-273.32517671588721
 31
0.0
  0
LINE
  8
DETAIL
  6
CONTINUOUS
 62
     5
 10
-259.63930855311571
 20
-273.32517671588721
 30
0.0
 11
-259.70531686290519
 21
-273.21728408673312
 31
0.0
  0
LINE
  8
DETAIL
  6
CONTINUOUS
 62
     5
 10
-259.70531686290519
 20
-273.21728408673312
 30
0.0
 11
-259.77277726314628
 21
-273.11029525295612
 31
0.0
  0
LINE
  8
DETAIL
  6
CONTINUOUS
 62
     5
 10
-259.77277726314628
 20
-273.11029525295612
 30
0.0
 11
-259.77277726314628
 21
-273.11029525295612
 31
0.0
  0
LINE
  8
DETAIL
  6
CONTINUOUS
 62
     5
 10
-259.77277726314628
 20
-273.11029525295612
 30
0.0
 11
-259.84167633348488
 21
-273.00422976006729
 31
0.0
  0
LINE
  8
DETAIL
  6
CONTINUOUS
 62
     5
 10
-259.84167633348488
 20
-273.00422976006729
 30
0.0
 11
-259.91201429314742
 21
-272.8990900133756
 31
0.0
  0
LINE
  8
DETAIL
  6
CONTINUOUS
 62
     5
 10
-259.91201429314742
 20
-272.8990900133756
 30
0.0
 11
-259.91201429314742
 21
-272.8990900133756
 31
0.0
  0
LINE
  8
DETAIL
  6
CONTINUOUS
 62
     5
 10
-259.91201429314742
 20
-272.8990900133756
 30
0.0
 11
-259.98378198939889
 21
-272.79489025625799
 31
0.0
  0
LINE
  8
DETAIL
  6
CONTINUOUS
 62
     5
 10
-259.98378198939889
 20
-272.79489025625799
 30
0.0
 11
-260.0569191420725
 21
-272.69170922456328
 31
0.0
  0
LINE
  8
DETAIL
  6
CONTINUOUS
 62
     5
 10
-260.0569191420725
 20
-272.69170922456328
 30
0.0
 11
-260.0569191420725
 21
-272.69170922456328
 31
0.0
  0
LINE
  8
DETAIL
  6
CONTINUOUS
 62
     5
 10
-260.0569191420725
 20
-272.69170922456328
 30
0.0
 11
-260.13140040667957
 21
-272.58958156983681
 31
0.0
  0
LINE
  8
DETAIL
  6
CONTINUOUS
 62
     5
 10
-260.13140040667957
 20
-272.58958156983681
 30
0.0
 11
-260.20739130887591
 21
-272.48830111393642
 31
0.0
  0
LINE
  8
DETAIL
  6
CONTINUOUS
 62
     5
 10
-260.20739130887591
 20
-272.48830111393642
 30
0.0
 11
-260.20739130887591
 21
-272.48830111393642
 31
0.0
  0
LINE
  8
DETAIL
  6
CONTINUOUS
 62
     5
 10
-260.20739130887591
 20
-272.48830111393642
 30
0.0
 11
-260.28502969647229
 21
-272.38769720376308
 31
0.0
  0
LINE
  8
DETAIL
  6
CONTINUOUS
 62
     5
 10
-260.28502969647229
 20
-272.38769720376308
 30
0.0
 11
-260.36415183575559
 21
-272.28798211607949
 31
0.0
  0
LINE
  8
DETAIL
  6
CONTINUOUS
 62
     5
 10
-260.36415183575559
 20
-272.28798211607949
 30
0.0
 11
-260.36415183575559
 21
-272.28798211607949
 31
0.0
  0
LINE
  8
DETAIL
  6
CONTINUOUS
 62
     5
 10
-260.36415183575559
 20
-272.28798211607949
 30
0.0
 11
-260.44456722820968
 21
-272.1894051521781
 31
0.0
  0
LINE
  8
DETAIL
  6
CONTINUOUS
 62
     5
 10
-260.44456722820968
 20
-272.1894051521781
 30
0.0
 11
-260.5262798976409
 21
-272.09198078160563
 31
0.0
  0
LINE
  8
DETAIL
  6
CONTINUOUS
 62
     5
 10
-260.5262798976409
 20
-272.09198078160563
 30
0.0
 11
-260.5262798976409
 21
-272.09198078160563
 31
0.0
  0
LINE
  8
DETAIL
  6
CONTINUOUS
 62
     5
 10
-260.5262798976409
 20
-272.09198078160563
 30
0.0
 11
-260.60931889017019
 21
-271.99566948318937
 31
0.0
  0
LINE
  8
DETAIL
  6
CONTINUOUS
 62
     5
 10
-260.60931889017019
 20
-271.99566948318937
 30
0.0
 11
-260.69361881886641
 21
-271.90045060461807
 31
0.0
  0
LINE
  8
DETAIL
  6
CONTINUOUS
 62
     5
 10
-260.69361881886641
 20
-271.90045060461807
 30
0.0
 11
-260.69361881886641
 21
-271.90045060461807
 31
0.0
  0
LINE
  8
DETAIL
  6
CONTINUOUS
 62
     5
 10
-260.69361881886641
 20
-271.90045060461807
 30
0.0
 11
-260.7791364910081
 21
-271.80634804986988
 31
0.0
  0
LINE
  8
DETAIL
  6
CONTINUOUS
 62
     5
 10
-260.7791364910081
 20
-271.80634804986988
 30
0.0
 11
-260.86601192376628
 21
-271.71354507922018
 31
0.0
  0
LINE
  8
DETAIL
  6
CONTINUOUS
 62
     5
 10
-260.86601192376628
 20
-271.71354507922018
 30
0.0
 11
-260.86601192376628
 21
-271.71354507922018
 31
0.0
  0
LINE
  8
DETAIL
  6
CONTINUOUS
 62
     5
 10
-260.86601192376628
 20
-271.71354507922018
 30
0.0
 11
-260.95427133515551
 21
-271.62210071850609
 31
0.0
  0
LINE
  8
DETAIL
  6
CONTINUOUS
 62
     5
 10
-260.95427133515551
 20
-271.62210071850609
 30
0.0
 11
-261.0433025366749
 21
-271.53141769951532
 31
0.0
  0
LINE
  8
DETAIL
  6
CONTINUOUS
 62
     5
 10
261.04330253667399
 20
-271.53141769951532
 30
0.0
 11
260.95427167261568
 21
-271.62210036818527
 31
0.0
  0
LINE
  8
DETAIL
  6
CONTINUOUS
 62
     5
 10
260.95427167261568
 20
-271.62210036818527
 30
0.0
 11
260.86601259268701
 21
-271.7135443728987
 31
0.0
  0
LINE
  8
DETAIL
  6
CONTINUOUS
 62
     5
 10
260.86601259268701
 20
-271.7135443728987
 30
0.0
 11
260.86601259268701
 21
-271.7135443728987
 31
0.0
  0
LINE
  8
DETAIL
  6
CONTINUOUS
 62
     5
 10
260.86601259268701
 20
-271.7135443728987
 30
0.0
 11
260.7791374806809
 21
-271.80634697733512
 31
0.0
  0
LINE
  8
DETAIL
  6
CONTINUOUS
 62
     5
 10
260.7791374806809
 20
-271.80634697733512
 30
0.0
 11
260.69362011903848
 21
-271.90044915572253
 31
0.0
  0
LINE
  8
DETAIL
  6
CONTINUOUS
 62
     5
 10
260.69362011903848
 20
-271.90044915572253
 30
0.0
 11
260.69362011903848
 21
-271.90044915572253
 31
0.0
  0
LINE
  8
DETAIL
  6
CONTINUOUS
 62
     5
 10
260.69362011903848
 20
-271.90044915572253
 30
0.0
 11
260.60932049165541
 21
-271.99566764914971
 31
0.0
  0
LINE
  8
DETAIL
  6
CONTINUOUS
 62
     5
 10
260.60932049165541
 20
-271.99566764914971
 30
0.0
 11
260.52628178959122
 21
-272.09197855560768
 31
0.0
  0
LINE
  8
DETAIL
  6
CONTINUOUS
 62
     5
 10
260.52628178959122
 20
-272.09197855560768
 30
0.0
 11
260.52628178959122
 21
-272.09197855560768
 31
0.0
  0
LINE
  8
DETAIL
  6
CONTINUOUS
 62
     5
 10
260.52628178959122
 20
-272.09197855560768
 30
0.0
 11
260.44456939886851
 21
-272.18940252777469
 31
0.0
  0
LINE
  8
DETAIL
  6
CONTINUOUS
 62
     5
 10
260.44456939886851
 20
-272.18940252777469
 30
0.0
 11
260.36415427820452
 21
-272.28797908017509
 31
0.0
  0
LINE
  8
DETAIL
  6
CONTINUOUS
 62
     5
 10
260.36415427820452
 20
-272.28797908017509
 30
0.0
 11
260.36415427820452
 21
-272.28797908017509
 31
0.0
  0
LINE
  8
DETAIL
  6
CONTINUOUS
 62
     5
 10
260.36415427820452
 20
-272.28797908017509
 30
0.0
 11
260.28503240500442
 21
-272.38769374172313
 31
0.0
  0
LINE
  8
DETAIL
  6
CONTINUOUS
 62
     5
 10
260.28503240500442
 20
-272.38769374172313
 30
0.0
 11
260.20739425874058
 21
-272.48829723704557
 31
0.0
  0
LINE
  8
DETAIL
  6
CONTINUOUS
 62
     5
 10
260.20739425874058
 20
-272.48829723704557
 30
0.0
 11
260.20739425874058
 21
-272.48829723704557
 31
0.0
  0
LINE
  8
DETAIL
  6
CONTINUOUS
 62
     5
 10
260.20739425874058
 20
-272.48829723704557
 30
0.0
 11
260.13140355703649
 21
-272.5895773116863
 31
0.0
  0
LINE
  8
DETAIL
  6
CONTINUOUS
 62
     5
 10
260.13140355703649
 20
-272.5895773116863
 30
0.0
 11
260.05692246806461
 21
-272.69170459914022
 31
0.0
  0
LINE
  8
DETAIL
  6
CONTINUOUS
 62
     5
 10
260.05692246806461
 20
-272.69170459914022
 30
0.0
 11
260.05692246806461
 21
-272.69170459914022
 31
0.0
  0
LINE
  8
DETAIL
  6
CONTINUOUS
 62
     5
 10
260.05692246806461
 20
-272.69170459914022
 30
0.0
 11
259.98378548571941
 21
-272.79488525269062
 31
0.0
  0
LINE
  8
DETAIL
  6
CONTINUOUS
 62
     5
 10
259.98378548571941
 20
-272.79488525269062
 30
0.0
 11
259.91201795624261
 21
-272.89908461682148
 31
0.0
  0
LINE
  8
DETAIL
  6
CONTINUOUS
 62
     5
 10
259.91201795624261
 20
-272.89908461682148
 30
0.0
 11
259.91201795624261
 21
-272.89908461682148
 31
0.0
  0
LINE
  8
DETAIL
  6
CONTINUOUS
 62
     5
 10
259.91201795624261
 20
-272.89908461682148
 30
0.0
 11
259.84168015524631
 21
-273.00422396112498
 31
0.0
  0
LINE
  8
DETAIL
  6
CONTINUOUS
 62
     5
 10
259.84168015524631
 20
-273.00422396112498
 30
0.0
 11
259.77278122348139
 21
-273.11028906442431
 31
0.0
  0
LINE
  8
DETAIL
  6
CONTINUOUS
 62
     5
 10
259.77278122348139
 20
-273.11028906442431
 30
0.0
 11
259.77278122348139
 21
-273.11028906442431
 31
0.0
  0
LINE
  8
DETAIL
  6
CONTINUOUS
 62
     5
 10
259.77278122348139
 20
-273.11028906442431
 30
0.0
 11
259.70532093975697
 21
-273.2172775258191
 31
0.0
  0
LINE
  8
DETAIL
  6
CONTINUOUS
 62
     5
 10
259.70532093975697
 20
-273.2172775258191
 30
0.0
 11
259.63931276998869
 21
-273.32516971628269
 31
0.0
  0
LINE
  8
DETAIL
  6
CONTINUOUS
 62
     5
 10
259.63931276998869
 20
-273.32516971628269
 30
0.0
 11
259.63931276998869
 21
-273.32516971628269
 31
0.0
  0
LINE
  8
DETAIL
  6
CONTINUOUS
 62
     5
 10
259.63931276998869
 20
-273.32516971628269
 30
0.0
 11
259.57477269847709
 21
-273.43394280057532
 31
0.0
  0
LINE
  8
DETAIL
  6
CONTINUOUS
 62
     5
 10
259.57477269847709
 20
-273.43394280057532
 30
0.0
 11
259.5117130959718
 21
-273.54357834673078
 31
0.0
  0
LINE
  8
DETAIL
  6
CONTINUOUS
 62
     5
 10
259.5117130959718
 20
-273.54357834673078
 30
0.0
 11
259.5117130959718
 21
-273.54357834673078
 31
0.0
  0
LINE
  8
DETAIL
  6
CONTINUOUS
 62
     5
 10
259.5117130959718
 20
-273.54357834673078
 30
0.0
 11
259.45014505033151
 21
-273.65405872214569
 31
0.0
  0
LINE
  8
DETAIL
  6
CONTINUOUS
 62
     5
 10
259.45014505033151
 20
-273.65405872214569
 30
0.0
 11
259.3900781314162
 21
-273.76536508839507
 31
0.0
  0
LINE
  8
DETAIL
  6
CONTINUOUS
 62
     5
 10
259.3900781314162
 20
-273.76536508839507
 30
0.0
 11
259.3900781314162
 21
-273.76536508839507
 31
0.0
  0
LINE
  8
DETAIL
  6
CONTINUOUS
 62
     5
 10
259.3900781314162
 20
-273.76536508839507
 30
0.0
 11
259.33152196043119
 21
-273.87747704682118
 31
0.0
  0
LINE
  8
DETAIL
  6
CONTINUOUS
 62
     5
 10
259.33152196043119
 20
-273.87747704682118
 30
0.0
 11
259.27448788197239
 21
-273.99036916365623
 31
0.0
  0
LINE
  8
DETAIL
  6
CONTINUOUS
 62
     5
 10
259.27448788197239
 20
-273.99036916365623
 30
0.0
 11
259.27448788197239
 21
-273.99036916365623
 31
0.0
  0
LINE
  8
DETAIL
  6
CONTINUOUS
 62
     5
 10
259.27448788197239
 20
-273.99036916365623
 30
0.0
 11
259.2189857514561
 21
-274.10401987495561
 31
0.0
  0
LINE
  8
DETAIL
  6
CONTINUOUS
 62
     5
 10
259.2189857514561
 20
-274.10401987495561
 30
0.0
 11
259.16501774420641
 21
-274.21842813118178
 31
0.0
  0
LINE
  8
DETAIL
  6
CONTINUOUS
 62
     5
 10
259.16501774420641
 20
-274.21842813118178
 30
0.0
 11
259.16501774420641
 21
-274.21842813118178
 31
0.0
  0
LINE
  8
DETAIL
  6
CONTINUOUS
 62
     5
 10
259.16501774420641
 20
-274.21842813118178
 30
0.0
 11
259.11259136476821
 21
-274.33357875576962
 31
0.0
  0
LINE
  8
DETAIL
  6
CONTINUOUS
 62
     5
 10
259.11259136476821
 20
-274.33357875576962
 30
0.0
 11
259.06174311468129
 21
-274.44937954964053
 31
0.0
  0
LINE
  8
DETAIL
  6
CONTINUOUS
 62
     5
 10
259.06174311468129
 20
-274.44937954964053
 30
0.0
 11
259.06174311468129
 21
-274.44937954964053
 31
0.0
  0
LINE
  8
DETAIL
  6
CONTINUOUS
 62
     5
 10
259.06174311468129
 20
-274.44937954964053
 30
0.0
 11
259.01248966776552
 21
-274.56579095199868
 31
0.0
  0
LINE
  8
DETAIL
  6
CONTINUOUS
 62
     5
 10
259.01248966776552
 20
-274.56579095199868
 30
0.0
 11
258.96473938996382
 21
-274.68306097770051
 31
0.0
  0
LINE
  8
DETAIL
  6
CONTINUOUS
 62
     5
 10
258.96473938996382
 20
-274.68306097770051
 30
0.0
 11
258.96473938996382
 21
-274.68306097770051
 31
0.0
  0
LINE
  8
DETAIL
  6
CONTINUOUS
 62
     5
 10
258.96473938996382
 20
-274.68306097770051
 30
0.0
 11
258.91841686956309
 21
-274.80139563056258
 31
0.0
  0
LINE
  8
DETAIL
  6
CONTINUOUS
 62
     5
 10
258.91841686956309
 20
-274.80139563056258
 30
0.0
 11
258.8736198920908
 21
-274.92054529459512
 31
0.0
  0
LINE
  8
DETAIL
  6
CONTINUOUS
 62
     5
 10
258.8736198920908
 20
-274.92054529459512
 30
0.0
 11
258.8736198920908
 21
-274.92054529459512
 31
0.0
  0
LINE
  8
DETAIL
  6
CONTINUOUS
 62
     5
 10
258.8736198920908
 20
-274.92054529459512
 30
0.0
 11
258.83046422097158
 21
-275.04021835421798
 31
0.0
  0
LINE
  8
DETAIL
  6
CONTINUOUS
 62
     5
 10
258.83046422097158
 20
-275.04021835421798
 30
0.0
 11
258.78896433397881
 21
-275.16041081530221
 31
0.0
  0
LINE
  8
DETAIL
  6
CONTINUOUS
 62
     5
 10
258.78896433397881
 20
-275.16041081530221
 30
0.0
 11
258.78896433397881
 21
-275.16041081530221
 31
0.0
  0
LINE
  8
DETAIL
  6
CONTINUOUS
 62
     5
 10
258.78896433397881
 20
-275.16041081530221
 30
0.0
 11
258.74910128610122
 21
-275.28116791817371
 31
0.0
  0
LINE
  8
DETAIL
  6
CONTINUOUS
 62
     5
 10
258.74910128610122
 20
-275.28116791817371
 30
0.0
 11
258.71082372683509
 21
-275.4024442195323
 31
0.0
  0
LINE
  8
DETAIL
  6
CONTINUOUS
 62
     5
 10
258.71082372683509
 20
-275.4024442195323
 30
0.0
 11
258.71082372683509
 21
-275.4024442195323
 31
0.0
  0
LINE
  8
DETAIL
  6
CONTINUOUS
 62
     5
 10
258.71082372683509
 20
-275.4024442195323
 30
0.0
 11
258.67412993120769
 21
-275.52419038343533
 31
0.0
  0
LINE
  8
DETAIL
  6
CONTINUOUS
 62
     5
 10
258.67412993120769
 20
-275.52419038343533
 30
0.0
 11
258.63924908186499
 21
-275.64643218699581
 31
0.0
  0
LINE
  8
DETAIL
  6
CONTINUOUS
 62
     5
 10
258.63924908186499
 20
-275.64643218699581
 30
0.0
 11
258.63924908186499
 21
-275.64643218699581
 31
0.0
  0
LINE
  8
DETAIL
  6
CONTINUOUS
 62
     5
 10
258.63924908186499
 20
-275.64643218699581
 30
0.0
 11
258.60624528211179
 21
-275.76916174344069
 31
0.0
  0
LINE
  8
DETAIL
  6
CONTINUOUS
 62
     5
 10
258.60624528211179
 20
-275.76916174344069
 30
0.0
 11
258.57429141027637
 21
-275.89216139740279
 31
0.0
  0
LINE
  8
DETAIL
  6
CONTINUOUS
 62
     5
 10
275.89216139740228
 20
-258.57429140950012
 30
0.0
 11
275.76916221320772
 21
-258.60624515469772
 31
0.0
  0
LINE
  8
DETAIL
  6
CONTINUOUS
 62
     5
 10
275.76916221320772
 20
-258.60624515469772
 30
0.0
 11
275.64643312428529
 21
-258.63924881982211
 31
0.0
  0
LINE
  8
DETAIL
  6
CONTINUOUS
 62
     5
 10
275.64643312428529
 20
-258.63924881982211
 30
0.0
 11
275.64643312428529
 21
-258.63924881982211
 31
0.0
  0
LINE
  8
DETAIL
  6
CONTINUOUS
 62
     5
 10
275.64643312428529
 20
-258.63924881982211
 30
0.0
 11
275.52419178428022
 21
-258.67412952021323
 31
0.0
  0
LINE
  8
DETAIL
  6
CONTINUOUS
 62
     5
 10
275.52419178428022
 20
-258.67412952021323
 30
0.0
 11
275.40244608032913
 21
-258.71082315286873
 31
0.0
  0
LINE
  8
DETAIL
  6
CONTINUOUS
 62
     5
 10
275.40244608032913
 20
-258.71082315286873
 30
0.0
 11
275.40244608032913
 21
-258.71082315286873
 31
0.0
  0
LINE
  8
DETAIL
  6
CONTINUOUS
 62
     5
 10
275.40244608032913
 20
-258.71082315286873
 30
0.0
 11
275.28117023554228
 21
-258.7491005368795
 31
0.0
  0
LINE
  8
DETAIL
  6
CONTINUOUS
 62
     5
 10
275.28117023554228
 20
-258.7491005368795
 30
0.0
 11
275.16041358342801
 21
-258.78896339806153
 31
0.0
  0
LINE
  8
DETAIL
  6
CONTINUOUS
 62
     5
 10
275.16041358342801
 20
-258.78896339806153
 30
0.0
 11
275.16041358342801
 21
-258.78896339806153
 31
0.0
  0
LINE
  8
DETAIL
  6
CONTINUOUS
 62
     5
 10
275.16041358342801
 20
-258.78896339806153
 30
0.0
 11
275.04022156632232
 21
-258.8304630867724
 31
0.0
  0
LINE
  8
DETAIL
  6
CONTINUOUS
 62
     5
 10
275.04022156632232
 20
-258.8304630867724
 30
0.0
 11
274.92054895147362
 21
-258.87361854482242
 31
0.0
  0
LINE
  8
DETAIL
  6
CONTINUOUS
 62
     5
 10
274.92054895147362
 20
-258.87361854482242
 30
0.0
 11
274.92054895147362
 21
-258.87361854482242
 31
0.0
  0
LINE
  8
DETAIL
  6
CONTINUOUS
 62
     5
 10
274.92054895147362
 20
-258.87361854482242
 30
0.0
 11
274.80139973484643
 21
-258.91841529375188
 31
0.0
  0
LINE
  8
DETAIL
  6
CONTINUOUS
 62
     5
 10
274.80139973484643
 20
-258.91841529375188
 30
0.0
 11
274.6830655023598
 21
-258.96473758257372
 31
0.0
  0
LINE
  8
DETAIL
  6
CONTINUOUS
 62
     5
 10
274.6830655023598
 20
-258.96473758257372
 30
0.0
 11
274.6830655023598
 21
-258.96473758257372
 31
0.0
  0
LINE
  8
DETAIL
  6
CONTINUOUS
 62
     5
 10
274.6830655023598
 20
-258.96473758257372
 30
0.0
 11
274.56579584473479
 21
-259.01248763661692
 31
0.0
  0
LINE
  8
DETAIL
  6
CONTINUOUS
 62
     5
 10
274.56579584473479
 20
-259.01248763661692
 30
0.0
 11
274.44938478194513
 21
-259.06174085900489
 31
0.0
  0
LINE
  8
DETAIL
  6
CONTINUOUS
 62
     5
 10
274.44938478194513
 20
-259.06174085900489
 30
0.0
 11
274.44938478194513
 21
-259.06174085900489
 31
0.0
  0
LINE
  8
DETAIL
  6
CONTINUOUS
 62
     5
 10
274.44938478194513
 20
-259.06174085900489
 30
0.0
 11
274.33358432868749
 21
-259.11258887252922
 31
0.0
  0
LINE
  8
DETAIL
  6
CONTINUOUS
 62
     5
 10
274.33358432868749
 20
-259.11258887252922
 30
0.0
 11
274.21843404930252
 21
-259.1650150008627
 31
0.0
  0
LINE
  8
DETAIL
  6
CONTINUOUS
 62
     5
 10
274.21843404930252
 20
-259.1650150008627
 30
0.0
 11
274.21843404930252
 21
-259.1650150008627
 31
0.0
  0
LINE
  8
DETAIL
  6
CONTINUOUS
 62
     5
 10
274.21843404930252
 20
-259.1650150008627
 30
0.0
 11
274.10402613616247
 21
-259.21898274478258
 31
0.0
  0
LINE
  8
DETAIL
  6
CONTINUOUS
 62
     5
 10
274.10402613616247
 20
-259.21898274478258
 30
0.0
 11
273.99037574413182
 21
-259.2744846126061
 31
0.0
  0
LINE
  8
DETAIL
  6
CONTINUOUS
 62
     5
 10
273.99037574413182
 20
-259.2744846126061
 30
0.0
 11
273.99037574413182
 21
-259.2744846126061
 31
0.0
  0
LINE
  8
DETAIL
  6
CONTINUOUS
 62
     5
 10
273.99037574413182
 20
-259.2744846126061
 30
0.0
 11
273.87748391879649
 21
-259.33151843177529
 31
0.0
  0
LINE
  8
DETAIL
  6
CONTINUOUS
 62
     5
 10
273.87748391879649
 20
-259.33151843177529
 30
0.0
 11
273.76537230613428
 21
-259.39007429869321
 31
0.0
  0
LINE
  8
DETAIL
  6
CONTINUOUS
 62
     5
 10
273.76537230613428
 20
-259.39007429869321
 30
0.0
 11
273.76537230613428
 21
-259.39007429869321
 31
0.0
  0
LINE
  8
DETAIL
  6
CONTINUOUS
 62
     5
 10
273.76537230613428
 20
-259.39007429869321
 30
0.0
 11
273.6540663612052
 21
-259.45014085615747
 31
0.0
  0
LINE
  8
DETAIL
  6
CONTINUOUS
 62
     5
 10
273.6540663612052
 20
-259.45014085615747
 30
0.0
 11
273.54358617500861
 21
-259.51170866358279
 31
0.0
  0
LINE
  8
DETAIL
  6
CONTINUOUS
 62
     5
 10
273.54358617500861
 20
-259.51170866358279
 30
0.0
 11
273.54358617500861
 21
-259.51170866358279
 31
0.0
  0
LINE
  8
DETAIL
  6
CONTINUOUS
 62
     5
 10
273.54358617500861
 20
-259.51170866358279
 30
0.0
 11
273.43395032720559
 21
-259.57476830579299
 31
0.0
  0
LINE
  8
DETAIL
  6
CONTINUOUS
 62
     5
 10
273.43395032720559
 20
-259.57476830579299
 30
0.0
 11
273.3251767161712
 21
-259.63930855262362
 31
0.0
  0
LINE
  8
DETAIL
  6
CONTINUOUS
 62
     5
 10
273.3251767161712
 20
-259.63930855262362
 30
0.0
 11
273.3251767161712
 21
-259.63930855262362
 31
0.0
  0
LINE
  8
DETAIL
  6
CONTINUOUS
 62
     5
 10
273.3251767161712
 20
-259.63930855262362
 30
0.0
 11
273.21728408704507
 21
-259.70531686244072
 31
0.0
  0
LINE
  8
DETAIL
  6
CONTINUOUS
 62
     5
 10
273.21728408704507
 20
-259.70531686244072
 30
0.0
 11
273.11029525330127
 21
-259.77277726271473
 31
0.0
  0
LINE
  8
DETAIL
  6
CONTINUOUS
 62
     5
 10
273.11029525330127
 20
-259.77277726271473
 30
0.0
 11
273.11029525330127
 21
-259.77277726271473
 31
0.0
  0
LINE
  8
DETAIL
  6
CONTINUOUS
 62
     5
 10
273.11029525330127
 20
-259.77277726271473
 30
0.0
 11
273.00422976044661
 21
-259.84167633308772
 31
0.0
  0
LINE
  8
DETAIL
  6
CONTINUOUS
 62
     5
 10
273.00422976044661
 20
-259.84167633308772
 30
0.0
 11
272.89909001378709
 21
-259.91201429278271
 31
0.0
  0
LINE
  8
DETAIL
  6
CONTINUOUS
 62
     5
 10
272.89909001378709
 20
-259.91201429278271
 30
0.0
 11
272.89909001378709
 21
-259.91201429278271
 31
0.0
  0
LINE
  8
DETAIL
  6
CONTINUOUS
 62
     5
 10
272.89909001378709
 20
-259.91201429278271
 30
0.0
 11
272.79489025669659
 21
-259.9837819890613
 31
0.0
  0
LINE
  8
DETAIL
  6
CONTINUOUS
 62
     5
 10
272.79489025669659
 20
-259.9837819890613
 30
0.0
 11
272.69170922501968
 21
-260.05691914175299
 31
0.0
  0
LINE
  8
DETAIL
  6
CONTINUOUS
 62
     5
 10
272.69170922501968
 20
-260.05691914175299
 30
0.0
 11
272.69170922501968
 21
-260.05691914175299
 31
0.0
  0
LINE
  8
DETAIL
  6
CONTINUOUS
 62
     5
 10
272.69170922501968
 20
-260.05691914175299
 30
0.0
 11
272.58958157030003
 21
-260.13140040636591
 31
0.0
  0
LINE
  8
DETAIL
  6
CONTINUOUS
 62
     5
 10
272.58958157030003
 20
-260.13140040636591
 30
0.0
 11
272.48830111438951
 21
-260.20739130855208
 31
0.0
  0
LINE
  8
DETAIL
  6
CONTINUOUS
 62
     5
 10
272.48830111438951
 20
-260.20739130855208
 30
0.0
 11
272.48830111438951
 21
-260.20739130855208
 31
0.0
  0
LINE
  8
DETAIL
  6
CONTINUOUS
 62
     5
 10
272.48830111438951
 20
-260.20739130855208
 30
0.0
 11
272.38769720418742
 21
-260.28502969612151
 31
0.0
  0
LINE
  8
DETAIL
  6
CONTINUOUS
 62
     5
 10
272.38769720418742
 20
-260.28502969612151
 30
0.0
 11
272.2879821164604
 21
-260.36415183536627
 31
0.0
  0
LINE
  8
DETAIL
  6
CONTINUOUS
 62
     5
 10
272.2879821164604
 20
-260.36415183536627
 30
0.0
 11
272.2879821164604
 21
-260.36415183536627
 31
0.0
  0
LINE
  8
DETAIL
  6
CONTINUOUS
 62
     5
 10
272.2879821164604
 20
-260.36415183536627
 30
0.0
 11
272.18940515250438
 21
-260.44456722778108
 31
0.0
  0
LINE
  8
DETAIL
  6
CONTINUOUS
 62
     5
 10
272.18940515250438
 20
-260.44456722778108
 30
0.0
 11
272.09198078187109
 21
-260.52627989717962
 31
0.0
  0
LINE
  8
DETAIL
  6
CONTINUOUS
 62
     5
 10
272.09198078187109
 20
-260.52627989717962
 30
0.0
 11
272.09198078187109
 21
-260.52627989717962
 31
0.0
  0
LINE
  8
DETAIL
  6
CONTINUOUS
 62
     5
 10
272.09198078187109
 20
-260.52627989717962
 30
0.0
 11
271.99566948339191
 21
-260.6093188896939
 31
0.0
  0
LINE
  8
DETAIL
  6
CONTINUOUS
 62
     5
 10
271.99566948339191
 20
-260.6093188896939
 30
0.0
 11
271.90045060475882
 21
-260.69361881839808
 31
0.0
  0
LINE
  8
DETAIL
  6
CONTINUOUS
 62
     5
 10
271.90045060475882
 20
-260.69361881839808
 30
0.0
 11
271.90045060475882
 21
-260.69361881839808
 31
0.0
  0
LINE
  8
DETAIL
  6
CONTINUOUS
 62
     5
 10
271.90045060475882
 20
-260.69361881839808
 30
0.0
 11
271.80634804995429
 21
-260.77913649058002
 31
0.0
  0
LINE
  8
DETAIL
  6
CONTINUOUS
 62
     5
 10
271.80634804995429
 20
-260.77913649058002
 30
0.0
 11
271.71354507926088
 21
-260.866011923428
 31
0.0
  0
LINE
  8
DETAIL
  6
CONTINUOUS
 62
     5
 10
271.71354507926088
 20
-260.866011923428
 30
0.0
 11
271.71354507926088
 21
-260.866011923428
 31
0.0
  0
LINE
  8
DETAIL
  6
CONTINUOUS
 62
     5
 10
271.71354507926088
 20
-260.866011923428
 30
0.0
 11
271.62210071852053
 21
-260.95427133496861
 31
0.0
  0
LINE
  8
DETAIL
  6
CONTINUOUS
 62
     5
 10
271.62210071852053
 20
-260.95427133496861
 30
0.0
 11
271.53141769951498
 21
-261.04330253667467
 31
0.0
  0
LINE
  8
DETAIL
  6
CONTINUOUS
 62
     5
 10
269.73915355632312
 20
-257.8778228506344
 30
0.0
 11
269.82983657532918
 21
-257.78879164891299
 31
0.0
  0
LINE
  8
DETAIL
  6
CONTINUOUS
 62
     5
 10
269.82983657532918
 20
-257.78879164891299
 30
0.0
 11
269.92128093606902
 21
-257.70053223734681
 31
0.0
  0
LINE
  8
DETAIL
  6
CONTINUOUS
 62
     5
 10
269.92128093606902
 20
-257.70053223734681
 30
0.0
 11
269.92128093606902
 21
-257.70053223734681
 31
0.0
  0
LINE
  8
DETAIL
  6
CONTINUOUS
 62
     5
 10
269.92128093606902
 20
-257.70053223734681
 30
0.0
 11
270.01408390676238
 21
-257.6136568044551
 31
0.0
  0
LINE
  8
DETAIL
  6
CONTINUOUS
 62
     5
 10
270.01408390676238
 20
-257.6136568044551
 30
0.0
 11
270.1081864615669
 21
-257.52813913221689
 31
0.0
  0
LINE
  8
DETAIL
  6
CONTINUOUS
 62
     5
 10
270.1081864615669
 20
-257.52813913221689
 30
0.0
 11
270.1081864615669
 21
-257.52813913221689
 31
0.0
  0
LINE
  8
DETAIL
  6
CONTINUOUS
 62
     5
 10
270.1081864615669
 20
-257.52813913221689
 30
0.0
 11
270.20340534020011
 21
-257.44383920345081
 31
0.0
  0
LINE
  8
DETAIL
  6
CONTINUOUS
 62
     5
 10
270.20340534020011
 20
-257.44383920345081
 30
0.0
 11
270.29971663867968
 21
-257.36080021087332
 31
0.0
  0
LINE
  8
DETAIL
  6
CONTINUOUS
 62
     5
 10
270.29971663867968
 20
-257.36080021087332
 30
0.0
 11
270.29971663867968
 21
-257.36080021087332
 31
0.0
  0
LINE
  8
DETAIL
  6
CONTINUOUS
 62
     5
 10
270.29971663867968
 20
-257.36080021087332
 30
0.0
 11
270.39714100931292
 21
-257.27908754141367
 31
0.0
  0
LINE
  8
DETAIL
  6
CONTINUOUS
 62
     5
 10
270.39714100931292
 20
-257.27908754141367
 30
0.0
 11
270.49571797326888
 21
-257.19867214894452
 31
0.0
  0
LINE
  8
DETAIL
  6
CONTINUOUS
 62
     5
 10
270.49571797326888
 20
-257.19867214894452
 30
0.0
 11
270.49571797326888
 21
-257.19867214894452
 31
0.0
  0
LINE
  8
DETAIL
  6
CONTINUOUS
 62
     5
 10
270.49571797326888
 20
-257.19867214894452
 30
0.0
 11
270.5954330609959
 21
-257.11955000965622
 31
0.0
  0
LINE
  8
DETAIL
  6
CONTINUOUS
 62
     5
 10
270.5954330609959
 20
-257.11955000965622
 30
0.0
 11
270.6960369711976
 21
-257.04191162205871
 31
0.0
  0
LINE
  8
DETAIL
  6
CONTINUOUS
 62
     5
 10
270.6960369711976
 20
-257.04191162205871
 30
0.0
 11
270.6960369711976
 21
-257.04191162205871
 31
0.0
  0
LINE
  8
DETAIL
  6
CONTINUOUS
 62
     5
 10
270.6960369711976
 20
-257.04191162205871
 30
0.0
 11
270.79731742710811
 21
-256.96592071986242
 31
0.0
  0
LINE
  8
DETAIL
  6
CONTINUOUS
 62
     5
 10
270.79731742710811
 20
-256.96592071986242
 30
0.0
 11
270.89944508182839
 21
-256.89143945525672
 31
0.0
  0
LINE
  8
DETAIL
  6
CONTINUOUS
 62
     5
 10
270.89944508182839
 20
-256.89143945525672
 30
0.0
 11
270.89944508182839
 21
-256.89143945525672
 31
0.0
  0
LINE
  8
DETAIL
  6
CONTINUOUS
 62
     5
 10
270.89944508182839
 20
-256.89143945525672
 30
0.0
 11
271.00262611350468
 21
-256.81830230258561
 31
0.0
  0
LINE
  8
DETAIL
  6
CONTINUOUS
 62
     5
 10
271.00262611350468
 20
-256.81830230258561
 30
0.0
 11
271.10682587059569
 21
-256.74653460633863
 31
0.0
  0
LINE
  8
DETAIL
  6
CONTINUOUS
 62
     5
 10
271.10682587059569
 20
-256.74653460633863
 30
0.0
 11
271.10682587059569
 21
-256.74653460633863
 31
0.0
  0
LINE
  8
DETAIL
  6
CONTINUOUS
 62
     5
 10
271.10682587059569
 20
-256.74653460633863
 30
0.0
 11
271.21196561725469
 21
-256.67619664668382
 31
0.0
  0
LINE
  8
DETAIL
  6
CONTINUOUS
 62
     5
 10
271.21196561725469
 20
-256.67619664668382
 30
0.0
 11
271.31803111010942
 21
-256.60729757635733
 31
0.0
  0
LINE
  8
DETAIL
  6
CONTINUOUS
 62
     5
 10
271.31803111010942
 20
-256.60729757635733
 30
0.0
 11
271.31803111010942
 21
-256.60729757635733
 31
0.0
  0
LINE
  8
DETAIL
  6
CONTINUOUS
 62
     5
 10
271.31803111010942
 20
-256.60729757635733
 30
0.0
 11
271.42501994385361
 21
-256.53983717613232
 31
0.0
  0
LINE
  8
DETAIL
  6
CONTINUOUS
 62
     5
 10
271.42501994385361
 20
-256.53983717613232
 30
0.0
 11
271.53291257297968
 21
-256.47382886636478
 31
0.0
  0
LINE
  8
DETAIL
  6
CONTINUOUS
 62
     5
 10
271.53291257297968
 20
-256.47382886636478
 30
0.0
 11
271.53291257297968
 21
-256.47382886636478
 31
0.0
  0
LINE
  8
DETAIL
  6
CONTINUOUS
 62
     5
 10
271.53291257297968
 20
-256.47382886636478
 30
0.0
 11
271.64168618401368
 21
-256.40928861958128
 31
0.0
  0
LINE
  8
DETAIL
  6
CONTINUOUS
 62
     5
 10
271.64168618401368
 20
-256.40928861958128
 30
0.0
 11
271.75132203181721
 21
-256.34622897741338
 31
0.0
  0
LINE
  8
DETAIL
  6
CONTINUOUS
 62
     5
 10
271.75132203181721
 20
-256.34622897741338
 30
0.0
 11
271.75132203181721
 21
-256.34622897741338
 31
0.0
  0
LINE
  8
DETAIL
  6
CONTINUOUS
 62
     5
 10
271.75132203181721
 20
-256.34622897741338
 30
0.0
 11
271.86180221801368
 21
-256.2846611700229
 31
0.0
  0
LINE
  8
DETAIL
  6
CONTINUOUS
 62
     5
 10
271.86180221801368
 20
-256.2846611700229
 30
0.0
 11
271.97310816294231
 21
-256.22459461258683
 31
0.0
  0
LINE
  8
DETAIL
  6
CONTINUOUS
 62
     5
 10
271.97310816294231
 20
-256.22459461258683
 30
0.0
 11
271.97310816294231
 21
-256.22459461258683
 31
0.0
  0
LINE
  8
DETAIL
  6
CONTINUOUS
 62
     5
 10
271.97310816294231
 20
-256.22459461258683
 30
0.0
 11
272.08521977560508
 21
-256.16603874569068
 31
0.0
  0
LINE
  8
DETAIL
  6
CONTINUOUS
 62
     5
 10
272.08521977560508
 20
-256.16603874569068
 30
0.0
 11
272.19811160094042
 21
-256.10900492653792
 31
0.0
  0
LINE
  8
DETAIL
  6
CONTINUOUS
 62
     5
 10
272.19811160094042
 20
-256.10900492653792
 30
0.0
 11
272.19811160094042
 21
-256.10900492653792
 31
0.0
  0
LINE
  8
DETAIL
  6
CONTINUOUS
 62
     5
 10
272.19811160094042
 20
-256.10900492653792
 30
0.0
 11
272.31176199297101
 21
-256.05350305872622
 31
0.0
  0
LINE
  8
DETAIL
  6
CONTINUOUS
 62
     5
 10
272.31176199297101
 20
-256.05350305872622
 30
0.0
 11
272.426169906111
 21
-255.99953531481401
 31
0.0
  0
LINE
  8
DETAIL
  6
CONTINUOUS
 62
     5
 10
272.426169906111
 20
-255.99953531481401
 30
0.0
 11
272.426169906111
 21
-255.99953531481401
 31
0.0
  0
LINE
  8
DETAIL
  6
CONTINUOUS
 62
     5
 10
272.426169906111
 20
-255.99953531481401
 30
0.0
 11
272.54132018549598
 21
-255.94710918648551
 31
0.0
  0
LINE
  8
DETAIL
  6
CONTINUOUS
 62
     5
 10
272.54132018549598
 20
-255.94710918648551
 30
0.0
 11
272.65712063875372
 21
-255.89626117296351
 31
0.0
  0
LINE
  8
DETAIL
  6
CONTINUOUS
 62
     5
 10
272.65712063875372
 20
-255.89626117296351
 30
0.0
 11
272.65712063875372
 21
-255.89626117296351
 31
0.0
  0
LINE
  8
DETAIL
  6
CONTINUOUS
 62
     5
 10
272.65712063875372
 20
-255.89626117296351
 30
0.0
 11
272.77353170154328
 21
-255.8470079505764
 31
0.0
  0
LINE
  8
DETAIL
  6
CONTINUOUS
 62
     5
 10
272.77353170154328
 20
-255.8470079505764
 30
0.0
 11
272.89080135916828
 21
-255.79925789653339
 31
0.0
  0
LINE
  8
DETAIL
  6
CONTINUOUS
 62
     5
 10
272.89080135916828
 20
-255.79925789653339
 30
0.0
 11
272.89080135916828
 21
-255.79925789653339
 31
0.0
  0
LINE
  8
DETAIL
  6
CONTINUOUS
 62
     5
 10
272.89080135916828
 20
-255.79925789653339
 30
0.0
 11
273.00913559165502
 21
-255.75293560771181
 31
0.0
  0
LINE
  8
DETAIL
  6
CONTINUOUS
 62
     5
 10
273.00913559165502
 20
-255.75293560771181
 30
0.0
 11
273.12828480828222
 21
-255.70813885878209
 31
0.0
  0
LINE
  8
DETAIL
  6
CONTINUOUS
 62
     5
 10
273.12828480828222
 20
-255.70813885878209
 30
0.0
 11
273.12828480828222
 21
-255.70813885878209
 31
0.0
  0
LINE
  8
DETAIL
  6
CONTINUOUS
 62
     5
 10
273.12828480828222
 20
-255.70813885878209
 30
0.0
 11
273.2479574231304
 21
-255.66498340073241
 31
0.0
  0
LINE
  8
DETAIL
  6
CONTINUOUS
 62
     5
 10
273.2479574231304
 20
-255.66498340073241
 30
0.0
 11
273.36814944023598
 21
-255.6234837120212
 31
0.0
  0
LINE
  8
DETAIL
  6
CONTINUOUS
 62
     5
 10
273.36814944023598
 20
-255.6234837120212
 30
0.0
 11
273.36814944023598
 21
-255.6234837120212
 31
0.0
  0
LINE
  8
DETAIL
  6
CONTINUOUS
 62
     5
 10
273.36814944023598
 20
-255.6234837120212
 30
0.0
 11
273.48890609235082
 21
-255.5836208508392
 31
0.0
  0
LINE
  8
DETAIL
  6
CONTINUOUS
 62
     5
 10
273.48890609235082
 20
-255.5836208508392
 30
0.0
 11
273.61018193713772
 21
-255.5453434668282
 31
0.0
  0
LINE
  8
DETAIL
  6
CONTINUOUS
 62
     5
 10
273.61018193713772
 20
-255.5453434668282
 30
0.0
 11
273.61018193713772
 21
-255.5453434668282
 31
0.0
  0
LINE
  8
DETAIL
  6
CONTINUOUS
 62
     5
 10
273.61018193713772
 20
-255.5453434668282
 30
0.0
 11
273.7319276410883
 21
-255.50864983417301
 31
0.0
  0
LINE
  8
DETAIL
  6
CONTINUOUS
 62
     5
 10
273.7319276410883
 20
-255.50864983417301
 30
0.0
 11
273.85416898109338
 21
-255.47376913378159
 31
0.0
  0
LINE
  8
DETAIL
  6
CONTINUOUS
 62
     5
 10
273.85416898109338
 20
-255.47376913378159
 30
0.0
 11
273.85416898109338
 21
-255.47376913378159
 31
0.0
  0
LINE
  8
DETAIL
  6
CONTINUOUS
 62
     5
 10
273.85416898109338
 20
-255.47376913378159
 30
0.0
 11
273.97689807001569
 21
-255.4407654686577
 31
0.0
  0
LINE
  8
DETAIL
  6
CONTINUOUS
 62
     5
 10
273.97689807001569
 20
-255.4407654686577
 30
0.0
 11
274.0998972542103
 21
-255.4088117234601
 31
0.0
  0
LINE
  8
DETAIL
  6
CONTINUOUS
 62
     5
 10
255.40881172345939
 20
-274.0998972542111
 30
0.0
 11
255.44076559548219
 21
-273.97689760024917
 31
0.0
  0
LINE
  8
DETAIL
  6
CONTINUOUS
 62
     5
 10
255.44076559548219
 20
-273.97689760024917
 30
0.0
 11
255.4737693953858
 21
-273.85416804380412
 31
0.0
  0
LINE
  8
DETAIL
  6
CONTINUOUS
 62
     5
 10
255.4737693953858
 20
-273.85416804380412
 30
0.0
 11
255.4737693953858
 21
-273.85416804380412
 31
0.0
  0
LINE
  8
DETAIL
  6
CONTINUOUS
 62
     5
 10
255.4737693953858
 20
-273.85416804380412
 30
0.0
 11
255.50865024481871
 21
-273.73192624024358
 31
0.0
  0
LINE
  8
DETAIL
  6
CONTINUOUS
 62
     5
 10
255.50865024481871
 20
-273.73192624024358
 30
0.0
 11
255.54534404048559
 21
-273.61018007634061
 31
0.0
  0
LINE
  8
DETAIL
  6
CONTINUOUS
 62
     5
 10
255.54534404048559
 20
-273.61018007634061
 30
0.0
 11
255.54534404048559
 21
-273.61018007634061
 31
0.0
  0
LINE
  8
DETAIL
  6
CONTINUOUS
 62
     5
 10
255.54534404048559
 20
-273.61018007634061
 30
0.0
 11
255.58362159976039
 21
-273.48890377498202
 31
0.0
  0
LINE
  8
DETAIL
  6
CONTINUOUS
 62
     5
 10
255.58362159976039
 20
-273.48890377498202
 30
0.0
 11
255.6234846476228
 21
-273.36814667211053
 31
0.0
  0
LINE
  8
DETAIL
  6
CONTINUOUS
 62
     5
 10
255.6234846476228
 20
-273.36814667211053
 30
0.0
 11
255.6234846476228
 21
-273.36814667211053
 31
0.0
  0
LINE
  8
DETAIL
  6
CONTINUOUS
 62
     5
 10
255.6234846476228
 20
-273.36814667211053
 30
0.0
 11
255.66498453458391
 21
-273.24795421102613
 31
0.0
  0
LINE
  8
DETAIL
  6
CONTINUOUS
 62
     5
 10
255.66498453458391
 20
-273.24795421102613
 30
0.0
 11
255.70814020566311
 21
-273.12828115140309
 31
0.0
  0
LINE
  8
DETAIL
  6
CONTINUOUS
 62
     5
 10
255.70814020566311
 20
-273.12828115140309
 30
0.0
 11
255.70814020566311
 21
-273.12828115140309
 31
0.0
  0
LINE
  8
DETAIL
  6
CONTINUOUS
 62
     5
 10
255.70814020566311
 20
-273.12828115140309
 30
0.0
 11
255.7529371830972
 21
-273.00913148737072
 31
0.0
  0
LINE
  8
DETAIL
  6
CONTINUOUS
 62
     5
 10
255.7529371830972
 20
-273.00913148737072
 30
0.0
 11
255.7992597034706
 21
-272.89079683450882
 31
0.0
  0
LINE
  8
DETAIL
  6
CONTINUOUS
 62
     5
 10
255.7992597034706
 20
-272.89079683450882
 30
0.0
 11
255.7992597034706
 21
-272.89079683450882
 31
0.0
  0
LINE
  8
DETAIL
  6
CONTINUOUS
 62
     5
 10
255.7992597034706
 20
-272.89079683450882
 30
0.0
 11
255.84700998126229
 21
-272.77352680880682
 31
0.0
  0
LINE
  8
DETAIL
  6
CONTINUOUS
 62
     5
 10
255.84700998126229
 20
-272.77352680880682
 30
0.0
 11
255.89626342818499
 21
-272.65711540644878
 31
0.0
  0
LINE
  8
DETAIL
  6
CONTINUOUS
 62
     5
 10
255.89626342818499
 20
-272.65711540644878
 30
0.0
 11
255.89626342818499
 21
-272.65711540644878
 31
0.0
  0
LINE
  8
DETAIL
  6
CONTINUOUS
 62
     5
 10
255.89626342818499
 20
-272.65711540644878
 30
0.0
 11
255.9471116782918
 21
-272.54131461257822
 31
0.0
  0
LINE
  8
DETAIL
  6
CONTINUOUS
 62
     5
 10
255.9471116782918
 20
-272.54131461257822
 30
0.0
 11
255.99953805776181
 21
-272.42616398799009
 31
0.0
  0
LINE
  8
DETAIL
  6
CONTINUOUS
 62
     5
 10
255.99953805776181
 20
-272.42616398799009
 30
0.0
 11
255.99953805776181
 21
-272.42616398799009
 31
0.0
  0
LINE
  8
DETAIL
  6
CONTINUOUS
 62
     5
 10
255.99953805776181
 20
-272.42616398799009
 30
0.0
 11
256.05350606505249
 21
-272.3117557317637
 31
0.0
  0
LINE
  8
DETAIL
  6
CONTINUOUS
 62
     5
 10
256.05350606505249
 20
-272.3117557317637
 30
0.0
 11
256.10900819561471
 21
-272.19810502046448
 31
0.0
  0
LINE
  8
DETAIL
  6
CONTINUOUS
 62
     5
 10
256.10900819561471
 20
-272.19810502046448
 30
0.0
 11
256.10900819561471
 21
-272.19810502046448
 31
0.0
  0
LINE
  8
DETAIL
  6
CONTINUOUS
 62
     5
 10
256.10900819561471
 20
-272.19810502046448
 30
0.0
 11
256.16604227412307
 21
-272.08521290362961
 31
0.0
  0
LINE
  8
DETAIL
  6
CONTINUOUS
 62
     5
 10
256.16604227412307
 20
-272.08521290362961
 30
0.0
 11
256.22459844515669
 21
-271.97310094520338
 31
0.0
  0
LINE
  8
DETAIL
  6
CONTINUOUS
 62
     5
 10
256.22459844515669
 20
-271.97310094520338
 30
0.0
 11
256.22459844515669
 21
-271.97310094520338
 31
0.0
  0
LINE
  8
DETAIL
  6
CONTINUOUS
 62
     5
 10
256.22459844515669
 20
-271.97310094520338
 30
0.0
 11
256.2846653641202
 21
-271.861794578954
 31
0.0
  0
LINE
  8
DETAIL
  6
CONTINUOUS
 62
     5
 10
256.2846653641202
 20
-271.861794578954
 30
0.0
 11
256.34623340980238
 21
-271.7513142035391
 31
0.0
  0
LINE
  8
DETAIL
  6
CONTINUOUS
 62
     5
 10
256.34623340980238
 20
-271.7513142035391
 30
0.0
 11
256.34623340980238
 21
-271.7513142035391
 31
0.0
  0
LINE
  8
DETAIL
  6
CONTINUOUS
 62
     5
 10
256.34623340980238
 20
-271.7513142035391
 30
0.0
 11
256.40929301234269
 21
-271.64167865738358
 31
0.0
  0
LINE
  8
DETAIL
  6
CONTINUOUS
 62
     5
 10
256.40929301234269
 20
-271.64167865738358
 30
0.0
 11
256.47383308388203
 21
-271.53290557309077
 31
0.0
  0
LINE
  8
DETAIL
  6
CONTINUOUS
 62
     5
 10
256.47383308388203
 20
-271.53290557309077
 30
0.0
 11
256.47383308388203
 21
-271.53290557309077
 31
0.0
  0
LINE
  8
DETAIL
  6
CONTINUOUS
 62
     5
 10
256.47383308388203
 20
-271.53290557309077
 30
0.0
 11
256.53984125367248
 21
-271.42501338262741
 31
0.0
  0
LINE
  8
DETAIL
  6
CONTINUOUS
 62
     5
 10
256.53984125367248
 20
-271.42501338262741
 30
0.0
 11
256.60730153741292
 21
-271.31802492123279
 31
0.0
  0
LINE
  8
DETAIL
  6
CONTINUOUS
 62
     5
 10
256.60730153741292
 20
-271.31802492123279
 30
0.0
 11
256.60730153741292
 21
-271.31802492123279
 31
0.0
  0
LINE
  8
DETAIL
  6
CONTINUOUS
 62
     5
 10
256.60730153741292
 20
-271.31802492123279
 30
0.0
 11
256.67620046919012
 21
-271.21195981793329
 31
0.0
  0
LINE
  8
DETAIL
  6
CONTINUOUS
 62
     5
 10
256.67620046919012
 20
-271.21195981793329
 30
0.0
 11
256.74653827019421
 21
-271.1068204736298
 31
0.0
  0
LINE
  8
DETAIL
  6
CONTINUOUS
 62
     5
 10
256.74653827019421
 20
-271.1068204736298
 30
0.0
 11
256.74653827019421
 21
-271.1068204736298
 31
0.0
  0
LINE
  8
DETAIL
  6
CONTINUOUS
 62
     5
 10
256.74653827019421
 20
-271.1068204736298
 30
0.0
 11
256.8183057996755
 21
-271.0026211094987
 31
0.0
  0
LINE
  8
DETAIL
  6
CONTINUOUS
 62
     5
 10
256.8183057996755
 20
-271.0026211094987
 30
0.0
 11
256.89144278202298
 21
-270.89944045594848
 31
0.0
  0
LINE
  8
DETAIL
  6
CONTINUOUS
 62
     5
 10
256.89144278202298
 20
-270.89944045594848
 30
0.0
 11
256.89144278202298
 21
-270.89944045594848
 31
0.0
  0
LINE
  8
DETAIL
  6
CONTINUOUS
 62
     5
 10
256.89144278202298
 20
-270.89944045594848
 30
0.0
 11
256.96592387099622
 21
-270.79731316849438
 31
0.0
  0
LINE
  8
DETAIL
  6
CONTINUOUS
 62
     5
 10
256.96592387099622
 20
-270.79731316849438
 30
0.0
 11
257.04191457270031
 21
-270.69603309385388
 31
0.0
  0
LINE
  8
DETAIL
  6
CONTINUOUS
 62
     5
 10
257.04191457270031
 20
-270.69603309385388
 30
0.0
 11
257.04191457270031
 21
-270.69603309385388
 31
0.0
  0
LINE
  8
DETAIL
  6
CONTINUOUS
 62
     5
 10
257.04191457270031
 20
-270.69603309385388
 30
0.0
 11
257.11955271896409
 21
-270.59542959853121
 31
0.0
  0
LINE
  8
DETAIL
  6
CONTINUOUS
 62
     5
 10
257.11955271896409
 20
-270.59542959853121
 30
0.0
 11
257.19867459216431
 21
-270.4957149369834
 31
0.0
  0
LINE
  8
DETAIL
  6
CONTINUOUS
 62
     5
 10
257.19867459216431
 20
-270.4957149369834
 30
0.0
 11
257.19867459216431
 21
-270.4957149369834
 31
0.0
  0
LINE
  8
DETAIL
  6
CONTINUOUS
 62
     5
 10
257.19867459216431
 20
-270.4957149369834
 30
0.0
 11
257.27908971282818
 21
-270.39713838458312
 31
0.0
  0
LINE
  8
DETAIL
  6
CONTINUOUS
 62
     5
 10
257.27908971282818
 20
-270.39713838458312
 30
0.0
 11
257.3608021035509
 21
-270.29971441241582
 31
0.0
  0
LINE
  8
DETAIL
  6
CONTINUOUS
 62
     5
 10
257.3608021035509
 20
-270.29971441241582
 30
0.0
 11
257.3608021035509
 21
-270.29971441241582
 31
0.0
  0
LINE
  8
DETAIL
  6
CONTINUOUS
 62
     5
 10
257.3608021035509
 20
-270.29971441241582
 30
0.0
 11
257.44384080561508
 21
-270.20340350595779
 31
0.0
  0
LINE
  8
DETAIL
  6
CONTINUOUS
 62
     5
 10
257.44384080561508
 20
-270.20340350595779
 30
0.0
 11
257.52814043299838
 21
-270.10818501253061
 31
0.0
  0
LINE
  8
DETAIL
  6
CONTINUOUS
 62
     5
 10
257.52814043299838
 20
-270.10818501253061
 30
0.0
 11
257.52814043299838
 21
-270.10818501253061
 31
0.0
  0
LINE
  8
DETAIL
  6
CONTINUOUS
 62
     5
 10
257.52814043299838
 20
-270.10818501253061
 30
0.0
 11
257.61365779464057
 21
-270.01408283414372
 31
0.0
  0
LINE
  8
DETAIL
  6
CONTINUOUS
 62
     5
 10
257.61365779464057
 20
-270.01408283414372
 30
0.0
 11
257.70053290664669
 21
-269.92128022970701
 31
0.0
  0
LINE
  8
DETAIL
  6
CONTINUOUS
 62
     5
 10
257.70053290664669
 20
-269.92128022970701
 30
0.0
 11
257.70053290664669
 21
-269.92128022970701
 31
0.0
  0
LINE
  8
DETAIL
  6
CONTINUOUS
 62
     5
 10
257.70053290664669
 20
-269.92128022970701
 30
0.0
 11
257.78879198657552
 21
-269.82983622499393
 31
0.0
  0
LINE
  8
DETAIL
  6
CONTINUOUS
 62
     5
 10
257.78879198657552
 20
-269.82983622499393
 30
0.0
 11
257.87782285063372
 21
-269.7391535563238
 31
0.0
  0
LINE
  8
DETAIL
  6
CONTINUOUS
 62
     5
 10
257.87782285063372
 20
269.73915355710011
 30
0.0
 11
257.78879164892783
 21
269.82983657609037
 31
0.0
  0
LINE
  8
DETAIL
  6
CONTINUOUS
 62
     5
 10
257.78879164892783
 20
269.82983657609037
 30
0.0
 11
257.70053223738728
 21
269.92128093680481
 31
0.0
  0
LINE
  8
DETAIL
  6
CONTINUOUS
 62
     5
 10
257.70053223738728
 20
269.92128093680481
 30
0.0
 11
257.70053223738728
 21
269.92128093680481
 31
0.0
  0
LINE
  8
DETAIL
  6
CONTINUOUS
 62
     5
 10
257.70053223738728
 20
269.92128093680481
 30
0.0
 11
257.61365680453918
 21
270.01408390745468
 31
0.0
  0
LINE
  8
DETAIL
  6
CONTINUOUS
 62
     5
 10
257.61365680453918
 20
270.01408390745468
 30
0.0
 11
257.52813913235758
 21
270.10818646220292
 31
0.0
  0
LINE
  8
DETAIL
  6
CONTINUOUS
 62
     5
 10
257.52813913235758
 20
270.10818646220292
 30
0.0
 11
257.52813913235758
 21
270.10818646220292
 31
0.0
  0
LINE
  8
DETAIL
  6
CONTINUOUS
 62
     5
 10
257.52813913235758
 20
270.10818646220292
 30
0.0
 11
257.44383920365323
 21
270.203405340774
 31
0.0
  0
LINE
  8
DETAIL
  6
CONTINUOUS
 62
     5
 10
257.44383920365323
 20
270.203405340774
 30
0.0
 11
257.36080021113889
 21
270.29971663919008
 31
0.0
  0
LINE
  8
DETAIL
  6
CONTINUOUS
 62
     5
 10
257.36080021113889
 20
270.29971663919008
 30
0.0
 11
257.36080021113889
 21
270.29971663919008
 31
0.0
  0
LINE
  8
DETAIL
  6
CONTINUOUS
 62
     5
 10
257.36080021113889
 20
270.29971663919008
 30
0.0
 11
257.27908754174058
 21
270.39714100976238
 31
0.0
  0
LINE
  8
DETAIL
  6
CONTINUOUS
 62
     5
 10
257.27908754174058
 20
270.39714100976238
 30
0.0
 11
257.19867214932611
 21
270.49571797366428
 31
0.0
  0
LINE
  8
DETAIL
  6
CONTINUOUS
 62
     5
 10
257.19867214932611
 20
270.49571797366428
 30
0.0
 11
257.19867214932611
 21
270.49571797366428
 31
0.0
  0
LINE
  8
DETAIL
  6
CONTINUOUS
 62
     5
 10
257.19867214932611
 20
270.49571797366428
 30
0.0
 11
257.1195500100805
 21
270.59543306134788
 31
0.0
  0
LINE
  8
DETAIL
  6
CONTINUOUS
 62
     5
 10
257.1195500100805
 20
270.59543306134788
 30
0.0
 11
257.04191162251141
 21
270.69603697152093
 31
0.0
  0
LINE
  8
DETAIL
  6
CONTINUOUS
 62
     5
 10
257.04191162251141
 20
270.69603697152093
 30
0.0
 11
257.04191162251141
 21
270.69603697152093
 31
0.0
  0
LINE
  8
DETAIL
  6
CONTINUOUS
 62
     5
 10
257.04191162251141
 20
270.69603697152093
 30
0.0
 11
256.96592072032507
 21
270.79731742742138
 31
0.0
  0
LINE
  8
DETAIL
  6
CONTINUOUS
 62
     5
 10
256.96592072032507
 20
270.79731742742138
 30
0.0
 11
256.89143945571249
 21
270.89944508214762
 31
0.0
  0
LINE
  8
DETAIL
  6
CONTINUOUS
 62
     5
 10
256.89143945571249
 20
270.89944508214762
 30
0.0
 11
256.89143945571249
 21
270.89944508214762
 31
0.0
  0
LINE
  8
DETAIL
  6
CONTINUOUS
 62
     5
 10
256.89143945571249
 20
270.89944508214762
 30
0.0
 11
256.8183023030208
 21
271.00262611384233
 31
0.0
  0
LINE
  8
DETAIL
  6
CONTINUOUS
 62
     5
 10
256.8183023030208
 20
271.00262611384233
 30
0.0
 11
256.74653460674222
 21
271.10682587095988
 31
0.0
  0
LINE
  8
DETAIL
  6
CONTINUOUS
 62
     5
 10
256.74653460674222
 20
271.10682587095988
 30
0.0
 11
256.74653460674222
 21
271.10682587095988
 31
0.0
  0
LINE
  8
DETAIL
  6
CONTINUOUS
 62
     5
 10
256.74653460674222
 20
271.10682587095988
 30
0.0
 11
256.67619664704688
 21
271.21196561765191
 31
0.0
  0
LINE
  8
DETAIL
  6
CONTINUOUS
 62
     5
 10
256.67619664704688
 20
271.21196561765191
 30
0.0
 11
256.607297576674
 21
271.31803111054069
 31
0.0
  0
LINE
  8
DETAIL
  6
CONTINUOUS
 62
     5
 10
256.607297576674
 20
271.31803111054069
 30
0.0
 11
256.607297576674
 21
271.31803111054069
 31
0.0
  0
LINE
  8
DETAIL
  6
CONTINUOUS
 62
     5
 10
256.607297576674
 20
271.31803111054069
 30
0.0
 11
256.53983717640028
 21
271.42501994431791
 31
0.0
  0
LINE
  8
DETAIL
  6
CONTINUOUS
 62
     5
 10
256.53983717640028
 20
271.42501994431791
 30
0.0
 11
256.47382886658278
 21
271.53291257347178
 31
0.0
  0
LINE
  8
DETAIL
  6
CONTINUOUS
 62
     5
 10
256.47382886658278
 20
271.53291257347178
 30
0.0
 11
256.47382886658278
 21
271.53291257347178
 31
0.0
  0
LINE
  8
DETAIL
  6
CONTINUOUS
 62
     5
 10
256.47382886658278
 20
271.53291257347178
 30
0.0
 11
256.40928861975198
 21
271.64168618452481
 31
0.0
  0
LINE
  8
DETAIL
  6
CONTINUOUS
 62
     5
 10
256.40928861975198
 20
271.64168618452481
 30
0.0
 11
256.3462289775423
 21
271.75132203233528
 31
0.0
  0
LINE
  8
DETAIL
  6
CONTINUOUS
 62
     5
 10
256.3462289775423
 20
271.75132203233528
 30
0.0
 11
256.3462289775423
 21
271.75132203233528
 31
0.0
  0
LINE
  8
DETAIL
  6
CONTINUOUS
 62
     5
 10
256.3462289775423
 20
271.75132203233528
 30
0.0
 11
256.28466117011681
 21
271.86180221852487
 31
0.0
  0
LINE
  8
DETAIL
  6
CONTINUOUS
 62
     5
 10
256.28466117011681
 20
271.86180221852487
 30
0.0
 11
256.22459461265248
 21
271.97310816343452
 31
0.0
  0
LINE
  8
DETAIL
  6
CONTINUOUS
 62
     5
 10
256.22459461265248
 20
271.97310816343452
 30
0.0
 11
256.22459461265248
 21
271.97310816343452
 31
0.0
  0
LINE
  8
DETAIL
  6
CONTINUOUS
 62
     5
 10
256.22459461265248
 20
271.97310816343452
 30
0.0
 11
256.16603874573428
 21
272.08521977606921
 31
0.0
  0
LINE
  8
DETAIL
  6
CONTINUOUS
 62
     5
 10
256.16603874573428
 20
272.08521977606921
 30
0.0
 11
256.10900492656509
 21
272.19811160137192
 31
0.0
  0
LINE
  8
DETAIL
  6
CONTINUOUS
 62
     5
 10
256.10900492656509
 20
272.19811160137192
 30
0.0
 11
256.10900492656509
 21
272.19811160137192
 31
0.0
  0
LINE
  8
DETAIL
  6
CONTINUOUS
 62
     5
 10
256.10900492656509
 20
272.19811160137192
 30
0.0
 11
256.05350305874191
 21
272.31176199336801
 31
0.0
  0
LINE
  8
DETAIL
  6
CONTINUOUS
 62
     5
 10
256.05350305874191
 20
272.31176199336801
 30
0.0
 11
255.99953531482171
 21
272.42616990647548
 31
0.0
  0
LINE
  8
DETAIL
  6
CONTINUOUS
 62
     5
 10
255.99953531482171
 20
272.42616990647548
 30
0.0
 11
255.99953531482171
 21
272.42616990647548
 31
0.0
  0
LINE
  8
DETAIL
  6
CONTINUOUS
 62
     5
 10
255.99953531482171
 20
272.42616990647548
 30
0.0
 11
255.94710918648821
 21
272.54132018583391
 31
0.0
  0
LINE
  8
DETAIL
  6
CONTINUOUS
 62
     5
 10
255.94710918648821
 20
272.54132018583391
 30
0.0
 11
255.89626117296419
 21
272.6571206390729
 31
0.0
  0
LINE
  8
DETAIL
  6
CONTINUOUS
 62
     5
 10
255.89626117296419
 20
272.6571206390729
 30
0.0
 11
255.89626117296419
 21
272.6571206390729
 31
0.0
  0
LINE
  8
DETAIL
  6
CONTINUOUS
 62
     5
 10
255.89626117296419
 20
272.6571206390729
 30
0.0
 11
255.8470079505762
 21
272.77353170185711
 31
0.0
  0
LINE
  8
DETAIL
  6
CONTINUOUS
 62
     5
 10
255.8470079505762
 20
272.77353170185711
 30
0.0
 11
255.79925789653279
 21
272.89080135949189
 31
0.0
  0
LINE
  8
DETAIL
  6
CONTINUOUS
 62
     5
 10
255.79925789653279
 20
272.89080135949189
 30
0.0
 11
255.79925789653279
 21
272.89080135949189
 31
0.0
  0
LINE
  8
DETAIL
  6
CONTINUOUS
 62
     5
 10
255.79925789653279
 20
272.89080135949189
 30
0.0
 11
255.75293560771141
 21
273.00913559200671
 31
0.0
  0
LINE
  8
DETAIL
  6
CONTINUOUS
 62
     5
 10
255.75293560771141
 20
273.00913559200671
 30
0.0
 11
255.7081388587815
 21
273.12828480867711
 31
0.0
  0
LINE
  8
DETAIL
  6
CONTINUOUS
 62
     5
 10
255.7081388587815
 20
273.12828480867711
 30
0.0
 11
255.7081388587815
 21
273.12828480867711
 31
0.0
  0
LINE
  8
DETAIL
  6
CONTINUOUS
 62
     5
 10
255.7081388587815
 20
273.12828480867711
 30
0.0
 11
255.66498340073139
 21
273.24795742358037
 31
0.0
  0
LINE
  8
DETAIL
  6
CONTINUOUS
 62
     5
 10
255.66498340073139
 20
273.24795742358037
 30
0.0
 11
255.62348371202069
 21
273.36814944074672
 31
0.0
  0
LINE
  8
DETAIL
  6
CONTINUOUS
 62
     5
 10
255.62348371202069
 20
273.36814944074672
 30
0.0
 11
255.62348371202069
 21
273.36814944074672
 31
0.0
  0
LINE
  8
DETAIL
  6
CONTINUOUS
 62
     5
 10
255.62348371202069
 20
273.36814944074672
 30
0.0
 11
255.5836208508388
 21
273.48890609292448
 31
0.0
  0
LINE
  8
DETAIL
  6
CONTINUOUS
 62
     5
 10
255.5836208508388
 20
273.48890609292448
 30
0.0
 11
255.54534346682769
 21
273.61018193777318
 31
0.0
  0
LINE
  8
DETAIL
  6
CONTINUOUS
 62
     5
 10
255.54534346682769
 20
273.61018193777318
 30
0.0
 11
255.54534346682769
 21
273.61018193777318
 31
0.0
  0
LINE
  8
DETAIL
  6
CONTINUOUS
 62
     5
 10
255.54534346682769
 20
273.61018193777318
 30
0.0
 11
255.5086498341727
 21
273.73192764178037
 31
0.0
  0
LINE
  8
DETAIL
  6
CONTINUOUS
 62
     5
 10
255.5086498341727
 20
273.73192764178037
 30
0.0
 11
255.4737691337815
 21
273.85416898182939
 31
0.0
  0
LINE
  8
DETAIL
  6
CONTINUOUS
 62
     5
 10
255.4737691337815
 20
273.85416898182939
 30
0.0
 11
255.4737691337815
 21
273.85416898182939
 31
0.0
  0
LINE
  8
DETAIL
  6
CONTINUOUS
 62
     5
 10
255.4737691337815
 20
273.85416898182939
 30
0.0
 11
255.44076546865719
 21
273.97689807077768
 31
0.0
  0
LINE
  8
DETAIL
  6
CONTINUOUS
 62
     5
 10
255.44076546865719
 20
273.97689807077768
 30
0.0
 11
255.40881172345939
 21
274.09989725498741
 31
0.0
  0
LINE
  8
DETAIL
  6
CONTINUOUS
 62
     5
 10
274.0998972542103
 20
255.4088117242363
 30
0.0
 11
273.97689760043539
 21
255.4407655960724
 31
0.0
  0
LINE
  8
DETAIL
  6
CONTINUOUS
 62
     5
 10
273.97689760043539
 20
255.4407655960724
 30
0.0
 11
273.85416804414058
 21
255.47376939582611
 31
0.0
  0
LINE
  8
DETAIL
  6
CONTINUOUS
 62
     5
 10
273.85416804414058
 20
255.47376939582611
 30
0.0
 11
273.85416804414058
 21
255.47376939582611
 31
0.0
  0
LINE
  8
DETAIL
  6
CONTINUOUS
 62
     5
 10
273.85416804414058
 20
255.47376939582611
 30
0.0
 11
273.73192624066752
 21
255.50865024517131
 31
0.0
  0
LINE
  8
DETAIL
  6
CONTINUOUS
 62
     5
 10
273.73192624066752
 20
255.50865024517131
 30
0.0
 11
273.61018007679962
 21
255.5453440408032
 31
0.0
  0
LINE
  8
DETAIL
  6
CONTINUOUS
 62
     5
 10
273.61018007679962
 20
255.5453440408032
 30
0.0
 11
273.61018007679962
 21
255.5453440408032
 31
0.0
  0
LINE
  8
DETAIL
  6
CONTINUOUS
 62
     5
 10
273.61018007679962
 20
255.5453440408032
 30
0.0
 11
273.4889037754408
 21
255.58362160007729
 31
0.0
  0
LINE
  8
DETAIL
  6
CONTINUOUS
 62
     5
 10
273.4889037754408
 20
255.58362160007729
 30
0.0
 11
273.36814667254271
 21
255.62348464796739
 31
0.0
  0
LINE
  8
DETAIL
  6
CONTINUOUS
 62
     5
 10
273.36814667254271
 20
255.62348464796739
 30
0.0
 11
273.36814667254271
 21
255.62348464796739
 31
0.0
  0
LINE
  8
DETAIL
  6
CONTINUOUS
 62
     5
 10
273.36814667254271
 20
255.62348464796739
 30
0.0
 11
273.24795421140988
 21
255.66498453497641
 31
0.0
  0
LINE
  8
DETAIL
  6
CONTINUOUS
 62
     5
 10
273.24795421140988
 20
255.66498453497641
 30
0.0
 11
273.1282811517251
 21
255.7081402061178
 31
0.0
  0
LINE
  8
DETAIL
  6
CONTINUOUS
 62
     5
 10
273.1282811517251
 20
255.7081402061178
 30
0.0
 11
273.1282811517251
 21
255.7081402061178
 31
0.0
  0
LINE
  8
DETAIL
  6
CONTINUOUS
 62
     5
 10
273.1282811517251
 20
255.7081402061178
 30
0.0
 11
273.00913148762652
 21
255.75293718361829
 31
0.0
  0
LINE
  8
DETAIL
  6
CONTINUOUS
 62
     5
 10
273.00913148762652
 20
255.75293718361829
 30
0.0
 11
272.8907968347014
 21
255.79925970405409
 31
0.0
  0
LINE
  8
DETAIL
  6
CONTINUOUS
 62
     5
 10
272.8907968347014
 20
255.79925970405409
 30
0.0
 11
272.8907968347014
 21
255.79925970405409
 31
0.0
  0
LINE
  8
DETAIL
  6
CONTINUOUS
 62
     5
 10
272.8907968347014
 20
255.79925970405409
 30
0.0
 11
272.77352680894751
 21
255.8470099818978
 31
0.0
  0
LINE
  8
DETAIL
  6
CONTINUOUS
 62
     5
 10
272.77352680894751
 20
255.8470099818978
 30
0.0
 11
272.65711540654712
 21
255.89626342886189
 31
0.0
  0
LINE
  8
DETAIL
  6
CONTINUOUS
 62
     5
 10
272.65711540654712
 20
255.89626342886189
 30
0.0
 11
272.65711540654712
 21
255.89626342886189
 31
0.0
  0
LINE
  8
DETAIL
  6
CONTINUOUS
 62
     5
 10
272.65711540654712
 20
255.89626342886189
 30
0.0
 11
272.5413146126441
 21
255.94711167899891
 31
0.0
  0
LINE
  8
DETAIL
  6
CONTINUOUS
 62
     5
 10
272.5413146126441
 20
255.94711167899891
 30
0.0
 11
272.42616398803119
 21
255.9995380584885
 31
0.0
  0
LINE
  8
DETAIL
  6
CONTINUOUS
 62
     5
 10
272.42616398803119
 20
255.9995380584885
 30
0.0
 11
272.42616398803119
 21
255.9995380584885
 31
0.0
  0
LINE
  8
DETAIL
  6
CONTINUOUS
 62
     5
 10
272.42616398803119
 20
255.9995380584885
 30
0.0
 11
272.31175573178763
 21
256.05350606578918
 31
0.0
  0
LINE
  8
DETAIL
  6
CONTINUOUS
 62
     5
 10
272.31175573178763
 20
256.05350606578918
 30
0.0
 11
272.19810502047608
 21
256.1090081963514
 31
0.0
  0
LINE
  8
DETAIL
  6
CONTINUOUS
 62
     5
 10
272.19810502047608
 20
256.1090081963514
 30
0.0
 11
272.19810502047608
 21
256.1090081963514
 31
0.0
  0
LINE
  8
DETAIL
  6
CONTINUOUS
 62
     5
 10
272.19810502047608
 20
256.1090081963514
 30
0.0
 11
272.08521290363461
 21
256.1660422748505
 31
0.0
  0
LINE
  8
DETAIL
  6
CONTINUOUS
 62
     5
 10
272.08521290363461
 20
256.1660422748505
 30
0.0
 11
271.97310094520458
 21
256.22459844586638
 31
0.0
  0
LINE
  8
DETAIL
  6
CONTINUOUS
 62
     5
 10
271.97310094520458
 20
256.22459844586638
 30
0.0
 11
271.97310094520458
 21
256.22459844586638
 31
0.0
  0
LINE
  8
DETAIL
  6
CONTINUOUS
 62
     5
 10
271.97310094520458
 20
256.22459844586638
 30
0.0
 11
271.86179457895349
 21
256.28466536480232
 31
0.0
  0
LINE
  8
DETAIL
  6
CONTINUOUS
 62
     5
 10
271.86179457895349
 20
256.28466536480232
 30
0.0
 11
271.7513142035383
 21
256.34623341044988
 31
0.0
  0
LINE
  8
DETAIL
  6
CONTINUOUS
 62
     5
 10
271.7513142035383
 20
256.34623341044988
 30
0.0
 11
271.7513142035383
 21
256.34623341044988
 31
0.0
  0
LINE
  8
DETAIL
  6
CONTINUOUS
 62
     5
 10
271.7513142035383
 20
256.34623341044988
 30
0.0
 11
271.64167865738341
 21
256.40929301294818
 31
0.0
  0
LINE
  8
DETAIL
  6
CONTINUOUS
 62
     5
 10
271.64167865738341
 20
256.40929301294818
 30
0.0
 11
271.53290557309202
 21
256.47383308443841
 31
0.0
  0
LINE
  8
DETAIL
  6
CONTINUOUS
 62
     5
 10
271.53290557309202
 20
256.47383308443841
 30
0.0
 11
271.53290557309202
 21
256.47383308443841
 31
0.0
  0
LINE
  8
DETAIL
  6
CONTINUOUS
 62
     5
 10
271.53290557309202
 20
256.47383308443841
 30
0.0
 11
271.42501338263202
 21
256.53984125417583
 31
0.0
  0
LINE
  8
DETAIL
  6
CONTINUOUS
 62
     5
 10
271.42501338263202
 20
256.53984125417583
 30
0.0
 11
271.31802492124513
 21
256.60730153786022
 31
0.0
  0
LINE
  8
DETAIL
  6
CONTINUOUS
 62
     5
 10
271.31802492124513
 20
256.60730153786022
 30
0.0
 11
271.31802492124513
 21
256.60730153786022
 31
0.0
  0
LINE
  8
DETAIL
  6
CONTINUOUS
 62
     5
 10
271.31802492124513
 20
256.60730153786022
 30
0.0
 11
271.21195981795682
 21
256.67620046957933
 31
0.0
  0
LINE
  8
DETAIL
  6
CONTINUOUS
 62
     5
 10
271.21195981795682
 20
256.67620046957933
 30
0.0
 11
271.10682047367141
 21
256.74653827052521
 31
0.0
  0
LINE
  8
DETAIL
  6
CONTINUOUS
 62
     5
 10
271.10682047367141
 20
256.74653827052521
 30
0.0
 11
271.10682047367141
 21
256.74653827052521
 31
0.0
  0
LINE
  8
DETAIL
  6
CONTINUOUS
 62
     5
 10
271.10682047367141
 20
256.74653827052521
 30
0.0
 11
271.00262110956493
 21
256.81830579995062
 31
0.0
  0
LINE
  8
DETAIL
  6
CONTINUOUS
 62
     5
 10
271.00262110956493
 20
256.81830579995062
 30
0.0
 11
270.89944045604648
 21
256.89144278224489
 31
0.0
  0
LINE
  8
DETAIL
  6
CONTINUOUS
 62
     5
 10
270.89944045604648
 20
256.89144278224489
 30
0.0
 11
270.89944045604648
 21
256.89144278224489
 31
0.0
  0
LINE
  8
DETAIL
  6
CONTINUOUS
 62
     5
 10
270.89944045604648
 20
256.89144278224489
 30
0.0
 11
270.79731316863513
 21
256.96592387116931
 31
0.0
  0
LINE
  8
DETAIL
  6
CONTINUOUS
 62
     5
 10
270.79731316863513
 20
256.96592387116931
 30
0.0
 11
270.6960330940467
 21
257.04191457283059
 31
0.0
  0
LINE
  8
DETAIL
  6
CONTINUOUS
 62
     5
 10
270.6960330940467
 20
257.04191457283059
 30
0.0
 11
270.6960330940467
 21
257.04191457283059
 31
0.0
  0
LINE
  8
DETAIL
  6
CONTINUOUS
 62
     5
 10
270.6960330940467
 20
257.04191457283059
 30
0.0
 11
270.59542959878701
 21
257.11955271905981
 31
0.0
  0
LINE
  8
DETAIL
  6
CONTINUOUS
 62
     5
 10
270.59542959878701
 20
257.11955271905981
 30
0.0
 11
270.49571493730508
 21
257.1986745922311
 31
0.0
  0
LINE
  8
DETAIL
  6
CONTINUOUS
 62
     5
 10
270.49571493730508
 20
257.1986745922311
 30
0.0
 11
270.49571493730508
 21
257.1986745922311
 31
0.0
  0
LINE
  8
DETAIL
  6
CONTINUOUS
 62
     5
 10
270.49571493730508
 20
257.1986745922311
 30
0.0
 11
270.3971383849663
 21
257.2790897128732
 31
0.0
  0
LINE
  8
DETAIL
  6
CONTINUOUS
 62
     5
 10
270.3971383849663
 20
257.2790897128732
 30
0.0
 11
270.29971441284772
 21
257.36080210357932
 31
0.0
  0
LINE
  8
DETAIL
  6
CONTINUOUS
 62
     5
 10
270.29971441284772
 20
257.36080210357932
 30
0.0
 11
270.29971441284772
 21
257.36080210357932
 31
0.0
  0
LINE
  8
DETAIL
  6
CONTINUOUS
 62
     5
 10
270.29971441284772
 20
257.36080210357932
 30
0.0
 11
270.20340350641732
 21
257.44384080563208
 31
0.0
  0
LINE
  8
DETAIL
  6
CONTINUOUS
 62
     5
 10
270.20340350641732
 20
257.44384080563208
 30
0.0
 11
270.10818501298968
 21
257.52814043300708
 31
0.0
  0
LINE
  8
DETAIL
  6
CONTINUOUS
 62
     5
 10
270.10818501298968
 20
257.52814043300708
 30
0.0
 11
270.10818501298968
 21
257.52814043300708
 31
0.0
  0
LINE
  8
DETAIL
  6
CONTINUOUS
 62
     5
 10
270.10818501298968
 20
257.52814043300708
 30
0.0
 11
270.01408283456772
 21
257.6136577946445
 31
0.0
  0
LINE
  8
DETAIL
  6
CONTINUOUS
 62
     5
 10
270.01408283456772
 20
257.6136577946445
 30
0.0
 11
269.92128023004369
 21
257.70053290664799
 31
0.0
  0
LINE
  8
DETAIL
  6
CONTINUOUS
 62
     5
 10
269.92128023004369
 20
257.70053290664799
 30
0.0
 11
269.92128023004369
 21
257.70053290664799
 31
0.0
  0
LINE
  8
DETAIL
  6
CONTINUOUS
 62
     5
 10
269.92128023004369
 20
257.70053290664799
 30
0.0
 11
269.82983622518009
 21
257.78879198657569
 31
0.0
  0
LINE
  8
DETAIL
  6
CONTINUOUS
 62
     5
 10
269.82983622518009
 20
257.78879198657569
 30
0.0
 11
269.73915355632312
 21
257.8778228506344
 31
0.0
  0
LINE
  8
DETAIL
  6
CONTINUOUS
 62
     5
 10
271.53141769951498
 20
261.04330253745093
 30
0.0
 11
271.62210036837149
 21
260.95427167319048
 31
0.0
  0
LINE
  8
DETAIL
  6
CONTINUOUS
 62
     5
 10
271.62210036837149
 20
260.95427167319048
 30
0.0
 11
271.71354437323521
 21
260.866012593086
 31
0.0
  0
LINE
  8
DETAIL
  6
CONTINUOUS
 62
     5
 10
271.71354437323521
 20
260.866012593086
 30
0.0
 11
271.71354437323521
 21
260.866012593086
 31
0.0
  0
LINE
  8
DETAIL
  6
CONTINUOUS
 62
     5
 10
271.71354437323521
 20
260.866012593086
 30
0.0
 11
271.80634697775918
 21
260.77913748094869
 31
0.0
  0
LINE
  8
DETAIL
  6
CONTINUOUS
 62
     5
 10
271.80634697775918
 20
260.77913748094869
 30
0.0
 11
271.90044915618108
 21
260.69362011921521
 31
0.0
  0
LINE
  8
DETAIL
  6
CONTINUOUS
 62
     5
 10
271.90044915618108
 20
260.69362011921521
 30
0.0
 11
271.90044915618108
 21
260.69362011921521
 31
0.0
  0
LINE
  8
DETAIL
  6
CONTINUOUS
 62
     5
 10
271.90044915618108
 20
260.69362011921521
 30
0.0
 11
271.99566764960878
 21
260.60932049176989
 31
0.0
  0
LINE
  8
DETAIL
  6
CONTINUOUS
 62
     5
 10
271.99566764960878
 20
260.60932049176989
 30
0.0
 11
272.09197855603969
 21
260.52628178966921
 31
0.0
  0
LINE
  8
DETAIL
  6
CONTINUOUS
 62
     5
 10
272.09197855603969
 20
260.52628178966921
 30
0.0
 11
272.09197855603969
 21
260.52628178966921
 31
0.0
  0
LINE
  8
DETAIL
  6
CONTINUOUS
 62
     5
 10
272.09197855603969
 20
260.52628178966921
 30
0.0
 11
272.18940252815833
 21
260.44456939893422
 31
0.0
  0
LINE
  8
DETAIL
  6
CONTINUOUS
 62
     5
 10
272.18940252815833
 20
260.44456939893422
 30
0.0
 11
272.2879790804966
 21
260.36415427827751
 31
0.0
  0
LINE
  8
DETAIL
  6
CONTINUOUS
 62
     5
 10
272.2879790804966
 20
260.36415427827751
 30
0.0
 11
272.2879790804966
 21
260.36415427827751
 31
0.0
  0
LINE
  8
DETAIL
  6
CONTINUOUS
 62
     5
 10
272.2879790804966
 20
260.36415427827751
 30
0.0
 11
272.38769374197841
 21
260.28503240510082
 31
0.0
  0
LINE
  8
DETAIL
  6
CONTINUOUS
 62
     5
 10
272.38769374197841
 20
260.28503240510082
 30
0.0
 11
272.48829723723821
 21
260.20739425887041
 31
0.0
  0
LINE
  8
DETAIL
  6
CONTINUOUS
 62
     5
 10
272.48829723723821
 20
260.20739425887041
 30
0.0
 11
272.48829723723821
 21
260.20739425887041
 31
0.0
  0
LINE
  8
DETAIL
  6
CONTINUOUS
 62
     5
 10
272.48829723723821
 20
260.20739425887041
 30
0.0
 11
272.58957731182659
 21
260.13140355720952
 31
0.0
  0
LINE
  8
DETAIL
  6
CONTINUOUS
 62
     5
 10
272.58957731182659
 20
260.13140355720952
 30
0.0
 11
272.69170459923839
 21
260.05692246828539
 31
0.0
  0
LINE
  8
DETAIL
  6
CONTINUOUS
 62
     5
 10
272.69170459923839
 20
260.05692246828539
 30
0.0
 11
272.69170459923839
 21
260.05692246828539
 31
0.0
  0
LINE
  8
DETAIL
  6
CONTINUOUS
 62
     5
 10
272.69170459923839
 20
260.05692246828539
 30
0.0
 11
272.79488525275627
 21
259.98378548599089
 31
0.0
  0
LINE
  8
DETAIL
  6
CONTINUOUS
 62
     5
 10
272.79488525275627
 20
259.98378548599089
 30
0.0
 11
272.89908461686292
 21
259.91201795656548
 31
0.0
  0
LINE
  8
DETAIL
  6
CONTINUOUS
 62
     5
 10
272.89908461686292
 20
259.91201795656548
 30
0.0
 11
272.89908461686292
 21
259.91201795656548
 31
0.0
  0
LINE
  8
DETAIL
  6
CONTINUOUS
 62
     5
 10
272.89908461686292
 20
259.91201795656548
 30
0.0
 11
273.00422396114868
 21
259.84168015561949
 31
0.0
  0
LINE
  8
DETAIL
  6
CONTINUOUS
 62
     5
 10
273.00422396114868
 20
259.84168015561949
 30
0.0
 11
273.1102890644363
 21
259.77278122390038
 31
0.0
  0
LINE
  8
DETAIL
  6
CONTINUOUS
 62
     5
 10
273.1102890644363
 20
259.77278122390038
 30
0.0
 11
273.1102890644363
 21
259.77278122390038
 31
0.0
  0
LINE
  8
DETAIL
  6
CONTINUOUS
 62
     5
 10
273.1102890644363
 20
259.77278122390038
 30
0.0
 11
273.21727752582387
 21
259.70532094021593
 31
0.0
  0
LINE
  8
DETAIL
  6
CONTINUOUS
 62
     5
 10
273.21727752582387
 20
259.70532094021593
 30
0.0
 11
273.32516971628343
 21
259.63931277047868
 31
0.0
  0
LINE
  8
DETAIL
  6
CONTINUOUS
 62
     5
 10
273.32516971628343
 20
259.63931277047868
 30
0.0
 11
273.32516971628343
 21
259.63931277047868
 31
0.0
  0
LINE
  8
DETAIL
  6
CONTINUOUS
 62
     5
 10
273.32516971628343
 20
259.63931277047868
 30
0.0
 11
273.43394280057532
 21
259.57477269898823
 31
0.0
  0
LINE
  8
DETAIL
  6
CONTINUOUS
 62
     5
 10
273.43394280057532
 20
259.57477269898823
 30
0.0
 11
273.54357834673033
 21
259.51171309649021
 31
0.0
  0
LINE
  8
DETAIL
  6
CONTINUOUS
 62
     5
 10
273.54357834673033
 20
259.51171309649021
 30
0.0
 11
273.54357834673033
 21
259.51171309649021
 31
0.0
  0
LINE
  8
DETAIL
  6
CONTINUOUS
 62
     5
 10
273.54357834673033
 20
259.51171309649021
 30
0.0
 11
273.65405872214552
 21
259.45014505084259
 31
0.0
  0
LINE
  8
DETAIL
  6
CONTINUOUS
 62
     5
 10
273.65405872214552
 20
259.45014505084259
 30
0.0
 11
273.76536508839598
 21
259.39007813190619
 31
0.0
  0
LINE
  8
DETAIL
  6
CONTINUOUS
 62
     5
 10
273.76536508839598
 20
259.39007813190619
 30
0.0
 11
273.76536508839598
 21
259.39007813190619
 31
0.0
  0
LINE
  8
DETAIL
  6
CONTINUOUS
 62
     5
 10
273.76536508839598
 20
259.39007813190619
 30
0.0
 11
273.87747704682602
 21
259.33152196089031
 31
0.0
  0
LINE
  8
DETAIL
  6
CONTINUOUS
 62
     5
 10
273.87747704682602
 20
259.33152196089031
 30
0.0
 11
273.99036916366799
 21
259.27448788239138
 31
0.0
  0
LINE
  8
DETAIL
  6
CONTINUOUS
 62
     5
 10
273.99036916366799
 20
259.27448788239138
 30
0.0
 11
273.99036916366799
 21
259.27448788239138
 31
0.0
  0
LINE
  8
DETAIL
  6
CONTINUOUS
 62
     5
 10
273.99036916366799
 20
259.27448788239138
 30
0.0
 11
274.10401987497897
 21
259.21898575182922
 31
0.0
  0
LINE
  8
DETAIL
  6
CONTINUOUS
 62
     5
 10
274.10401987497897
 20
259.21898575182922
 30
0.0
 11
274.21842813122322
 21
259.165017744529
 31
0.0
  0
LINE
  8
DETAIL
  6
CONTINUOUS
 62
     5
 10
274.21842813122322
 20
259.165017744529
 30
0.0
 11
274.21842813122322
 21
259.165017744529
 31
0.0
  0
LINE
  8
DETAIL
  6
CONTINUOUS
 62
     5
 10
274.21842813122322
 20
259.165017744529
 30
0.0
 11
274.33357875583562
 21
259.11259136503941
 31
0.0
  0
LINE
  8
DETAIL
  6
CONTINUOUS
 62
     5
 10
274.33357875583562
 20
259.11259136503941
 30
0.0
 11
274.44937954973898
 21
259.06174311490207
 31
0.0
  0
LINE
  8
DETAIL
  6
CONTINUOUS
 62
     5
 10
274.44937954973898
 20
259.06174311490207
 30
0.0
 11
274.44937954973898
 21
259.06174311490207
 31
0.0
  0
LINE
  8
DETAIL
  6
CONTINUOUS
 62
     5
 10
274.44937954973898
 20
259.06174311490207
 30
0.0
 11
274.56579095213903
 21
259.01248966793861
 31
0.0
  0
LINE
  8
DETAIL
  6
CONTINUOUS
 62
     5
 10
274.56579095213903
 20
259.01248966793861
 30
0.0
 11
274.68306097789292
 21
258.96473939009462
 31
0.0
  0
LINE
  8
DETAIL
  6
CONTINUOUS
 62
     5
 10
274.68306097789292
 20
258.96473939009462
 30
0.0
 11
274.68306097789292
 21
258.96473939009462
 31
0.0
  0
LINE
  8
DETAIL
  6
CONTINUOUS
 62
     5
 10
274.68306097789292
 20
258.96473939009462
 30
0.0
 11
274.80139563081798
 21
258.91841686965859
 31
0.0
  0
LINE
  8
DETAIL
  6
CONTINUOUS
 62
     5
 10
274.80139563081798
 20
258.91841686965859
 30
0.0
 11
274.92054529491662
 21
258.87361989215788
 31
0.0
  0
LINE
  8
DETAIL
  6
CONTINUOUS
 62
     5
 10
274.92054529491662
 20
258.87361989215788
 30
0.0
 11
274.92054529491662
 21
258.87361989215788
 31
0.0
  0
LINE
  8
DETAIL
  6
CONTINUOUS
 62
     5
 10
274.92054529491662
 20
258.87361989215788
 30
0.0
 11
275.04021835460139
 21
258.83046422101671
 31
0.0
  0
LINE
  8
DETAIL
  6
CONTINUOUS
 62
     5
 10
275.04021835460139
 20
258.83046422101671
 30
0.0
 11
275.16041081573428
 21
258.78896433400769
 31
0.0
  0
LINE
  8
DETAIL
  6
CONTINUOUS
 62
     5
 10
275.16041081573428
 20
258.78896433400769
 30
0.0
 11
275.16041081573428
 21
258.78896433400769
 31
0.0
  0
LINE
  8
DETAIL
  6
CONTINUOUS
 62
     5
 10
275.16041081573428
 20
258.78896433400769
 30
0.0
 11
275.28116791863272
 21
258.74910128611782
 31
0.0
  0
LINE
  8
DETAIL
  6
CONTINUOUS
 62
     5
 10
275.28116791863272
 20
258.74910128611782
 30
0.0
 11
275.40244421999091
 21
258.71082372684327
 31
0.0
  0
LINE
  8
DETAIL
  6
CONTINUOUS
 62
     5
 10
275.40244421999091
 20
258.71082372684327
 30
0.0
 11
275.40244421999091
 21
258.71082372684327
 31
0.0
  0
LINE
  8
DETAIL
  6
CONTINUOUS
 62
     5
 10
275.40244421999091
 20
258.71082372684327
 30
0.0
 11
275.52419038385938
 21
258.67412993121138
 31
0.0
  0
LINE
  8
DETAIL
  6
CONTINUOUS
 62
     5
 10
275.52419038385938
 20
258.67412993121138
 30
0.0
 11
275.64643218733198
 21
258.63924908186618
 31
0.0
  0
LINE
  8
DETAIL
  6
CONTINUOUS
 62
     5
 10
275.64643218733198
 20
258.63924908186618
 30
0.0
 11
275.64643218733198
 21
258.63924908186618
 31
0.0
  0
LINE
  8
DETAIL
  6
CONTINUOUS
 62
     5
 10
275.64643218733198
 20
258.63924908186618
 30
0.0
 11
275.76916174362691
 21
258.60624528211252
 31
0.0
  0
LINE
  8
DETAIL
  6
CONTINUOUS
 62
     5
 10
275.76916174362691
 20
258.60624528211252
 30
0.0
 11
275.89216139740228
 21
258.5742914102766
 31
0.0
  0
LINE
  8
DETAIL
  6
CONTINUOUS
 62
     5
 10
258.57429141027637
 20
275.89216139817898
 30
0.0
 11
258.60624515545828
 21
275.76916221396908
 31
0.0
  0
LINE
  8
DETAIL
  6
CONTINUOUS
 62
     5
 10
258.60624515545828
 20
275.76916221396908
 30
0.0
 11
258.63924882055568
 21
275.64643312502079
 31
0.0
  0
LINE
  8
DETAIL
  6
CONTINUOUS
 62
     5
 10
258.63924882055568
 20
275.64643312502079
 30
0.0
 11
258.63924882055568
 21
275.64643312502079
 31
0.0
  0
LINE
  8
DETAIL
  6
CONTINUOUS
 62
     5
 10
258.63924882055568
 20
275.64643312502079
 30
0.0
 11
258.67412952090098
 21
275.52419178497229
 31
0.0
  0
LINE
  8
DETAIL
  6
CONTINUOUS
 62
     5
 10
258.67412952090098
 20
275.52419178497229
 30
0.0
 11
258.71082315349508
 21
275.40244608096509
 31
0.0
  0
LINE
  8
DETAIL
  6
CONTINUOUS
 62
     5
 10
258.71082315349508
 20
275.40244608096509
 30
0.0
 11
258.71082315349508
 21
275.40244608096509
 31
0.0
  0
LINE
  8
DETAIL
  6
CONTINUOUS
 62
     5
 10
258.71082315349508
 20
275.40244608096509
 30
0.0
 11
258.74910053743611
 21
275.2811702361164
 31
0.0
  0
LINE
  8
DETAIL
  6
CONTINUOUS
 62
     5
 10
258.74910053743611
 20
275.2811702361164
 30
0.0
 11
258.7889633985435
 21
275.16041358393841
 31
0.0
  0
LINE
  8
DETAIL
  6
CONTINUOUS
 62
     5
 10
258.7889633985435
 20
275.16041358393841
 30
0.0
 11
258.7889633985435
 21
275.16041358393841
 31
0.0
  0
LINE
  8
DETAIL
  6
CONTINUOUS
 62
     5
 10
258.7889633985435
 20
275.16041358393841
 30
0.0
 11
258.83046308717689
 21
275.04022156677178
 31
0.0
  0
LINE
  8
DETAIL
  6
CONTINUOUS
 62
     5
 10
258.83046308717689
 20
275.04022156677178
 30
0.0
 11
258.87361854515052
 21
274.9205489518688
 31
0.0
  0
LINE
  8
DETAIL
  6
CONTINUOUS
 62
     5
 10
258.87361854515052
 20
274.9205489518688
 30
0.0
 11
258.87361854515052
 21
274.9205489518688
 31
0.0
  0
LINE
  8
DETAIL
  6
CONTINUOUS
 62
     5
 10
258.87361854515052
 20
274.9205489518688
 30
0.0
 11
258.91841529400813
 21
274.80139973519817
 31
0.0
  0
LINE
  8
DETAIL
  6
CONTINUOUS
 62
     5
 10
258.91841529400813
 20
274.80139973519817
 30
0.0
 11
258.96473758276647
 21
274.68306550268358
 31
0.0
  0
LINE
  8
DETAIL
  6
CONTINUOUS
 62
     5
 10
258.96473758276647
 20
274.68306550268358
 30
0.0
 11
258.96473758276647
 21
274.68306550268358
 31
0.0
  0
LINE
  8
DETAIL
  6
CONTINUOUS
 62
     5
 10
258.96473758276647
 20
274.68306550268358
 30
0.0
 11
259.01248763675738
 21
274.56579584504829
 31
0.0
  0
LINE
  8
DETAIL
  6
CONTINUOUS
 62
     5
 10
259.01248763675738
 20
274.56579584504829
 30
0.0
 11
259.06174085910311
 21
274.44938478226459
 31
0.0
  0
LINE
  8
DETAIL
  6
CONTINUOUS
 62
     5
 10
259.06174085910311
 20
274.44938478226459
 30
0.0
 11
259.06174085910311
 21
274.44938478226459
 31
0.0
  0
LINE
  8
DETAIL
  6
CONTINUOUS
 62
     5
 10
259.06174085910311
 20
274.44938478226459
 30
0.0
 11
259.11258887259493
 21
274.3335843290256
 31
0.0
  0
LINE
  8
DETAIL
  6
CONTINUOUS
 62
     5
 10
259.11258887259493
 20
274.3335843290256
 30
0.0
 11
259.16501500090368
 21
274.21843404966739
 31
0.0
  0
LINE
  8
DETAIL
  6
CONTINUOUS
 62
     5
 10
259.16501500090368
 20
274.21843404966739
 30
0.0
 11
259.16501500090368
 21
274.21843404966739
 31
0.0
  0
LINE
  8
DETAIL
  6
CONTINUOUS
 62
     5
 10
259.16501500090368
 20
274.21843404966739
 30
0.0
 11
259.21898274480668
 21
274.10402613655992
 31
0.0
  0
LINE
  8
DETAIL
  6
CONTINUOUS
 62
     5
 10
259.21898274480668
 20
274.10402613655992
 30
0.0
 11
259.27448461261821
 21
273.99037574456361
 31
0.0
  0
LINE
  8
DETAIL
  6
CONTINUOUS
 62
     5
 10
259.27448461261821
 20
273.99037574456361
 30
0.0
 11
259.27448461261821
 21
273.99037574456361
 31
0.0
  0
LINE
  8
DETAIL
  6
CONTINUOUS
 62
     5
 10
259.27448461261821
 20
273.99037574456361
 30
0.0
 11
259.33151843178013
 21
273.87748391926061
 31
0.0
  0
LINE
  8
DETAIL
  6
CONTINUOUS
 62
     5
 10
259.33151843178013
 20
273.87748391926061
 30
0.0
 11
259.39007429869463
 21
273.76537230662569
 31
0.0
  0
LINE
  8
DETAIL
  6
CONTINUOUS
 62
     5
 10
259.39007429869463
 20
273.76537230662569
 30
0.0
 11
259.39007429869463
 21
273.76537230662569
 31
0.0
  0
LINE
  8
DETAIL
  6
CONTINUOUS
 62
     5
 10
259.39007429869463
 20
273.76537230662569
 30
0.0
 11
259.45014085615708
 21
273.65406636171627
 31
0.0
  0
LINE
  8
DETAIL
  6
CONTINUOUS
 62
     5
 10
259.45014085615708
 20
273.65406636171627
 30
0.0
 11
259.51170866358262
 21
273.54358617552703
 31
0.0
  0
LINE
  8
DETAIL
  6
CONTINUOUS
 62
     5
 10
259.51170866358262
 20
273.54358617552703
 30
0.0
 11
259.51170866358262
 21
273.54358617552703
 31
0.0
  0
LINE
  8
DETAIL
  6
CONTINUOUS
 62
     5
 10
259.51170866358262
 20
273.54358617552703
 30
0.0
 11
259.5747683057923
 21
273.43395032771667
 31
0.0
  0
LINE
  8
DETAIL
  6
CONTINUOUS
 62
     5
 10
259.5747683057923
 20
273.43395032771667
 30
0.0
 11
259.63930855262311
 21
273.32517671666352
 31
0.0
  0
LINE
  8
DETAIL
  6
CONTINUOUS
 62
     5
 10
259.63930855262311
 20
273.32517671666352
 30
0.0
 11
259.63930855262311
 21
273.32517671666352
 31
0.0
  0
LINE
  8
DETAIL
  6
CONTINUOUS
 62
     5
 10
259.63930855262311
 20
273.32517671666352
 30
0.0
 11
259.70531686244038
 21
273.2172840875096
 31
0.0
  0
LINE
  8
DETAIL
  6
CONTINUOUS
 62
     5
 10
259.70531686244038
 20
273.2172840875096
 30
0.0
 11
259.77277726271438
 21
273.1102952537326
 31
0.0
  0
LINE
  8
DETAIL
  6
CONTINUOUS
 62
     5
 10
259.77277726271438
 20
273.1102952537326
 30
0.0
 11
259.77277726271438
 21
273.1102952537326
 31
0.0
  0
LINE
  8
DETAIL
  6
CONTINUOUS
 62
     5
 10
259.77277726271438
 20
273.1102952537326
 30
0.0
 11
259.84167633308721
 21
273.0042297608436
 31
0.0
  0
LINE
  8
DETAIL
  6
CONTINUOUS
 62
     5
 10
259.84167633308721
 20
273.0042297608436
 30
0.0
 11
259.91201429278249
 21
272.89909001415191
 31
0.0
  0
LINE
  8
DETAIL
  6
CONTINUOUS
 62
     5
 10
259.91201429278249
 20
272.89909001415191
 30
0.0
 11
259.91201429278249
 21
272.89909001415191
 31
0.0
  0
LINE
  8
DETAIL
  6
CONTINUOUS
 62
     5
 10
259.91201429278249
 20
272.89909001415191
 30
0.0
 11
259.98378198906107
 21
272.79489025703418
 31
0.0
  0
LINE
  8
DETAIL
  6
CONTINUOUS
 62
     5
 10
259.98378198906107
 20
272.79489025703418
 30
0.0
 11
260.05691914175281
 21
272.69170922533948
 31
0.0
  0
LINE
  8
DETAIL
  6
CONTINUOUS
 62
     5
 10
260.05691914175281
 20
272.69170922533948
 30
0.0
 11
260.05691914175281
 21
272.69170922533948
 31
0.0
  0
LINE
  8
DETAIL
  6
CONTINUOUS
 62
     5
 10
260.05691914175281
 20
272.69170922533948
 30
0.0
 11
260.1314004063654
 21
272.58958157061329
 31
0.0
  0
LINE
  8
DETAIL
  6
CONTINUOUS
 62
     5
 10
260.1314004063654
 20
272.58958157061329
 30
0.0
 11
260.20739130855168
 21
272.48830111471261
 31
0.0
  0
LINE
  8
DETAIL
  6
CONTINUOUS
 62
     5
 10
260.20739130855168
 20
272.48830111471261
 30
0.0
 11
260.20739130855168
 21
272.48830111471261
 31
0.0
  0
LINE
  8
DETAIL
  6
CONTINUOUS
 62
     5
 10
260.20739130855168
 20
272.48830111471261
 30
0.0
 11
260.28502969612077
 21
272.38769720453928
 31
0.0
  0
LINE
  8
DETAIL
  6
CONTINUOUS
 62
     5
 10
260.28502969612077
 20
272.38769720453928
 30
0.0
 11
260.36415183536627
 21
272.2879821168558
 31
0.0
  0
LINE
  8
DETAIL
  6
CONTINUOUS
 62
     5
 10
260.36415183536627
 20
272.2879821168558
 30
0.0
 11
260.36415183536627
 21
272.2879821168558
 31
0.0
  0
LINE
  8
DETAIL
  6
CONTINUOUS
 62
     5
 10
260.36415183536627
 20
272.2879821168558
 30
0.0
 11
260.44456722778091
 21
272.18940515295412
 31
0.0
  0
LINE
  8
DETAIL
  6
CONTINUOUS
 62
     5
 10
260.44456722778091
 20
272.18940515295412
 30
0.0
 11
260.52627989717922
 21
272.09198078238182
 31
0.0
  0
LINE
  8
DETAIL
  6
CONTINUOUS
 62
     5
 10
260.52627989717922
 20
272.09198078238182
 30
0.0
 11
260.52627989717922
 21
272.09198078238182
 31
0.0
  0
LINE
  8
DETAIL
  6
CONTINUOUS
 62
     5
 10
260.52627989717922
 20
272.09198078238182
 30
0.0
 11
260.60931888969321
 21
271.99566948396591
 31
0.0
  0
LINE
  8
DETAIL
  6
CONTINUOUS
 62
     5
 10
260.60931888969321
 20
271.99566948396591
 30
0.0
 11
260.69361881839791
 21
271.90045060539433
 31
0.0
  0
LINE
  8
DETAIL
  6
CONTINUOUS
 62
     5
 10
260.69361881839791
 20
271.90045060539433
 30
0.0
 11
260.69361881839791
 21
271.90045060539433
 31
0.0
  0
LINE
  8
DETAIL
  6
CONTINUOUS
 62
     5
 10
260.69361881839791
 20
271.90045060539433
 30
0.0
 11
260.7791364905795
 21
271.80634805064619
 31
0.0
  0
LINE
  8
DETAIL
  6
CONTINUOUS
 62
     5
 10
260.7791364905795
 20
271.80634805064619
 30
0.0
 11
260.86601192342749
 21
271.71354507999649
 31
0.0
  0
LINE
  8
DETAIL
  6
CONTINUOUS
 62
     5
 10
260.86601192342749
 20
271.71354507999649
 30
0.0
 11
260.86601192342749
 21
271.71354507999649
 31
0.0
  0
LINE
  8
DETAIL
  6
CONTINUOUS
 62
     5
 10
260.86601192342749
 20
271.71354507999649
 30
0.0
 11
260.9542713349681
 21
271.62210071928229
 31
0.0
  0
LINE
  8
DETAIL
  6
CONTINUOUS
 62
     5
 10
260.9542713349681
 20
271.62210071928229
 30
0.0
 11
261.04330253667399
 21
271.53141770029202
 31
0.0
  0
LINE
  8
DETAIL
  6
CONTINUOUS
 62
     5
 10
-255.40881172423661
 20
274.09989725498741
 30
0.0
 11
-255.44076559607279
 21
273.97689760102548
 31
0.0
  0
LINE
  8
DETAIL
  6
CONTINUOUS
 62
     5
 10
-255.44076559607279
 20
273.97689760102548
 30
0.0
 11
-255.47376939582639
 21
273.85416804458032
 31
0.0
  0
LINE
  8
DETAIL
  6
CONTINUOUS
 62
     5
 10
-255.47376939582639
 20
273.85416804458032
 30
0.0
 11
-255.47376939582639
 21
273.85416804458032
 31
0.0
  0
LINE
  8
DETAIL
  6
CONTINUOUS
 62
     5
 10
-255.47376939582639
 20
273.85416804458032
 30
0.0
 11
-255.50865024517159
 21
273.73192624102012
 31
0.0
  0
LINE
  8
DETAIL
  6
CONTINUOUS
 62
     5
 10
-255.50865024517159
 20
273.73192624102012
 30
0.0
 11
-255.5453440408034
 21
273.61018007711692
 31
0.0
  0
LINE
  8
DETAIL
  6
CONTINUOUS
 62
     5
 10
-255.5453440408034
 20
273.61018007711692
 30
0.0
 11
-255.5453440408034
 21
273.61018007711692
 31
0.0
  0
LINE
  8
DETAIL
  6
CONTINUOUS
 62
     5
 10
-255.5453440408034
 20
273.61018007711692
 30
0.0
 11
-255.5836216000782
 21
273.48890377575822
 31
0.0
  0
LINE
  8
DETAIL
  6
CONTINUOUS
 62
     5
 10
-255.5836216000782
 20
273.48890377575822
 30
0.0
 11
-255.62348464796759
 21
273.36814667288672
 31
0.0
  0
LINE
  8
DETAIL
  6
CONTINUOUS
 62
     5
 10
-255.62348464796759
 20
273.36814667288672
 30
0.0
 11
-255.62348464796759
 21
273.36814667288672
 31
0.0
  0
LINE
  8
DETAIL
  6
CONTINUOUS
 62
     5
 10
-255.62348464796759
 20
273.36814667288672
 30
0.0
 11
-255.66498453497681
 21
273.24795421180261
 31
0.0
  0
LINE
  8
DETAIL
  6
CONTINUOUS
 62
     5
 10
-255.66498453497681
 20
273.24795421180261
 30
0.0
 11
-255.70814020611829
 21
273.12828115217962
 31
0.0
  0
LINE
  8
DETAIL
  6
CONTINUOUS
 62
     5
 10
-255.70814020611829
 20
273.12828115217962
 30
0.0
 11
-255.70814020611829
 21
273.12828115217962
 31
0.0
  0
LINE
  8
DETAIL
  6
CONTINUOUS
 62
     5
 10
-255.70814020611829
 20
273.12828115217962
 30
0.0
 11
-255.7529371836188
 21
273.0091314881472
 31
0.0
  0
LINE
  8
DETAIL
  6
CONTINUOUS
 62
     5
 10
-255.7529371836188
 20
273.0091314881472
 30
0.0
 11
-255.79925970405449
 21
272.89079683528507
 31
0.0
  0
LINE
  8
DETAIL
  6
CONTINUOUS
 62
     5
 10
-255.79925970405449
 20
272.89079683528507
 30
0.0
 11
-255.79925970405449
 21
272.89079683528507
 31
0.0
  0
LINE
  8
DETAIL
  6
CONTINUOUS
 62
     5
 10
-255.79925970405449
 20
272.89079683528507
 30
0.0
 11
-255.84700998189831
 21
272.77352680958302
 31
0.0
  0
LINE
  8
DETAIL
  6
CONTINUOUS
 62
     5
 10
-255.84700998189831
 20
272.77352680958302
 30
0.0
 11
-255.8962634288624
 21
272.65711540722401
 31
0.0
  0
LINE
  8
DETAIL
  6
CONTINUOUS
 62
     5
 10
-255.8962634288624
 20
272.65711540722401
 30
0.0
 11
-255.8962634288624
 21
272.65711540722401
 31
0.0
  0
LINE
  8
DETAIL
  6
CONTINUOUS
 62
     5
 10
-255.8962634288624
 20
272.65711540722401
 30
0.0
 11
-255.94711167899959
 21
272.54131461335078
 31
0.0
  0
LINE
  8
DETAIL
  6
CONTINUOUS
 62
     5
 10
-255.94711167899959
 20
272.54131461335078
 30
0.0
 11
-255.99953805848901
 21
272.42616398875788
 31
0.0
  0
LINE
  8
DETAIL
  6
CONTINUOUS
 62
     5
 10
-255.99953805848901
 20
272.42616398875788
 30
0.0
 11
-255.99953805848901
 21
272.42616398875788
 31
0.0
  0
LINE
  8
DETAIL
  6
CONTINUOUS
 62
     5
 10
-255.99953805848901
 20
272.42616398875788
 30
0.0
 11
-256.05350606578941
 21
272.31175573252398
 31
0.0
  0
LINE
  8
DETAIL
  6
CONTINUOUS
 62
     5
 10
-256.05350606578941
 20
272.31175573252398
 30
0.0
 11
-256.10900819635162
 21
272.19810502121283
 31
0.0
  0
LINE
  8
DETAIL
  6
CONTINUOUS
 62
     5
 10
-256.10900819635162
 20
272.19810502121283
 30
0.0
 11
-256.10900819635162
 21
272.19810502121283
 31
0.0
  0
LINE
  8
DETAIL
  6
CONTINUOUS
 62
     5
 10
-256.10900819635162
 20
272.19810502121283
 30
0.0
 11
-256.16604227485072
 21
272.08521290436153
 31
0.0
  0
LINE
  8
DETAIL
  6
CONTINUOUS
 62
     5
 10
-256.16604227485072
 20
272.08521290436153
 30
0.0
 11
-256.2245984458666
 21
271.97310094591347
 31
0.0
  0
LINE
  8
DETAIL
  6
CONTINUOUS
 62
     5
 10
-256.2245984458666
 20
271.97310094591347
 30
0.0
 11
-256.2245984458666
 21
271.97310094591347
 31
0.0
  0
LINE
  8
DETAIL
  6
CONTINUOUS
 62
     5
 10
-256.2245984458666
 20
271.97310094591347
 30
0.0
 11
-256.28466536480272
 21
271.8617945796359
 31
0.0
  0
LINE
  8
DETAIL
  6
CONTINUOUS
 62
     5
 10
-256.28466536480272
 20
271.8617945796359
 30
0.0
 11
-256.34623341045051
 21
271.7513142041862
 31
0.0
  0
LINE
  8
DETAIL
  6
CONTINUOUS
 62
     5
 10
-256.34623341045051
 20
271.7513142041862
 30
0.0
 11
-256.34623341045051
 21
271.7513142041862
 31
0.0
  0
LINE
  8
DETAIL
  6
CONTINUOUS
 62
     5
 10
-256.34623341045051
 20
271.7513142041862
 30
0.0
 11
-256.40929301294841
 21
271.64167865798868
 31
0.0
  0
LINE
  8
DETAIL
  6
CONTINUOUS
 62
     5
 10
-256.40929301294841
 20
271.64167865798868
 30
0.0
 11
-256.47383308443881
 21
271.5329055736488
 31
0.0
  0
LINE
  8
DETAIL
  6
CONTINUOUS
 62
     5
 10
-256.47383308443881
 20
271.5329055736488
 30
0.0
 11
-256.47383308443881
 21
271.5329055736488
 31
0.0
  0
LINE
  8
DETAIL
  6
CONTINUOUS
 62
     5
 10
-256.47383308443881
 20
271.5329055736488
 30
0.0
 11
-256.53984125417628
 21
271.42501338313559
 31
0.0
  0
LINE
  8
DETAIL
  6
CONTINUOUS
 62
     5
 10
-256.53984125417628
 20
271.42501338313559
 30
0.0
 11
-256.60730153786051
 21
271.31802492169157
 31
0.0
  0
LINE
  8
DETAIL
  6
CONTINUOUS
 62
     5
 10
-256.60730153786051
 20
271.31802492169157
 30
0.0
 11
-256.60730153786051
 21
271.31802492169157
 31
0.0
  0
LINE
  8
DETAIL
  6
CONTINUOUS
 62
     5
 10
-256.60730153786051
 20
271.31802492169157
 30
0.0
 11
-256.67620046957961
 21
271.21195981834597
 31
0.0
  0
LINE
  8
DETAIL
  6
CONTINUOUS
 62
     5
 10
-256.67620046957961
 20
271.21195981834597
 30
0.0
 11
-256.7465382705256
 21
271.10682047400252
 31
0.0
  0
LINE
  8
DETAIL
  6
CONTINUOUS
 62
     5
 10
-256.7465382705256
 20
271.10682047400252
 30
0.0
 11
-256.7465382705256
 21
271.10682047400252
 31
0.0
  0
LINE
  8
DETAIL
  6
CONTINUOUS
 62
     5
 10
-256.7465382705256
 20
271.10682047400252
 30
0.0
 11
-256.81830579995108
 21
271.00262110983948
 31
0.0
  0
LINE
  8
DETAIL
  6
CONTINUOUS
 62
     5
 10
-256.81830579995108
 20
271.00262110983948
 30
0.0
 11
-256.89144278224529
 21
270.89944045626822
 31
0.0
  0
LINE
  8
DETAIL
  6
CONTINUOUS
 62
     5
 10
-256.89144278224529
 20
270.89944045626822
 30
0.0
 11
-256.89144278224529
 21
270.89944045626822
 31
0.0
  0
LINE
  8
DETAIL
  6
CONTINUOUS
 62
     5
 10
-256.89144278224529
 20
270.89944045626822
 30
0.0
 11
-256.96592387116948
 21
270.7973131688077
 31
0.0
  0
LINE
  8
DETAIL
  6
CONTINUOUS
 62
     5
 10
-256.96592387116948
 20
270.7973131688077
 30
0.0
 11
-257.04191457283082
 21
270.69603309417698
 31
0.0
  0
LINE
  8
DETAIL
  6
CONTINUOUS
 62
     5
 10
-257.04191457283082
 20
270.69603309417698
 30
0.0
 11
-257.04191457283082
 21
270.69603309417698
 31
0.0
  0
LINE
  8
DETAIL
  6
CONTINUOUS
 62
     5
 10
-257.04191457283082
 20
270.69603309417698
 30
0.0
 11
-257.11955271905998
 21
270.59542959888267
 31
0.0
  0
LINE
  8
DETAIL
  6
CONTINUOUS
 62
     5
 10
-257.11955271905998
 20
270.59542959888267
 30
0.0
 11
-257.19867459223201
 21
270.49571493737812
 31
0.0
  0
LINE
  8
DETAIL
  6
CONTINUOUS
 62
     5
 10
-257.19867459223201
 20
270.49571493737812
 30
0.0
 11
-257.19867459223201
 21
270.49571493737812
 31
0.0
  0
LINE
  8
DETAIL
  6
CONTINUOUS
 62
     5
 10
-257.19867459223201
 20
270.49571493737812
 30
0.0
 11
-257.2790897128736
 21
270.39713838503229
 31
0.0
  0
LINE
  8
DETAIL
  6
CONTINUOUS
 62
     5
 10
-257.2790897128736
 20
270.39713838503229
 30
0.0
 11
-257.36080210357972
 21
270.29971441292628
 31
0.0
  0
LINE
  8
DETAIL
  6
CONTINUOUS
 62
     5
 10
-257.36080210357972
 20
270.29971441292628
 30
0.0
 11
-257.36080210357972
 21
270.29971441292628
 31
0.0
  0
LINE
  8
DETAIL
  6
CONTINUOUS
 62
     5
 10
-257.36080210357972
 20
270.29971441292628
 30
0.0
 11
-257.44384080563248
 21
270.20340350653117
 31
0.0
  0
LINE
  8
DETAIL
  6
CONTINUOUS
 62
     5
 10
-257.44384080563248
 20
270.20340350653117
 30
0.0
 11
-257.52814043300759
 21
270.10818501316589
 31
0.0
  0
LINE
  8
DETAIL
  6
CONTINUOUS
 62
     5
 10
-257.52814043300759
 20
270.10818501316589
 30
0.0
 11
-257.52814043300759
 21
270.10818501316589
 31
0.0
  0
LINE
  8
DETAIL
  6
CONTINUOUS
 62
     5
 10
-257.52814043300759
 20
270.10818501316589
 30
0.0
 11
-257.61365779464472
 21
270.01408283483528
 31
0.0
  0
LINE
  8
DETAIL
  6
CONTINUOUS
 62
     5
 10
-257.61365779464472
 20
270.01408283483528
 30
0.0
 11
-257.7005329066485
 21
269.92128023044228
 31
0.0
  0
LINE
  8
DETAIL
  6
CONTINUOUS
 62
     5
 10
-257.7005329066485
 20
269.92128023044228
 30
0.0
 11
-257.7005329066485
 21
269.92128023044228
 31
0.0
  0
LINE
  8
DETAIL
  6
CONTINUOUS
 62
     5
 10
-257.7005329066485
 20
269.92128023044228
 30
0.0
 11
-257.78879198657592
 21
269.82983622575489
 31
0.0
  0
LINE
  8
DETAIL
  6
CONTINUOUS
 62
     5
 10
-257.78879198657592
 20
269.82983622575489
 30
0.0
 11
-257.87782285063457
 21
269.73915355710011
 31
0.0
  0
LINE
  8
DETAIL
  6
CONTINUOUS
 62
     5
 10
-269.73915355710051
 20
257.8778228506344
 30
0.0
 11
-269.82983657590438
 21
257.78879164911473
 31
0.0
  0
LINE
  8
DETAIL
  6
CONTINUOUS
 62
     5
 10
-269.82983657590438
 20
257.78879164911473
 30
0.0
 11
-269.92128093646829
 21
257.70053223772538
 31
0.0
  0
LINE
  8
DETAIL
  6
CONTINUOUS
 62
     5
 10
-269.92128093646829
 20
257.70053223772538
 30
0.0
 11
-269.92128093646829
 21
257.70053223772538
 31
0.0
  0
LINE
  8
DETAIL
  6
CONTINUOUS
 62
     5
 10
-269.92128093646829
 20
257.70053223772538
 30
0.0
 11
-270.01408390703091
 21
257.61365680496738
 31
0.0
  0
LINE
  8
DETAIL
  6
CONTINUOUS
 62
     5
 10
-270.01408390703091
 20
257.61365680496738
 30
0.0
 11
-270.10818646174391
 21
257.5281391328258
 31
0.0
  0
LINE
  8
DETAIL
  6
CONTINUOUS
 62
     5
 10
-270.10818646174391
 20
257.5281391328258
 30
0.0
 11
-270.10818646174391
 21
257.5281391328258
 31
0.0
  0
LINE
  8
DETAIL
  6
CONTINUOUS
 62
     5
 10
-270.10818646174391
 20
257.5281391328258
 30
0.0
 11
-270.20340534031487
 21
257.44383920412929
 31
0.0
  0
LINE
  8
DETAIL
  6
CONTINUOUS
 62
     5
 10
-270.20340534031487
 20
257.44383920412929
 30
0.0
 11
-270.29971663875801
 21
257.36080021160018
 31
0.0
  0
LINE
  8
DETAIL
  6
CONTINUOUS
 62
     5
 10
-270.29971663875801
 20
257.36080021160018
 30
0.0
 11
-270.29971663875801
 21
257.36080021160018
 31
0.0
  0
LINE
  8
DETAIL
  6
CONTINUOUS
 62
     5
 10
-270.29971663875801
 20
257.36080021160018
 30
0.0
 11
-270.3971410093788
 21
257.27908754216918
 31
0.0
  0
LINE
  8
DETAIL
  6
CONTINUOUS
 62
     5
 10
-270.3971410093788
 20
257.27908754216918
 30
0.0
 11
-270.49571797334261
 21
257.19867214971492
 31
0.0
  0
LINE
  8
DETAIL
  6
CONTINUOUS
 62
     5
 10
-270.49571797334261
 20
257.19867214971492
 30
0.0
 11
-270.49571797334261
 21
257.19867214971492
 31
0.0
  0
LINE
  8
DETAIL
  6
CONTINUOUS
 62
     5
 10
-270.49571797334261
 20
257.19867214971492
 30
0.0
 11
-270.59543306109242
 21
257.11955001043179
 31
0.0
  0
LINE
  8
DETAIL
  6
CONTINUOUS
 62
     5
 10
-270.59543306109242
 20
257.11955001043179
 30
0.0
 11
-270.69603697132851
 21
257.04191162283502
 31
0.0
  0
LINE
  8
DETAIL
  6
CONTINUOUS
 62
     5
 10
-270.69603697132851
 20
257.04191162283502
 30
0.0
 11
-270.69603697132851
 21
257.04191162283502
 31
0.0
  0
LINE
  8
DETAIL
  6
CONTINUOUS
 62
     5
 10
-270.69603697132851
 20
257.04191162283502
 30
0.0
 11
-270.79731742728109
 21
256.96592072063868
 31
0.0
  0
LINE
  8
DETAIL
  6
CONTINUOUS
 62
     5
 10
-270.79731742728109
 20
256.96592072063868
 30
0.0
 11
-270.89944508204951
 21
256.89143945603291
 31
0.0
  0
LINE
  8
DETAIL
  6
CONTINUOUS
 62
     5
 10
-270.89944508204951
 20
256.89143945603291
 30
0.0
 11
-270.89944508204951
 21
256.89143945603291
 31
0.0
  0
LINE
  8
DETAIL
  6
CONTINUOUS
 62
     5
 10
-270.89944508204951
 20
256.89143945603291
 30
0.0
 11
-271.00262611377661
 21
256.81830230336141
 31
0.0
  0
LINE
  8
DETAIL
  6
CONTINUOUS
 62
     5
 10
-271.00262611377661
 20
256.81830230336141
 30
0.0
 11
-271.10682587091901
 21
256.74653460711488
 31
0.0
  0
LINE
  8
DETAIL
  6
CONTINUOUS
 62
     5
 10
-271.10682587091901
 20
256.74653460711488
 30
0.0
 11
-271.10682587091901
 21
256.74653460711488
 31
0.0
  0
LINE
  8
DETAIL
  6
CONTINUOUS
 62
     5
 10
-271.10682587091901
 20
256.74653460711488
 30
0.0
 11
-271.21196561762821
 21
256.67619664746007
 31
0.0
  0
LINE
  8
DETAIL
  6
CONTINUOUS
 62
     5
 10
-271.21196561762821
 20
256.67619664746007
 30
0.0
 11
-271.31803111052909
 21
256.60729757713352
 31
0.0
  0
LINE
  8
DETAIL
  6
CONTINUOUS
 62
     5
 10
-271.31803111052909
 20
256.60729757713352
 30
0.0
 11
-271.31803111052909
 21
256.60729757713352
 31
0.0
  0
LINE
  8
DETAIL
  6
CONTINUOUS
 62
     5
 10
-271.31803111052909
 20
256.60729757713352
 30
0.0
 11
-271.42501994431308
 21
256.5398371769088
 31
0.0
  0
LINE
  8
DETAIL
  6
CONTINUOUS
 62
     5
 10
-271.42501994431308
 20
256.5398371769088
 30
0.0
 11
-271.53291257347041
 21
256.47382886714098
 31
0.0
  0
LINE
  8
DETAIL
  6
CONTINUOUS
 62
     5
 10
-271.53291257347041
 20
256.47382886714098
 30
0.0
 11
-271.53291257347041
 21
256.47382886714098
 31
0.0
  0
LINE
  8
DETAIL
  6
CONTINUOUS
 62
     5
 10
-271.53291257347041
 20
256.47382886714098
 30
0.0
 11
-271.64168618452487
 21
256.40928862035747
 31
0.0
  0
LINE
  8
DETAIL
  6
CONTINUOUS
 62
     5
 10
-271.64168618452487
 20
256.40928862035747
 30
0.0
 11
-271.75132203233568
 21
256.34622897818957
 31
0.0
  0
LINE
  8
DETAIL
  6
CONTINUOUS
 62
     5
 10
-271.75132203233568
 20
256.34622897818957
 30
0.0
 11
-271.75132203233568
 21
256.34622897818957
 31
0.0
  0
LINE
  8
DETAIL
  6
CONTINUOUS
 62
     5
 10
-271.75132203233568
 20
256.34622897818957
 30
0.0
 11
-271.86180221852482
 21
256.28466117079921
 31
0.0
  0
LINE
  8
DETAIL
  6
CONTINUOUS
 62
     5
 10
-271.86180221852482
 20
256.28466117079921
 30
0.0
 11
-271.97310816343338
 21
256.22459461336331
 31
0.0
  0
LINE
  8
DETAIL
  6
CONTINUOUS
 62
     5
 10
-271.97310816343338
 20
256.22459461336331
 30
0.0
 11
-271.97310816343338
 21
256.22459461336331
 31
0.0
  0
LINE
  8
DETAIL
  6
CONTINUOUS
 62
     5
 10
-271.97310816343338
 20
256.22459461336331
 30
0.0
 11
-272.08521977606438
 21
256.16603874646722
 31
0.0
  0
LINE
  8
DETAIL
  6
CONTINUOUS
 62
     5
 10
-272.08521977606438
 20
256.16603874646722
 30
0.0
 11
-272.19811160136021
 21
256.10900492731412
 31
0.0
  0
LINE
  8
DETAIL
  6
CONTINUOUS
 62
     5
 10
-272.19811160136021
 20
256.10900492731412
 30
0.0
 11
-272.19811160136021
 21
256.10900492731412
 31
0.0
  0
LINE
  8
DETAIL
  6
CONTINUOUS
 62
     5
 10
-272.19811160136021
 20
256.10900492731412
 30
0.0
 11
-272.31176199334431
 21
256.05350305950242
 31
0.0
  0
LINE
  8
DETAIL
  6
CONTINUOUS
 62
     5
 10
-272.31176199334431
 20
256.05350305950242
 30
0.0
 11
-272.42616990643421
 21
255.99953531559069
 31
0.0
  0
LINE
  8
DETAIL
  6
CONTINUOUS
 62
     5
 10
-272.42616990643421
 20
255.99953531559069
 30
0.0
 11
-272.42616990643421
 21
255.99953531559069
 31
0.0
  0
LINE
  8
DETAIL
  6
CONTINUOUS
 62
     5
 10
-272.42616990643421
 20
255.99953531559069
 30
0.0
 11
-272.54132018576792
 21
255.94710918726199
 31
0.0
  0
LINE
  8
DETAIL
  6
CONTINUOUS
 62
     5
 10
-272.54132018576792
 20
255.94710918726199
 30
0.0
 11
-272.65712063897462
 21
255.8962611737397
 31
0.0
  0
LINE
  8
DETAIL
  6
CONTINUOUS
 62
     5
 10
-272.65712063897462
 20
255.8962611737397
 30
0.0
 11
-272.65712063897462
 21
255.8962611737397
 31
0.0
  0
LINE
  8
DETAIL
  6
CONTINUOUS
 62
     5
 10
-272.65712063897462
 20
255.8962611737397
 30
0.0
 11
-272.77353170171659
 21
255.84700795135291
 31
0.0
  0
LINE
  8
DETAIL
  6
CONTINUOUS
 62
     5
 10
-272.77353170171659
 20
255.84700795135291
 30
0.0
 11
-272.8908013592993
 21
255.7992578973101
 31
0.0
  0
LINE
  8
DETAIL
  6
CONTINUOUS
 62
     5
 10
-272.8908013592993
 20
255.7992578973101
 30
0.0
 11
-272.8908013592993
 21
255.7992578973101
 31
0.0
  0
LINE
  8
DETAIL
  6
CONTINUOUS
 62
     5
 10
-272.8908013592993
 20
255.7992578973101
 30
0.0
 11
-273.00913559175132
 21
255.75293560848829
 31
0.0
  0
LINE
  8
DETAIL
  6
CONTINUOUS
 62
     5
 10
-273.00913559175132
 20
255.75293560848829
 30
0.0
 11
-273.12828480835532
 21
255.7081388595586
 31
0.0
  0
LINE
  8
DETAIL
  6
CONTINUOUS
 62
     5
 10
-273.12828480835532
 20
255.7081388595586
 30
0.0
 11
-273.12828480835532
 21
255.7081388595586
 31
0.0
  0
LINE
  8
DETAIL
  6
CONTINUOUS
 62
     5
 10
-273.12828480835532
 20
255.7081388595586
 30
0.0
 11
-273.24795742319691
 21
255.66498340150861
 31
0.0
  0
LINE
  8
DETAIL
  6
CONTINUOUS
 62
     5
 10
-273.24795742319691
 20
255.66498340150861
 30
0.0
 11
-273.36814944031488
 21
255.6234837127972
 31
0.0
  0
LINE
  8
DETAIL
  6
CONTINUOUS
 62
     5
 10
-273.36814944031488
 20
255.6234837127972
 30
0.0
 11
-273.36814944031488
 21
255.6234837127972
 31
0.0
  0
LINE
  8
DETAIL
  6
CONTINUOUS
 62
     5
 10
-273.36814944031488
 20
255.6234837127972
 30
0.0
 11
-273.48890609246541
 21
255.58362085161571
 31
0.0
  0
LINE
  8
DETAIL
  6
CONTINUOUS
 62
     5
 10
-273.48890609246541
 20
255.58362085161571
 30
0.0
 11
-273.61018193731451
 21
255.54534346760471
 31
0.0
  0
LINE
  8
DETAIL
  6
CONTINUOUS
 62
     5
 10
-273.61018193731451
 20
255.54534346760471
 30
0.0
 11
-273.61018193731451
 21
255.54534346760471
 31
0.0
  0
LINE
  8
DETAIL
  6
CONTINUOUS
 62
     5
 10
-273.61018193731451
 20
255.54534346760471
 30
0.0
 11
-273.73192764135661
 21
255.50864983494969
 31
0.0
  0
LINE
  8
DETAIL
  6
CONTINUOUS
 62
     5
 10
-273.73192764135661
 20
255.50864983494969
 30
0.0
 11
-273.8541689814931
 21
255.4737691345583
 31
0.0
  0
LINE
  8
DETAIL
  6
CONTINUOUS
 62
     5
 10
-273.8541689814931
 20
255.4737691345583
 30
0.0
 11
-273.8541689814931
 21
255.4737691345583
 31
0.0
  0
LINE
  8
DETAIL
  6
CONTINUOUS
 62
     5
 10
-273.8541689814931
 20
255.4737691345583
 30
0.0
 11
-273.9768980705914
 21
255.44076546943421
 31
0.0
  0
LINE
  8
DETAIL
  6
CONTINUOUS
 62
     5
 10
-273.9768980705914
 20
255.44076546943421
 30
0.0
 11
-274.09989725498798
 21
255.4088117242363
 31
0.0
  0
LINE
  8
DETAIL
  6
CONTINUOUS
 62
     5
 10
-275.89216139817961
 20
258.5742914102766
 30
0.0
 11
-275.76916221378292
 21
258.60624515547443
 31
0.0
  0
LINE
  8
DETAIL
  6
CONTINUOUS
 62
     5
 10
-275.76916221378292
 20
258.60624515547443
 30
0.0
 11
-275.64643312468451
 21
258.63924882059843
 31
0.0
  0
LINE
  8
DETAIL
  6
CONTINUOUS
 62
     5
 10
-275.64643312468451
 20
258.63924882059843
 30
0.0
 11
-275.64643312468451
 21
258.63924882059843
 31
0.0
  0
LINE
  8
DETAIL
  6
CONTINUOUS
 62
     5
 10
-275.64643312468451
 20
258.63924882059843
 30
0.0
 11
-275.52419178454852
 21
258.67412952098948
 31
0.0
  0
LINE
  8
DETAIL
  6
CONTINUOUS
 62
     5
 10
-275.52419178454852
 20
258.67412952098948
 30
0.0
 11
-275.40244608050608
 21
258.71082315364492
 31
0.0
  0
LINE
  8
DETAIL
  6
CONTINUOUS
 62
     5
 10
-275.40244608050608
 20
258.71082315364492
 30
0.0
 11
-275.40244608050608
 21
258.71082315364492
 31
0.0
  0
LINE
  8
DETAIL
  6
CONTINUOUS
 62
     5
 10
-275.40244608050608
 20
258.71082315364492
 30
0.0
 11
-275.2811702356571
 21
258.74910053765598
 31
0.0
  0
LINE
  8
DETAIL
  6
CONTINUOUS
 62
     5
 10
-275.2811702356571
 20
258.74910053765598
 30
0.0
 11
-275.16041358350662
 21
258.78896339883772
 31
0.0
  0
LINE
  8
DETAIL
  6
CONTINUOUS
 62
     5
 10
-275.16041358350662
 20
258.78896339883772
 30
0.0
 11
-275.16041358350662
 21
258.78896339883772
 31
0.0
  0
LINE
  8
DETAIL
  6
CONTINUOUS
 62
     5
 10
-275.16041358350662
 20
258.78896339883772
 30
0.0
 11
-275.04022156638871
 21
258.83046308754888
 31
0.0
  0
LINE
  8
DETAIL
  6
CONTINUOUS
 62
     5
 10
-275.04022156638871
 20
258.83046308754888
 30
0.0
 11
-274.92054895154729
 21
258.8736185455989
 31
0.0
  0
LINE
  8
DETAIL
  6
CONTINUOUS
 62
     5
 10
-274.92054895154729
 20
258.8736185455989
 30
0.0
 11
-274.92054895154729
 21
258.8736185455989
 31
0.0
  0
LINE
  8
DETAIL
  6
CONTINUOUS
 62
     5
 10
-274.92054895154729
 20
258.8736185455989
 30
0.0
 11
-274.80139973494278
 21
258.91841529452842
 31
0.0
  0
LINE
  8
DETAIL
  6
CONTINUOUS
 62
     5
 10
-274.80139973494278
 20
258.91841529452842
 30
0.0
 11
-274.68306550249071
 21
258.96473758335043
 31
0.0
  0
LINE
  8
DETAIL
  6
CONTINUOUS
 62
     5
 10
-274.68306550249071
 20
258.96473758335043
 30
0.0
 11
-274.68306550249071
 21
258.96473758335043
 31
0.0
  0
LINE
  8
DETAIL
  6
CONTINUOUS
 62
     5
 10
-274.68306550249071
 20
258.96473758335043
 30
0.0
 11
-274.56579584490851
 21
259.01248763739318
 31
0.0
  0
LINE
  8
DETAIL
  6
CONTINUOUS
 62
     5
 10
-274.56579584490851
 20
259.01248763739318
 30
0.0
 11
-274.44938478216608
 21
259.06174085978
 31
0.0
  0
LINE
  8
DETAIL
  6
CONTINUOUS
 62
     5
 10
-274.44938478216608
 20
259.06174085978
 30
0.0
 11
-274.44938478216608
 21
259.06174085978
 31
0.0
  0
LINE
  8
DETAIL
  6
CONTINUOUS
 62
     5
 10
-274.44938478216608
 20
259.06174085978
 30
0.0
 11
-274.33358432895938
 21
259.112588873302
 31
0.0
  0
LINE
  8
DETAIL
  6
CONTINUOUS
 62
     5
 10
-274.33358432895938
 20
259.112588873302
 30
0.0
 11
-274.21843404962618
 21
259.16501500163082
 31
0.0
  0
LINE
  8
DETAIL
  6
CONTINUOUS
 62
     5
 10
-274.21843404962618
 20
259.16501500163082
 30
0.0
 11
-274.21843404962618
 21
259.16501500163082
 31
0.0
  0
LINE
  8
DETAIL
  6
CONTINUOUS
 62
     5
 10
-274.21843404962618
 20
259.16501500163082
 30
0.0
 11
-274.10402613653582
 21
259.21898274554292
 31
0.0
  0
LINE
  8
DETAIL
  6
CONTINUOUS
 62
     5
 10
-274.10402613653582
 20
259.21898274554292
 30
0.0
 11
-273.99037574455173
 21
259.27448461335439
 31
0.0
  0
LINE
  8
DETAIL
  6
CONTINUOUS
 62
     5
 10
-273.99037574455173
 20
259.27448461335439
 30
0.0
 11
-273.99037574455173
 21
259.27448461335439
 31
0.0
  0
LINE
  8
DETAIL
  6
CONTINUOUS
 62
     5
 10
-273.99037574455173
 20
259.27448461335439
 30
0.0
 11
-273.87748391925601
 21
259.33151843250698
 31
0.0
  0
LINE
  8
DETAIL
  6
CONTINUOUS
 62
     5
 10
-273.87748391925601
 20
259.33151843250698
 30
0.0
 11
-273.76537230662478
 21
259.3900742994033
 31
0.0
  0
LINE
  8
DETAIL
  6
CONTINUOUS
 62
     5
 10
-273.76537230662478
 20
259.3900742994033
 30
0.0
 11
-273.76537230662478
 21
259.3900742994033
 31
0.0
  0
LINE
  8
DETAIL
  6
CONTINUOUS
 62
     5
 10
-273.76537230662478
 20
259.3900742994033
 30
0.0
 11
-273.65406636171679
 21
259.45014085683943
 31
0.0
  0
LINE
  8
DETAIL
  6
CONTINUOUS
 62
     5
 10
-273.65406636171679
 20
259.45014085683943
 30
0.0
 11
-273.54358617552748
 21
259.5117086642299
 31
0.0
  0
LINE
  8
DETAIL
  6
CONTINUOUS
 62
     5
 10
-273.54358617552748
 20
259.5117086642299
 30
0.0
 11
-273.54358617552748
 21
259.5117086642299
 31
0.0
  0
LINE
  8
DETAIL
  6
CONTINUOUS
 62
     5
 10
-273.54358617552748
 20
259.5117086642299
 30
0.0
 11
-273.43395032771718
 21
259.5747683063978
 31
0.0
  0
LINE
  8
DETAIL
  6
CONTINUOUS
 62
     5
 10
-273.43395032771718
 20
259.5747683063978
 30
0.0
 11
-273.32517671666238
 21
259.63930855318148
 31
0.0
  0
LINE
  8
DETAIL
  6
CONTINUOUS
 62
     5
 10
-273.32517671666238
 20
259.63930855318148
 30
0.0
 11
-273.32517671666238
 21
259.63930855318148
 31
0.0
  0
LINE
  8
DETAIL
  6
CONTINUOUS
 62
     5
 10
-273.32517671666238
 20
259.63930855318148
 30
0.0
 11
-273.21728408750482
 21
259.70531686294879
 31
0.0
  0
LINE
  8
DETAIL
  6
CONTINUOUS
 62
     5
 10
-273.21728408750482
 20
259.70531686294879
 30
0.0
 11
-273.11029525372061
 21
259.77277726317379
 31
0.0
  0
LINE
  8
DETAIL
  6
CONTINUOUS
 62
     5
 10
-273.11029525372061
 20
259.77277726317379
 30
0.0
 11
-273.11029525372061
 21
259.77277726317379
 31
0.0
  0
LINE
  8
DETAIL
  6
CONTINUOUS
 62
     5
 10
-273.11029525372061
 20
259.77277726317379
 30
0.0
 11
-273.00422976082001
 21
259.84167633350029
 31
0.0
  0
LINE
  8
DETAIL
  6
CONTINUOUS
 62
     5
 10
-273.00422976082001
 20
259.84167633350029
 30
0.0
 11
-272.89909001411041
 21
259.91201429315521
 31
0.0
  0
LINE
  8
DETAIL
  6
CONTINUOUS
 62
     5
 10
-272.89909001411041
 20
259.91201429315521
 30
0.0
 11
-272.89909001411041
 21
259.91201429315521
 31
0.0
  0
LINE
  8
DETAIL
  6
CONTINUOUS
 62
     5
 10
-272.89909001411041
 20
259.91201429315521
 30
0.0
 11
-272.7948902569683
 21
259.98378198940208
 31
0.0
  0
LINE
  8
DETAIL
  6
CONTINUOUS
 62
     5
 10
-272.7948902569683
 20
259.98378198940208
 30
0.0
 11
-272.69170922524108
 21
260.05691914207318
 31
0.0
  0
LINE
  8
DETAIL
  6
CONTINUOUS
 62
     5
 10
-272.69170922524108
 20
260.05691914207318
 30
0.0
 11
-272.69170922524108
 21
260.05691914207318
 31
0.0
  0
LINE
  8
DETAIL
  6
CONTINUOUS
 62
     5
 10
-272.69170922524108
 20
260.05691914207318
 30
0.0
 11
-272.589581570473
 21
260.1314004066794
 31
0.0
  0
LINE
  8
DETAIL
  6
CONTINUOUS
 62
     5
 10
-272.589581570473
 20
260.1314004066794
 30
0.0
 11
-272.48830111452003
 21
260.20739130887517
 31
0.0
  0
LINE
  8
DETAIL
  6
CONTINUOUS
 62
     5
 10
-272.48830111452003
 20
260.20739130887517
 30
0.0
 11
-272.48830111452003
 21
260.20739130887517
 31
0.0
  0
LINE
  8
DETAIL
  6
CONTINUOUS
 62
     5
 10
-272.48830111452003
 20
260.20739130887517
 30
0.0
 11
-272.38769720428411
 21
260.28502969647252
 31
0.0
  0
LINE
  8
DETAIL
  6
CONTINUOUS
 62
     5
 10
-272.38769720428411
 20
260.28502969647252
 30
0.0
 11
-272.28798211653401
 21
260.36415183576128
 31
0.0
  0
LINE
  8
DETAIL
  6
CONTINUOUS
 62
     5
 10
-272.28798211653401
 20
260.36415183576128
 30
0.0
 11
-272.28798211653401
 21
260.36415183576128
 31
0.0
  0
LINE
  8
DETAIL
  6
CONTINUOUS
 62
     5
 10
-272.28798211653401
 20
260.36415183576128
 30
0.0
 11
-272.18940515257037
 21
260.44456722823043
 31
0.0
  0
LINE
  8
DETAIL
  6
CONTINUOUS
 62
     5
 10
-272.18940515257037
 20
260.44456722823043
 30
0.0
 11
-272.09198078194981
 21
260.52627989769007
 31
0.0
  0
LINE
  8
DETAIL
  6
CONTINUOUS
 62
     5
 10
-272.09198078194981
 20
260.52627989769007
 30
0.0
 11
-272.09198078194981
 21
260.52627989769007
 31
0.0
  0
LINE
  8
DETAIL
  6
CONTINUOUS
 62
     5
 10
-272.09198078194981
 20
260.52627989769007
 30
0.0
 11
-271.99566948350662
 21
260.60931889026728
 31
0.0
  0
LINE
  8
DETAIL
  6
CONTINUOUS
 62
     5
 10
-271.99566948350662
 20
260.60931889026728
 30
0.0
 11
-271.90045060493571
 21
260.69361881903342
 31
0.0
  0
LINE
  8
DETAIL
  6
CONTINUOUS
 62
     5
 10
-271.90045060493571
 20
260.69361881903342
 30
0.0
 11
-271.90045060493571
 21
260.69361881903342
 31
0.0
  0
LINE
  8
DETAIL
  6
CONTINUOUS
 62
     5
 10
-271.90045060493571
 20
260.69361881903342
 30
0.0
 11
-271.80634805022271
 21
260.77913649127157
 31
0.0
  0
LINE
  8
DETAIL
  6
CONTINUOUS
 62
     5
 10
-271.80634805022271
 20
260.77913649127157
 30
0.0
 11
-271.71354507966021
 21
260.86601192416327
 31
0.0
  0
LINE
  8
DETAIL
  6
CONTINUOUS
 62
     5
 10
-271.71354507966021
 20
260.86601192416327
 30
0.0
 11
-271.71354507966021
 21
260.86601192416327
 31
0.0
  0
LINE
  8
DETAIL
  6
CONTINUOUS
 62
     5
 10
-271.71354507966021
 20
260.86601192416327
 30
0.0
 11
-271.62210071909601
 21
260.95427133572957
 31
0.0
  0
LINE
  8
DETAIL
  6
CONTINUOUS
 62
     5
 10
-271.62210071909601
 20
260.95427133572957
 30
0.0
 11
-271.53141770029231
 21
261.04330253745093
 31
0.0
  0
LINE
  8
DETAIL
  6
CONTINUOUS
 62
     5
 10
-261.0433025366749
 20
271.53141770029202
 30
0.0
 11
-260.95427167261658
 21
271.62210036894658
 31
0.0
  0
LINE
  8
DETAIL
  6
CONTINUOUS
 62
     5
 10
-260.95427167261658
 20
271.62210036894658
 30
0.0
 11
-260.86601259268849
 21
271.71354437363379
 31
0.0
  0
LINE
  8
DETAIL
  6
CONTINUOUS
 62
     5
 10
-260.86601259268849
 20
271.71354437363379
 30
0.0
 11
-260.86601259268849
 21
271.71354437363379
 31
0.0
  0
LINE
  8
DETAIL
  6
CONTINUOUS
 62
     5
 10
-260.86601259268849
 20
271.71354437363379
 30
0.0
 11
-260.77913748068511
 21
271.8063469780268
 31
0.0
  0
LINE
  8
DETAIL
  6
CONTINUOUS
 62
     5
 10
-260.77913748068511
 20
271.8063469780268
 30
0.0
 11
-260.69362011904809
 21
271.90044915635781
 31
0.0
  0
LINE
  8
DETAIL
  6
CONTINUOUS
 62
     5
 10
-260.69362011904809
 20
271.90044915635781
 30
0.0
 11
-260.69362011904809
 21
271.90044915635781
 31
0.0
  0
LINE
  8
DETAIL
  6
CONTINUOUS
 62
     5
 10
-260.69362011904809
 20
271.90044915635781
 30
0.0
 11
-260.6093204916728
 21
271.99566764972292
 31
0.0
  0
LINE
  8
DETAIL
  6
CONTINUOUS
 62
     5
 10
-260.6093204916728
 20
271.99566764972292
 30
0.0
 11
-260.52628178961999
 21
272.09197855611802
 31
0.0
  0
LINE
  8
DETAIL
  6
CONTINUOUS
 62
     5
 10
-260.52628178961999
 20
272.09197855611802
 30
0.0
 11
-260.52628178961999
 21
272.09197855611802
 31
0.0
  0
LINE
  8
DETAIL
  6
CONTINUOUS
 62
     5
 10
-260.52628178961999
 20
272.09197855611802
 30
0.0
 11
-260.44456939891421
 21
272.18940252822398
 31
0.0
  0
LINE
  8
DETAIL
  6
CONTINUOUS
 62
     5
 10
-260.44456939891421
 20
272.18940252822398
 30
0.0
 11
-260.36415427827183
 21
272.28797908056998
 31
0.0
  0
LINE
  8
DETAIL
  6
CONTINUOUS
 62
     5
 10
-260.36415427827183
 20
272.28797908056998
 30
0.0
 11
-260.36415427827183
 21
272.28797908056998
 31
0.0
  0
LINE
  8
DETAIL
  6
CONTINUOUS
 62
     5
 10
-260.36415427827183
 20
272.28797908056998
 30
0.0
 11
-260.28503240510008
 21
272.38769374207442
 31
0.0
  0
LINE
  8
DETAIL
  6
CONTINUOUS
 62
     5
 10
-260.28503240510008
 20
272.38769374207442
 30
0.0
 11
-260.20739425887109
 21
272.4882972373689
 31
0.0
  0
LINE
  8
DETAIL
  6
CONTINUOUS
 62
     5
 10
-260.20739425887109
 20
272.4882972373689
 30
0.0
 11
-260.20739425887109
 21
272.4882972373689
 31
0.0
  0
LINE
  8
DETAIL
  6
CONTINUOUS
 62
     5
 10
-260.20739425887109
 20
272.4882972373689
 30
0.0
 11
-260.13140355720981
 21
272.58957731199962
 31
0.0
  0
LINE
  8
DETAIL
  6
CONTINUOUS
 62
     5
 10
-260.13140355720981
 20
272.58957731199962
 30
0.0
 11
-260.05692246828562
 21
272.69170459946008
 31
0.0
  0
LINE
  8
DETAIL
  6
CONTINUOUS
 62
     5
 10
-260.05692246828562
 20
272.69170459946008
 30
0.0
 11
-260.05692246828562
 21
272.69170459946008
 31
0.0
  0
LINE
  8
DETAIL
  6
CONTINUOUS
 62
     5
 10
-260.05692246828562
 20
272.69170459946008
 30
0.0
 11
-259.98378548599129
 21
272.79488525303123
 31
0.0
  0
LINE
  8
DETAIL
  6
CONTINUOUS
 62
     5
 10
-259.98378548599129
 20
272.79488525303123
 30
0.0
 11
-259.9120179565661
 21
272.89908461719438
 31
0.0
  0
LINE
  8
DETAIL
  6
CONTINUOUS
 62
     5
 10
-259.9120179565661
 20
272.89908461719438
 30
0.0
 11
-259.9120179565661
 21
272.89908461719438
 31
0.0
  0
LINE
  8
DETAIL
  6
CONTINUOUS
 62
     5
 10
-259.9120179565661
 20
272.89908461719438
 30
0.0
 11
-259.84168015561971
 21
273.00422396153817
 31
0.0
  0
LINE
  8
DETAIL
  6
CONTINUOUS
 62
     5
 10
-259.84168015561971
 20
273.00422396153817
 30
0.0
 11
-259.77278122390072
 21
273.11028906488349
 31
0.0
  0
LINE
  8
DETAIL
  6
CONTINUOUS
 62
     5
 10
-259.77278122390072
 20
273.11028906488349
 30
0.0
 11
-259.77278122390072
 21
273.11028906488349
 31
0.0
  0
LINE
  8
DETAIL
  6
CONTINUOUS
 62
     5
 10
-259.77278122390072
 20
273.11028906488349
 30
0.0
 11
-259.70532094021678
 21
273.21727752632728
 31
0.0
  0
LINE
  8
DETAIL
  6
CONTINUOUS
 62
     5
 10
-259.70532094021678
 20
273.21727752632728
 30
0.0
 11
-259.63931277047931
 21
273.32516971684032
 31
0.0
  0
LINE
  8
DETAIL
  6
CONTINUOUS
 62
     5
 10
-259.63931277047931
 20
273.32516971684032
 30
0.0
 11
-259.63931277047931
 21
273.32516971684032
 31
0.0
  0
LINE
  8
DETAIL
  6
CONTINUOUS
 62
     5
 10
-259.63931277047931
 20
273.32516971684032
 30
0.0
 11
-259.57477269898891
 21
273.43394280118008
 31
0.0
  0
LINE
  8
DETAIL
  6
CONTINUOUS
 62
     5
 10
-259.57477269898891
 20
273.43394280118008
 30
0.0
 11
-259.51171309649061
 21
273.54357834737789
 31
0.0
  0
LINE
  8
DETAIL
  6
CONTINUOUS
 62
     5
 10
-259.51171309649061
 20
273.54357834737789
 30
0.0
 11
-259.51171309649061
 21
273.54357834737789
 31
0.0
  0
LINE
  8
DETAIL
  6
CONTINUOUS
 62
     5
 10
-259.51171309649061
 20
273.54357834737789
 30
0.0
 11
-259.45014505084299
 21
273.65405872282781
 31
0.0
  0
LINE
  8
DETAIL
  6
CONTINUOUS
 62
     5
 10
-259.45014505084299
 20
273.65405872282781
 30
0.0
 11
-259.39007813190682
 21
273.76536508910522
 31
0.0
  0
LINE
  8
DETAIL
  6
CONTINUOUS
 62
     5
 10
-259.39007813190682
 20
273.76536508910522
 30
0.0
 11
-259.39007813190682
 21
273.76536508910522
 31
0.0
  0
LINE
  8
DETAIL
  6
CONTINUOUS
 62
     5
 10
-259.39007813190682
 20
273.76536508910522
 30
0.0
 11
-259.33152196089111
 21
273.87747704755338
 31
0.0
  0
LINE
  8
DETAIL
  6
CONTINUOUS
 62
     5
 10
-259.33152196089111
 20
273.87747704755338
 30
0.0
 11
-259.27448788239201
 21
273.99036916440468
 31
0.0
  0
LINE
  8
DETAIL
  6
CONTINUOUS
 62
     5
 10
-259.27448788239201
 20
273.99036916440468
 30
0.0
 11
-259.27448788239201
 21
273.99036916440468
 31
0.0
  0
LINE
  8
DETAIL
  6
CONTINUOUS
 62
     5
 10
-259.27448788239201
 20
273.99036916440468
 30
0.0
 11
-259.2189857518299
 21
274.10401987571572
 31
0.0
  0
LINE
  8
DETAIL
  6
CONTINUOUS
 62
     5
 10
-259.2189857518299
 20
274.10401987571572
 30
0.0
 11
-259.16501774452922
 21
274.21842813195008
 31
0.0
  0
LINE
  8
DETAIL
  6
CONTINUOUS
 62
     5
 10
-259.16501774452922
 20
274.21842813195008
 30
0.0
 11
-259.16501774452922
 21
274.21842813195008
 31
0.0
  0
LINE
  8
DETAIL
  6
CONTINUOUS
 62
     5
 10
-259.16501774452922
 20
274.21842813195008
 30
0.0
 11
-259.11259136503958
 21
274.33357875654292
 31
0.0
  0
LINE
  8
DETAIL
  6
CONTINUOUS
 62
     5
 10
-259.11259136503958
 20
274.33357875654292
 30
0.0
 11
-259.06174311490258
 21
274.44937955041593
 31
0.0
  0
LINE
  8
DETAIL
  6
CONTINUOUS
 62
     5
 10
-259.06174311490258
 20
274.44937955041593
 30
0.0
 11
-259.06174311490258
 21
274.44937955041593
 31
0.0
  0
LINE
  8
DETAIL
  6
CONTINUOUS
 62
     5
 10
-259.06174311490258
 20
274.44937955041593
 30
0.0
 11
-259.01248966793878
 21
274.56579095277522
 31
0.0
  0
LINE
  8
DETAIL
  6
CONTINUOUS
 62
     5
 10
-259.01248966793878
 20
274.56579095277522
 30
0.0
 11
-258.96473939009479
 21
274.68306097847682
 31
0.0
  0
LINE
  8
DETAIL
  6
CONTINUOUS
 62
     5
 10
-258.96473939009479
 20
274.68306097847682
 30
0.0
 11
-258.96473939009479
 21
274.68306097847682
 31
0.0
  0
LINE
  8
DETAIL
  6
CONTINUOUS
 62
     5
 10
-258.96473939009479
 20
274.68306097847682
 30
0.0
 11
-258.91841686965898
 21
274.80139563133912
 31
0.0
  0
LINE
  8
DETAIL
  6
CONTINUOUS
 62
     5
 10
-258.91841686965898
 20
274.80139563133912
 30
0.0
 11
-258.87361989215879
 21
274.92054529537108
 31
0.0
  0
LINE
  8
DETAIL
  6
CONTINUOUS
 62
     5
 10
-258.87361989215879
 20
274.92054529537108
 30
0.0
 11
-258.87361989215879
 21
274.92054529537108
 31
0.0
  0
LINE
  8
DETAIL
  6
CONTINUOUS
 62
     5
 10
-258.87361989215879
 20
274.92054529537108
 30
0.0
 11
-258.83046422101711
 21
275.04021835499452
 31
0.0
  0
LINE
  8
DETAIL
  6
CONTINUOUS
 62
     5
 10
-258.83046422101711
 20
275.04021835499452
 30
0.0
 11
-258.78896433400791
 21
275.16041081607841
 31
0.0
  0
LINE
  8
DETAIL
  6
CONTINUOUS
 62
     5
 10
-258.78896433400791
 20
275.16041081607841
 30
0.0
 11
-258.78896433400791
 21
275.16041081607841
 31
0.0
  0
LINE
  8
DETAIL
  6
CONTINUOUS
 62
     5
 10
-258.78896433400791
 20
275.16041081607841
 30
0.0
 11
-258.74910128611822
 21
275.2811679189499
 31
0.0
  0
LINE
  8
DETAIL
  6
CONTINUOUS
 62
     5
 10
-258.74910128611822
 20
275.2811679189499
 30
0.0
 11
-258.71082372684373
 21
275.40244422030878
 31
0.0
  0
LINE
  8
DETAIL
  6
CONTINUOUS
 62
     5
 10
-258.71082372684373
 20
275.40244422030878
 30
0.0
 11
-258.71082372684373
 21
275.40244422030878
 31
0.0
  0
LINE
  8
DETAIL
  6
CONTINUOUS
 62
     5
 10
-258.71082372684373
 20
275.40244422030878
 30
0.0
 11
-258.67412993121172
 21
275.52419038421181
 31
0.0
  0
LINE
  8
DETAIL
  6
CONTINUOUS
 62
     5
 10
-258.67412993121172
 20
275.52419038421181
 30
0.0
 11
-258.63924908186681
 21
275.64643218777201
 31
0.0
  0
LINE
  8
DETAIL
  6
CONTINUOUS
 62
     5
 10
-258.63924908186681
 20
275.64643218777201
 30
0.0
 11
-258.63924908186681
 21
275.64643218777201
 31
0.0
  0
LINE
  8
DETAIL
  6
CONTINUOUS
 62
     5
 10
-258.63924908186681
 20
275.64643218777201
 30
0.0
 11
-258.60624528211309
 21
275.7691617442174
 31
0.0
  0
LINE
  8
DETAIL
  6
CONTINUOUS
 62
     5
 10
-258.60624528211309
 20
275.7691617442174
 30
0.0
 11
-258.57429141027711
 21
275.89216139817898
 31
0.0
  0
ARC
  8
DETAIL
  6
CONTINUOUS
 62
     5
 10
293.80840830859938
 20
274.17876785245022
 30
0.0
 40
10.016155088853029
 50
0.0
 51
45.000000000009223
  0
ARC
  8
DETAIL
  6
CONTINUOUS
 62
     5
 10
274.17876785167317
 20
293.80840830859961
 30
0.0
 40
10.016155088853059
 50
45.000000000009223
 51
90.0
  0
ARC
  8
DETAIL
  6
CONTINUOUS
 62
     5
 10
269.93537964458778
 20
269.93537964458801
 30
0.0
 40
37.059773828756008
 50
0.0
 51
90.0
  0
ARC
  8
DETAIL
  6
CONTINUOUS
 62
     5
 10
269.93537964458778
 20
269.93537964458801
 30
0.0
 40
40.064620355411932
 50
0.0
 51
90.0
  0
CIRCLE
  8
DETAIL
  6
CONTINUOUS
 62
     5
 10
261.32961628886261
 20
230.16665507688069
 30
0.0
 40
5.0080775444264987
  0
ARC
  8
DETAIL
  6
CONTINUOUS
 62
     5
 10
255.56295591133431
 20
223.1848313219871
 30
0.0
 40
10.01615508885302
 50
225.00000000000921
 51
270.0
  0
ARC
  8
DETAIL
  6
CONTINUOUS
 62
     5
 10
291.97092084006431
 20
227.8909065760229
 30
0.0
 40
15.024232633279469
 50
0.0
 51
88.05249548290827
  0
ARC
  8
DETAIL
  6
CONTINUOUS
 62
     5
 10
260.42003231017702
 20
221.1607513971019
 30
0.0
 40
20.032310177706009
 50
225.00000000000921
 51
270.0
  0
ARC
  8
DETAIL
  6
CONTINUOUS
 62
     5
 10
266.93053311793187
 20
171.079975952837
 30
0.0
 40
30.048465266558988
 50
0.0
 51
90.0
  0
ARC
  8
DETAIL
  6
CONTINUOUS
 62
     5
 10
223.18483132121059
 20
255.56295591133471
 30
0.0
 40
10.016155088853029
 50
180.0
 51
225.00000000000921
  0
ARC
  8
DETAIL
  6
CONTINUOUS
 62
     5
 10
227.89090657524619
 20
291.97092084006448
 30
0.0
 40
15.024232633279491
 50
1.947506574392446
 51
90.0
  0
ARC
  8
DETAIL
  6
CONTINUOUS
 62
     5
 10
221.1607513963252
 20
260.42003231017748
 30
0.0
 40
20.032310177705991
 50
180.0
 51
225.00000000000921
  0
ARC
  8
DETAIL
  6
CONTINUOUS
 62
     5
 10
171.07997595206029
 20
266.9305331179321
 30
0.0
 40
30.048465266558932
 50
0.0
 51
90.0
  0
ARC
  8
DETAIL
  6
CONTINUOUS
 62
     5
 10
-0.0000000000002274
 20
205.83198707592871
 30
0.0
 40
298.18093699515339
 50
253.79293060259951
 51
278.85984899740652
  0
ARC
  8
DETAIL
  6
CONTINUOUS
 62
     5
 10
-0.0000000000002274
 20
205.83198707592871
 30
0.0
 40
298.1809369951535
 50
280.95754992429141
 51
286.20706939740052
  0
ARC
  8
DETAIL
  6
CONTINUOUS
 62
     5
 10
-0.0000000000002274
 20
205.83198707592871
 30
0.0
 40
300.48465266558969
 50
253.79293060259951
 51
279.13589515549228
  0
ARC
  8
DETAIL
  6
CONTINUOUS
 62
     5
 10
-0.0000000000002274
 20
205.83198707592871
 30
0.0
 40
300.48465266558969
 50
281.2667648120044
 51
286.20706939740052
  0
ARC
  8
DETAIL
  6
CONTINUOUS
 62
     5
 10
55.243506126134662
 20
47.89976025612691
 30
0.0
 40
5.0080775444264862
 50
220.92744336160229
 51
307.000000000005
  0
ARC
  8
DETAIL
  6
CONTINUOUS
 62
     5
 10
81.631663974151479
 20
75.016697207799552
 30
0.0
 40
5.7092084006462764
 50
0.0
 51
73.792930602599583
  0
ARC
  8
DETAIL
  6
CONTINUOUS
 62
     5
 10
101.6639741518577
 20
88.915490019435993
 30
0.0
 40
6.0096930533117821
 50
134.99999999999079
 51
180.0
  0
CIRCLE
  8
DETAIL
  6
CONTINUOUS
 62
     5
 10
54.535182122327342
 20
54.535182123104278
 30
0.0
 40
6.5105008077544548
  0
ARC
  8
DETAIL
  6
CONTINUOUS
 62
     5
 10
81.631663974151479
 20
75.016697207799552
 30
0.0
 40
8.0129240710824661
 50
0.0
 51
73.792930602599583
  0
ARC
  8
DETAIL
  6
CONTINUOUS
 62
     5
 10
72.707647551990021
 20
7.7349847547307036
 30
0.0
 40
5.008077544426488
 50
100.0000000000062
 51
186.0725566384009
  0
ARC
  8
DETAIL
  6
CONTINUOUS
 62
     5
 10
66.083239323364296
 20
39.764024681043338
 30
0.0
 40
8.0129240710824412
 50
31.036429881703729
 51
127.000000000005
  0
ARC
  8
DETAIL
  6
CONTINUOUS
 62
     5
 10
81.020288273458618
 20
18.627650115565071
 30
0.0
 40
10.01615508885298
 50
192.9480520159016
 51
215.2756430611912
  0
ARC
  8
DETAIL
  6
CONTINUOUS
 62
     5
 10
70.461732966474528
 20
44.118257538039423
 30
0.0
 40
10.01615508885304
 50
171.25938860049689
 51
212.05194798409539
  0
ARC
  8
DETAIL
  6
CONTINUOUS
 62
     5
 10
16.682418720766918
 20
76.8366665569622
 30
0.0
 40
6.5105008077544282
 50
77.750325396796327
 51
257.75032539679631
  0
ARC
  8
DETAIL
  6
CONTINUOUS
 62
     5
 10
42.535476561620499
 20
66.127979370778121
 30
0.0
 40
6.5105008077544104
 50
237.24967460320869
 51
57.249674603208682
  0
ARC
  8
DETAIL
  6
CONTINUOUS
 62
     5
 10
44.118257538039188
 20
70.461732966474983
 30
0.0
 40
10.01615508885298
 50
237.94805201590691
 51
280.95159221520379
  0
ARC
  8
DETAIL
  6
CONTINUOUS
 62
     5
 10
18.08904747061365
 20
81.142238214198869
 30
0.0
 40
10.01615508885296
 50
221.76155162420409
 51
257.43254818250739
  0
CIRCLE
  8
DETAIL
  6
CONTINUOUS
 62
     5
 10
-0.0000000000002274
 20
0.0
 30
0.0
 40
16.62681744749597
  0
CIRCLE
  8
DETAIL
  6
CONTINUOUS
 62
     5
 10
-0.0000000000002274
 20
0.0
 30
0.0
 40
22.035541195476579
  0
CIRCLE
  8
DETAIL
  6
CONTINUOUS
 62
     5
 10
-0.0000000000002274
 20
0.0
 30
0.0
 40
34.355411954765771
  0
CIRCLE
  8
DETAIL
  6
CONTINUOUS
 62
     5
 10
-0.0000000000002274
 20
0.0
 30
0.0
 40
65.305331179321513
  0
ARC
  8
DETAIL
  6
CONTINUOUS
 62
     5
 10
-0.0000000000002274
 20
0.0
 30
0.0
 40
66.106623586429706
 50
303.31353650259467
 51
295.31853368079948
  0
ARC
  8
DETAIL
  6
CONTINUOUS
 62
     5
 10
-0.0000000000002274
 20
0.0
 30
0.0
 40
68.109854604200351
 50
40.927443361602243
 51
139.07255663839771
  0
ARC
  8
DETAIL
  6
CONTINUOUS
 62
     5
 10
-0.0000000000002274
 20
0.0
 30
0.0
 40
68.109854604200322
 50
353.9274433615991
 51
6.0725566384009069
  0
ARC
  8
DETAIL
  6
CONTINUOUS
 62
     5
 10
-0.0000000000002274
 20
0.0
 30
0.0
 40
68.109854604200365
 50
220.92744336160229
 51
295.41782884320838
  0
ARC
  8
DETAIL
  6
CONTINUOUS
 62
     5
 10
-0.0000000000002274
 20
0.0
 30
0.0
 40
68.109854604200365
 50
303.17792305750839
 51
319.07255663839783
  0
ARC
  8
DETAIL
  6
CONTINUOUS
 62
     5
 10
-0.0000000000002274
 20
0.0
 30
0.0
 40
68.109854604200265
 50
173.9274433615991
 51
186.0725566384009
  0
ARC
  8
DETAIL
  6
CONTINUOUS
 62
     5
 10
-0.0000000000002274
 20
0.0
 30
0.0
 40
72.116316639741498
 50
102.2496746032037
 51
122.7503253967913
  0
ARC
  8
DETAIL
  6
CONTINUOUS
 62
     5
 10
-0.0000000000002274
 20
0.0
 30
0.0
 40
72.116316639741498
 50
57.249674603208682
 51
77.750325396796327
  0
ARC
  8
DETAIL
  6
CONTINUOUS
 62
     5
 10
-0.0000000000007958
 20
0.0000000000015916
 30
0.0
 40
72.116316639743062
 50
282.24967460320369
 51
294.80013556917612
  0
ARC
  8
DETAIL
  6
CONTINUOUS
 62
     5
 10
-0.0000000000002274
 20
0.0
 30
0.0
 40
72.116316639741427
 50
237.24967460320869
 51
257.75032539679631
  0
ARC
  8
DETAIL
  6
CONTINUOUS
 62
     5
 10
-0.0000000000002274
 20
0.0
 30
0.0
 40
73.117932148626821
 50
102.5674518174926
 51
122.0519479840931
  0
ARC
  8
DETAIL
  6
CONTINUOUS
 62
     5
 10
-0.0000000000002274
 20
0.0
 30
0.0
 40
73.117932148626693
 50
147.94805201590461
 51
167.0519479840984
  0
ARC
  8
DETAIL
  6
CONTINUOUS
 62
     5
 10
-0.0000000000002274
 20
0.0
 30
0.0
 40
73.117932148626863
 50
192.9480520159016
 51
212.05194798409539
  0
ARC
  8
DETAIL
  6
CONTINUOUS
 62
     5
 10
-0.0000000000002274
 20
0.0
 30
0.0
 40
73.11793214862675
 50
237.94805201590691
 51
257.43254818250739
  0
ARC
  8
DETAIL
  6
CONTINUOUS
 62
     5
 10
-0.0000000000001137
 20
-0.0000000000002274
 30
0.0
 40
73.117932148626494
 50
282.56745181749261
 51
294.77851959062991
  0
ARC
  8
DETAIL
  6
CONTINUOUS
 62
     5
 10
-0.0000000000002274
 20
0.0
 30
0.0
 40
73.117932148626821
 50
327.94805201590458
 51
347.05194798409838
  0
ARC
  8
DETAIL
  6
CONTINUOUS
 62
     5
 10
-0.0000000000002274
 20
0.0
 30
0.0
 40
73.117932148626906
 50
12.94805201590159
 51
32.051947984095392
  0
ARC
  8
DETAIL
  6
CONTINUOUS
 62
     5
 10
-0.0000000000002274
 20
0.0
 30
0.0
 40
73.117932148626792
 50
57.948052015906867
 51
77.432548182507446
  0
ARC
  8
DETAIL
  6
CONTINUOUS
 62
     5
 10
-0.0000000000002274
 20
0.0
 30
0.0
 40
85.137318255250435
 50
102.2496746032037
 51
122.7503253967913
  0
ARC
  8
DETAIL
  6
CONTINUOUS
 62
     5
 10
-0.0000000000002274
 20
0.0
 30
0.0
 40
85.137318255250435
 50
57.249674603208682
 51
77.750325396796327
  0
ARC
  8
DETAIL
  6
CONTINUOUS
 62
     5
 10
-0.0000000000002274
 20
0.0
 30
0.0
 40
85.137318255250506
 50
282.24967460320369
 51
295.25353200040553
  0
ARC
  8
DETAIL
  6
CONTINUOUS
 62
     5
 10
-0.0000000000002274
 20
0.0
 30
0.0
 40
85.137318255250378
 50
237.24967460320869
 51
257.75032539679631
  0
ARC
  8
DETAIL
  6
CONTINUOUS
 62
     5
 10
-0.0000000000002274
 20
0.0
 30
0.0
 40
85.137318255250335
 50
148.96357011829619
 51
169.999999999995
  0
ARC
  8
DETAIL
  6
CONTINUOUS
 62
     5
 10
-0.0000000000002274
 20
0.0
 30
0.0
 40
85.13731825525042
 50
10.00000000000502
 51
31.036429881703729
  0
ARC
  8
DETAIL
  6
CONTINUOUS
 62
     5
 10
-0.0000000000002274
 20
0.0
 30
0.0
 40
85.137318255250335
 50
328.96357011829627
 51
350.00000000000807
  0
ARC
  8
DETAIL
  6
CONTINUOUS
 62
     5
 10
-0.0000000000002274
 20
0.0
 30
0.0
 40
85.13731825525042
 50
190.000000000005
 51
211.0364298817037
  0
ARC
  8
DETAIL
  6
CONTINUOUS
 62
     5
 10
-0.0000000000002274
 20
0.0
 30
0.0
 40
270.43618739903059
 50
135.63663673020261
 51
224.36336326979739
  0
ARC
  8
DETAIL
  6
CONTINUOUS
 62
     5
 10
-0.0000000000002274
 20
0.0
 30
0.0
 40
270.43618739903059
 50
225.6366367302025
 51
312.62838406480529
  0
ARC
  8
DETAIL
  6
CONTINUOUS
 62
     5
 10
-0.0000000000002274
 20
0.0
 30
0.0
 40
270.4361873990307
 50
315.63663673020261
 51
44.363363269797439
  0
ARC
  8
DETAIL
  6
CONTINUOUS
 62
     5
 10
-0.0000000000002274
 20
0.0
 30
0.0
 40
270.43618739903059
 50
45.636636730202582
 51
134.36336326979739
  0
ARC
  8
DETAIL
  6
CONTINUOUS
 62
     5
 10
255.56295591133431
 20
-223.18483132121079
 30
0.0
 40
10.01615508885294
 50
90.0
 51
134.99999999999079
  0
ARC
  8
DETAIL
  6
CONTINUOUS
 62
     5
 10
291.97092084006431
 20
-227.89090657524639
 30
0.0
 40
15.024232633279491
 50
271.94750657439232
 51
0.0
  0
ARC
  8
DETAIL
  6
CONTINUOUS
 62
     5
 10
260.42003231017702
 20
-221.16075139632559
 30
0.0
 40
20.03231017770597
 50
90.0
 51
134.99999999999079
  0
ARC
  8
DETAIL
  6
CONTINUOUS
 62
     5
 10
266.93053311793187
 20
-171.07997595206101
 30
0.0
 40
30.048465266558932
 50
270.0
 51
0.0
  0
ARC
  8
DETAIL
  6
CONTINUOUS
 62
     5
 10
240.781755953062
 20
-239.43644033878101
 30
0.0
 40
4.0064620355412348
 50
45.000000000009223
 51
104.12544180580289
  0
ARC
  8
DETAIL
  6
CONTINUOUS
 62
     5
 10
257.77973479603253
 20
-259.26741565570887
 30
0.0
 40
4.0064620355411877
 50
253.48036702230101
 51
31.042941702300119
  0
ARC
  8
DETAIL
  6
CONTINUOUS
 62
     5
 10
242.198254189653
 20
-253.60142270779329
 30
0.0
 40
5.0080775444264987
 50
189.88543817239571
 51
253.48036702230101
  0
ARC
  8
DETAIL
  6
CONTINUOUS
 62
     5
 10
257.77973479603253
 20
-259.26741565570887
 30
0.0
 40
5.2084006462035743
 50
253.48036702230101
 51
45.000000000009223
  0
ARC
  8
DETAIL
  6
CONTINUOUS
 62
     5
 10
240.781755953062
 20
-239.43644033878101
 30
0.0
 40
5.2084006462035504
 50
45.000000000009223
 51
111.72980697999741
  0
ARC
  8
DETAIL
  6
CONTINUOUS
 62
     5
 10
242.198254189653
 20
-253.60142270779329
 30
0.0
 40
6.2100161550888702
 50
181.67594255778971
 51
253.48036702230101
  0
ARC
  8
DETAIL
  6
CONTINUOUS
 62
     5
 10
274.17876785167317
 20
-293.80840830859961
 30
0.0
 40
10.016155088853001
 50
270.0
 51
314.99999999999079
  0
ARC
  8
DETAIL
  6
CONTINUOUS
 62
     5
 10
293.80840830859938
 20
-274.17876785167391
 30
0.0
 40
10.016155088853059
 50
314.99999999999079
 51
0.0
  0
ARC
  8
DETAIL
  6
CONTINUOUS
 62
     5
 10
269.93537964458778
 20
-269.93537964458801
 30
0.0
 40
37.05977382875615
 50
270.0
 51
0.0
  0
ARC
  8
DETAIL
  6
CONTINUOUS
 62
     5
 10
269.93537964458778
 20
-269.93537964458801
 30
0.0
 40
40.064620355412053
 50
270.0
 51
0.0
  0
CIRCLE
  8
DETAIL
  6
CONTINUOUS
 62
     5
 10
230.16665507610401
 20
-261.32961628886318
 30
0.0
 40
5.0080775444264987
  0
ARC
  8
DETAIL
  6
CONTINUOUS
 62
     5
 10
223.18483132121059
 20
-255.56295591055849
 30
0.0
 40
10.01615508885302
 50
134.99999999999079
 51
180.0
  0
ARC
  8
DETAIL
  6
CONTINUOUS
 62
     5
 10
227.89090657524619
 20
-291.97092084006448
 30
0.0
 40
15.024232633279549
 50
270.0
 51
326.0685920905953
  0
ARC
  8
DETAIL
  6
CONTINUOUS
 62
     5
 10
221.1607513963252
 20
-260.4200323101777
 30
0.0
 40
20.03231017770603
 50
134.99999999999079
 51
180.0
  0
ARC
  8
DETAIL
  6
CONTINUOUS
 62
     5
 10
171.07997595206029
 20
-266.9305331179321
 30
0.0
 40
30.048465266558988
 50
270.0
 51
0.0
  0
CIRCLE
  8
DETAIL
  6
CONTINUOUS
 62
     5
 10
-0.0000000000002274
 20
-48.578352180937152
 30
0.0
 40
4.7075928917608962
  0
ARC
  8
DETAIL
  6
CONTINUOUS
 62
     5
 10
72.707647551990021
 20
-7.7349847539542216
 30
0.0
 40
5.008077544426544
 50
173.9274433615991
 51
259.99999999999392
  0
ARC
  8
DETAIL
  6
CONTINUOUS
 62
     5
 10
55.243506126134662
 20
-47.899760255350657
 30
0.0
 40
5.0080775444264551
 50
52.999999999994976
 51
139.07255663839771
  0
ARC
  8
DETAIL
  6
CONTINUOUS
 62
     5
 10
81.631663974151479
 20
-75.016697207799552
 30
0.0
 40
5.7092084006461334
 50
286.20706939740052
 51
0.0
  0
ARC
  8
DETAIL
  6
CONTINUOUS
 62
     5
 10
101.6639741518577
 20
-88.915490018659966
 30
0.0
 40
6.0096930533117643
 50
180.0
 51
225.00000000000921
  0
ARC
  8
DETAIL
  6
CONTINUOUS
 62
     5
 10
40.6171439843813
 20
-67.160706961116603
 30
0.0
 40
6.510500807754438
 50
302.75032539679131
 51
112.04447526450819
  0
ARC
  8
DETAIL
  6
CONTINUOUS
 62
     5
 10
16.682418720766918
 20
-76.836666556185946
 30
0.0
 40
6.510500807754446
 50
102.2496746032037
 51
282.24967460320369
  0
CIRCLE
  8
DETAIL
  6
CONTINUOUS
 62
     5
 10
54.535182122327342
 20
-54.535182122328017
 30
0.0
 40
6.5105008077544548
  0
ARC
  8
DETAIL
  6
CONTINUOUS
 62
     5
 10
81.631663974151479
 20
-75.016697207799552
 30
0.0
 40
8.0129240710824057
 50
286.20706939740052
 51
0.0
  0
ARC
  8
DETAIL
  6
CONTINUOUS
 62
     5
 10
66.083239323364296
 20
-39.764024680267077
 30
0.0
 40
8.0129240710823648
 50
232.999999999995
 51
328.96357011829627
  0
ARC
  8
DETAIL
  6
CONTINUOUS
 62
     5
 10
81.020288273458618
 20
-18.627650114788821
 30
0.0
 40
10.01615508885299
 50
144.7243569388088
 51
167.0519479840984
  0
ARC
  8
DETAIL
  6
CONTINUOUS
 62
     5
 10
70.461732966474528
 20
-44.118257538039643
 30
0.0
 40
10.01615508885301
 50
147.94805201590461
 51
188.74061139950311
  0
ARC
  8
DETAIL
  6
CONTINUOUS
 62
     5
 10
42.19992496079999
 20
-71.494460556813692
 30
0.0
 40
10.016155088853029
 50
79.048407784796169
 51
111.09272708621999
  0
ARC
  8
DETAIL
  6
CONTINUOUS
 62
     5
 10
18.08904747061365
 20
-81.142238214199097
 30
0.0
 40
10.01615508885294
 50
102.5674518174926
 51
138.23844837579591
  0
ARC
  8
DETAIL
  6
CONTINUOUS
 62
     5
 10
101.6639741518577
 20
-88.915490018659966
 30
0.0
 40
12.019386106623591
 50
180.0
 51
225.00000000000921
  0
ARC
  8
DETAIL
  6
CONTINUOUS
 62
     5
 10
-0.0000000000002274
 20
-205.83198707592899
 30
0.0
 40
298.18093699515362
 50
73.792930602599583
 51
106.2070693974004
  0
ARC
  8
DETAIL
  6
CONTINUOUS
 62
     5
 10
-0.0000000000002274
 20
-205.83198707592899
 30
0.0
 40
300.48465266558958
 50
73.792930602599583
 51
106.2070693974004
  0
ARC
  8
DETAIL
  6
CONTINUOUS
 62
     5
 10
-55.24350612691137
 20
47.89976025612691
 30
0.0
 40
5.0080775444265297
 50
232.999999999995
 51
319.07255663839783
  0
ARC
  8
DETAIL
  6
CONTINUOUS
 62
     5
 10
-72.707647551991386
 20
7.7349847547307036
 30
0.0
 40
5.0080775444266568
 50
353.9274433615991
 51
79.999999999993847
  0
ARC
  8
DETAIL
  6
CONTINUOUS
 62
     5
 10
-81.631663974152389
 20
75.016697207799552
 30
0.0
 40
5.7092084006461432
 50
106.2070693974004
 51
180.0
  0
ARC
  8
DETAIL
  6
CONTINUOUS
 62
     5
 10
-101.6639741518582
 20
88.915490019435993
 30
0.0
 40
6.0096930533117066
 50
0.0
 51
45.000000000009223
  0
ARC
  8
DETAIL
  6
CONTINUOUS
 62
     5
 10
-16.682418720767831
 20
76.8366665569622
 30
0.0
 40
6.5105008077544548
 50
282.24967460320369
 51
102.2496746032037
  0
ARC
  8
DETAIL
  6
CONTINUOUS
 62
     5
 10
-42.535476561621408
 20
66.127979370778121
 30
0.0
 40
6.5105008077544104
 50
122.7503253967913
 51
302.75032539679131
  0
CIRCLE
  8
DETAIL
  6
CONTINUOUS
 62
     5
 10
-54.535182122328251
 20
54.535182123104278
 30
0.0
 40
6.5105008077543971
  0
ARC
  8
DETAIL
  6
CONTINUOUS
 62
     5
 10
-81.631663974152389
 20
75.016697207799552
 30
0.0
 40
8.0129240710823488
 50
106.2070693974004
 51
180.0
  0
ARC
  8
DETAIL
  6
CONTINUOUS
 62
     5
 10
-66.083239323365206
 20
39.764024681043338
 30
0.0
 40
8.0129240710823986
 50
52.999999999994976
 51
148.96357011829619
  0
ARC
  8
DETAIL
  6
CONTINUOUS
 62
     5
 10
-81.020288274236236
 20
18.627650115565071
 30
0.0
 40
10.016155088852891
 50
324.7243569388088
 51
347.05194798409838
  0
ARC
  8
DETAIL
  6
CONTINUOUS
 62
     5
 10
-70.461732966475438
 20
44.118257538039423
 30
0.0
 40
10.01615508885291
 50
327.94805201590458
 51
8.7406113994896888
  0
ARC
  8
DETAIL
  6
CONTINUOUS
 62
     5
 10
-44.118257538040098
 20
70.461732966474983
 30
0.0
 40
10.016155088852971
 50
259.04840778479621
 51
302.05194798409309
  0
ARC
  8
DETAIL
  6
CONTINUOUS
 62
     5
 10
-18.08904747139081
 20
81.142238214198869
 30
0.0
 40
10.016155088853059
 50
282.56745181749261
 51
318.23844837579588
  0
ARC
  8
DETAIL
  6
CONTINUOUS
 62
     5
 10
-101.6639741518582
 20
88.915490019435993
 30
0.0
 40
12.01938610662364
 50
0.0
 51
45.000000000009223
  0
CIRCLE
  8
DETAIL
  6
CONTINUOUS
 62
     5
 10
-230.16665507610449
 20
261.32961628963949
 30
0.0
 40
5.0080775444264409
  0
ARC
  8
DETAIL
  6
CONTINUOUS
 62
     5
 10
-223.1848313219875
 20
255.56295591133471
 30
0.0
 40
10.01615508885296
 50
314.99999999999079
 51
0.0
  0
ARC
  8
DETAIL
  6
CONTINUOUS
 62
     5
 10
-227.8909065752467
 20
291.97092084006448
 30
0.0
 40
15.024232633279439
 50
90.0
 51
178.0524954828953
  0
ARC
  8
DETAIL
  6
CONTINUOUS
 62
     5
 10
-221.16075139632599
 20
260.42003231017748
 30
0.0
 40
20.032310177705948
 50
314.99999999999079
 51
0.0
  0
ARC
  8
DETAIL
  6
CONTINUOUS
 62
     5
 10
-171.07997595206101
 20
266.9305331179321
 30
0.0
 40
30.048465266559049
 50
90.0
 51
180.0
  0
ARC
  8
DETAIL
  6
CONTINUOUS
 62
     5
 10
-274.17876785167408
 20
293.80840830859961
 30
0.0
 40
10.016155088853059
 50
90.0
 51
134.99999999999079
  0
ARC
  8
DETAIL
  6
CONTINUOUS
 62
     5
 10
-293.80840830860001
 20
274.17876785245022
 30
0.0
 40
10.01615508885296
 50
134.99999999999079
 51
180.0
  0
ARC
  8
DETAIL
  6
CONTINUOUS
 62
     5
 10
-269.93537964458869
 20
269.93537964458801
 30
0.0
 40
37.059773828755972
 50
90.0
 51
180.0
  0
ARC
  8
DETAIL
  6
CONTINUOUS
 62
     5
 10
-269.93537964458869
 20
269.93537964458801
 30
0.0
 40
40.064620355411883
 50
90.0
 51
180.0
  0
ARC
  8
DETAIL
  6
CONTINUOUS
 62
     5
 10
-255.56295591133539
 20
223.1848313219871
 30
0.0
 40
10.016155088853059
 50
270.0
 51
314.99999999999079
  0
ARC
  8
DETAIL
  6
CONTINUOUS
 62
     5
 10
-291.97092084006488
 20
227.8909065760229
 30
0.0
 40
15.02423263327943
 50
91.947506574392222
 51
180.0
  0
ARC
  8
DETAIL
  6
CONTINUOUS
 62
     5
 10
-260.4200323101781
 20
221.1607513971019
 30
0.0
 40
20.032310177705931
 50
270.0
 51
314.99999999999079
  0
ARC
  8
DETAIL
  6
CONTINUOUS
 62
     5
 10
-266.93053311793238
 20
171.079975952837
 30
0.0
 40
30.048465266558988
 50
90.0
 51
180.0
  0
ARC
  8
DETAIL
  6
CONTINUOUS
 62
     5
 10
-55.24350612691137
 20
-47.899760255350657
 30
0.0
 40
5.0080775444263974
 50
40.927443361602243
 51
127.000000000005
  0
ARC
  8
DETAIL
  6
CONTINUOUS
 62
     5
 10
-72.707647551991386
 20
-7.7349847539542216
 30
0.0
 40
5.0080775444265191
 50
280.00000000000608
 51
6.0725566384009069
  0
ARC
  8
DETAIL
  6
CONTINUOUS
 62
     5
 10
-81.631663974152389
 20
-75.016697207799552
 30
0.0
 40
5.7092084006461619
 50
180.0
 51
253.79293060259951
  0
ARC
  8
DETAIL
  6
CONTINUOUS
 62
     5
 10
-101.6639741518582
 20
-88.915490018659966
 30
0.0
 40
6.0096930533117821
 50
314.99999999999079
 51
0.0
  0
ARC
  8
DETAIL
  6
CONTINUOUS
 62
     5
 10
-42.535476561621408
 20
-66.12797937000164
 30
0.0
 40
6.5105008077544424
 50
57.249674603208682
 51
237.24967460320869
  0
ARC
  8
DETAIL
  6
CONTINUOUS
 62
     5
 10
-16.682418720767831
 20
-76.836666556185946
 30
0.0
 40
6.5105008077544548
 50
257.75032539679631
 51
77.750325396796327
  0
CIRCLE
  8
DETAIL
  6
CONTINUOUS
 62
     5
 10
-54.535182122328251
 20
-54.535182122328017
 30
0.0
 40
6.5105008077543971
  0
ARC
  8
DETAIL
  6
CONTINUOUS
 62
     5
 10
-81.631663974152389
 20
-75.016697207799552
 30
0.0
 40
8.0129240710823524
 50
180.0
 51
253.79293060259951
  0
ARC
  8
DETAIL
  6
CONTINUOUS
 62
     5
 10
-66.083239323365206
 20
-39.764024680267077
 30
0.0
 40
8.0129240710824412
 50
211.0364298817037
 51
307.000000000005
  0
ARC
  8
DETAIL
  6
CONTINUOUS
 62
     5
 10
-44.118257538040098
 20
-70.461732965698729
 30
0.0
 40
10.01615508885299
 50
57.948052015906867
 51
100.9515922152039
  0
ARC
  8
DETAIL
  6
CONTINUOUS
 62
     5
 10
-70.461732966475438
 20
-44.118257538039643
 30
0.0
 40
10.016155088852869
 50
351.25938860051031
 51
32.051947984095392
  0
ARC
  8
DETAIL
  6
CONTINUOUS
 62
     5
 10
-81.020288274236236
 20
-18.627650114788821
 30
0.0
 40
10.01615508885288
 50
12.94805201590159
 51
35.275643061191197
  0
ARC
  8
DETAIL
  6
CONTINUOUS
 62
     5
 10
-18.08904747139081
 20
-81.142238214199097
 30
0.0
 40
10.016155088853001
 50
41.761551624204131
 51
77.432548182507446
  0
ARC
  8
DETAIL
  6
CONTINUOUS
 62
     5
 10
-101.6639741518582
 20
-88.915490018659966
 30
0.0
 40
12.01938610662353
 50
314.99999999999079
 51
0.0
  0
CIRCLE
  8
DETAIL
  6
CONTINUOUS
 62
     5
 10
-261.32961628886341
 20
-230.16665507610421
 30
0.0
 40
5.0080775444264409
  0
ARC
  8
DETAIL
  6
CONTINUOUS
 62
     5
 10
-293.80840830860001
 20
-274.17876785167391
 30
0.0
 40
10.016155088853001
 50
180.0
 51
225.00000000000921
  0
ARC
  8
DETAIL
  6
CONTINUOUS
 62
     5
 10
-274.17876785167408
 20
-293.80840830859961
 30
0.0
 40
10.01615508885296
 50
225.00000000000921
 51
270.0
  0
ARC
  8
DETAIL
  6
CONTINUOUS
 62
     5
 10
-255.56295591133539
 20
-223.18483132121079
 30
0.0
 40
10.01615508885304
 50
45.000000000009223
 51
90.0
  0
ARC
  8
DETAIL
  6
CONTINUOUS
 62
     5
 10
-223.1848313219875
 20
-255.56295591055849
 30
0.0
 40
10.01615508885277
 50
0.0
 51
45.000000000009223
  0
ARC
  8
DETAIL
  6
CONTINUOUS
 62
     5
 10
-291.97092084006488
 20
-227.89090657524639
 30
0.0
 40
15.024232633279439
 50
180.0
 51
268.05249548290823
  0
ARC
  8
DETAIL
  6
CONTINUOUS
 62
     5
 10
-227.8909065752467
 20
-291.97092084006448
 30
0.0
 40
15.024232633279601
 50
181.94750657439241
 51
270.0
  0
ARC
  8
DETAIL
  6
CONTINUOUS
 62
     5
 10
-221.16075139632599
 20
-260.4200323101777
 30
0.0
 40
20.032310177705991
 50
0.0
 51
45.000000000009223
  0
ARC
  8
DETAIL
  6
CONTINUOUS
 62
     5
 10
-260.4200323101781
 20
-221.16075139632559
 30
0.0
 40
20.032310177706009
 50
45.000000000009223
 51
90.0
  0
ARC
  8
DETAIL
  6
CONTINUOUS
 62
     5
 10
-171.07997595206101
 20
-266.9305331179321
 30
0.0
 40
30.048465266558988
 50
180.0
 51
270.0
  0
ARC
  8
DETAIL
  6
CONTINUOUS
 62
     5
 10
-266.93053311793238
 20
-171.07997595206101
 30
0.0
 40
30.048465266559109
 50
180.0
 51
270.0
  0
ARC
  8
DETAIL
  6
CONTINUOUS
 62
     5
 10
-269.93537964458869
 20
-269.93537964458801
 30
0.0
 40
37.059773828755972
 50
180.0
 51
270.0
  0
ARC
  8
DETAIL
  6
CONTINUOUS
 62
     5
 10
-269.93537964458869
 20
-269.93537964458801
 30
0.0
 40
40.064620355411883
 50
180.0
 51
270.0
  0
LINE
  8
DETAIL
  6
CONTINUOUS
 62
     5
 10
300.89089949310551
 20
281.26125903695629
 30
0.0
 11
281.26125903617941
 21
300.89089949388222
 31
0.0
  0
LINE
  8
DETAIL
  6
CONTINUOUS
 62
     5
 10
281.26125903617941
 20
-300.89089949310602
 30
0.0
 11
300.89089949310551
 21
-281.26125903617998
 31
0.0
  0
LINE
  8
DETAIL
  6
CONTINUOUS
 62
     5
 10
257.08012157831422
 20
261.32961628963949
 30
0.0
 11
261.32961628886261
 21
257.08012157831439
 31
0.0
  0
LINE
  8
DETAIL
  6
CONTINUOUS
 62
     5
 10
234.41614978665231
 20
230.16665507688069
 30
0.0
 11
248.48046472605191
 21
216.10234013748101
 31
0.0
  0
LINE
  8
DETAIL
  6
CONTINUOUS
 62
     5
 10
216.10234013670399
 20
248.48046472682859
 30
0.0
 11
230.16665507610401
 21
234.41614978742879
 31
0.0
  0
LINE
  8
DETAIL
  6
CONTINUOUS
 62
     5
 10
266.33769383328922
 20
233.05806999506561
 30
0.0
 11
261.32961628886261
 21
235.9494849132509
 31
0.0
  0
LINE
  8
DETAIL
  6
CONTINUOUS
 62
     5
 10
256.32153874443628
 20
227.27524015791889
 30
0.0
 11
261.32961628886261
 21
224.38382523973411
 31
0.0
  0
LINE
  8
DETAIL
  6
CONTINUOUS
 62
     5
 10
261.32961628886261
 20
-257.08012157831467
 30
0.0
 11
257.08012157831422
 21
-261.32961628886318
 31
0.0
  0
LINE
  8
DETAIL
  6
CONTINUOUS
 62
     5
 10
257.07148567812533
 20
-250.0601771151521
 30
0.0
 11
257.92138462007938
 21
-249.21027817319759
 31
0.0
  0
LINE
  8
DETAIL
  6
CONTINUOUS
 62
     5
 10
256.36323655944148
 20
-249.35192799724501
 30
0.0
 11
257.21313550139598
 21
-248.502029054514
 31
0.0
  0
LINE
  8
DETAIL
  6
CONTINUOUS
 62
     5
 10
254.7696760431802
 20
-244.92537100624921
 30
0.0
 11
251.9722708799884
 21
-247.72277616944049
 31
0.0
  0
LINE
  8
DETAIL
  6
CONTINUOUS
 62
     5
 10
250.87430589119711
 20
-241.03000085504249
 30
0.0
 11
248.07690072878199
 21
-243.82740601745761
 31
0.0
  0
LINE
  8
DETAIL
  6
CONTINUOUS
 62
     5
 10
224.5006621281884
 20
228.75015683951349
 30
0.0
 11
206.99576902653669
 21
246.25504994116571
 31
0.0
  0
LINE
  8
DETAIL
  6
CONTINUOUS
 62
     5
 10
246.25504994038849
 20
206.9957690273134
 30
0.0
 11
228.75015683951301
 21
224.5006621289651
 31
0.0
  0
LINE
  8
DETAIL
  6
CONTINUOUS
 62
     5
 10
269.93537964458778
 20
310.0
 30
0.0
 11
-269.93537964458869
 21
310.0
 31
0.0
  0
LINE
  8
DETAIL
  6
CONTINUOUS
 62
     5
 10
-227.8909065752467
 20
306.99515347334409
 30
0.0
 11
-269.93537964458869
 21
306.99515347334409
 31
0.0
  0
LINE
  8
DETAIL
  6
CONTINUOUS
 62
     5
 10
227.89090657524619
 20
306.99515347334409
 30
0.0
 11
-227.8909065752467
 21
306.99515347334409
 31
0.0
  0
LINE
  8
DETAIL
  6
CONTINUOUS
 62
     5
 10
269.93537964458778
 20
306.99515347334409
 30
0.0
 11
227.89090657524619
 21
306.99515347334409
 31
0.0
  0
LINE
  8
DETAIL
  6
CONTINUOUS
 62
     5
 10
-254.24712510435731
 20
303.82456339745272
 30
0.0
 11
-274.17876785167408
 21
303.82456339745272
 31
0.0
  0
LINE
  8
DETAIL
  6
CONTINUOUS
 62
     5
 10
274.17876785167317
 20
303.82456339745272
 30
0.0
 11
254.2471251043564
 21
303.82456339745272
 31
0.0
  0
LINE
  8
DETAIL
  6
CONTINUOUS
 62
     5
 10
171.07997595206029
 20
296.97899838449121
 30
0.0
 11
-171.07997595206101
 21
296.97899838449121
 31
0.0
  0
LINE
  8
DETAIL
  6
CONTINUOUS
 62
     5
 10
230.16665507610401
 20
-267.11244612523342
 30
0.0
 11
235.17473262053019
 21
-264.22103120704833
 31
0.0
  0
LINE
  8
DETAIL
  6
CONTINUOUS
 62
     5
 10
230.16665507610401
 20
-255.54678645171629
 30
0.0
 11
225.15857753167731
 21
-258.43820137067792
 31
0.0
  0
LINE
  8
DETAIL
  6
CONTINUOUS
 62
     5
 10
222.84184663716161
 20
-241.74095822559531
 30
0.0
 11
216.10234013670399
 21
-248.4804647260523
 31
0.0
  0
LINE
  8
DETAIL
  6
CONTINUOUS
 62
     5
 10
235.4395559759048
 20
-229.14324888685181
 30
0.0
 11
234.41614978665231
 21
-230.16665507610421
 31
0.0
  0
LINE
  8
DETAIL
  6
CONTINUOUS
 62
     5
 10
248.48046472605191
 20
-216.1023401367047
 30
0.0
 11
236.5818795355847
 21
-228.0009253271719
 31
0.0
  0
LINE
  8
DETAIL
  6
CONTINUOUS
 62
     5
 10
219.72940226171181
 20
-239.76171243941849
 30
0.0
 11
218.87950331975779
 21
-240.6116113813728
 31
0.0
  0
LINE
  8
DETAIL
  6
CONTINUOUS
 62
     5
 10
218.1282916880939
 20
-239.8603997497089
 30
0.0
 11
218.97819063004781
 21
-239.0105008077544
 31
0.0
  0
LINE
  8
DETAIL
  6
CONTINUOUS
 62
     5
 10
218.27705977382831
 20
-238.30936995153479
 30
0.0
 11
218.8436590684644
 21
-237.74277065612199
 31
0.0
  0
LINE
  8
DETAIL
  6
CONTINUOUS
 62
     5
 10
216.86056153646109
 20
-239.7258681881253
 30
0.0
 11
217.42716083187429
 21
-239.1592688934893
 31
0.0
  0
LINE
  8
DETAIL
  6
CONTINUOUS
 62
     5
 10
217.12667617920829
 20
-238.8587842408235
 30
0.0
 11
217.9765751211628
 21
-238.00888529886899
 31
0.0
  0
LINE
  8
DETAIL
  6
CONTINUOUS
 62
     5
 10
230.9158865884458
 20
-222.33493237925629
 30
0.0
 11
246.25504994038849
 21
-206.99576902653689
 31
0.0
  0
LINE
  8
DETAIL
  6
CONTINUOUS
 62
     5
 10
228.75015683951301
 20
-224.50066212818891
 30
0.0
 11
230.06598764571461
 21
-223.18483132121079
 31
0.0
  0
LINE
  8
DETAIL
  6
CONTINUOUS
 62
     5
 10
218.0257526319767
 20
-235.22506633572539
 30
0.0
 11
218.6287398113229
 21
-234.62207915560251
 31
0.0
  0
LINE
  8
DETAIL
  6
CONTINUOUS
 62
     5
 10
206.99576902653669
 20
-246.255049940389
 30
0.0
 11
215.19275615801891
 21
-238.05806280968321
 31
0.0
  0
LINE
  8
DETAIL
  6
CONTINUOUS
 62
     5
 10
216.41474145941791
 20
-235.3138530470753
 30
0.0
 11
217.26464040137239
 21
-234.46395410512079
 31
0.0
  0
LINE
  8
DETAIL
  6
CONTINUOUS
 62
     5
 10
214.9982432228272
 20
-236.73035128444229
 30
0.0
 11
215.84814216478139
 21
-235.8804523424881
 31
0.0
  0
LINE
  8
DETAIL
  6
CONTINUOUS
 62
     5
 10
213.75555345891669
 20
-236.62086011058091
 30
0.0
 11
216.58854993287451
 21
-233.78786363662331
 31
0.0
  0
LINE
  8
DETAIL
  6
CONTINUOUS
 62
     5
 10
309.99999999999977
 20
-269.93537964458801
 30
0.0
 11
309.99999999999977
 21
269.93537964458801
 31
0.0
  0
LINE
  8
DETAIL
  6
CONTINUOUS
 62
     5
 10
306.99515347334392
 20
227.8909065760229
 30
0.0
 11
306.99515347334392
 21
269.93537964458801
 31
0.0
  0
LINE
  8
DETAIL
  6
CONTINUOUS
 62
     5
 10
306.99515347334392
 20
-227.89090657524639
 30
0.0
 11
306.99515347334392
 21
227.8909065760229
 31
0.0
  0
LINE
  8
DETAIL
  6
CONTINUOUS
 62
     5
 10
306.99515347334392
 20
-269.93537964458801
 30
0.0
 11
306.99515347334392
 21
-227.89090657524639
 31
0.0
  0
LINE
  8
DETAIL
  6
CONTINUOUS
 62
     5
 10
211.0011108094825
 20
-233.86641746114651
 30
0.0
 11
213.83410728343981
 21
-231.03342098718869
 31
0.0
  0
LINE
  8
DETAIL
  6
CONTINUOUS
 62
     5
 10
303.82456339745232
 20
254.24712510435691
 30
0.0
 11
303.82456339745232
 21
274.17876785245022
 31
0.0
  0
LINE
  8
DETAIL
  6
CONTINUOUS
 62
     5
 10
303.82456339745232
 20
-274.17876785167391
 30
0.0
 11
303.82456339745232
 21
-254.24712510435691
 31
0.0
  0
LINE
  8
DETAIL
  6
CONTINUOUS
 62
     5
 10
296.97899838449052
 20
-171.07997595206101
 30
0.0
 11
296.97899838449052
 21
171.079975952837
 31
0.0
  0
LINE
  8
DETAIL
  6
CONTINUOUS
 62
     5
 10
234.87903281559349
 20
-228.07523710037461
 30
0.0
 11
234.43815489892381
 21
-227.55699857441979
 31
0.0
  0
LINE
  8
DETAIL
  6
CONTINUOUS
 62
     5
 10
235.2344597623821
 20
-228.65517726758591
 30
0.0
 11
234.87903281559349
 21
-228.07523710037461
 31
0.0
  0
LINE
  8
DETAIL
  6
CONTINUOUS
 62
     5
 10
235.50586015068009
 20
-229.3010342747618
 30
0.0
 11
235.2344597623821
 21
-228.65517726758591
 31
0.0
  0
LINE
  8
DETAIL
  6
CONTINUOUS
 62
     5
 10
235.688960745538
 20
-230.00016252577939
 30
0.0
 11
235.50586015068009
 21
-229.3010342747618
 31
0.0
  0
LINE
  8
DETAIL
  6
CONTINUOUS
 62
     5
 10
235.77977008353011
 20
-230.74469375003471
 30
0.0
 11
235.688960745538
 21
-230.00016252577939
 31
0.0
  0
LINE
  8
DETAIL
  6
CONTINUOUS
 62
     5
 10
235.77886727156809
 20
-231.5245111704551
 30
0.0
 11
235.77977008353011
 21
-230.74469375003471
 31
0.0
  0
LINE
  8
DETAIL
  6
CONTINUOUS
 62
     5
 10
235.7783578320616
 20
-231.52886312151401
 30
0.0
 11
235.77886727156809
 21
-231.5245111704551
 31
0.0
  0
LINE
  8
DETAIL
  6
CONTINUOUS
 62
     5
 10
266.33769383328922
 20
227.27524015791889
 30
0.0
 11
266.33769383328922
 21
233.05806999506561
 31
0.0
  0
LINE
  8
DETAIL
  6
CONTINUOUS
 62
     5
 10
256.32153874443628
 20
233.05806999506561
 30
0.0
 11
256.32153874443628
 21
227.27524015791889
 31
0.0
  0
LINE
  8
DETAIL
  6
CONTINUOUS
 62
     5
 10
255.56295591133431
 20
213.16867623313419
 30
0.0
 11
262.7461145262298
 21
213.16867623313419
 31
0.0
  0
LINE
  8
DETAIL
  6
CONTINUOUS
 62
     5
 10
-262.74611452623071
 20
213.16867623313419
 30
0.0
 11
-255.56295591133539
 21
213.16867623313419
 31
0.0
  0
LINE
  8
DETAIL
  6
CONTINUOUS
 62
     5
 10
-260.4200323101781
 20
201.12844121939611
 30
0.0
 11
-266.93053311793238
 21
201.12844121939611
 31
0.0
  0
LINE
  8
DETAIL
  6
CONTINUOUS
 62
     5
 10
266.93053311793187
 20
201.12844121939611
 30
0.0
 11
260.42003231017702
 21
201.12844121939611
 31
0.0
  0
LINE
  8
DETAIL
  6
CONTINUOUS
 62
     5
 10
211.0036433414981
 20
-230.96083155241649
 30
0.0
 11
211.4660743134084
 21
-231.49838449111479
 31
0.0
  0
LINE
  8
DETAIL
  6
CONTINUOUS
 62
     5
 10
210.62392929095429
 20
-230.36217756053159
 30
0.0
 11
211.0036433414981
 21
-230.96083155241649
 31
0.0
  0
LINE
  8
DETAIL
  6
CONTINUOUS
 62
     5
 10
210.32553558209631
 20
-229.69865130728479
 30
0.0
 11
210.62392929095429
 21
-230.36217756053159
 31
0.0
  0
LINE
  8
DETAIL
  6
CONTINUOUS
 62
     5
 10
210.11265195474039
 20
-228.9815664172022
 30
0.0
 11
210.32553558209631
 21
-229.69865130728479
 31
0.0
  0
LINE
  8
DETAIL
  6
CONTINUOUS
 62
     5
 10
209.98903638564269
 20
-228.21796252437659
 30
0.0
 11
210.11265195474039
 21
-228.9815664172022
 31
0.0
  0
LINE
  8
DETAIL
  6
CONTINUOUS
 62
     5
 10
209.9545875773122
 20
-227.41689039270639
 30
0.0
 11
209.98903638564269
 21
-228.21796252437659
 31
0.0
  0
LINE
  8
DETAIL
  6
CONTINUOUS
 62
     5
 10
210.01115274168089
 20
-226.5865820151032
 30
0.0
 11
209.9545875773122
 21
-227.41689039270639
 31
0.0
  0
LINE
  8
DETAIL
  6
CONTINUOUS
 62
     5
 10
210.11236481486711
 20
-225.9952406930411
 30
0.0
 11
210.01115274168089
 21
-226.5865820151032
 31
0.0
  0
LINE
  8
DETAIL
  6
CONTINUOUS
 62
     5
 10
209.25081620094869
 20
-229.20800441186699
 30
0.0
 11
209.7132471728589
 21
-229.74555735056541
 31
0.0
  0
LINE
  8
DETAIL
  6
CONTINUOUS
 62
     5
 10
208.87110215040479
 20
-228.60935041998229
 30
0.0
 11
209.25081620094869
 21
-229.20800441186699
 31
0.0
  0
LINE
  8
DETAIL
  6
CONTINUOUS
 62
     5
 10
208.57270844154689
 20
-227.94582416673549
 30
0.0
 11
208.87110215040479
 21
-228.60935041998229
 31
0.0
  0
LINE
  8
DETAIL
  6
CONTINUOUS
 62
     5
 10
208.35982481419089
 20
-227.2287392766527
 30
0.0
 11
208.57270844154689
 21
-227.94582416673549
 31
0.0
  0
LINE
  8
DETAIL
  6
CONTINUOUS
 62
     5
 10
208.2362092450937
 20
-226.4651353838274
 30
0.0
 11
208.35982481419089
 21
-227.2287392766527
 31
0.0
  0
LINE
  8
DETAIL
  6
CONTINUOUS
 62
     5
 10
208.20176043676321
 20
-225.66406325215709
 30
0.0
 11
208.2362092450937
 21
-226.4651353838274
 31
0.0
  0
LINE
  8
DETAIL
  6
CONTINUOUS
 62
     5
 10
208.2583256011313
 20
-224.83375487455399
 30
0.0
 11
208.20176043676321
 21
-225.66406325215709
 31
0.0
  0
LINE
  8
DETAIL
  6
CONTINUOUS
 62
     5
 10
208.36163151194091
 20
-224.2301801079511
 30
0.0
 11
208.2583256011313
 21
-224.83375487455399
 31
0.0
  0
LINE
  8
DETAIL
  6
CONTINUOUS
 62
     5
 10
235.17473262053019
 20
-264.22103120704833
 30
0.0
 11
235.17473262053019
 21
-258.43820137067792
 31
0.0
  0
LINE
  8
DETAIL
  6
CONTINUOUS
 62
     5
 10
225.15857753167731
 20
-258.43820137067792
 30
0.0
 11
225.15857753167731
 21
-264.22103120704833
 31
0.0
  0
LINE
  8
DETAIL
  6
CONTINUOUS
 62
     5
 10
246.8712805933549
 20
-261.46130116444368
 30
0.0
 11
246.89303456257241
 21
-261.77666425101779
 31
0.0
  0
LINE
  8
DETAIL
  6
CONTINUOUS
 62
     5
 10
213.16867623235731
 20
-255.56295591055849
 30
0.0
 11
213.16867623235731
 21
-262.74611452545378
 31
0.0
  0
LINE
  8
DETAIL
  6
CONTINUOUS
 62
     5
 10
213.16867623235731
 20
262.74611452622997
 30
0.0
 11
213.16867623235731
 21
255.56295591133471
 31
0.0
  0
LINE
  8
DETAIL
  6
CONTINUOUS
 62
     5
 10
201.12844121861889
 20
260.42003231017748
 30
0.0
 11
201.12844121861889
 21
266.9305331179321
 31
0.0
  0
LINE
  8
DETAIL
  6
CONTINUOUS
 62
     5
 10
201.12844121861889
 20
-266.9305331179321
 30
0.0
 11
201.12844121861889
 21
-260.4200323101777
 31
0.0
  0
LINE
  8
DETAIL
  6
CONTINUOUS
 62
     5
 10
-225.15857753167811
 20
264.22103120782458
 30
0.0
 11
-230.16665507610449
 21
267.11244612600967
 31
0.0
  0
LINE
  8
DETAIL
  6
CONTINUOUS
 62
     5
 10
121.8027005523534
 20
-112.25888016886459
 30
0.0
 11
119.1555377162711
 21
-114.9060430049467
 31
0.0
  0
LINE
  8
DETAIL
  6
CONTINUOUS
 62
     5
 10
120.27996494811551
 20
-111.86934315389929
 30
0.0
 11
105.12349459951631
 21
-127.025813501722
 31
0.0
  0
LINE
  8
DETAIL
  6
CONTINUOUS
 62
     5
 10
117.8010930334997
 20
-109.3904712392832
 30
0.0
 11
102.6446226849005
 21
-124.5469415871062
 31
0.0
  0
LINE
  8
DETAIL
  6
CONTINUOUS
 62
     5
 10
117.4115560177577
 20
-107.8677356342689
 30
0.0
 11
114.7643931816754
 21
-110.514898470351
 31
0.0
  0
LINE
  8
DETAIL
  6
CONTINUOUS
 62
     5
 10
-235.1747326205311
 20
258.43820137067792
 30
0.0
 11
-230.16665507610449
 21
255.5467864524926
 31
0.0
  0
LINE
  8
DETAIL
  6
CONTINUOUS
 62
     5
 10
61.045682930081739
 20
58.294021516900102
 30
0.0
 11
54.535182122327342
 21
62.052860910696147
 31
0.0
  0
LINE
  8
DETAIL
  6
CONTINUOUS
 62
     5
 10
95.65428109854588
 20
88.915490019435993
 30
0.0
 11
95.65428109854588
 21
-88.915490018659966
 31
0.0
  0
LINE
  8
DETAIL
  6
CONTINUOUS
 62
     5
 10
-2.124747355274621
 20
79.249141540218488
 30
0.0
 11
2.1247473552737119
 21
74.999646828893901
 31
0.0
  0
LINE
  8
DETAIL
  6
CONTINUOUS
 62
     5
 10
59.543259666754011
 20
57.426597041289369
 30
0.0
 11
54.535182122327342
 21
60.318011959474461
 31
0.0
  0
LINE
  8
DETAIL
  6
CONTINUOUS
 62
     5
 10
49.527104577901127
 20
51.643767204142478
 30
0.0
 11
54.535182122327342
 21
48.752352285957393
 31
0.0
  0
LINE
  8
DETAIL
  6
CONTINUOUS
 62
     5
 10
48.024681314572938
 20
50.776342728531738
 30
0.0
 11
54.535182122327342
 21
47.01750333473592
 31
0.0
  0
LINE
  8
DETAIL
  6
CONTINUOUS
 62
     5
 10
4.0064620355408351
 20
79.385240912699828
 30
0.0
 11
-0.0000000000002274
 21
81.481421647818934
 31
0.0
  0
LINE
  8
DETAIL
  6
CONTINUOUS
 62
     5
 10
-4.0064620355417446
 20
74.863547456412562
 30
0.0
 11
-0.0000000000002274
 21
72.767366720516748
 31
0.0
  0
LINE
  8
DETAIL
  6
CONTINUOUS
 62
     5
 10
54.535182122327342
 20
-62.052860909919673
 30
0.0
 11
61.045682930081739
 21
-58.294021516123848
 31
0.0
  0
LINE
  8
DETAIL
  6
CONTINUOUS
 62
     5
 10
54.535182122327342
 20
-60.318011958698207
 30
0.0
 11
59.543259666754011
 21
-57.426597040513123
 31
0.0
  0
LINE
  8
DETAIL
  6
CONTINUOUS
 62
     5
 10
89.644588045234059
 20
-88.915490018659966
 30
0.0
 11
89.644588045234059
 21
88.915490019435993
 31
0.0
  0
LINE
  8
DETAIL
  6
CONTINUOUS
 62
     5
 10
87.340872374797755
 20
-75.016697207799552
 30
0.0
 11
87.340872374797755
 21
75.016697207799552
 31
0.0
  0
LINE
  8
DETAIL
  6
CONTINUOUS
 62
     5
 10
223.8497179259368
 20
-242.67212603163401
 30
0.0
 11
223.30084808300421
 21
-242.19995967066171
 31
0.0
  0
LINE
  8
DETAIL
  6
CONTINUOUS
 62
     5
 10
224.46097515958471
 20
-243.0598340625165
 30
0.0
 11
223.8497179259368
 21
-242.67212603163401
 31
0.0
  0
LINE
  8
DETAIL
  6
CONTINUOUS
 62
     5
 10
225.1384703860688
 20
-243.364509743898
 30
0.0
 11
224.46097515958471
 21
-243.0598340625165
 31
0.0
  0
LINE
  8
DETAIL
  6
CONTINUOUS
 62
     5
 10
225.870651800578
 20
-243.58187513245929
 30
0.0
 11
225.1384703860688
 21
-243.364509743898
 31
0.0
  0
LINE
  8
DETAIL
  6
CONTINUOUS
 62
     5
 10
226.65033156408779
 20
-243.70809313391209
 30
0.0
 11
225.870651800578
 21
-243.58187513245929
 31
0.0
  0
LINE
  8
DETAIL
  6
CONTINUOUS
 62
     5
 10
227.46826837281901
 20
-243.74326718019819
 30
0.0
 11
226.65033156408779
 21
-243.70809313391209
 31
0.0
  0
LINE
  8
DETAIL
  6
CONTINUOUS
 62
     5
 10
228.31605692642481
 20
-243.68551117108109
 30
0.0
 11
227.46826837281901
 21
-243.74326718019819
 31
0.0
  0
LINE
  8
DETAIL
  6
CONTINUOUS
 62
     5
 10
229.184001365493
 20
-243.5369565994915
 30
0.0
 11
228.31605692642481
 21
-243.68551117108109
 31
0.0
  0
LINE
  8
DETAIL
  6
CONTINUOUS
 62
     5
 10
230.0628462813236
 20
-243.29775079297701
 30
0.0
 11
229.184001365493
 21
-243.5369565994915
 31
0.0
  0
LINE
  8
DETAIL
  6
CONTINUOUS
 62
     5
 10
230.94286501366261
 20
-242.9719601528848
 30
0.0
 11
230.0628462813236
 21
-243.29775079297701
 31
0.0
  0
LINE
  8
DETAIL
  6
CONTINUOUS
 62
     5
 10
231.81435655215299
 20
-242.56175899159689
 30
0.0
 11
230.94286501366261
 21
-242.9719601528848
 31
0.0
  0
LINE
  8
DETAIL
  6
CONTINUOUS
 62
     5
 10
232.66798853684961
 20
-242.0729708957933
 30
0.0
 11
231.81435655215299
 21
-242.56175899159689
 31
0.0
  0
LINE
  8
DETAIL
  6
CONTINUOUS
 62
     5
 10
233.4940383357
 20
-241.50970213810729
 30
0.0
 11
232.66798853684961
 21
-242.0729708957933
 31
0.0
  0
LINE
  8
DETAIL
  6
CONTINUOUS
 62
     5
 10
234.28397575855001
 20
-240.8792789722861
 30
0.0
 11
233.4940383357
 21
-241.50970213810729
 31
0.0
  0
LINE
  8
DETAIL
  6
CONTINUOUS
 62
     5
 10
235.02848147654981
 20
-240.18756016656039
 30
0.0
 11
234.28397575855001
 21
-240.8792789722861
 31
0.0
  0
LINE
  8
DETAIL
  6
CONTINUOUS
 62
     5
 10
235.72020028305201
 20
-239.44305444856039
 30
0.0
 11
235.02848147654981
 21
-240.18756016656039
 31
0.0
  0
LINE
  8
DETAIL
  6
CONTINUOUS
 62
     5
 10
236.35062344887339
 20
-238.65311702493409
 30
0.0
 11
235.72020028305201
 21
-239.44305444856039
 31
0.0
  0
LINE
  8
DETAIL
  6
CONTINUOUS
 62
     5
 10
236.91389220578299
 20
-237.82706722686001
 30
0.0
 11
236.35062344887339
 21
-238.65311702493409
 31
0.0
  0
LINE
  8
DETAIL
  6
CONTINUOUS
 62
     5
 10
237.40268030158609
 20
-236.97343524138711
 30
0.0
 11
236.91389220578299
 21
-237.82706722686001
 31
0.0
  0
LINE
  8
DETAIL
  6
CONTINUOUS
 62
     5
 10
237.8128814628742
 20
-236.10194370367319
 30
0.0
 11
237.40268030158609
 21
-236.97343524138711
 31
0.0
  0
LINE
  8
DETAIL
  6
CONTINUOUS
 62
     5
 10
238.13867210374269
 20
-235.22192497133409
 30
0.0
 11
237.8128814628742
 21
-236.10194370367319
 31
0.0
  0
LINE
  8
DETAIL
  6
CONTINUOUS
 62
     5
 10
238.37787791025741
 20
-234.3430800547269
 30
0.0
 11
238.13867210374269
 21
-235.22192497133409
 31
0.0
  0
LINE
  8
DETAIL
  6
CONTINUOUS
 62
     5
 10
238.52643248107071
 20
-233.47513561643589
 30
0.0
 11
238.37787791025741
 21
-234.3430800547269
 31
0.0
  0
LINE
  8
DETAIL
  6
CONTINUOUS
 62
     5
 10
238.5841884901877
 20
-232.6273470620531
 30
0.0
 11
238.52643248107071
 21
-233.47513561643589
 31
0.0
  0
LINE
  8
DETAIL
  6
CONTINUOUS
 62
     5
 10
238.54901444467771
 20
-231.80941025409831
 30
0.0
 11
238.5841884901877
 21
-232.6273470620531
 31
0.0
  0
LINE
  8
DETAIL
  6
CONTINUOUS
 62
     5
 10
238.4227964424488
 20
-231.02973048981221
 30
0.0
 11
238.54901444467771
 21
-231.80941025409831
 31
0.0
  0
LINE
  8
DETAIL
  6
CONTINUOUS
 62
     5
 10
238.2054310538872
 20
-230.29754907607929
 30
0.0
 11
238.4227964424488
 21
-231.02973048981221
 31
0.0
  0
LINE
  8
DETAIL
  6
CONTINUOUS
 62
     5
 10
237.90075537328241
 20
-229.62005384881849
 30
0.0
 11
238.2054310538872
 21
-230.29754907607929
 31
0.0
  0
LINE
  8
DETAIL
  6
CONTINUOUS
 62
     5
 10
237.51304734239989
 20
-229.00879661517089
 30
0.0
 11
237.90075537328241
 21
-229.62005384881849
 31
0.0
  0
LINE
  8
DETAIL
  6
CONTINUOUS
 62
     5
 10
237.04088098142731
 20
-228.4599267722383
 30
0.0
 11
237.51304734239989
 21
-229.00879661517089
 31
0.0
  0
LINE
  8
DETAIL
  6
CONTINUOUS
 62
     5
 10
222.09689078538739
 20
-240.91929889108471
 30
0.0
 11
221.5480209424552
 21
-240.44713253011241
 31
0.0
  0
LINE
  8
DETAIL
  6
CONTINUOUS
 62
     5
 10
222.70814801903521
 20
-241.30700692196729
 30
0.0
 11
222.09689078538739
 21
-240.91929889108471
 31
0.0
  0
LINE
  8
DETAIL
  6
CONTINUOUS
 62
     5
 10
223.3856432455193
 20
-241.61168260334901
 30
0.0
 11
222.70814801903521
 21
-241.30700692196729
 31
0.0
  0
LINE
  8
DETAIL
  6
CONTINUOUS
 62
     5
 10
224.1178246600285
 20
-241.8290479919101
 30
0.0
 11
223.3856432455193
 21
-241.61168260334901
 31
0.0
  0
LINE
  8
DETAIL
  6
CONTINUOUS
 62
     5
 10
224.89750442353869
 20
-241.9552659933627
 30
0.0
 11
224.1178246600285
 21
-241.8290479919101
 31
0.0
  0
LINE
  8
DETAIL
  6
CONTINUOUS
 62
     5
 10
225.71544123226951
 20
-241.9904400396488
 30
0.0
 11
224.89750442353869
 21
-241.9552659933627
 31
0.0
  0
LINE
  8
DETAIL
  6
CONTINUOUS
 62
     5
 10
226.56322978587571
 20
-241.9326840305321
 30
0.0
 11
225.71544123226951
 21
-241.9904400396488
 31
0.0
  0
LINE
  8
DETAIL
  6
CONTINUOUS
 62
     5
 10
227.43117422494359
 20
-241.78412945894229
 30
0.0
 11
226.56322978587571
 21
-241.9326840305321
 31
0.0
  0
LINE
  8
DETAIL
  6
CONTINUOUS
 62
     5
 10
228.3100191407741
 20
-241.5449236524278
 30
0.0
 11
227.43117422494359
 21
-241.78412945894229
 31
0.0
  0
LINE
  8
DETAIL
  6
CONTINUOUS
 62
     5
 10
229.1900378731132
 20
-241.2191330123355
 30
0.0
 11
228.3100191407741
 21
-241.5449236524278
 31
0.0
  0
LINE
  8
DETAIL
  6
CONTINUOUS
 62
     5
 10
230.06152941160349
 20
-240.80893185104759
 30
0.0
 11
229.1900378731132
 21
-241.2191330123355
 31
0.0
  0
LINE
  8
DETAIL
  6
CONTINUOUS
 62
     5
 10
230.91516139630019
 20
-240.32014375524409
 30
0.0
 11
230.06152941160349
 21
-240.80893185104759
 31
0.0
  0
LINE
  8
DETAIL
  6
CONTINUOUS
 62
     5
 10
231.7412111951505
 20
-239.75687499755799
 30
0.0
 11
230.91516139630019
 21
-240.32014375524409
 31
0.0
  0
LINE
  8
DETAIL
  6
CONTINUOUS
 62
     5
 10
232.5311486180004
 20
-239.1264518317366
 30
0.0
 11
231.7412111951505
 21
-239.75687499755799
 31
0.0
  0
LINE
  8
DETAIL
  6
CONTINUOUS
 62
     5
 10
233.27565433600029
 20
-238.43473302601089
 30
0.0
 11
232.5311486180004
 21
-239.1264518317366
 31
0.0
  0
LINE
  8
DETAIL
  6
CONTINUOUS
 62
     5
 10
233.96737314250251
 20
-237.69022730801129
 30
0.0
 11
233.27565433600029
 21
-238.43473302601089
 31
0.0
  0
LINE
  8
DETAIL
  6
CONTINUOUS
 62
     5
 10
234.59779630832401
 20
-236.90028988438479
 30
0.0
 11
233.96737314250251
 21
-237.69022730801129
 31
0.0
  0
LINE
  8
DETAIL
  6
CONTINUOUS
 62
     5
 10
235.16106506523349
 20
-236.07424008631071
 30
0.0
 11
234.59779630832401
 21
-236.90028988438479
 31
0.0
  0
LINE
  8
DETAIL
  6
CONTINUOUS
 62
     5
 10
235.6498531610371
 20
-235.22060810083781
 30
0.0
 11
235.16106506523349
 21
-236.07424008631071
 31
0.0
  0
LINE
  8
DETAIL
  6
CONTINUOUS
 62
     5
 10
236.0600543223247
 20
-234.34911656312369
 30
0.0
 11
235.6498531610371
 21
-235.22060810083781
 31
0.0
  0
LINE
  8
DETAIL
  6
CONTINUOUS
 62
     5
 10
236.3858449631937
 20
-233.4690978307849
 30
0.0
 11
236.0600543223247
 21
-234.34911656312369
 31
0.0
  0
LINE
  8
DETAIL
  6
CONTINUOUS
 62
     5
 10
236.625050769708
 20
-232.59025291417791
 30
0.0
 11
236.3858449631937
 21
-233.4690978307849
 31
0.0
  0
LINE
  8
DETAIL
  6
CONTINUOUS
 62
     5
 10
236.7736053405213
 20
-231.72230847588639
 30
0.0
 11
236.625050769708
 21
-232.59025291417791
 31
0.0
  0
LINE
  8
DETAIL
  6
CONTINUOUS
 62
     5
 10
236.8313613496382
 20
-230.87451992150389
 30
0.0
 11
236.7736053405213
 21
-231.72230847588639
 31
0.0
  0
LINE
  8
DETAIL
  6
CONTINUOUS
 62
     5
 10
236.79618730412881
 20
-230.0565831135491
 30
0.0
 11
236.8313613496382
 21
-230.87451992150389
 31
0.0
  0
LINE
  8
DETAIL
  6
CONTINUOUS
 62
     5
 10
236.6699693018993
 20
-229.27690334926319
 30
0.0
 11
236.79618730412881
 21
-230.0565831135491
 31
0.0
  0
LINE
  8
DETAIL
  6
CONTINUOUS
 62
     5
 10
236.45260391333821
 20
-228.54472193553011
 30
0.0
 11
236.6699693018993
 21
-229.27690334926319
 31
0.0
  0
LINE
  8
DETAIL
  6
CONTINUOUS
 62
     5
 10
236.14792823273299
 20
-227.8672267082693
 30
0.0
 11
236.45260391333821
 21
-228.54472193553011
 31
0.0
  0
LINE
  8
DETAIL
  6
CONTINUOUS
 62
     5
 10
235.7602202018503
 20
-227.25596947462171
 30
0.0
 11
236.14792823273299
 21
-227.8672267082693
 31
0.0
  0
LINE
  8
DETAIL
  6
CONTINUOUS
 62
     5
 10
235.28805384087829
 20
-226.70709963168909
 30
0.0
 11
235.7602202018503
 21
-227.25596947462171
 31
0.0
  0
LINE
  8
DETAIL
  6
CONTINUOUS
 62
     5
 10
-213.16867623313479
 20
262.74611452622997
 30
0.0
 11
-254.24712510435731
 21
303.82456339745272
 31
0.0
  0
LINE
  8
DETAIL
  6
CONTINUOUS
 62
     5
 10
262.7461145262298
 20
-213.16867623235791
 30
0.0
 11
303.82456339745232
 21
-254.24712510435691
 31
0.0
  0
LINE
  8
DETAIL
  6
CONTINUOUS
 62
     5
 10
-48.024681314573847
 20
58.294021516900102
 30
0.0
 11
-54.535182122328251
 21
62.052860910696147
 31
0.0
  0
LINE
  8
DETAIL
  6
CONTINUOUS
 62
     5
 10
-49.527104577901582
 20
57.426597041289369
 30
0.0
 11
-54.535182122328251
 21
60.318011959474461
 31
0.0
  0
LINE
  8
DETAIL
  6
CONTINUOUS
 62
     5
 10
-0.0000000000002274
 20
-81.481421647819161
 30
0.0
 11
4.0064620355408351
 21
-79.385240911923574
 31
0.0
  0
LINE
  8
DETAIL
  6
CONTINUOUS
 62
     5
 10
-0.0000000000002274
 20
-72.767366720517202
 30
0.0
 11
-4.0064620355417446
 21
-74.86354745563608
 31
0.0
  0
LINE
  8
DETAIL
  6
CONTINUOUS
 62
     5
 10
-261.32961628886341
 20
-235.94948491247439
 30
0.0
 11
-256.32153874443691
 21
-233.0580699942893
 31
0.0
  0
LINE
  8
DETAIL
  6
CONTINUOUS
 62
     5
 10
54.535182122327342
 20
-48.752352285181132
 30
0.0
 11
49.527104577901127
 21
-51.643767204142698
 31
0.0
  0
LINE
  8
DETAIL
  6
CONTINUOUS
 62
     5
 10
54.535182122327342
 20
-47.01750333473592
 30
0.0
 11
48.024681314572938
 21
-50.776342728531972
 31
0.0
  0
LINE
  8
DETAIL
  6
CONTINUOUS
 62
     5
 10
-261.32961628886341
 20
-224.3838252389578
 30
0.0
 11
-266.3376938332899
 21
-227.27524015714269
 31
0.0
  0
LINE
  8
DETAIL
  6
CONTINUOUS
 62
     5
 10
-2.124747355274621
 20
-79.249141539442235
 30
0.0
 11
2.1247473552737119
 21
-74.99964682811742
 31
0.0
  0
LINE
  8
DETAIL
  6
CONTINUOUS
 62
     5
 10
61.045682930081739
 20
50.776342728531738
 30
0.0
 11
61.045682930081739
 21
58.294021516900102
 31
0.0
  0
LINE
  8
DETAIL
  6
CONTINUOUS
 62
     5
 10
61.045682930081739
 20
-58.294021516123848
 30
0.0
 11
61.045682930081739
 21
-50.776342728531972
 31
0.0
  0
LINE
  8
DETAIL
  6
CONTINUOUS
 62
     5
 10
59.543259666754011
 20
51.643767204142478
 30
0.0
 11
59.543259666754011
 21
57.426597041289369
 31
0.0
  0
LINE
  8
DETAIL
  6
CONTINUOUS
 62
     5
 10
59.543259666754011
 20
-57.426597040513123
 30
0.0
 11
59.543259666754011
 21
-51.643767204142698
 31
0.0
  0
LINE
  8
DETAIL
  6
CONTINUOUS
 62
     5
 10
49.527104577901127
 20
-51.643767204142698
 30
0.0
 11
49.527104577901127
 21
-57.426597040513123
 31
0.0
  0
LINE
  8
DETAIL
  6
CONTINUOUS
 62
     5
 10
49.527104577901127
 20
57.426597041289369
 30
0.0
 11
49.527104577901127
 21
51.643767204142478
 31
0.0
  0
LINE
  8
DETAIL
  6
CONTINUOUS
 62
     5
 10
48.024681314572938
 20
-50.776342728531972
 30
0.0
 11
48.024681314572938
 21
-58.294021516123848
 31
0.0
  0
LINE
  8
DETAIL
  6
CONTINUOUS
 62
     5
 10
48.024681314572938
 20
58.294021516900102
 30
0.0
 11
48.024681314572938
 21
50.776342728531738
 31
0.0
  0
LINE
  8
DETAIL
  6
CONTINUOUS
 62
     5
 10
207.22464709168281
 20
-225.0632156097231
 30
0.0
 11
207.3885165670556
 21
-224.10579236240011
 31
0.0
  0
LINE
  8
DETAIL
  6
CONTINUOUS
 62
     5
 10
207.16093685494181
 20
-225.9984050456726
 30
0.0
 11
207.22464709168281
 21
-225.0632156097231
 31
0.0
  0
LINE
  8
DETAIL
  6
CONTINUOUS
 62
     5
 10
207.19973709100651
 20
-226.90066523582689
 30
0.0
 11
207.16093685494181
 21
-225.9984050456726
 31
0.0
  0
LINE
  8
DETAIL
  6
CONTINUOUS
 62
     5
 10
207.33896725811809
 20
-227.7607243566392
 30
0.0
 11
207.19973709100651
 21
-226.90066523582689
 31
0.0
  0
LINE
  8
DETAIL
  6
CONTINUOUS
 62
     5
 10
207.57874144959919
 20
-228.56838839095329
 30
0.0
 11
207.33896725811809
 21
-227.7607243566392
 31
0.0
  0
LINE
  8
DETAIL
  6
CONTINUOUS
 62
     5
 10
207.9148269943764
 20
-229.31572848673159
 30
0.0
 11
207.57874144959919
 21
-228.56838839095329
 31
0.0
  0
LINE
  8
DETAIL
  6
CONTINUOUS
 62
     5
 10
208.34250492539809
 20
-229.99000192996959
 30
0.0
 11
207.9148269943764
 21
-229.31572848673159
 31
0.0
  0
LINE
  8
DETAIL
  6
CONTINUOUS
 62
     5
 10
208.86334823090439
 20
-230.59545629251991
 30
0.0
 11
208.34250492539809
 21
-229.99000192996959
 31
0.0
  0
LINE
  8
DETAIL
  6
CONTINUOUS
 62
     5
 10
250.87430589119711
 20
-241.03000085504249
 30
0.0
 11
254.7696760431802
 21
-244.92537100624921
 31
0.0
  0
LINE
  8
DETAIL
  6
CONTINUOUS
 62
     5
 10
117.4115560177577
 20
-107.8677356342689
 30
0.0
 11
121.8027005523534
 21
-112.25888016886459
 31
0.0
  0
LINE
  8
DETAIL
  6
CONTINUOUS
 62
     5
 10
254.20307674776751
 20
-245.49197030166189
 30
0.0
 11
257.92138462007938
 21
-249.21027817319759
 31
0.0
  0
LINE
  8
DETAIL
  6
CONTINUOUS
 62
     5
 10
250.30770659656059
 20
-241.59660014967881
 30
0.0
 11
244.4646513689743
 21
-235.75354492209249
 31
0.0
  0
LINE
  8
DETAIL
  6
CONTINUOUS
 62
     5
 10
224.0198793659184
 20
-215.43892515672951
 30
0.0
 11
237.04088098142731
 21
-228.4599267722383
 31
0.0
  0
LINE
  8
DETAIL
  6
CONTINUOUS
 62
     5
 10
117.8010930334997
 20
-109.3904712392832
 30
0.0
 11
120.27996494811551
 21
-111.86934315389929
 31
0.0
  0
LINE
  8
DETAIL
  6
CONTINUOUS
 62
     5
 10
253.35317780581281
 20
-246.3418692436162
 30
0.0
 11
257.07148567812533
 21
-250.0601771151521
 31
0.0
  0
LINE
  8
DETAIL
  6
CONTINUOUS
 62
     5
 10
243.61475242701979
 20
-236.6034438648235
 30
0.0
 11
249.45780765460611
 21
-242.44649909163331
 31
0.0
  0
LINE
  8
DETAIL
  6
CONTINUOUS
 62
     5
 10
234.43815489892381
 20
-227.55699857441979
 30
0.0
 11
223.16998042396449
 21
-216.2888240994605
 31
0.0
  0
LINE
  8
DETAIL
  6
CONTINUOUS
 62
     5
 10
261.46263021272102
 20
-255.5845202397968
 30
0.0
 11
252.78657851117649
 21
-246.90846853825269
 31
0.0
  0
LINE
  8
DETAIL
  6
CONTINUOUS
 62
     5
 10
238.40925442762111
 20
-234.159759717073
 30
0.0
 11
261.32961628886261
 21
-257.08012157831467
 31
0.0
  0
LINE
  8
DETAIL
  6
CONTINUOUS
 62
     5
 10
118.19940140666969
 20
-113.94990669534511
 30
0.0
 11
234.41614978665231
 21
-230.16665507610421
 31
0.0
  0
LINE
  8
DETAIL
  6
CONTINUOUS
 62
     5
 10
97.414479441308913
 20
-93.164984729984553
 30
0.0
 11
115.7205294920534
 21
-111.4710347807293
 31
0.0
  0
LINE
  8
DETAIL
  6
CONTINUOUS
 62
     5
 10
-257.08012157831507
 20
261.32961628963949
 30
0.0
 11
-93.164984729984781
 21
97.414479441309368
 31
0.0
  0
LINE
  8
DETAIL
  6
CONTINUOUS
 62
     5
 10
-97.414479441309823
 20
93.164984730760807
 30
0.0
 11
-261.32961628886341
 21
257.08012157831439
 31
0.0
  0
LINE
  8
DETAIL
  6
CONTINUOUS
 62
     5
 10
111.4710347807288
 20
-115.7205294912776
 30
0.0
 11
93.164984729984326
 21
-97.414479440533114
 31
0.0
  0
LINE
  8
DETAIL
  6
CONTINUOUS
 62
     5
 10
233.11146539497281
 20
-237.3609601055216
 30
0.0
 11
113.94990669534469
 21
-118.1994014058937
 31
0.0
  0
LINE
  8
DETAIL
  6
CONTINUOUS
 62
     5
 10
257.08012157831422
 20
-261.32961628886318
 30
0.0
 11
235.46655806797591
 21
-239.71605277852521
 31
0.0
  0
LINE
  8
DETAIL
  6
CONTINUOUS
 62
     5
 10
61.260941237955421
 20
-46.163430382988281
 30
0.0
 11
58.25744243000031
 21
-43.900131691149909
 31
0.0
  0
LINE
  8
DETAIL
  6
CONTINUOUS
 62
     5
 10
-61.260941237956331
 20
46.163430382988281
 30
0.0
 11
-58.25744243000122
 21
43.900131691926163
 31
0.0
  0
LINE
  8
DETAIL
  6
CONTINUOUS
 62
     5
 10
-59.543259666754921
 20
51.643767204142478
 30
0.0
 11
-54.535182122328251
 21
48.752352285957393
 31
0.0
  0
LINE
  8
DETAIL
  6
CONTINUOUS
 62
     5
 10
-61.045682930082648
 20
50.776342728531738
 30
0.0
 11
-54.535182122328251
 21
47.01750333473592
 31
0.0
  0
LINE
  8
DETAIL
  6
CONTINUOUS
 62
     5
 10
71.838004012748343
 20
-12.666978347447181
 30
0.0
 11
83.843891088601822
 21
-14.783940166334791
 31
0.0
  0
LINE
  8
DETAIL
  6
CONTINUOUS
 62
     5
 10
-83.843891088603186
 20
14.783940167111041
 30
0.0
 11
-71.838004012749252
 21
12.66697834822344
 31
0.0
  0
LINE
  8
DETAIL
  6
CONTINUOUS
 62
     5
 10
71.838004012748343
 20
12.66697834822344
 30
0.0
 11
83.843891088601822
 21
14.783940167111041
 31
0.0
  0
LINE
  8
DETAIL
  6
CONTINUOUS
 62
     5
 10
-83.843891088603186
 20
-14.783940166334791
 30
0.0
 11
-71.838004012749252
 21
-12.666978347447181
 31
0.0
  0
LINE
  8
DETAIL
  6
CONTINUOUS
 62
     5
 10
-54.535182122328251
 20
-62.052860909919673
 30
0.0
 11
-48.024681314573847
 21
-58.294021516123848
 31
0.0
  0
LINE
  8
DETAIL
  6
CONTINUOUS
 62
     5
 10
-54.535182122328251
 20
-60.318011958698207
 30
0.0
 11
-49.527104577901582
 21
-57.426597040513123
 31
0.0
  0
LINE
  8
DETAIL
  6
CONTINUOUS
 62
     5
 10
262.7461145262298
 20
213.16867623313419
 30
0.0
 11
303.82456339745232
 21
254.24712510435691
 31
0.0
  0
LINE
  8
DETAIL
  6
CONTINUOUS
 62
     5
 10
-254.24712510435731
 20
-303.82456339745289
 30
0.0
 11
-213.16867623313479
 21
-262.74611452545378
 31
0.0
  0
LINE
  8
DETAIL
  6
CONTINUOUS
 62
     5
 10
1.5227356050138501
 20
-47.055616575922613
 30
0.0
 11
-1.52273562675532
 21
-50.101087807691783
 31
0.0
  0
LINE
  8
DETAIL
  6
CONTINUOUS
 62
     5
 10
213.83410728343981
 20
-231.03342098718869
 30
0.0
 11
222.39791988440919
 21
-239.59723358815791
 31
0.0
  0
LINE
  8
DETAIL
  6
CONTINUOUS
 62
     5
 10
216.41474145941791
 20
-235.3138530470753
 30
0.0
 11
223.30084808300421
 21
-242.19995967066171
 31
0.0
  0
LINE
  8
DETAIL
  6
CONTINUOUS
 62
     5
 10
215.84814216478139
 20
-235.8804523424881
 30
0.0
 11
219.72940226171181
 21
-239.76171243941849
 31
0.0
  0
LINE
  8
DETAIL
  6
CONTINUOUS
 62
     5
 10
209.7132471728589
 20
-229.74555735056541
 30
0.0
 11
212.41760904684929
 21
-232.44991922455571
 31
0.0
  0
LINE
  8
DETAIL
  6
CONTINUOUS
 62
     5
 10
214.9982432228272
 20
-236.73035128444229
 30
0.0
 11
218.87950331975779
 21
-240.6116113813728
 31
0.0
  0
LINE
  8
DETAIL
  6
CONTINUOUS
 62
     5
 10
211.56771010489521
 20
-233.29981816651019
 30
0.0
 11
208.86334823090439
 21
-230.59545629251991
 31
0.0
  0
LINE
  8
DETAIL
  6
CONTINUOUS
 62
     5
 10
102.64456189770929
 20
-124.54700237429709
 30
0.0
 11
105.1234338123252
 21
-127.0258742889132
 31
0.0
  0
LINE
  8
DETAIL
  6
CONTINUOUS
 62
     5
 10
216.86056153646109
 20
-239.7258681881253
 30
0.0
 11
211.0011108094825
 21
-233.86641746114651
 31
0.0
  0
LINE
  8
DETAIL
  6
CONTINUOUS
 62
     5
 10
1.5227356050138501
 20
-50.101087785174968
 30
0.0
 11
-1.52273562675532
 21
-47.055616554182279
 31
0.0
  0
LINE
  8
DETAIL
  6
CONTINUOUS
 62
     5
 10
-262.74611452623071
 20
213.16867623313419
 30
0.0
 11
-303.82456339745312
 21
254.24712510435691
 31
0.0
  0
LINE
  8
DETAIL
  6
CONTINUOUS
 62
     5
 10
213.16867623235731
 20
-262.74611452545378
 30
0.0
 11
239.74566794958091
 21
-289.32310624267711
 31
0.0
  0
LINE
  8
DETAIL
  6
CONTINUOUS
 62
     5
 10
219.08848632555581
 20
-214.7773373633645
 30
0.0
 11
219.03076440863541
 21
-214.7812696973115
 31
0.0
  0
LINE
  8
DETAIL
  6
CONTINUOUS
 62
     5
 10
219.88955845722629
 20
-214.81178617169479
 30
0.0
 11
219.08848632555581
 21
-214.7773373633645
 31
0.0
  0
LINE
  8
DETAIL
  6
CONTINUOUS
 62
     5
 10
220.6531623500515
 20
-214.93540174079229
 30
0.0
 11
219.88955845722629
 21
-214.81178617169479
 31
0.0
  0
LINE
  8
DETAIL
  6
CONTINUOUS
 62
     5
 10
221.3702472401344
 20
-215.14828536814821
 30
0.0
 11
220.6531623500515
 21
-214.93540174079229
 31
0.0
  0
LINE
  8
DETAIL
  6
CONTINUOUS
 62
     5
 10
222.0337734933812
 20
-215.44667907700591
 30
0.0
 11
221.3702472401344
 21
-215.14828536814821
 31
0.0
  0
LINE
  8
DETAIL
  6
CONTINUOUS
 62
     5
 10
222.63242748526611
 20
-215.82639312677361
 30
0.0
 11
222.0337734933812
 21
-215.44667907700591
 31
0.0
  0
LINE
  8
DETAIL
  6
CONTINUOUS
 62
     5
 10
223.16998042396449
 20
-216.2888240994605
 30
0.0
 11
222.63242748526611
 21
-215.82639312677361
 31
0.0
  0
LINE
  8
DETAIL
  6
CONTINUOUS
 62
     5
 10
220.84131346610519
 20
-216.53016450391351
 30
0.0
 11
220.78359154918479
 21
-216.53409683786049
 31
0.0
  0
LINE
  8
DETAIL
  6
CONTINUOUS
 62
     5
 10
221.6423855977753
 20
-216.56461331224409
 30
0.0
 11
220.84131346610519
 21
-216.53016450391351
 31
0.0
  0
LINE
  8
DETAIL
  6
CONTINUOUS
 62
     5
 10
222.4059894906006
 20
-216.6882288813415
 30
0.0
 11
221.6423855977753
 21
-216.56461331224409
 31
0.0
  0
LINE
  8
DETAIL
  6
CONTINUOUS
 62
     5
 10
223.1230743806839
 20
-216.90111250869771
 30
0.0
 11
222.4059894906006
 21
-216.6882288813415
 31
0.0
  0
LINE
  8
DETAIL
  6
CONTINUOUS
 62
     5
 10
223.78660063393019
 20
-217.19950621755541
 30
0.0
 11
223.1230743806839
 21
-216.90111250869771
 31
0.0
  0
LINE
  8
DETAIL
  6
CONTINUOUS
 62
     5
 10
224.38525462581521
 20
-217.57922026732311
 30
0.0
 11
223.78660063393019
 21
-217.19950621755541
 31
0.0
  0
LINE
  8
DETAIL
  6
CONTINUOUS
 62
     5
 10
224.9228075645135
 20
-218.04165124000949
 30
0.0
 11
224.38525462581521
 21
-217.57922026732311
 31
0.0
  0
LINE
  8
DETAIL
  6
CONTINUOUS
 62
     5
 10
61.045682930081739
 20
-50.776342728531972
 30
0.0
 11
54.535182122327342
 21
-47.01750333473592
 31
0.0
  0
LINE
  8
DETAIL
  6
CONTINUOUS
 62
     5
 10
59.543259666754011
 20
-51.643767204142698
 30
0.0
 11
54.535182122327342
 21
-48.752352285181132
 31
0.0
  0
LINE
  8
DETAIL
  6
CONTINUOUS
 62
     5
 10
49.527104577901127
 20
-57.426597040513123
 30
0.0
 11
54.535182122327342
 21
-60.318011958698207
 31
0.0
  0
LINE
  8
DETAIL
  6
CONTINUOUS
 62
     5
 10
48.024681314572938
 20
-58.294021516123848
 30
0.0
 11
54.535182122327342
 21
-62.052860909919673
 31
0.0
  0
LINE
  8
DETAIL
  6
CONTINUOUS
 62
     5
 10
-54.535182122328251
 20
-48.752352285181132
 30
0.0
 11
-59.543259666754921
 21
-51.643767204142698
 31
0.0
  0
LINE
  8
DETAIL
  6
CONTINUOUS
 62
     5
 10
-54.535182122328251
 20
-47.01750333473592
 30
0.0
 11
-61.045682930082648
 21
-50.776342728531972
 31
0.0
  0
LINE
  8
DETAIL
  6
CONTINUOUS
 62
     5
 10
-61.260941237956331
 20
-46.163430382988281
 30
0.0
 11
-58.25744243000122
 21
-43.900131691149909
 31
0.0
  0
LINE
  8
DETAIL
  6
CONTINUOUS
 62
     5
 10
61.260941237955421
 20
46.163430382988281
 30
0.0
 11
58.25744243000031
 21
43.900131691926163
 31
0.0
  0
LINE
  8
DETAIL
  6
CONTINUOUS
 62
     5
 10
-93.164984729984781
 20
-97.414479440533114
 30
0.0
 11
-257.08012157831507
 21
-261.32961628886318
 31
0.0
  0
LINE
  8
DETAIL
  6
CONTINUOUS
 62
     5
 10
261.32961628886261
 20
257.08012157831439
 30
0.0
 11
97.414479441308913
 21
93.164984730760807
 31
0.0
  0
LINE
  8
DETAIL
  6
CONTINUOUS
 62
     5
 10
93.164984729984326
 20
97.414479441309368
 30
0.0
 11
257.08012157831422
 21
261.32961628963949
 31
0.0
  0
LINE
  8
DETAIL
  6
CONTINUOUS
 62
     5
 10
-261.32961628886341
 20
-257.08012157831467
 30
0.0
 11
-97.414479441309823
 21
-93.164984729984553
 31
0.0
  0
LINE
  8
DETAIL
  6
CONTINUOUS
 62
     5
 10
4.0064620355408351
 20
74.863547456412562
 30
0.0
 11
4.0064620355408351
 21
79.385240912699828
 31
0.0
  0
LINE
  8
DETAIL
  6
CONTINUOUS
 62
     5
 10
4.0064620355408351
 20
-79.385240911923574
 30
0.0
 11
4.0064620355408351
 21
-74.86354745563608
 31
0.0
  0
LINE
  8
DETAIL
  6
CONTINUOUS
 62
     5
 10
-4.0064620355417446
 20
-74.86354745563608
 30
0.0
 11
-4.0064620355417446
 21
-79.385240911923574
 31
0.0
  0
LINE
  8
DETAIL
  6
CONTINUOUS
 62
     5
 10
-4.0064620355417446
 20
79.385240912699828
 30
0.0
 11
-4.0064620355417446
 21
74.863547456412562
 31
0.0
  0
LINE
  8
DETAIL
  6
CONTINUOUS
 62
     5
 10
2.1247473552737119
 20
-79.249141539442235
 30
0.0
 11
-2.124747355274621
 21
-74.99964682811742
 31
0.0
  0
LINE
  8
DETAIL
  6
CONTINUOUS
 62
     5
 10
-48.024681314573847
 20
-50.776342728531972
 30
0.0
 11
-54.535182122328251
 21
-47.01750333473592
 31
0.0
  0
LINE
  8
DETAIL
  6
CONTINUOUS
 62
     5
 10
-49.527104577901582
 20
-51.643767204142698
 30
0.0
 11
-54.535182122328251
 21
-48.752352285181132
 31
0.0
  0
LINE
  8
DETAIL
  6
CONTINUOUS
 62
     5
 10
4.0064620355408351
 20
-74.86354745563608
 30
0.0
 11
-0.0000000000002274
 21
-72.767366720517202
 31
0.0
  0
LINE
  8
DETAIL
  6
CONTINUOUS
 62
     5
 10
105.0455489582594
 20
-120.90715990327
 30
0.0
 11
105.6986325561104
 21
-121.49124307445121
 31
0.0
  0
LINE
  8
DETAIL
  6
CONTINUOUS
 62
     5
 10
54.535182122327342
 20
47.01750333473592
 30
0.0
 11
61.045682930081739
 21
50.776342728531738
 31
0.0
  0
LINE
  8
DETAIL
  6
CONTINUOUS
 62
     5
 10
54.535182122327342
 20
48.752352285957393
 30
0.0
 11
59.543259666754011
 21
51.643767204142478
 31
0.0
  0
LINE
  8
DETAIL
  6
CONTINUOUS
 62
     5
 10
54.535182122327342
 20
60.318011959474461
 30
0.0
 11
49.527104577901127
 21
57.426597041289369
 31
0.0
  0
LINE
  8
DETAIL
  6
CONTINUOUS
 62
     5
 10
54.535182122327342
 20
62.052860910696147
 30
0.0
 11
48.024681314572938
 21
58.294021516900102
 31
0.0
  0
LINE
  8
DETAIL
  6
CONTINUOUS
 62
     5
 10
213.16867623235731
 20
262.74611452622997
 30
0.0
 11
254.2471251043564
 21
303.82456339745272
 31
0.0
  0
LINE
  8
DETAIL
  6
CONTINUOUS
 62
     5
 10
-303.82456339745312
 20
-254.24712510435691
 30
0.0
 11
-262.74611452623071
 21
-213.16867623235791
 31
0.0
  0
LINE
  8
DETAIL
  6
CONTINUOUS
 62
     5
 10
-48.024681314573847
 20
50.776342728531738
 30
0.0
 11
-48.024681314573847
 21
58.294021516900102
 31
0.0
  0
LINE
  8
DETAIL
  6
CONTINUOUS
 62
     5
 10
-48.024681314573847
 20
-58.294021516123848
 30
0.0
 11
-48.024681314573847
 21
-50.776342728531972
 31
0.0
  0
LINE
  8
DETAIL
  6
CONTINUOUS
 62
     5
 10
-49.527104577901582
 20
51.643767204142478
 30
0.0
 11
-49.527104577901582
 21
57.426597041289369
 31
0.0
  0
LINE
  8
DETAIL
  6
CONTINUOUS
 62
     5
 10
-49.527104577901582
 20
-57.426597040513123
 30
0.0
 11
-49.527104577901582
 21
-51.643767204142698
 31
0.0
  0
LINE
  8
DETAIL
  6
CONTINUOUS
 62
     5
 10
-59.543259666754921
 20
-57.426597040513123
 30
0.0
 11
-54.535182122328251
 21
-60.318011958698207
 31
0.0
  0
LINE
  8
DETAIL
  6
CONTINUOUS
 62
     5
 10
-61.045682930082648
 20
-58.294021516123848
 30
0.0
 11
-54.535182122328251
 21
-62.052860909919673
 31
0.0
  0
LINE
  8
DETAIL
  6
CONTINUOUS
 62
     5
 10
-4.0064620355417446
 20
-79.385240911923574
 30
0.0
 11
-0.0000000000002274
 21
-81.481421647819161
 31
0.0
  0
LINE
  8
DETAIL
  6
CONTINUOUS
 62
     5
 10
-0.0000000000002274
 20
72.767366720516748
 30
0.0
 11
4.0064620355408351
 21
74.863547456412562
 31
0.0
  0
LINE
  8
DETAIL
  6
CONTINUOUS
 62
     5
 10
261.32961628886261
 20
224.38382523973411
 30
0.0
 11
266.33769383328922
 21
227.27524015791889
 31
0.0
  0
LINE
  8
DETAIL
  6
CONTINUOUS
 62
     5
 10
-54.535182122328251
 20
47.01750333473592
 30
0.0
 11
-48.024681314573847
 21
50.776342728531738
 31
0.0
  0
LINE
  8
DETAIL
  6
CONTINUOUS
 62
     5
 10
-54.535182122328251
 20
48.752352285957393
 30
0.0
 11
-49.527104577901582
 21
51.643767204142478
 31
0.0
  0
LINE
  8
DETAIL
  6
CONTINUOUS
 62
     5
 10
2.1247473552737119
 20
79.249141540218488
 30
0.0
 11
-2.124747355274621
 21
74.999646828893901
 31
0.0
  0
LINE
  8
DETAIL
  6
CONTINUOUS
 62
     5
 10
-59.543259666754921
 20
-51.643767204142698
 30
0.0
 11
-59.543259666754921
 21
-57.426597040513123
 31
0.0
  0
LINE
  8
DETAIL
  6
CONTINUOUS
 62
     5
 10
-59.543259666754921
 20
57.426597041289369
 30
0.0
 11
-59.543259666754921
 21
51.643767204142478
 31
0.0
  0
LINE
  8
DETAIL
  6
CONTINUOUS
 62
     5
 10
-61.045682930082648
 20
-50.776342728531972
 30
0.0
 11
-61.045682930082648
 21
-58.294021516123848
 31
0.0
  0
LINE
  8
DETAIL
  6
CONTINUOUS
 62
     5
 10
-61.045682930082648
 20
58.294021516900102
 30
0.0
 11
-61.045682930082648
 21
50.776342728531738
 31
0.0
  0
LINE
  8
DETAIL
  6
CONTINUOUS
 62
     5
 10
235.17473262053019
 20
-258.43820137067792
 30
0.0
 11
230.16665507610401
 21
-255.54678645171629
 31
0.0
  0
LINE
  8
DETAIL
  6
CONTINUOUS
 62
     5
 10
225.15857753167731
 20
-264.22103120704833
 30
0.0
 11
230.16665507610401
 21
-267.11244612523342
 31
0.0
  0
LINE
  8
DETAIL
  6
CONTINUOUS
 62
     5
 10
-0.0000000000002274
 20
81.481421647818934
 30
0.0
 11
-4.0064620355417446
 21
79.385240912699828
 31
0.0
  0
LINE
  8
DETAIL
  6
CONTINUOUS
 62
     5
 10
261.32961628886261
 20
235.9494849132509
 30
0.0
 11
256.32153874443628
 21
233.05806999506561
 31
0.0
  0
LINE
  8
DETAIL
  6
CONTINUOUS
 62
     5
 10
-54.535182122328251
 20
60.318011959474461
 30
0.0
 11
-59.543259666754921
 21
57.426597041289369
 31
0.0
  0
LINE
  8
DETAIL
  6
CONTINUOUS
 62
     5
 10
-54.535182122328251
 20
62.052860910696147
 30
0.0
 11
-61.045682930082648
 21
58.294021516900102
 31
0.0
  0
LINE
  8
DETAIL
  6
CONTINUOUS
 62
     5
 10
-87.340872374798664
 20
75.016697207799552
 30
0.0
 11
-87.340872374798664
 21
-75.016697207799552
 31
0.0
  0
LINE
  8
DETAIL
  6
CONTINUOUS
 62
     5
 10
-89.644588045234514
 20
88.915490019435993
 30
0.0
 11
-89.644588045234514
 21
-88.915490018659966
 31
0.0
  0
LINE
  8
DETAIL
  6
CONTINUOUS
 62
     5
 10
-95.654281098546335
 20
-88.915490018659966
 30
0.0
 11
-95.654281098546335
 21
88.915490019435993
 31
0.0
  0
LINE
  8
DETAIL
  6
CONTINUOUS
 62
     5
 10
256.64052184726478
 20
-263.10850038466651
 30
0.0
 11
240.77423800330581
 21
-258.40277861937881
 31
0.0
  0
LINE
  8
DETAIL
  6
CONTINUOUS
 62
     5
 10
240.4324741185203
 20
-259.55510403822132
 30
0.0
 11
256.29875796247973
 21
-264.26082580350908
 31
0.0
  0
LINE
  8
DETAIL
  6
CONTINUOUS
 62
     5
 10
260.42003231017702
 20
-201.1284412186196
 30
0.0
 11
266.93053311793187
 21
-201.1284412186196
 31
0.0
  0
LINE
  8
DETAIL
  6
CONTINUOUS
 62
     5
 10
-266.93053311793238
 20
-201.1284412186196
 30
0.0
 11
-260.4200323101781
 21
-201.1284412186196
 31
0.0
  0
LINE
  8
DETAIL
  6
CONTINUOUS
 62
     5
 10
-255.56295591133539
 20
-213.16867623235791
 30
0.0
 11
-262.74611452623071
 21
-213.16867623235791
 31
0.0
  0
LINE
  8
DETAIL
  6
CONTINUOUS
 62
     5
 10
262.7461145262298
 20
-213.16867623235791
 30
0.0
 11
255.56295591133431
 21
-213.16867623235791
 31
0.0
  0
LINE
  8
DETAIL
  6
CONTINUOUS
 62
     5
 10
-201.12844121862011
 20
-260.4200323101777
 30
0.0
 11
-201.12844121862011
 21
-266.9305331179321
 31
0.0
  0
LINE
  8
DETAIL
  6
CONTINUOUS
 62
     5
 10
-201.12844121862011
 20
266.9305331179321
 30
0.0
 11
-201.12844121862011
 21
260.42003231017748
 31
0.0
  0
LINE
  8
DETAIL
  6
CONTINUOUS
 62
     5
 10
223.41442500336851
 20
-214.9180818519994
 30
0.0
 11
224.0198793659184
 21
-215.43892515672951
 31
0.0
  0
LINE
  8
DETAIL
  6
CONTINUOUS
 62
     5
 10
222.7401515601301
 20
-214.490403920978
 30
0.0
 11
223.41442500336851
 21
-214.9180818519994
 31
0.0
  0
LINE
  8
DETAIL
  6
CONTINUOUS
 62
     5
 10
221.99281146435189
 20
-214.15431837542431
 30
0.0
 11
222.7401515601301
 21
-214.490403920978
 31
0.0
  0
LINE
  8
DETAIL
  6
CONTINUOUS
 62
     5
 10
221.18514743003811
 20
-213.91454418471901
 30
0.0
 11
221.99281146435189
 21
-214.15431837542431
 31
0.0
  0
LINE
  8
DETAIL
  6
CONTINUOUS
 62
     5
 10
220.32508830922529
 20
-213.77531401683129
 30
0.0
 11
221.18514743003811
 21
-213.91454418471901
 31
0.0
  0
LINE
  8
DETAIL
  6
CONTINUOUS
 62
     5
 10
219.42282811907151
 20
-213.7365137807667
 30
0.0
 11
220.32508830922529
 21
-213.77531401683129
 31
0.0
  0
LINE
  8
DETAIL
  6
CONTINUOUS
 62
     5
 10
218.48763868312221
 20
-213.8002240182841
 30
0.0
 11
219.42282811907151
 21
-213.7365137807667
 31
0.0
  0
LINE
  8
DETAIL
  6
CONTINUOUS
 62
     5
 10
218.11371781828601
 20
-213.8642231077381
 30
0.0
 11
218.48763868312221
 21
-213.8002240182841
 31
0.0
  0
LINE
  8
DETAIL
  6
CONTINUOUS
 62
     5
 10
-213.16867623313479
 20
255.56295591133471
 30
0.0
 11
-213.16867623313479
 21
262.74611452622997
 31
0.0
  0
LINE
  8
DETAIL
  6
CONTINUOUS
 62
     5
 10
-213.16867623313479
 20
-262.74611452545378
 30
0.0
 11
-213.16867623313479
 21
-255.56295591055849
 31
0.0
  0
LINE
  8
DETAIL
  6
CONTINUOUS
 62
     5
 10
-225.15857753167811
 20
258.43820137067792
 30
0.0
 11
-225.15857753167811
 21
264.22103120782458
 31
0.0
  0
LINE
  8
DETAIL
  6
CONTINUOUS
 62
     5
 10
-235.1747326205311
 20
264.22103120782458
 30
0.0
 11
-235.1747326205311
 21
258.43820137067792
 31
0.0
  0
LINE
  8
DETAIL
  6
CONTINUOUS
 62
     5
 10
-256.32153874443691
 20
-233.0580699942893
 30
0.0
 11
-256.32153874443691
 21
-227.27524015714269
 31
0.0
  0
LINE
  8
DETAIL
  6
CONTINUOUS
 62
     5
 10
-171.07997595206101
 20
-296.97899838449121
 30
0.0
 11
171.07997595206029
 21
-296.97899838449121
 31
0.0
  0
LINE
  8
DETAIL
  6
CONTINUOUS
 62
     5
 10
254.2471251043564
 20
-303.82456339745289
 30
0.0
 11
274.17876785167317
 21
-303.82456339745289
 31
0.0
  0
LINE
  8
DETAIL
  6
CONTINUOUS
 62
     5
 10
-274.17876785167408
 20
-303.82456339745289
 30
0.0
 11
-254.24712510435731
 21
-303.82456339745289
 31
0.0
  0
LINE
  8
DETAIL
  6
CONTINUOUS
 62
     5
 10
249.80503545603651
 20
-306.99515347334409
 30
0.0
 11
269.93537964458778
 21
-306.99515347334409
 31
0.0
  0
LINE
  8
DETAIL
  6
CONTINUOUS
 62
     5
 10
227.89090657524619
 20
-306.99515347334409
 30
0.0
 11
240.58623020911389
 21
-306.99515347334409
 31
0.0
  0
LINE
  8
DETAIL
  6
CONTINUOUS
 62
     5
 10
-227.8909065752467
 20
-306.99515347334409
 30
0.0
 11
227.89090657524619
 21
-306.99515347334409
 31
0.0
  0
LINE
  8
DETAIL
  6
CONTINUOUS
 62
     5
 10
-269.93537964458869
 20
-306.99515347334409
 30
0.0
 11
-227.8909065752467
 21
-306.99515347334409
 31
0.0
  0
LINE
  8
DETAIL
  6
CONTINUOUS
 62
     5
 10
249.86966011027991
 20
-310.0
 30
0.0
 11
269.93537964458778
 21
-310.0
 31
0.0
  0
LINE
  8
DETAIL
  6
CONTINUOUS
 62
     5
 10
-269.93537964458869
 20
-310.0
 30
0.0
 11
240.6527611612876
 21
-310.0
 31
0.0
  0
LINE
  8
DETAIL
  6
CONTINUOUS
 62
     5
 10
-266.3376938332899
 20
-227.27524015714269
 30
0.0
 11
-266.3376938332899
 21
-233.0580699942893
 31
0.0
  0
LINE
  8
DETAIL
  6
CONTINUOUS
 62
     5
 10
-224.50066212818891
 20
-228.75015683873721
 30
0.0
 11
-206.9957690273138
 21
-246.255049940389
 31
0.0
  0
LINE
  8
DETAIL
  6
CONTINUOUS
 62
     5
 10
-246.25504994116591
 20
-206.99576902653689
 30
0.0
 11
-228.75015683951409
 21
-224.50066212818891
 31
0.0
  0
LINE
  8
DETAIL
  6
CONTINUOUS
 62
     5
 10
-234.4161497874295
 20
-230.16665507610421
 30
0.0
 11
-248.48046472605279
 21
-216.1023401367047
 31
0.0
  0
LINE
  8
DETAIL
  6
CONTINUOUS
 62
     5
 10
-216.10234013670521
 20
-248.4804647260523
 30
0.0
 11
-230.16665507610449
 21
-234.4161497866528
 31
0.0
  0
LINE
  8
DETAIL
  6
CONTINUOUS
 62
     5
 10
-256.32153874443691
 20
-227.27524015714269
 30
0.0
 11
-261.32961628886341
 21
-224.3838252389578
 31
0.0
  0
LINE
  8
DETAIL
  6
CONTINUOUS
 62
     5
 10
-266.3376938332899
 20
-233.0580699942893
 30
0.0
 11
-261.32961628886341
 21
-235.94948491247439
 31
0.0
  0
LINE
  8
DETAIL
  6
CONTINUOUS
 62
     5
 10
-296.97899838449189
 20
171.079975952837
 30
0.0
 11
-296.97899838449189
 21
-171.07997595206101
 31
0.0
  0
LINE
  8
DETAIL
  6
CONTINUOUS
 62
     5
 10
-303.82456339745312
 20
-254.24712510435691
 30
0.0
 11
-303.82456339745312
 21
-274.17876785167391
 31
0.0
  0
LINE
  8
DETAIL
  6
CONTINUOUS
 62
     5
 10
-303.82456339745312
 20
274.17876785245022
 30
0.0
 11
-303.82456339745312
 21
254.24712510435691
 31
0.0
  0
LINE
  8
DETAIL
  6
CONTINUOUS
 62
     5
 10
-306.99515347334449
 20
-227.89090657524639
 30
0.0
 11
-306.99515347334449
 21
-269.93537964458801
 31
0.0
  0
LINE
  8
DETAIL
  6
CONTINUOUS
 62
     5
 10
-306.99515347334449
 20
227.8909065760229
 30
0.0
 11
-306.99515347334449
 21
-227.89090657524639
 31
0.0
  0
LINE
  8
DETAIL
  6
CONTINUOUS
 62
     5
 10
-306.99515347334449
 20
269.93537964458801
 30
0.0
 11
-306.99515347334449
 21
227.8909065760229
 31
0.0
  0
LINE
  8
DETAIL
  6
CONTINUOUS
 62
     5
 10
-310.00000000000051
 20
269.93537964458801
 30
0.0
 11
-310.00000000000051
 21
-269.93537964458801
 31
0.0
  0
LINE
  8
DETAIL
  6
CONTINUOUS
 62
     5
 10
-257.08012157831507
 20
-261.32961628886318
 30
0.0
 11
-261.32961628886341
 21
-257.08012157831467
 31
0.0
  0
LINE
  8
DETAIL
  6
CONTINUOUS
 62
     5
 10
-230.16665507610449
 20
255.5467864524926
 30
0.0
 11
-225.15857753167811
 21
258.43820137067792
 31
0.0
  0
LINE
  8
DETAIL
  6
CONTINUOUS
 62
     5
 10
-228.75015683951409
 20
224.5006621289651
 30
0.0
 11
-246.25504994116591
 21
206.9957690273134
 31
0.0
  0
LINE
  8
DETAIL
  6
CONTINUOUS
 62
     5
 10
-206.9957690273138
 20
246.25504994116571
 30
0.0
 11
-224.50066212818891
 21
228.75015683951349
 31
0.0
  0
LINE
  8
DETAIL
  6
CONTINUOUS
 62
     5
 10
-230.16665507610449
 20
234.41614978742879
 30
0.0
 11
-216.10234013670521
 21
248.48046472682859
 31
0.0
  0
LINE
  8
DETAIL
  6
CONTINUOUS
 62
     5
 10
-248.48046472605279
 20
216.10234013748101
 30
0.0
 11
-234.4161497874295
 21
230.16665507688069
 31
0.0
  0
LINE
  8
DETAIL
  6
CONTINUOUS
 62
     5
 10
-230.16665507610449
 20
267.11244612600967
 30
0.0
 11
-235.1747326205311
 21
264.22103120782458
 31
0.0
  0
LINE
  8
DETAIL
  6
CONTINUOUS
 62
     5
 10
-257.08012157831507
 20
261.32961628963949
 30
0.0
 11
-261.32961628886341
 21
257.08012157831439
 31
0.0
  0
LINE
  8
DETAIL
  6
CONTINUOUS
 62
     5
 10
-300.89089949388301
 20
-281.26125903617998
 30
0.0
 11
-281.26125903695669
 21
-300.89089949310602
 31
0.0
  0
LINE
  8
DETAIL
  6
CONTINUOUS
 62
     5
 10
-281.26125903695669
 20
300.89089949388222
 30
0.0
 11
-300.89089949388301
 21
281.26125903695629
 31
0.0
  0
LINE
  8
DETAIL
  6
CONTINUOUS
 62
     5
 10
-275.89216139817961
 20
258.5742914102766
 30
0.0
 11
-301.69981604217878
 21
252.12237774908269
 31
0.0
  0
LINE
  8
DETAIL
  6
CONTINUOUS
 62
     5
 10
-274.09989725498798
 20
255.4088117242363
 30
0.0
 11
-298.80897946455292
 21
249.23154117145671
 31
0.0
  0
LINE
  8
DETAIL
  6
CONTINUOUS
 62
     5
 10
261.04330253667399
 20
-271.53141769951532
 30
0.0
 11
271.53141769951498
 21
-261.04330253667467
 31
0.0
  0
LINE
  8
DETAIL
  6
CONTINUOUS
 62
     5
 10
257.87782285063372
 20
-269.7391535563238
 30
0.0
 11
269.73915355632312
 21
-257.8778228506344
 31
0.0
  0
LINE
  8
DETAIL
  6
CONTINUOUS
 62
     5
 10
301.69981604217833
 20
252.12237774908269
 30
0.0
 11
275.89216139740228
 21
258.5742914102766
 31
0.0
  0
LINE
  8
DETAIL
  6
CONTINUOUS
 62
     5
 10
298.80897946455229
 20
249.23154117145671
 30
0.0
 11
274.0998972542103
 21
255.4088117242363
 31
0.0
  0
LINE
  8
DETAIL
  6
CONTINUOUS
 62
     5
 10
57.048250869869889
 20
-51.981370031032839
 30
0.0
 11
52.01237155131389
 21
-57.01724934958861
 31
0.0
  0
LINE
  8
DETAIL
  6
CONTINUOUS
 62
     5
 10
271.53141769951498
 20
261.04330253745093
 30
0.0
 11
261.04330253667399
 21
271.53141770029202
 31
0.0
  0
LINE
  8
DETAIL
  6
CONTINUOUS
 62
     5
 10
269.73915355632312
 20
257.8778228506344
 30
0.0
 11
257.87782285063372
 21
269.73915355710011
 31
0.0
  0
LINE
  8
DETAIL
  6
CONTINUOUS
 62
     5
 10
274.0998972542103
 20
-255.4088117234601
 30
0.0
 11
298.80897946455229
 21
-249.2315411706804
 31
0.0
  0
LINE
  8
DETAIL
  6
CONTINUOUS
 62
     5
 10
275.89216139740228
 20
-258.57429140950012
 30
0.0
 11
301.69981604217833
 21
-252.12237774830621
 31
0.0
  0
LINE
  8
DETAIL
  6
CONTINUOUS
 62
     5
 10
-57.057764607631952
 20
-57.017021263102613
 30
0.0
 11
-52.0218852882997
 21
-51.981141944546827
 31
0.0
  0
LINE
  8
DETAIL
  6
CONTINUOUS
 62
     5
 10
57.048250869869889
 20
57.088994213622748
 30
0.0
 11
52.01237155131389
 21
52.053114895066983
 31
0.0
  0
LINE
  8
DETAIL
  6
CONTINUOUS
 62
     5
 10
252.12237774908249
 20
-301.69981604217878
 30
0.0
 11
258.57429141027637
 21
-275.89216139740279
 31
0.0
  0
LINE
  8
DETAIL
  6
CONTINUOUS
 62
     5
 10
251.02527243756441
 20
-291.63405440012019
 30
0.0
 11
255.40881172345939
 21
-274.0998972542111
 31
0.0
  0
LINE
  8
DETAIL
  6
CONTINUOUS
 62
     5
 10
-57.057764607631952
 20
52.053342981553207
 30
0.0
 11
-52.0218852882997
 21
57.089222300108759
 31
0.0
  0
LINE
  8
DETAIL
  6
CONTINUOUS
 62
     5
 10
258.57429141027637
 20
275.89216139817898
 30
0.0
 11
252.12237774908249
 21
301.69981604217861
 31
0.0
  0
LINE
  8
DETAIL
  6
CONTINUOUS
 62
     5
 10
255.40881172345939
 20
274.09989725498741
 30
0.0
 11
249.23154117145651
 21
298.80897946455252
 31
0.0
  0
LINE
  8
DETAIL
  6
CONTINUOUS
 62
     5
 10
244.91568938918701
 20
-379.45324182444818
 30
0.0
 11
244.91568938918701
 21
-402.65225060690551
 31
0.0
  0
LINE
  8
DETAIL
  6
CONTINUOUS
 62
     5
 10
241.9108428625311
 20
-379.45324182444818
 30
0.0
 11
241.9108428625311
 21
-402.65225060690551
 31
0.0
  0
LINE
  8
DETAIL
  6
CONTINUOUS
 62
     5
 10
57.048250869869889
 20
52.053342981553207
 30
0.0
 11
52.01237155131389
 21
57.089222300108759
 31
0.0
  0
LINE
  8
DETAIL
  6
CONTINUOUS
 62
     5
 10
241.9108428625311
 20
-402.65225060690551
 30
0.0
 11
244.91568938918701
 21
-402.65225060690551
 31
0.0
  0
LINE
  8
DETAIL
  6
CONTINUOUS
 62
     5
 10
57.048250869869889
 20
-57.017021263102613
 30
0.0
 11
52.01237155131389
 21
-51.981141944546827
 31
0.0
  0
LINE
  8
DETAIL
  6
CONTINUOUS
 62
     5
 10
-57.057764607631952
 20
57.088994213622748
 30
0.0
 11
-52.0218852882997
 21
52.053114895066983
 31
0.0
  0
LINE
  8
DETAIL
  6
CONTINUOUS
 62
     5
 10
-298.80897946455292
 20
-249.2315411706804
 30
0.0
 11
-274.09989725498798
 21
-255.4088117234601
 31
0.0
  0
LINE
  8
DETAIL
  6
CONTINUOUS
 62
     5
 10
-301.69981604217878
 20
-252.12237774830621
 30
0.0
 11
-275.89216139817961
 21
-258.57429140950012
 31
0.0
  0
LINE
  8
DETAIL
  6
CONTINUOUS
 62
     5
 10
-257.87782285063457
 20
269.73915355710011
 30
0.0
 11
-269.73915355710051
 21
257.8778228506344
 31
0.0
  0
LINE
  8
DETAIL
  6
CONTINUOUS
 62
     5
 10
-261.0433025366749
 20
271.53141770029202
 30
0.0
 11
-271.53141770029231
 21
261.04330253745093
 31
0.0
  0
LINE
  8
DETAIL
  6
CONTINUOUS
 62
     5
 10
-57.057764607631952
 20
-51.981370031032839
 30
0.0
 11
-52.0218852882997
 21
-57.01724934958861
 31
0.0
  0
LINE
  8
DETAIL
  6
CONTINUOUS
 62
     5
 10
-249.23154117145711
 20
298.80897946455252
 30
0.0
 11
-255.40881172423661
 21
274.09989725498741
 31
0.0
  0
LINE
  8
DETAIL
  6
CONTINUOUS
 62
     5
 10
-252.1223777490832
 20
301.69981604217861
 30
0.0
 11
-258.57429141027711
 21
275.89216139817898
 31
0.0
  0
LINE
  8
DETAIL
  6
CONTINUOUS
 62
     5
 10
-269.73915355710051
 20
-257.8778228506344
 30
0.0
 11
-257.87782285063457
 21
-269.7391535563238
 31
0.0
  0
LINE
  8
DETAIL
  6
CONTINUOUS
 62
     5
 10
-271.53141770029231
 20
-261.04330253667467
 30
0.0
 11
-261.0433025366749
 21
-271.53141769951532
 31
0.0
  0
LINE
  8
DETAIL
  6
CONTINUOUS
 62
     5
 10
-255.40881172423661
 20
-274.0998972542111
 30
0.0
 11
-249.23154117145711
 21
-298.80897946455269
 31
0.0
  0
LINE
  8
DETAIL
  6
CONTINUOUS
 62
     5
 10
-258.57429141027711
 20
-275.89216139740279
 30
0.0
 11
-252.1223777490832
 21
-301.69981604217878
 31
0.0
  0
CIRCLE
  8
DETAIL
  6
CONTINUOUS
 62
     5
 10
-0.0000000000002274
 20
0.0
 30
0.0
 40
225.36348949919221
  0
CIRCLE
  8
DETAIL
  6
CONTINUOUS
 62
     5
 10
280.45234248788353
 20
280.45234248788353
 30
0.0
 40
7.0113085621970876
  0
CIRCLE
  8
DETAIL
  6
CONTINUOUS
 62
     5
 10
278.19169628432911
 20
182.34810985460419
 30
0.0
 40
6.5105008077544548
  0
CIRCLE
  8
DETAIL
  6
CONTINUOUS
 62
     5
 10
70.82491184739024
 20
70.824911847390695
 30
0.0
 40
3.004846526655911
  0
ARC
  8
DETAIL
  6
CONTINUOUS
 62
     5
 10
-0.0000000000002274
 20
77.124394184168068
 30
0.0
 40
4.3570274636510717
 50
34.76287573780602
 51
145.23712426219399
  0
ARC
  8
DETAIL
  6
CONTINUOUS
 62
     5
 10
-0.0000000000002274
 20
77.124394184168068
 30
0.0
 40
4.35702746365103
 50
156.8589589732926
 51
203.1410410267074
  0
ARC
  8
DETAIL
  6
CONTINUOUS
 62
     5
 10
-0.0000000000002274
 20
77.124394184168068
 30
0.0
 40
4.3570274636510824
 50
214.76287573780601
 51
325.23712426219402
  0
ARC
  8
DETAIL
  6
CONTINUOUS
 62
     5
 10
-0.0000000000002274
 20
77.124394184168068
 30
0.0
 40
4.3570274636510362
 50
336.8589589732926
 51
23.141041026707409
  0
CIRCLE
  8
DETAIL
  6
CONTINUOUS
 62
     5
 10
-0.0000000000002274
 20
77.124394184168068
 30
0.0
 40
5.9095315024232491
  0
CIRCLE
  8
DETAIL
  6
CONTINUOUS
 62
     5
 10
-0.0000000000002274
 20
77.124394184168068
 30
0.0
 40
6.2600969305331091
  0
ARC
  8
DETAIL
  6
CONTINUOUS
 62
     5
 10
-0.0000000000002274
 20
0.0
 30
0.0
 40
228.36833602584809
 50
135.75395510990199
 51
224.24604489009801
  0
ARC
  8
DETAIL
  6
CONTINUOUS
 62
     5
 10
-0.0000000000002274
 20
0.0
 30
0.0
 40
228.36833602584821
 50
45.753955109901973
 51
134.24604489009809
  0
ARC
  8
DETAIL
  6
CONTINUOUS
 62
     5
 10
-0.0000000000002274
 20
0.0
 30
0.0
 40
228.36833602584809
 50
315.75395510990188
 51
44.246044890098041
  0
ARC
  8
DETAIL
  6
CONTINUOUS
 62
     5
 10
-0.0000000000002274
 20
0.0
 30
0.0
 40
228.36833602584809
 50
225.75395510990191
 51
312.17131184419662
  0
CIRCLE
  8
DETAIL
  6
CONTINUOUS
 62
     5
 10
280.45234248788353
 20
-280.4523424878837
 30
0.0
 40
7.0113085621970876
  0
CIRCLE
  8
DETAIL
  6
CONTINUOUS
 62
     5
 10
182.34810985460379
 20
-278.19169628432951
 30
0.0
 40
6.5105008077544548
  0
CIRCLE
  8
DETAIL
  6
CONTINUOUS
 62
     5
 10
70.82491184739024
 20
-70.824911847390922
 30
0.0
 40
3.004846526655911
  0
ARC
  8
DETAIL
  6
CONTINUOUS
 62
     5
 10
-0.0000000000002274
 20
-77.124394184168068
 30
0.0
 40
4.3570274636510904
 50
214.76287573780601
 51
325.23712426219402
  0
ARC
  8
DETAIL
  6
CONTINUOUS
 62
     5
 10
-0.0000000000002274
 20
-77.124394184168068
 30
0.0
 40
4.3570274636510424
 50
336.8589589732926
 51
23.141041026707409
  0
ARC
  8
DETAIL
  6
CONTINUOUS
 62
     5
 10
-0.0000000000002274
 20
-77.124394184168068
 30
0.0
 40
4.3570274636510717
 50
34.76287573780602
 51
145.23712426219399
  0
ARC
  8
DETAIL
  6
CONTINUOUS
 62
     5
 10
-0.0000000000002274
 20
-77.124394184168068
 30
0.0
 40
4.35702746365103
 50
156.8589589732926
 51
203.1410410267074
  0
CIRCLE
  8
DETAIL
  6
CONTINUOUS
 62
     5
 10
-0.0000000000002274
 20
-77.124394184168068
 30
0.0
 40
5.9095315024232491
  0
CIRCLE
  8
DETAIL
  6
CONTINUOUS
 62
     5
 10
-0.0000000000002274
 20
-77.124394184168068
 30
0.0
 40
6.2600969305331091
  0
CIRCLE
  8
DETAIL
  6
CONTINUOUS
 62
     5
 10
-182.3481098546047
 20
278.19169628432951
 30
0.0
 40
6.5105008077543971
  0
CIRCLE
  8
DETAIL
  6
CONTINUOUS
 62
     5
 10
-280.45234248788421
 20
280.45234248788353
 30
0.0
 40
7.0113085621970876
  0
CIRCLE
  8
DETAIL
  6
CONTINUOUS
 62
     5
 10
-70.824911847391149
 20
-70.824911847390922
 30
0.0
 40
3.004846526655911
  0
CIRCLE
  8
DETAIL
  6
CONTINUOUS
 62
     5
 10
-278.19169628432968
 20
-182.34810985460419
 30
0.0
 40
6.5105008077543971
  0
CIRCLE
  8
DETAIL
  6
CONTINUOUS
 62
     5
 10
-280.45234248788421
 20
-280.4523424878837
 30
0.0
 40
7.0113085621970876
  0
CIRCLE
  8
DETAIL
  6
CONTINUOUS
 62
     5
 10
-12.5201938610669
 20
-48.578352180937152
 30
0.0
 40
3.7560581583198882
  0
LINE
  8
DETAIL
  6
CONTINUOUS
 62
     5
 10
259.09863156594128
 20
232.39763979980219
 30
0.0
 11
263.56060101256048
 21
227.93567035318279
 31
0.0
  0
LINE
  8
DETAIL
  6
CONTINUOUS
 62
     5
 10
232.3976397990252
 20
-259.09863156594162
 30
0.0
 11
227.9356703531823
 21
-263.56060101178468
 31
0.0
  0
LINE
  8
DETAIL
  6
CONTINUOUS
 62
     5
 10
-232.39763979980259
 20
263.56060101256088
 30
0.0
 11
-227.93567035318321
 21
259.09863156594162
 31
0.0
  0
LINE
  8
DETAIL
  6
CONTINUOUS
 62
     5
 10
263.56060101256048
 20
232.39763979980219
 30
0.0
 11
259.09863156594128
 21
227.93567035318279
 31
0.0
  0
LINE
  8
DETAIL
  6
CONTINUOUS
 62
     5
 10
227.9356703531823
 20
-259.09863156594162
 30
0.0
 11
232.3976397990252
 21
-263.56060101178468
 31
0.0
  0
LINE
  8
DETAIL
  6
CONTINUOUS
 62
     5
 10
-12.5201938610669
 20
-48.578352180937152
 30
0.0
 11
-12.5201938610669
 21
-45.949111470113174
 31
0.0
  0
LINE
  8
DETAIL
  6
CONTINUOUS
 62
     5
 10
-15.149434571890881
 20
-48.578352180937152
 30
0.0
 11
-9.8909531502429218
 21
-48.578352180937152
 31
0.0
  0
LINE
  8
DETAIL
  6
CONTINUOUS
 62
     5
 10
-14.39822294022656
 20
-49.705169628432941
 30
0.0
 11
-10.642164781906789
 21
-49.705169628432941
 31
0.0
  0
LINE
  8
DETAIL
  6
CONTINUOUS
 62
     5
 10
-13.271405492730761
 20
-50.831987075928957
 30
0.0
 11
-11.76898222940258
 21
-50.831987075928957
 31
0.0
  0
LINE
  8
DETAIL
  6
CONTINUOUS
 62
     5
 10
-259.09863156594201
 20
-227.93567035240631
 30
0.0
 11
-263.56060101256139
 21
-232.39763979902591
 31
0.0
  0
LINE
  8
DETAIL
  6
CONTINUOUS
 62
     5
 10
-263.56060101256139
 20
-227.93567035240631
 30
0.0
 11
-259.09863156594201
 21
-232.39763979902591
 31
0.0
  0
LINE
  8
DETAIL
  6
CONTINUOUS
 62
     5
 10
-227.93567035318321
 20
263.56060101256088
 30
0.0
 11
-232.39763979980259
 21
259.09863156594162
 31
0.0
  0
LINE
  8
BASIS
  6
DASHDOT
 62
     6
 10
-0.0000000000002274
 20
-339.51713814158887
 30
0.0
 11
-0.0000000000002274
 21
339.51713814236501
 31
0.0
  0
LINE
  8
BASIS
  6
DASHDOT
 62
     6
 10
-329.52929641324488
 20
0.0
 30
0.0
 11
329.52929641324431
 21
0.0
 31
0.0
  0
LINE
  8
NOTE
  6
CONTINUOUS
 62
     4
 10
244.9477364120423
 20
280.45234248788353
 30
0.0
 11
315.95694856372461
 21
280.45234248788353
 31
0.0
  0
LINE
  8
NOTE
  6
CONTINUOUS
 62
     4
 10
280.45234248788353
 20
244.9477364120423
 30
0.0
 11
280.45234248788353
 21
315.95694856450109
 31
0.0
  0
LINE
  8
NOTE
  6
CONTINUOUS
 62
     4
 10
-244.94773641204279
 20
280.45234248788353
 30
0.0
 11
-315.95694856372512
 21
280.45234248788353
 31
0.0
  0
LINE
  8
NOTE
  6
CONTINUOUS
 62
     4
 10
-280.45234248788421
 20
244.9477364120423
 30
0.0
 11
-280.45234248788421
 21
315.95694856450109
 31
0.0
  0
LINE
  8
NOTE
  6
CONTINUOUS
 62
     4
 10
-280.45234248788421
 20
-244.94773641126611
 30
0.0
 11
-280.45234248788421
 21
-315.95694856372512
 31
0.0
  0
LINE
  8
NOTE
  6
CONTINUOUS
 62
     4
 10
-244.94773641204279
 20
-280.4523424878837
 30
0.0
 11
-315.95694856372512
 21
-280.4523424878837
 31
0.0
  0
LINE
  8
NOTE
  6
CONTINUOUS
 62
     4
 10
244.9477364120423
 20
-280.4523424878837
 30
0.0
 11
315.95694856372461
 21
-280.4523424878837
 31
0.0
  0
LINE
  8
NOTE
  6
CONTINUOUS
 62
     4
 10
280.45234248788353
 20
-244.94773641126611
 30
0.0
 11
280.45234248788353
 21
-315.95694856372512
 31
0.0
  0
LINE
  8
SIZE
  6
CONTINUOUS
 62
    30
 10
-0.0000000000002274
 20
71.214862681744762
 30
0.0
 11
-0.0000000000002274
 21
-228.36833602584809
 31
0.0
  0
LINE
  8
DETAIL
  6
CONTINUOUS
 62
     5
 10
237.87781222708711
 20
-402.32569514147872
 30
0.0
 11
234.9186160711472
 21
-401.80390901762303
 31
0.0
  0
LINE
  8
DETAIL
  6
CONTINUOUS
 62
     5
 10
243.70794540801239
 20
-372.60378533463859
 30
0.0
 11
248.94872002533731
 21
-402.32569514147872
 31
0.0
  0
LINE
  8
DETAIL
  6
CONTINUOUS
 62
     5
 10
246.48486561016421
 20
-372.60378530678167
 30
0.0
 11
251.90791618127719
 21
-401.80390901762303
 31
0.0
  0
LINE
  8
DETAIL
  6
CONTINUOUS
 62
     5
 10
247.5997408377882
 20
-372.60378530678167
 30
0.0
 11
239.07421665894279
 21
-372.60378533449989
 31
0.0
  0
LINE
  8
DETAIL
  6
CONTINUOUS
 62
     5
 10
240.0673857166114
 20
-372.60378533463859
 30
0.0
 11
234.9186160711472
 21
-401.80390901762303
 31
0.0
  0
LINE
  8
DETAIL
  6
CONTINUOUS
 62
     5
 10
248.94872002533731
 20
-402.32569514147872
 30
0.0
 11
251.90791618127719
 21
-401.80390901762303
 31
0.0
  0
LINE
  8
DETAIL
  6
CONTINUOUS
 62
     5
 10
243.11858684441199
 20
-372.60378533463859
 30
0.0
 11
237.87781222708711
 21
-402.32569514147872
 31
0.0
  0
ARC
  8
DETAIL
  6
CONTINUOUS
 62
     5
 10
65.963034828377772
 20
-168.48589667452259
 30
0.0
 40
71.130069863320557
 50
57.325343316534067
 51
83.112566193092505
  0
ARC
  8
DETAIL
  6
CONTINUOUS
 62
     5
 10
62.423861806740319
 20
-175.42875625448821
 30
0.0
 40
69.151725296316528
 50
51.259473091618069
 51
80.476009392740906
  0
ARC
  8
DETAIL
  6
CONTINUOUS
 62
     5
 10
11219.78130243888
 20
10821.290974981461
 30
0.0
 40
15596.88453123691
 50
224.56790844743409
 51
225.17391202914891
  0
ARC
  8
DETAIL
  6
CONTINUOUS
 62
     5
 10
-228.10147653786359
 20
-310.7860413161934
 30
0.0
 40
468.51916925551637
 50
356.64448064710302
 51
6.4941980811672284
  0
ARC
  8
DETAIL
  6
CONTINUOUS
 62
     5
 10
241.7631507680513
 20
-252.74008270903391
 30
0.0
 40
4.8180409647547906
 50
200.69802699401751
 51
62.990629232549097
  0
ARC
  8
DETAIL
  6
CONTINUOUS
 62
     5
 10
-156.1304899536533
 20
-309.55213947447282
 30
0.0
 40
405.84536137093829
 50
355.10172768481868
 51
6.760444408684509
  0
ARC
  8
DETAIL
  6
CONTINUOUS
 62
     5
 10
1577.4405799503461
 20
-360.24726202441781
 30
0.0
 40
1338.423403134515
 50
179.3298370165484
 51
180.52897064634249
  0
ARC
  8
DETAIL
  6
CONTINUOUS
 62
     5
 10
-104383.62855735391
 20
-970.73002995750062
 30
0.0
 40
104633.09045605089
 50
0.3275282793396608
 51
0.3394420359521723
  0
ARC
  8
DETAIL
  6
CONTINUOUS
 62
     5
 10
236.95305271773421
 20
-350.82914866421243
 30
0.0
 40
12.89760371823408
 50
34.159426697621072
 51
165.74312279254889
  0
ARC
  8
DETAIL
  6
CONTINUOUS
 62
     5
 10
251.23797396342181
 20
-340.65029425651852
 30
0.0
 40
4.6556356756378916
 50
219.1108594718354
 51
341.70157333627009
  0
ARC
  8
DETAIL
  6
CONTINUOUS
 62
     5
 10
235.36977900250011
 20
-353.15486312305262
 30
0.0
 40
9.342949338780187
 50
36.924415413021087
 51
169.13209275438771
  0
ARC
  8
DETAIL
  6
CONTINUOUS
 62
     5
 10
249.65953073216789
 20
-342.73424685552982
 30
0.0
 40
8.3448600845508647
 50
215.1789144603984
 51
338.05809422285807
  0
LINE
  8
DETAIL
  6
CONTINUOUS
 62
     5
 10
237.25608446443971
 20
-254.4429837845237
 30
0.0
 11
227.46380911612849
 21
-243.7465119136391
 31
0.0
  0
ARC
  8
DETAIL
  6
CONTINUOUS
 62
     5
 10
-14.21791123673381
 20
-271.10397595938838
 30
0.0
 40
261.23209651558852
 50
2.396283231256811
 51
3.7814173683066459
  0
ARC
  8
DETAIL
  6
CONTINUOUS
 62
     5
 10
14.606624192911109
 20
-136.95774186924291
 30
0.0
 40
152.78865778763861
 50
136.79153385793089
 51
178.85401159267201
  0
ARC
  8
DETAIL
  6
CONTINUOUS
 62
     5
 10
19.64042922141925
 20
-145.52930720311409
 30
0.0
 40
158.10247475875661
 50
178.9695293239069
 51
192.517305617023
  0
ARC
  8
DETAIL
  6
CONTINUOUS
 62
     5
 10
-0.7048810962533025
 20
-1.130593792931222
 30
0.0
 40
223.33147447981051
 50
233.13001349880889
 51
256.18259678618188
  0
ARC
  8
DETAIL
  6
CONTINUOUS
 62
     5
 10
0.3894907256089937
 20
4.8170282483245046
 30
0.0
 40
229.36862904200851
 50
256.27196411862889
 51
310.11119436964231
  0
ARC
  8
DETAIL
  6
CONTINUOUS
 62
     5
 10
144.9465016820759
 20
-166.49032701647229
 30
0.0
 40
5.2227183643934243
 50
308.05003232990811
 51
87.738556229189172
  0
ARC
  8
DETAIL
  6
CONTINUOUS
 62
     5
 10
156.0100932344958
 20
0.2839285488878431
 30
0.0
 40
161.9200385365105
 50
243.04775196799989
 51
266.15516137845788
  0
ARC
  8
DETAIL
  6
CONTINUOUS
 62
     5
 10
137.80537309379179
 20
-26.240416294306439
 30
0.0
 40
130.0933846510905
 50
236.5269404343384
 51
244.90017772864411
  0
ARC
  8
DETAIL
  6
CONTINUOUS
 62
     5
 10
47.769747935115447
 20
-153.10020231940419
 30
0.0
 40
25.898738343119572
 50
45.093415596728349
 51
82.707934028495131
  0
ARC
  8
DETAIL
  6
CONTINUOUS
 62
     5
 10
111.13046911208041
 20
84.345905527681452
 30
0.0
 40
155.97543037506699
 50
264.7122224912315
 51
301.5691754694941
  0
ARC
  8
DETAIL
  6
CONTINUOUS
 62
     5
 10
116.21186242233669
 20
89.773764248536736
 30
0.0
 40
158.10247475875661
 50
298.96952932390468
 51
312.51730561699588
  0
ARC
  8
DETAIL
  6
CONTINUOUS
 62
     5
 10
1.331563494166403
 20
-0.0451480395370254
 30
0.0
 40
223.33147447981051
 50
353.13001349882882
 51
16.18259678621579
  0
ARC
  8
DETAIL
  6
CONTINUOUS
 62
     5
 10
-4.181048114942314
 20
-2.0280791178938671
 30
0.0
 40
229.1786046851806
 50
16.274599272098261
 51
43.868097710031471
  0
ARC
  8
DETAIL
  6
CONTINUOUS
 62
     5
 10
-4.3664141966000898
 20
-2.071205261247087
 30
0.0
 40
229.36862904200851
 50
45.345194854957882
 51
70.111194369623448
  0
ARC
  8
DETAIL
  6
CONTINUOUS
 62
     5
 10
71.711601839606374
 20
208.7725161545973
 30
0.0
 40
5.2227183643934243
 50
68.050032329900873
 51
207.73855622920121
  0
ARC
  8
DETAIL
  6
CONTINUOUS
 62
     5
 10
-78.250935953443332
 20
134.96673971340849
 30
0.0
 40
161.9200385365105
 50
3.0477519679928209
 51
26.15516137842344
  0
ARC
  8
DETAIL
  6
CONTINUOUS
 62
     5
 10
-46.177819430147792
 20
132.46316202436921
 30
0.0
 40
130.0933846510905
 50
356.52694043432808
 51
4.9001777286466854
  0
ARC
  8
DETAIL
  6
CONTINUOUS
 62
     5
 10
108.7037905655834
 20
117.91991640389141
 30
0.0
 40
25.898738343119561
 50
165.09341559676321
 51
202.70793402848611
  0
ARC
  8
DETAIL
  6
CONTINUOUS
 62
     5
 10
-127.1175955461968
 20
54.194999235969817
 30
0.0
 40
155.74779106030181
 50
15.14521113662297
 51
61.591509339811253
  0
ARC
  8
DETAIL
  6
CONTINUOUS
 62
     5
 10
-134.5207281495905
 20
55.710394915040297
 30
0.0
 40
158.10247475875661
 50
58.969529323915808
 51
72.517305617043263
  0
ARC
  8
DETAIL
  6
CONTINUOUS
 62
     5
 10
0.7048810962533025
 20
1.130593792930767
 30
0.0
 40
223.33147447981091
 50
113.1300134988285
 51
134.56207195170791
  0
ARC
  8
DETAIL
  6
CONTINUOUS
 62
     5
 10
5.3084869651574991
 20
-2.790971026614216
 30
0.0
 40
229.36862904200851
 50
136.27196411865609
 51
190.11119436963219
  0
ARC
  8
DETAIL
  6
CONTINUOUS
 62
     5
 10
-215.32654002751499
 20
-42.327337177661782
 30
0.0
 40
5.2227183643934243
 50
188.05003232990259
 51
327.73855622918057
  0
ARC
  8
DETAIL
  6
CONTINUOUS
 62
     5
 10
-76.427593786886064
 20
-135.2958163018329
 30
0.0
 40
161.9200385365105
 50
123.0477519679639
 51
146.15516137843051
  0
ARC
  8
DETAIL
  6
CONTINUOUS
 62
     5
 10
-90.295990169477591
 20
-106.26789376959979
 30
0.0
 40
130.0933846510905
 50
116.5269404343537
 51
124.9001777286411
  0
ARC
  8
DETAIL
  6
CONTINUOUS
 62
     5
 10
-155.14197500653239
 20
35.135137875975943
 30
0.0
 40
25.898738343119572
 50
285.09341559674561
 51
322.70793402848238
  0
ARC
  8
DETAIL
  6
CONTINUOUS
 62
     5
 10
71.758819118675092
 20
104.6814798010416
 30
0.0
 40
13.452337661235781
 50
337.32498163438578
 51
14.2407559892274
  0
ARC
  8
DETAIL
  6
CONTINUOUS
 62
     5
 10
110.8366290021349
 20
89.063158877121623
 30
0.0
 40
28.63338262366689
 50
158.63279831897279
 51
188.96431010770681
  0
ARC
  8
DETAIL
  6
CONTINUOUS
 62
     5
 10
-123.30453568171561
 20
7.1030017430173302
 30
0.0
 40
16.687822400446581
 50
101.2939920778107
 51
132.31111126845539
  0
ARC
  8
DETAIL
  6
CONTINUOUS
 62
     5
 10
-137.11980638179921
 20
59.563270259905487
 30
0.0
 40
37.604963092186658
 50
286.28827077943839
 51
301.493175731772
  0
ARC
  8
DETAIL
  6
CONTINUOUS
 62
     5
 10
-110.9132506096812
 20
20.164339356726941
 30
0.0
 40
9.8403191240268146
 50
57.400250595436923
 51
131.82299367721461
  0
ARC
  8
DETAIL
  6
CONTINUOUS
 62
     5
 10
-99.012711466226392
 20
51.179489173139018
 30
0.0
 40
23.669334270606409
 50
253.8116829123031
 51
275.47093535349183
  0
ARC
  8
DETAIL
  6
CONTINUOUS
 62
     5
 10
100.1610143000422
 20
-36.175205554230388
 30
0.0
 40
66.820598367678031
 50
195.94481942966431
 51
247.40995437989241
  0
ARC
  8
DETAIL
  6
CONTINUOUS
 62
     5
 10
100.32016738862519
 20
-35.94566825131642
 30
0.0
 40
76.0349887639982
 50
197.6931379676686
 51
249.6395900222204
  0
ARC
  8
DETAIL
  6
CONTINUOUS
 62
     5
 10
55.580684813568382
 20
-112.9357031998375
 30
0.0
 40
15.165617249017719
 50
213.69444054091329
 51
252.6453549776507
  0
ARC
  8
DETAIL
  6
CONTINUOUS
 62
     5
 10
27.71770151348505
 20
-133.80614978283049
 30
0.0
 40
19.687350952993022
 50
39.253084749461358
 51
68.528361751676812
  0
ARC
  8
DETAIL
  6
CONTINUOUS
 62
     5
 10
37.724611563521307
 20
-106.539772090415
 30
0.0
 40
9.373490776348083
 50
184.69470874104161
 51
252.61611719281149
  0
ARC
  8
DETAIL
  6
CONTINUOUS
 62
     5
 10
-14.231291800636649
 20
-117.4622797015918
 30
0.0
 40
43.807210524860103
 50
13.40415631159739
 51
32.695224870166903
  0
ARC
  8
DETAIL
  6
CONTINUOUS
 62
     5
 10
101.6639741518577
 20
88.91549001943622
 30
0.0
 40
12.01938610662364
 50
134.99999999999079
 51
180.0
  0
ENDSEC
  0
EOF
