  0
SECTION
  2
HEADER
  9
$ACADVER
  1
AC1009
  9
$DWGCODEPAGE
  3
dos932
  9
$INSBASE
 10
0.0
 20
0.0
 30
0.0
  9
$EXTMIN
 10
-391.55271754315248
 20
-438.99534961557401
 30
-0.0000000349181948
  9
$EXTMAX
 10
1025.106823089423
 20
625.80872388301395
 30
0.0000000814935746
  9
$LIMMIN
 10
-2970.0
 20
-2100.0
  9
$LIMMAX
 10
2970.0
 20
2100.0
  9
$ORTHOMODE
 70
     1
  9
$REGENMODE
 70
     1
  9
$FILLMODE
 70
     1
  9
$QTEXTMODE
 70
     0
  9
$MIRRTEXT
 70
     0
  9
$LTSCALE
 40
20.0
  9
$ATTMODE
 70
     1
  9
$TEXTSIZE
 40
64.0
  9
$TRACEWID
 40
0.05
  9
$TEXTSTYLE
  7
STANDARD
  9
$CLAYER
  8
SIZE
  9
$CELTYPE
  6
CONTINUOUS
  9
$CECOLOR
 62
     7
  9
$DIMSCALE
 40
1.0
  9
$DIMASZ
 40
12.0
  9
$DIMEXO
 40
20.0
  9
$DIMDLI
 40
200.0
  9
$DIMRND
 40
0.0
  9
$DIMDLE
 40
0.0
  9
$DIMEXE
 40
20.0
  9
$DIMTP
 40
0.0
  9
$DIMTM
 40
0.0
  9
$DIMTXT
 40
64.0
  9
$DIMCEN
 40
0.09
  9
$DIMTSZ
 40
0.0
  9
$DIMTOL
 70
     0
  9
$DIMLIM
 70
     0
  9
$DIMTIH
 70
     0
  9
$DIMTOH
 70
     0
  9
$DIMSE1
 70
     0
  9
$DIMSE2
 70
     0
  9
$DIMTAD
 70
     1
  9
$DIMZIN
 70
     8
  9
$DIMBLK
  1

  9
$DIMASO
 70
     1
  9
$DIMSHO
 70
     0
  9
$DIMPOST
  1

  9
$DIMAPOST
  1

  9
$DIMALT
 70
     0
  9
$DIMALTD
 70
     2
  9
$DIMALTF
 40
25.399999999999999
  9
$DIMLFAC
 40
1.0
  9
$DIMTOFL
 70
     1
  9
$DIMTVP
 40
0.0
  9
$DIMTIX
 70
     1
  9
$DIMSOXD
 70
     0
  9
$DIMSAH
 70
     0
  9
$DIMBLK1
  1

  9
$DIMBLK2
  1

  9
$DIMSTYLE
  2
STANDARD
  9
$DIMCLRD
 70
     7
  9
$DIMCLRE
 70
     7
  9
$DIMCLRT
 70
     7
  9
$DIMTFAC
 40
1.0
  9
$DIMGAP
 40
25.0
  9
$LUNITS
 70
     2
  9
$LUPREC
 70
     4
  9
$SKETCHINC
 40
0.1
  9
$FILLETRAD
 40
3.0
  9
$AUNITS
 70
     1
  9
$AUPREC
 70
     3
  9
$MENU
  1
ACAD
  9
$ELEVATION
 40
0.0
  9
$PELEVATION
 40
0.0
  9
$THICKNESS
 40
0.0
  9
$LIMCHECK
 70
     0
  9
$CHAMFERA
 40
0.0
  9
$CHAMFERB
 40
0.0
  9
$SKPOLY
 70
     0
  9
$TDCREATE
 40
2453019.62301037
  9
$TDUPDATE
 40
2458949.621818947
  9
$TDINDWG
 40
1.7146803356
  9
$TDUSRTIMER
 40
1.7146803356
  9
$USRTIMER
 70
     1
  9
$ANGBASE
 50
0.0
  9
$ANGDIR
 70
     0
  9
$PDMODE
 70
     3
  9
$PDSIZE
 40
-2.0
  9
$PLINEWID
 40
0.0
  9
$SPLFRAME
 70
     0
  9
$SPLINETYPE
 70
     6
  9
$SPLINESEGS
 70
     8
  9
$SURFTAB1
 70
     6
  9
$SURFTAB2
 70
     6
  9
$SURFTYPE
 70
     6
  9
$SURFU
 70
     6
  9
$SURFV
 70
     6
  9
$UCSNAME
  2

  9
$UCSORG
 10
0.0
 20
0.0
 30
0.0
  9
$UCSXDIR
 10
1.0
 20
0.0
 30
0.0
  9
$UCSYDIR
 10
0.0
 20
1.0
 30
0.0
  9
$PUCSNAME
  2

  9
$PUCSORG
 10
0.0
 20
0.0
 30
0.0
  9
$PUCSXDIR
 10
1.0
 20
0.0
 30
0.0
  9
$PUCSYDIR
 10
0.0
 20
1.0
 30
0.0
  9
$USERI1
 70
     0
  9
$USERI2
 70
     0
  9
$USERI3
 70
     0
  9
$USERI4
 70
     0
  9
$USERI5
 70
     0
  9
$USERR1
 40
20.0
  9
$USERR2
 40
0.0
  9
$USERR3
 40
0.0
  9
$USERR4
 40
0.0
  9
$USERR5
 40
0.0
  9
$WORLDVIEW
 70
     1
  9
$SHADEDGE
 70
     3
  9
$SHADEDIF
 70
    70
  9
$TILEMODE
 70
     1
  9
$MAXACTVP
 70
    48
  9
$PINSBASE
 10
0.0
 20
0.0
 30
0.0
  9
$PLIMCHECK
 70
     0
  9
$PEXTMIN
 10
-100000000000000000000.0
 20
-100000000000000000000.0
 30
-100000000000000000000.0
  9
$PEXTMAX
 10
100000000000000000000.0
 20
100000000000000000000.0
 30
100000000000000000000.0
  9
$PLIMMIN
 10
0.0
 20
0.0
  9
$PLIMMAX
 10
12.0
 20
9.0
  9
$UNITMODE
 70
     0
  9
$VISRETAIN
 70
     0
  9
$PLINEGEN
 70
     0
  9
$PSLTSCALE
 70
     0
  9
$TREEDEPTH
 70
  3020
  9
$ATTDIA
 70
     0
  9
$ATTREQ
 70
     1
  9
$BLIPMODE
 70
     1
  9
$COORDS
 70
     1
  9
$DRAGMODE
 70
     2
  9
$OSMODE
 70
     0
  9
$HANDLING
 70
     0
  9
$HANDSEED
  5
10727
  0
ENDSEC
  0
SECTION
  2
TABLES
  0
TABLE
  2
LTYPE
 70
     2
  0
LTYPE
  2
CONTINUOUS
 70
     0
  3
実線
 72
    65
 73
     0
 40
0.0
  0
LTYPE
  2
DASHDOT
 70
     0
  3
____ _ ____ _ ____ _ ____ _ ____ _ ____ _ ____
 72
    65
 73
     4
 40
5.5
 49
4.0
 49
-0.6
 49
0.3
 49
-0.6
  0
ENDTAB
  0
TABLE
  2
LAYER
 70
    12
  0
LAYER
  2
0
 70
     0
 62
     7
  6
CONTINUOUS
  0
LAYER
  2
BASIS
 70
     0
 62
     6
  6
DASHDOT
  0
LAYER
  2
OUTLINE
 70
     0
 62
     3
  6
CONTINUOUS
  0
LAYER
  2
DETAIL
 70
     0
 62
     5
  6
CONTINUOUS
  0
LAYER
  2
SIZE
 70
     0
 62
    30
  6
CONTINUOUS
  0
LAYER
  2
ARRANGE
 70
     0
 62
     1
  6
CONTINUOUS
  0
LAYER
  2
DEFPOINTS
 70
     0
 62
     7
  6
CONTINUOUS
  0
LAYER
  2
ETC
 70
     0
 62
    61
  6
CONTINUOUS
  0
LAYER
  2
FIX
 70
     0
 62
    11
  6
CONTINUOUS
  0
LAYER
  2
NOTE
 70
     0
 62
     4
  6
CONTINUOUS
  0
LAYER
  2
SERVICESPACE
 70
    64
 62
     2
  6
DASHDOT
  0
LAYER
  2
SYMBOLLINE
 70
    64
 62
    15
  6
CONTINUOUS
  0
ENDTAB
  0
TABLE
  2
STYLE
 70
     1
  0
STYLE
  2
STANDARD
 70
     0
 40
64.0
 41
0.9
 50
0.0
 71
     0
 42
64.0
  3
SIMPLEX.shx
  4
BIGFONT.shx
  0
ENDTAB
  0
TABLE
  2
APPID
 70
    19
  0
APPID
  2
ACAD
 70
     0
  0
APPID
  2
AUTOCAD_POSTSCRIPT_FIGURE
 70
     0
  0
APPID
  2
ACAD_EXEMPT_FROM_CAD_STANDARDS
 70
     0
  0
APPID
  2
ACAD_PSEXT
 70
     0
  0
APPID
  2
ACAUTHENVIRON
 70
     0
  0
APPID
  2
GENIUS_GENOENT_13
 70
     0
  0
APPID
  2
GENIUS_GENCFG_13
 70
     0
  0
APPID
  2
GENIUS_GENCFG0_13
 70
     0
  0
APPID
  2
GENIUS_GENCFG1_13
 70
     0
  0
APPID
  2
GENIUS_GENCFG2_13
 70
     0
  0
APPID
  2
GENIUS_GENCFG3_13
 70
     0
  0
APPID
  2
GENIUS_GENCFG4_13
 70
     0
  0
APPID
  2
GENIUS_GEVCFG0_13
 70
     0
  0
APPID
  2
CONTENTBLOCKICON
 70
     0
  0
APPID
  2
CONTENTBLOCKDESCRIPTION
 70
     0
  0
APPID
  2
ACAD_NAV_VCDISPLAY
 70
     0
  0
APPID
  2
ACAD_MLEADERVER
 70
     0
  0
APPID
  2
ACDBDYNAMICBLOCKTRUENAME
 70
     0
  0
APPID
  2
ACDBDYNAMICBLOCKGUID
 70
     0
  0
ENDTAB
  0
TABLE
  2
DIMSTYLE
 70
     1
  0
DIMSTYLE
  2
STANDARD
 70
     0
  3

  4

  5
_ORIGIN
  6

  7

 40
1.0
 41
12.0
 42
20.0
 43
200.0
 44
20.0
 45
0.0
 46
0.0
 47
0.0
 48
0.0
140
64.0
141
0.09
142
0.0
143
25.399999999999999
144
1.0
145
0.0
146
1.0
147
25.0
 71
     0
 72
     0
 73
     0
 74
     0
 75
     0
 76
     0
 77
     1
 78
     8
170
     0
171
     2
172
     1
173
     0
174
     1
175
     0
176
     7
177
     7
178
     7
  0
ENDTAB
  0
TABLE
  2
VIEW
 70
     1
  0
VIEW
  2
ALL
 70
     0
 40
4282.6198079999986
 10
0.0
 20
41.309904000000003
 41
5940.0
 11
0.0
 21
0.0
 31
1.0
 12
0.0
 22
0.0
 32
0.0
 42
50.0
 43
0.0
 44
0.0
 50
0.0
 71
     0
  0
ENDTAB
  0
TABLE
  2
UCS
 70
     0
  0
ENDTAB
  0
TABLE
  2
VPORT
 70
     1
  0
VPORT
  2
*ACTIVE
 70
     0
 10
0.0
 20
0.0
 11
1.0
 21
1.0
 12
316.77705277313532
 22
93.406687133719913
 13
0.0
 23
0.0
 14
1.0
 24
1.0
 15
0.0
 25
0.0
 16
0.0
 26
0.0
 36
1.0
 17
0.0
 27
0.0
 37
0.0
 40
1071.863548019021
 41
1.747787610619469
 42
50.0
 43
0.0
 44
0.0
 50
0.0
 51
0.0
 71
     0
 72
  1000
 73
     1
 74
     3
 75
     0
 76
     0
 77
     0
 78
     0
  0
ENDTAB
  0
ENDSEC
  0
SECTION
  2
BLOCKS
  0
BLOCK
  8
0
  2
_ORIGIN
 70
     0
 10
0.0
 20
0.0
 30
0.0
  3
_ORIGIN
  1
_ORIGIN
  0
CIRCLE
  8
0
  6
CONTINUOUS
 62
     7
 10
0.0
 20
0.0
 30
0.0
 40
0.5
  0
LINE
  8
0
  6
CONTINUOUS
 62
     7
 10
0.0
 20
0.0
 30
0.0
 11
-1.0
 21
0.0
 31
0.0
  0
ENDBLK
  8
0
  0
ENDSEC
  0
SECTION
  2
ENTITIES
  0
CIRCLE
  8
ARRANGE
  6
CONTINUOUS
 62
     1
 10
0.0
 20
0.0
 30
0.0
 40
40.0
  0
POINT
  8
ARRANGE
  6
CONTINUOUS
 62
     1
 10
-0.0000000000000568
 20
0.0
 30
0.0
 50
359.99829045418988
  0
TEXT
  8
ETC
  6
CONTINUOUS
 62
    61
 10
410.46589233259772
 20
560.97797284437388
 30
0.0
 40
64.0
  1
EWF-45ETA2_5
 41
0.9
  0
TEXT
  8
ETC
  6
CONTINUOUS
 62
    61
 10
406.27989833259733
 20
443.02266282954281
 30
0.0
 40
64.0
  1
産業扇
 41
0.9
  0
TEXT
  8
ETC
  6
CONTINUOUS
 62
    61
 10
456.98129658115352
 20
334.87388994331752
 30
0.0
 40
40.0
  1
EWF-45ETA2
 41
0.9
  0
TEXT
  8
NOTE
  6
CONTINUOUS
 62
     4
 10
-391.528941724449
 20
-424.37655265318813
 30
0.0
 40
64.0
  1
4-φ14
 41
0.9
 72
     2
 11
-111.20894172444901
 21
-424.37655265318813
 31
0.0
  0
LINE
  8
SIZE
  6
CONTINUOUS
 62
    30
 10
10.01615508885294
 20
323.38933764135692
 30
0.0
 11
10.01615508885294
 21
366.23899329382732
 31
0.0
  0
LINE
  8
SIZE
  6
CONTINUOUS
 62
    30
 10
0.0000000000000568
 20
328.49757673667187
 30
0.0
 11
0.0000000000000568
 21
366.23899329382732
 31
0.0
  0
LINE
  8
SIZE
  6
CONTINUOUS
 62
    30
 10
22.01615508885294
 20
346.23899329382732
 30
0.0
 11
34.01615508885294
 21
346.23899329382732
 31
0.0
  0
LINE
  8
SIZE
  6
CONTINUOUS
 62
    30
 10
-11.99999999999994
 20
346.23899329382732
 30
0.0
 11
-157.46056592977169
 21
346.23899329382732
 31
0.0
  0
LINE
  8
SIZE
  6
CONTINUOUS
 62
    30
 10
10.01615508885294
 20
346.23899329382732
 30
0.0
 11
0.0000000000000568
 21
346.23899329382732
 31
0.0
  0
CIRCLE
  8
SIZE
  6
CONTINUOUS
 62
    30
 10
10.01615508885294
 20
346.23899329382732
 30
0.0
 40
6.0
  0
LINE
  8
SIZE
  6
CONTINUOUS
 62
    30
 10
10.01615508885294
 20
346.23899329382732
 30
0.0
 11
22.01615508885294
 21
346.23899329382732
 31
0.0
  0
CIRCLE
  8
SIZE
  6
CONTINUOUS
 62
    30
 10
0.0000000000000568
 20
346.23899329382732
 30
0.0
 40
6.0
  0
LINE
  8
SIZE
  6
CONTINUOUS
 62
    30
 10
0.0000000000000568
 20
346.23899329382732
 30
0.0
 11
-11.99999999999994
 21
346.23899329382732
 31
0.0
  0
TEXT
  8
SIZE
  6
CONTINUOUS
 62
    30
 10
-132.46056592977169
 20
371.23899329382732
 30
0.0
 40
64.0
  1
10
 41
0.9
 72
     1
 11
-91.317708786914579
 21
371.23899329382732
 31
0.0
  0
POINT
  8
DEFPOINTS
  6
CONTINUOUS
 62
    30
 10
10.01615508885294
 20
303.38933764135692
 30
0.0
  0
POINT
  8
DEFPOINTS
  6
CONTINUOUS
 62
    30
 10
0.0000000000000568
 20
308.49757673667187
 30
0.0
  0
POINT
  8
DEFPOINTS
  6
CONTINUOUS
 62
    30
 10
0.0000000000000568
 20
346.23899329382732
 30
0.0
  0
LINE
  8
SIZE
  6
CONTINUOUS
 62
    30
 10
20.03231017770651
 20
313.37318255250398
 30
0.0
 11
20.03231017770651
 21
366.23899329382732
 31
0.0
  0
LINE
  8
SIZE
  6
CONTINUOUS
 62
    30
 10
10.01615508885294
 20
323.38933764135692
 30
0.0
 11
10.01615508885294
 21
366.23899329382732
 31
0.0
  0
LINE
  8
SIZE
  6
CONTINUOUS
 62
    30
 10
-1.98384491114706
 20
346.23899329382732
 30
0.0
 11
-13.98384491114706
 21
346.23899329382732
 31
0.0
  0
LINE
  8
SIZE
  6
CONTINUOUS
 62
    30
 10
32.032310177706513
 20
346.23899329382732
 30
0.0
 11
276.25994873169788
 21
346.23899329382732
 31
0.0
  0
LINE
  8
SIZE
  6
CONTINUOUS
 62
    30
 10
10.01615508885294
 20
346.23899329382732
 30
0.0
 11
20.03231017770651
 21
346.23899329382732
 31
0.0
  0
CIRCLE
  8
SIZE
  6
CONTINUOUS
 62
    30
 10
10.01615508885294
 20
346.23899329382732
 30
0.0
 40
6.0
  0
LINE
  8
SIZE
  6
CONTINUOUS
 62
    30
 10
10.01615508885294
 20
346.23899329382732
 30
0.0
 11
-1.98384491114706
 21
346.23899329382732
 31
0.0
  0
CIRCLE
  8
SIZE
  6
CONTINUOUS
 62
    30
 10
20.03231017770651
 20
346.23899329382732
 30
0.0
 40
6.0
  0
LINE
  8
SIZE
  6
CONTINUOUS
 62
    30
 10
20.03231017770651
 20
346.23899329382732
 30
0.0
 11
32.032310177706513
 21
346.23899329382732
 31
0.0
  0
TEXT
  8
SIZE
  6
CONTINUOUS
 62
    30
 10
168.97423444598391
 20
371.23899329382732
 30
0.0
 40
64.0
  1
10
 41
0.9
 72
     1
 11
210.11709158884099
 21
371.23899329382732
 31
0.0
  0
POINT
  8
DEFPOINTS
  6
CONTINUOUS
 62
    30
 10
20.03231017770651
 20
293.37318255250398
 30
0.0
  0
POINT
  8
DEFPOINTS
  6
CONTINUOUS
 62
    30
 10
10.01615508885294
 20
303.38933764135692
 30
0.0
  0
POINT
  8
DEFPOINTS
  6
CONTINUOUS
 62
    30
 10
10.01615508885294
 20
346.23899329382732
 30
0.0
  0
LINE
  8
SIZE
  6
CONTINUOUS
 62
    30
 10
-18.497576736671761
 20
309.99999999999989
 30
0.0
 11
-268.99560713796319
 21
309.99999999999989
 31
0.0
  0
LINE
  8
SIZE
  6
CONTINUOUS
 62
    30
 10
-18.49999999999994
 20
-309.99999804575413
 30
0.0
 11
-268.99560713796347
 21
-309.99999804575413
 31
0.0
  0
LINE
  8
SIZE
  6
CONTINUOUS
 62
    30
 10
-248.99560713796319
 20
297.99999999999989
 30
0.0
 11
-248.99560713796319
 21
-297.99999804575413
 31
0.0
  0
CIRCLE
  8
SIZE
  6
CONTINUOUS
 62
    30
 10
-248.99560713796319
 20
309.99999999999989
 30
0.0
 40
6.0
  0
LINE
  8
SIZE
  6
CONTINUOUS
 62
    30
 10
-248.99560713796319
 20
309.99999999999989
 30
0.0
 11
-248.99560713796319
 21
297.99999999999989
 31
0.0
  0
CIRCLE
  8
SIZE
  6
CONTINUOUS
 62
    30
 10
-248.99560713796319
 20
-309.99999804575413
 30
0.0
 40
6.0
  0
LINE
  8
SIZE
  6
CONTINUOUS
 62
    30
 10
-248.99560713796319
 20
-309.99999804575413
 30
0.0
 11
-248.99560713796319
 21
-297.99999804575413
 31
0.0
  0
TEXT
  8
SIZE
  6
CONTINUOUS
 62
    30
 10
-273.99560713796347
 20
-80.859766315695964
 30
0.0
 40
64.0
  1
620
 50
90.0
 41
0.9
 72
     1
 11
-273.99560713796347
 21
-6.8026234585531142
 31
0.0
  0
POINT
  8
DEFPOINTS
  6
CONTINUOUS
 62
    30
 10
1.5024232633282391
 20
309.99999999999989
 30
0.0
  0
POINT
  8
DEFPOINTS
  6
CONTINUOUS
 62
    30
 10
1.5000000000000571
 20
-309.99999804575413
 30
0.0
  0
POINT
  8
DEFPOINTS
  6
CONTINUOUS
 62
    30
 10
-248.99560713796319
 20
-309.99999804575413
 30
0.0
  0
LINE
  8
SIZE
  6
CONTINUOUS
 62
    30
 10
-42.666512094396182
 20
280.45234248788358
 30
0.0
 11
-150.43124537190661
 21
280.45234248788358
 31
0.0
  0
LINE
  8
SIZE
  6
CONTINUOUS
 62
    30
 10
-42.666512094396182
 20
-280.45234248788358
 30
0.0
 11
-150.4312453719067
 21
-280.45234248788353
 31
0.0
  0
LINE
  8
SIZE
  6
CONTINUOUS
 62
    30
 10
-130.4312453719065
 20
268.45234248788358
 30
0.0
 11
-130.43124537190681
 21
-268.45234248788353
 31
0.0
  0
CIRCLE
  8
SIZE
  6
CONTINUOUS
 62
    30
 10
-130.4312453719065
 20
280.45234248788358
 30
0.0
 40
6.0
  0
LINE
  8
SIZE
  6
CONTINUOUS
 62
    30
 10
-130.4312453719065
 20
280.45234248788358
 30
0.0
 11
-130.4312453719065
 21
268.45234248788358
 31
0.0
  0
CIRCLE
  8
SIZE
  6
CONTINUOUS
 62
    30
 10
-130.43124537190681
 20
-280.45234248788353
 30
0.0
 40
6.0
  0
LINE
  8
SIZE
  6
CONTINUOUS
 62
    30
 10
-130.43124537190681
 20
-280.45234248788353
 30
0.0
 11
-130.43124537190681
 21
-268.45234248788353
 31
0.0
  0
TEXT
  8
SIZE
  6
CONTINUOUS
 62
    30
 10
-155.43124537190661
 20
-74.057142857142793
 30
0.0
 40
64.0
  1
560
 50
90.0
 41
0.9
 72
     1
 11
-155.43124537190661
 21
0.0000000000000568
 31
0.0
  0
POINT
  8
DEFPOINTS
  6
CONTINUOUS
 62
    30
 10
-22.666512094396179
 20
280.45234248788358
 30
0.0
  0
POINT
  8
DEFPOINTS
  6
CONTINUOUS
 62
    30
 10
-22.666512094396179
 20
-280.45234248788358
 30
0.0
  0
POINT
  8
DEFPOINTS
  6
CONTINUOUS
 62
    30
 10
-130.43124537190681
 20
-280.45234248788353
 30
0.0
  0
CIRCLE
  8
FIX
  6
CONTINUOUS
 62
    11
 10
0.0000000000000568
 20
-280.45234248788358
 30
0.0
 40
7.0
  0
CIRCLE
  8
FIX
  6
CONTINUOUS
 62
    11
 10
0.0000000000000568
 20
280.45234248788358
 30
0.0
 40
7.0
  0
LINE
  8
SIZE
  6
CONTINUOUS
 62
    30
 10
0.0000000000000568
 20
328.49757673667187
 30
0.0
 11
0.0000000000000568
 21
476.47442968757059
 31
0.0
  0
LINE
  8
SIZE
  6
CONTINUOUS
 62
    30
 10
111.57996768982279
 20
288.43295638125988
 30
0.0
 11
111.57996768982279
 21
476.47442968757059
 31
0.0
  0
LINE
  8
SIZE
  6
CONTINUOUS
 62
    30
 10
99.579967689822809
 20
456.47442968757059
 30
0.0
 11
12.00000000000006
 21
456.47442968757059
 31
0.0
  0
LINE
  8
SIZE
  6
CONTINUOUS
 62
    30
 10
0.0000000000000568
 20
456.47442968757059
 30
0.0
 11
-182.4891373583431
 21
456.47442968757059
 31
0.0
  0
CIRCLE
  8
SIZE
  6
CONTINUOUS
 62
    30
 10
111.57996768982279
 20
456.47442968757059
 30
0.0
 40
6.0
  0
LINE
  8
SIZE
  6
CONTINUOUS
 62
    30
 10
111.57996768982279
 20
456.47442968757059
 30
0.0
 11
99.579967689822809
 21
456.47442968757059
 31
0.0
  0
CIRCLE
  8
SIZE
  6
CONTINUOUS
 62
    30
 10
0.0000000000000568
 20
456.47442968757059
 30
0.0
 40
6.0
  0
LINE
  8
SIZE
  6
CONTINUOUS
 62
    30
 10
0.0000000000000568
 20
456.47442968757059
 30
0.0
 11
12.00000000000006
 21
456.47442968757059
 31
0.0
  0
TEXT
  8
SIZE
  6
CONTINUOUS
 62
    30
 10
-157.48913735834321
 20
481.47442968757059
 30
0.0
 40
64.0
  1
111
 41
0.9
 72
     1
 11
-106.746280215486
 21
481.47442968757059
 31
0.0
  0
POINT
  8
DEFPOINTS
  6
CONTINUOUS
 62
    30
 10
0.0000000000000568
 20
308.49757673667187
 30
0.0
  0
POINT
  8
DEFPOINTS
  6
CONTINUOUS
 62
    30
 10
111.57996768982279
 20
268.43295638125988
 30
0.0
  0
POINT
  8
DEFPOINTS
  6
CONTINUOUS
 62
    30
 10
111.57996768982279
 20
456.47442968757059
 30
0.0
  0
LINE
  8
SIZE
  6
CONTINUOUS
 62
    30
 10
0.0000000000000568
 20
328.49757673667187
 30
0.0
 11
0.0000000000000568
 21
556.65553553870768
 31
0.0
  0
LINE
  8
SIZE
  6
CONTINUOUS
 62
    30
 10
315.10749224586101
 20
-28.55900123239957
 30
0.0
 11
315.10749224586101
 21
556.65553553870768
 31
0.0
  0
LINE
  8
SIZE
  6
CONTINUOUS
 62
    30
 10
12.00000000000006
 20
536.65553553870768
 30
0.0
 11
303.10749224586101
 21
536.65553553870768
 31
0.0
  0
CIRCLE
  8
SIZE
  6
CONTINUOUS
 62
    30
 10
0.0000000000000568
 20
536.65553553870768
 30
0.0
 40
6.0
  0
LINE
  8
SIZE
  6
CONTINUOUS
 62
    30
 10
0.0000000000000568
 20
536.65553553870768
 30
0.0
 11
12.00000000000006
 21
536.65553553870768
 31
0.0
  0
CIRCLE
  8
SIZE
  6
CONTINUOUS
 62
    30
 10
315.10749224586101
 20
536.65553553870768
 30
0.0
 40
6.0
  0
LINE
  8
SIZE
  6
CONTINUOUS
 62
    30
 10
315.10749224586101
 20
536.65553553870768
 30
0.0
 11
303.10749224586101
 21
536.65553553870768
 31
0.0
  0
TEXT
  8
SIZE
  6
CONTINUOUS
 62
    30
 10
88.982317551501907
 20
561.65553553870768
 30
0.0
 40
64.0
  1
315
 41
0.9
 72
     1
 11
157.55374612293051
 21
561.65553553870768
 31
0.0
  0
POINT
  8
DEFPOINTS
  6
CONTINUOUS
 62
    30
 10
0.0000000000000568
 20
308.49757673667187
 30
0.0
  0
POINT
  8
DEFPOINTS
  6
CONTINUOUS
 62
    30
 10
315.10749224586101
 20
-48.559001232399567
 30
0.0
  0
POINT
  8
DEFPOINTS
  6
CONTINUOUS
 62
    30
 10
315.10749224586101
 20
536.65553553870768
 30
0.0
  0
TEXT
  8
NOTE
  6
CONTINUOUS
 62
     4
 10
262.26614815296688
 20
-383.60710404418882
 30
0.0
 40
64.0
  1
EL
 41
0.9
  0
LINE
  8
SIZE
  6
CONTINUOUS
 62
    30
 10
325.19224555735008
 20
65.305331179321456
 30
0.0
 11
531.38404851243013
 21
65.305331179321399
 31
0.0
  0
LINE
  8
SIZE
  6
CONTINUOUS
 62
    30
 10
325.19224555735042
 20
-65.30533117932157
 30
0.0
 11
531.38404851243013
 21
-65.305331179321627
 31
0.0
  0
LINE
  8
SIZE
  6
CONTINUOUS
 62
    30
 10
511.38404851243013
 20
53.305331179321399
 30
0.0
 11
511.38404851243013
 21
-53.305331179321627
 31
0.0
  0
LINE
  8
SIZE
  6
CONTINUOUS
 62
    30
 10
511.38404851243013
 20
-65.305331179321627
 30
0.0
 11
511.38404851243013
 21
-300.10533117932181
 31
0.0
  0
CIRCLE
  8
SIZE
  6
CONTINUOUS
 62
    30
 10
511.38404851243013
 20
65.305331179321399
 30
0.0
 40
6.0
  0
LINE
  8
SIZE
  6
CONTINUOUS
 62
    30
 10
511.38404851243013
 20
65.305331179321399
 30
0.0
 11
511.38404851243013
 21
53.305331179321399
 31
0.0
  0
CIRCLE
  8
SIZE
  6
CONTINUOUS
 62
    30
 10
511.38404851243013
 20
-65.305331179321627
 30
0.0
 40
6.0
  0
LINE
  8
SIZE
  6
CONTINUOUS
 62
    30
 10
511.38404851243013
 20
-65.305331179321627
 30
0.0
 11
511.38404851243013
 21
-53.305331179321627
 31
0.0
  0
TEXT
  8
SIZE
  6
CONTINUOUS
 62
    30
 10
475.71738184576361
 20
-285.253902607893
 30
0.0
 40
64.0
  1
φ131
 50
90.0
 41
0.9
 72
     1
 11
475.71738184576361
 21
-188.70533117932149
 31
0.0
  0
POINT
  8
DEFPOINTS
  6
CONTINUOUS
 62
    30
 10
305.19224555735008
 20
65.305331179321456
 30
0.0
  0
POINT
  8
DEFPOINTS
  6
CONTINUOUS
 62
    30
 10
305.19224555735042
 20
-65.30533117932157
 30
0.0
  0
POINT
  8
DEFPOINTS
  6
CONTINUOUS
 62
    30
 10
511.38404851243013
 20
-65.305331179321627
 30
0.0
  0
LINE
  8
NOTE
  6
CONTINUOUS
 62
     4
 10
-22.666512094396179
 20
280.45234248788358
 30
0.0
 11
32.533798001569551
 21
280.45234248788358
 31
0.0
  0
LINE
  8
NOTE
  6
CONTINUOUS
 62
     4
 10
-22.666512094396179
 20
-280.45234248788358
 30
0.0
 11
32.533798001569551
 21
-280.45234248788358
 31
0.0
  0
LINE
  8
DETAIL
  6
CONTINUOUS
 62
     4
 10
-4.6352176254301298
 20
-284.58749143984431
 30
0.0
 11
0.0000000000000568
 21
-280.45234248788358
 31
0.0
  0
LINE
  8
DETAIL
  6
CONTINUOUS
 62
     4
 10
0.0000000000000568
 20
-280.45234248788358
 30
0.0
 11
-1.946632850620688
 21
-286.35109827490209
 31
0.0
  0
LINE
  8
DETAIL
  6
CONTINUOUS
 62
     4
 10
0.0000000000000568
 20
-280.45234248788358
 30
0.0
 11
-6.5818504760508736
 21
-290.48624722686282
 31
0.0
  0
LINE
  8
NOTE
  6
CONTINUOUS
 62
     4
 10
-6.5818504760508736
 20
-290.48624722686282
 30
0.0
 11
-103.8777347687131
 21
-438.81195563357358
 31
0.0
  0
LINE
  8
NOTE
  6
CONTINUOUS
 62
     4
 10
-103.8777347687131
 20
-438.81195563357358
 30
0.0
 11
-389.7748371153848
 21
-438.50181524597951
 31
0.0
  0
LINE
  8
DETAIL
  6
CONTINUOUS
 62
     4
 10
110.647393274922
 20
-267.63256114610198
 30
0.0
 11
107.9048975618288
 21
-262.05910471820522
 31
0.0
  0
LINE
  8
DETAIL
  6
CONTINUOUS
 62
     4
 10
107.9048975618288
 20
-262.05910471820522
 30
0.0
 11
113.0667019403347
 21
-265.51460393655799
 31
0.0
  0
LINE
  8
DETAIL
  6
CONTINUOUS
 62
     4
 10
107.9048975618288
 20
-262.05910471820522
 30
0.0
 11
115.8091976534279
 21
-271.08806036445492
 31
0.0
  0
LINE
  8
NOTE
  6
CONTINUOUS
 62
     4
 10
115.809197653428
 20
-271.08806036445492
 30
0.0
 11
237.26614815296759
 21
-409.8263934591954
 31
0.0
  0
LINE
  8
NOTE
  6
CONTINUOUS
 62
     4
 10
237.26614815296759
 20
-409.8263934591954
 30
0.0
 11
356.48305709991058
 21
-409.29602192148502
 31
0.0
  0
LINE
  8
OUTLINE
  6
CONTINUOUS
 62
     3
 10
111.5799676898225
 20
268.43295638126011
 30
0.0
 11
111.5799676898225
 21
261.32961628963932
 31
0.0
  0
LINE
  8
OUTLINE
  6
CONTINUOUS
 62
     3
 10
111.5799676898225
 20
-261.32961628886312
 30
0.0
 11
111.5799676898225
 21
-268.43295638126023
 31
0.0
  0
LINE
  8
OUTLINE
  6
CONTINUOUS
 62
     3
 10
6.410339256865484
 20
-306.99515347334432
 30
0.0
 11
3.0048465266561948
 21
-306.99515347334432
 31
0.0
  0
LINE
  8
OUTLINE
  6
CONTINUOUS
 62
     3
 10
16.426494345718819
 20
-296.97899838449132
 30
0.0
 11
13.89004062544001
 21
-296.97899838449132
 31
0.0
  0
LINE
  8
OUTLINE
  6
CONTINUOUS
 62
     3
 10
20.032310177706051
 20
-291.97092084006471
 30
0.0
 11
20.533117932148631
 21
-291.97092084006471
 31
0.0
  0
LINE
  8
OUTLINE
  6
CONTINUOUS
 62
     3
 10
57.843295638125539
 20
-264.4758163019124
 30
0.0
 11
61.348949919224708
 21
-264.4758163019124
 31
0.0
  0
LINE
  8
OUTLINE
  6
CONTINUOUS
 62
     3
 10
20.032310177706051
 20
-261.92245557350572
 30
0.0
 11
20.533117932148631
 21
-261.92245557350572
 31
0.0
  0
LINE
  8
OUTLINE
  6
CONTINUOUS
 62
     3
 10
178.28756058158331
 20
-261.32961628886312
 30
0.0
 11
20.032310177706051
 21
-261.32961628886312
 31
0.0
  0
LINE
  8
OUTLINE
  6
CONTINUOUS
 62
     3
 10
289.46688206785137
 20
-95.153473344103531
 30
0.0
 11
286.46203554119558
 21
-95.153473344103531
 31
0.0
  0
LINE
  8
OUTLINE
  6
CONTINUOUS
 62
     3
 10
286.46203554119558
 20
-94.652665589660785
 30
0.0
 11
290.46849757673641
 21
-94.652665589660785
 31
0.0
  0
LINE
  8
OUTLINE
  6
CONTINUOUS
 62
     3
 10
305.19224555735042
 20
-65.30533117932157
 30
0.0
 11
290.46849757673641
 21
-65.30533117932157
 31
0.0
  0
LINE
  8
OUTLINE
  6
CONTINUOUS
 62
     3
 10
313.10500807754448
 20
-53.285945072697977
 30
0.0
 11
312.60420032310162
 21
-53.285945072697977
 31
0.0
  0
LINE
  8
OUTLINE
  6
CONTINUOUS
 62
     3
 10
313.10500807754448
 20
-43.870759289176192
 30
0.0
 11
312.60420032310162
 21
-43.870759289176192
 31
0.0
  0
LINE
  8
OUTLINE
  6
CONTINUOUS
 62
     3
 10
0.0000000000000568
 20
308.49757673667187
 30
0.0
 11
0.0000000000000568
 21
-308.49757673667222
 31
0.0
  0
LINE
  8
OUTLINE
  6
CONTINUOUS
 62
     3
 10
3.0048465266561948
 20
308.49757673667187
 30
0.0
 11
3.0048465266561948
 21
306.99515347334398
 31
0.0
  0
LINE
  8
OUTLINE
  6
CONTINUOUS
 62
     3
 10
10.01615508885294
 20
303.38933764135692
 30
0.0
 11
10.01615508885294
 21
300.17892012300388
 31
0.0
  0
LINE
  8
OUTLINE
  6
CONTINUOUS
 62
     3
 10
10.01615508885294
 20
-300.17892012222762
 30
0.0
 11
10.01615508885294
 21
-303.38933764135697
 31
0.0
  0
LINE
  8
OUTLINE
  6
CONTINUOUS
 62
     3
 10
20.032310177706051
 20
293.37318255250398
 30
0.0
 11
20.032310177706051
 21
261.32961628963932
 31
0.0
  0
LINE
  8
OUTLINE
  6
CONTINUOUS
 62
     3
 10
20.032310177706051
 20
-261.32961628886312
 30
0.0
 11
20.032310177706051
 21
-293.37318255250409
 31
0.0
  0
LINE
  8
OUTLINE
  6
CONTINUOUS
 62
     3
 10
20.533117932148631
 20
-261.92246381548142
 30
0.0
 11
20.533117932148631
 21
-291.97092084006471
 31
0.0
  0
LINE
  8
OUTLINE
  6
CONTINUOUS
 62
     3
 10
57.843295638125539
 20
-261.32961628886312
 30
0.0
 11
57.843295638125539
 21
-264.47575240194868
 31
0.0
  0
LINE
  8
OUTLINE
  6
CONTINUOUS
 62
     3
 10
61.348949919224708
 20
-261.32961628886312
 30
0.0
 11
61.348949919224708
 21
-264.47575240194868
 31
0.0
  0
LINE
  8
OUTLINE
  6
CONTINUOUS
 62
     3
 10
305.19224555735042
 20
65.305331179321456
 30
0.0
 11
290.46849757673641
 21
65.305331179321456
 31
0.0
  0
LINE
  8
OUTLINE
  6
CONTINUOUS
 62
     3
 10
286.46203554119558
 20
94.652665589660785
 30
0.0
 11
290.46849757673641
 21
94.652665589660785
 31
0.0
  0
LINE
  8
OUTLINE
  6
CONTINUOUS
 62
     3
 10
107.57350565428111
 20
-268.43295638126023
 30
0.0
 11
107.57350565428111
 21
-261.32961628886312
 31
0.0
  0
LINE
  8
OUTLINE
  6
CONTINUOUS
 62
     3
 10
107.57350565428111
 20
261.32961628963932
 30
0.0
 11
107.57350565428111
 21
268.43295638126011
 31
0.0
  0
LINE
  8
OUTLINE
  6
CONTINUOUS
 62
     3
 10
111.5799676898225
 20
-268.43295638126023
 30
0.0
 11
111.5799676898225
 21
-261.32961628886312
 31
0.0
  0
LINE
  8
OUTLINE
  6
CONTINUOUS
 62
     3
 10
111.5799676898225
 20
261.32961628963932
 30
0.0
 11
111.5799676898225
 21
268.43295638126011
 31
0.0
  0
LINE
  8
OUTLINE
  6
CONTINUOUS
 62
     3
 10
20.032310177706051
 20
261.32961628963932
 30
0.0
 11
178.28756058158331
 21
261.32961628963932
 31
0.0
  0
LINE
  8
OUTLINE
  6
CONTINUOUS
 62
     3
 10
286.46203554119558
 20
-180.5892167830084
 30
0.0
 11
286.46203554119558
 21
-94.652665589660785
 31
0.0
  0
LINE
  8
OUTLINE
  6
CONTINUOUS
 62
     3
 10
289.46688206785137
 20
-95.153473344103531
 30
0.0
 11
289.46688206785137
 21
-94.652665589660785
 31
0.0
  0
LINE
  8
OUTLINE
  6
CONTINUOUS
 62
     3
 10
290.46849757673641
 20
94.652665589660785
 30
0.0
 11
290.46849757673641
 21
65.305331179321456
 31
0.0
  0
LINE
  8
OUTLINE
  6
CONTINUOUS
 62
     3
 10
312.60420032310162
 20
57.893376413570188
 30
0.0
 11
312.60420032310162
 21
-57.893376413570373
 31
0.0
  0
LINE
  8
OUTLINE
  6
CONTINUOUS
 62
     3
 10
313.10500807754448
 20
-43.870759289176192
 30
0.0
 11
313.10500807754448
 21
-53.285945072697977
 31
0.0
  0
LINE
  8
OUTLINE
  6
CONTINUOUS
 62
     3
 10
13.89004062544001
 20
296.97899838449098
 30
0.0
 11
16.426494345718819
 21
296.97899838449098
 31
0.0
  0
LINE
  8
OUTLINE
  6
CONTINUOUS
 62
     3
 10
3.0048465266561948
 20
306.99515347334398
 30
0.0
 11
6.410339256865484
 21
306.99515347334398
 31
0.0
  0
ARC
  8
OUTLINE
  6
CONTINUOUS
 62
     3
 10
6.410339256865484
 20
-303.38933764135697
 30
0.0
 40
3.605815831987115
 50
270.0
 51
0.0
  0
ARC
  8
OUTLINE
  6
CONTINUOUS
 62
     3
 10
16.426494345718819
 20
-293.37318255250409
 30
0.0
 40
3.605815831987059
 50
270.0
 51
0.0
  0
ARC
  8
OUTLINE
  6
CONTINUOUS
 62
     3
 10
109.57673667205169
 20
-268.43295638126023
 30
0.0
 40
2.0032310177707591
 50
180.0
 51
0.0
  0
ARC
  8
OUTLINE
  6
CONTINUOUS
 62
     3
 10
1.5024232633282391
 20
-308.49757673667222
 30
0.0
 40
1.5024232633281831
 50
180.0
 51
0.0
  0
ARC
  8
OUTLINE
  6
CONTINUOUS
 62
     3
 10
6.410339256865484
 20
303.38933764135692
 30
0.0
 40
3.6058158319872282
 50
0.0
 51
90.0
  0
ARC
  8
OUTLINE
  6
CONTINUOUS
 62
     3
 10
16.426494345718819
 20
293.37318255250398
 30
0.0
 40
3.6058158319872282
 50
0.0
 51
90.0
  0
ARC
  8
OUTLINE
  6
CONTINUOUS
 62
     3
 10
109.57673667205169
 20
268.43295638126011
 30
0.0
 40
2.0032310177705308
 50
0.0
 51
180.0
  0
ARC
  8
OUTLINE
  6
CONTINUOUS
 62
     3
 10
1.5024232633282391
 20
308.49757673667187
 30
0.0
 40
1.5024232633277279
 50
0.0
 51
180.0
  0
ARC
  8
OUTLINE
  6
CONTINUOUS
 62
     3
 10
305.19224555735042
 20
-57.893376413570373
 30
0.0
 40
7.4119547657512124
 50
270.0
 51
0.0
  0
ARC
  8
OUTLINE
  6
CONTINUOUS
 62
     3
 10
308.57520193861052
 20
-48.578352180937031
 30
0.0
 40
6.5330371567044256
 50
313.89739816710158
 51
46.102601832898273
  0
ARC
  8
OUTLINE
  6
CONTINUOUS
 62
     3
 10
305.19224555735042
 20
57.893376413570188
 30
0.0
 40
7.4119547657510338
 50
0.0
 51
90.0
  0
LINE
  8
OUTLINE
  6
CONTINUOUS
 62
     3
 10
297.27466245116523
 20
-65.305568594031399
 30
0.0
 11
296.94029138203462
 21
-65.957728989852626
 31
0.0
  0
LINE
  8
OUTLINE
  6
CONTINUOUS
 62
     3
 10
296.94029138203462
 20
-65.957728989852626
 30
0.0
 11
296.59917065333673
 21
-66.604266129091286
 31
0.0
  0
LINE
  8
OUTLINE
  6
CONTINUOUS
 62
     3
 10
296.59917065333673
 20
-66.604266129091286
 30
0.0
 11
296.59917065333673
 21
-66.604266129091286
 31
0.0
  0
LINE
  8
OUTLINE
  6
CONTINUOUS
 62
     3
 10
296.59917065333673
 20
-66.604266129091286
 30
0.0
 11
296.24600788645319
 21
-67.241044666401649
 31
0.0
  0
LINE
  8
OUTLINE
  6
CONTINUOUS
 62
     3
 10
296.24600788645319
 20
-67.241044666401649
 30
0.0
 11
295.88133982655881
 21
-67.869880901385841
 31
0.0
  0
LINE
  8
OUTLINE
  6
CONTINUOUS
 62
     3
 10
295.88133982655881
 20
-67.869880901385841
 30
0.0
 11
295.88133982655881
 21
-67.869880901385841
 31
0.0
  0
LINE
  8
OUTLINE
  6
CONTINUOUS
 62
     3
 10
295.88133982655881
 20
-67.869880901385841
 30
0.0
 11
295.50754656505171
 21
-68.492576702441397
 31
0.0
  0
LINE
  8
OUTLINE
  6
CONTINUOUS
 62
     3
 10
295.50754656505171
 20
-68.492576702441397
 30
0.0
 11
295.12855245442262
 21
-69.104924568200772
 31
0.0
  0
LINE
  8
OUTLINE
  6
CONTINUOUS
 62
     3
 10
295.12855245442262
 20
-69.104924568200772
 30
0.0
 11
295.12855245442262
 21
-69.104924568200772
 31
0.0
  0
LINE
  8
OUTLINE
  6
CONTINUOUS
 62
     3
 10
295.12855245442262
 20
-69.104924568200772
 30
0.0
 11
294.7456663703943
 21
-69.70573611338358
 31
0.0
  0
LINE
  8
OUTLINE
  6
CONTINUOUS
 62
     3
 10
294.7456663703943
 20
-69.70573611338358
 30
0.0
 11
294.34819102051682
 21
-70.311908786821505
 31
0.0
  0
LINE
  8
OUTLINE
  6
CONTINUOUS
 62
     3
 10
294.34819102051682
 20
-70.311908786821505
 30
0.0
 11
294.34819102051682
 21
-70.311908786821505
 31
0.0
  0
LINE
  8
OUTLINE
  6
CONTINUOUS
 62
     3
 10
294.34819102051682
 20
-70.311908786821505
 30
0.0
 11
293.93404767319561
 21
-70.92827800420315
 31
0.0
  0
LINE
  8
OUTLINE
  6
CONTINUOUS
 62
     3
 10
293.93404767319561
 20
-70.92827800420315
 30
0.0
 11
293.54763800843187
 21
-71.49334521453352
 31
0.0
  0
LINE
  8
OUTLINE
  6
CONTINUOUS
 62
     3
 10
293.54763800843187
 20
-71.49334521453352
 30
0.0
 11
293.54763800843187
 21
-71.49334521453352
 31
0.0
  0
LINE
  8
OUTLINE
  6
CONTINUOUS
 62
     3
 10
293.54763800843187
 20
-71.49334521453352
 30
0.0
 11
293.22665997090547
 21
-71.955375172437414
 31
0.0
  0
LINE
  8
OUTLINE
  6
CONTINUOUS
 62
     3
 10
293.22665997090547
 20
-71.955375172437414
 30
0.0
 11
292.93551615241711
 21
-72.368019821703115
 31
0.0
  0
LINE
  8
OUTLINE
  6
CONTINUOUS
 62
     3
 10
292.93551615241711
 20
-72.368019821703115
 30
0.0
 11
292.93551615241711
 21
-72.368019821703115
 31
0.0
  0
LINE
  8
OUTLINE
  6
CONTINUOUS
 62
     3
 10
292.93551615241711
 20
-72.368019821703115
 30
0.0
 11
292.63175330841989
 21
-72.794375258703894
 31
0.0
  0
LINE
  8
OUTLINE
  6
CONTINUOUS
 62
     3
 10
292.63175330841989
 20
-72.794375258703894
 30
0.0
 11
292.31879020186062
 21
-73.229927000990472
 31
0.0
  0
LINE
  8
OUTLINE
  6
CONTINUOUS
 62
     3
 10
292.31879020186062
 20
-73.229927000990472
 30
0.0
 11
292.31879020186062
 21
-73.229927000990472
 31
0.0
  0
LINE
  8
OUTLINE
  6
CONTINUOUS
 62
     3
 10
292.31879020186062
 20
-73.229927000990472
 30
0.0
 11
292.00842827142333
 21
-73.657811146889173
 31
0.0
  0
LINE
  8
OUTLINE
  6
CONTINUOUS
 62
     3
 10
292.00842827142333
 20
-73.657811146889173
 30
0.0
 11
291.70012765125603
 21
-74.07937669665057
 31
0.0
  0
LINE
  8
OUTLINE
  6
CONTINUOUS
 62
     3
 10
291.70012765125603
 20
-74.07937669665057
 30
0.0
 11
291.70012765125603
 21
-74.07937669665057
 31
0.0
  0
LINE
  8
OUTLINE
  6
CONTINUOUS
 62
     3
 10
291.70012765125603
 20
-74.07937669665057
 30
0.0
 11
291.39113645203588
 21
-74.49921561878773
 31
0.0
  0
LINE
  8
OUTLINE
  6
CONTINUOUS
 62
     3
 10
291.39113645203588
 20
-74.49921561878773
 30
0.0
 11
291.08219599509789
 21
-74.916678852938276
 31
0.0
  0
LINE
  8
OUTLINE
  6
CONTINUOUS
 62
     3
 10
291.08219599509789
 20
-74.916678852938276
 30
0.0
 11
291.08219599509789
 21
-74.916678852938276
 31
0.0
  0
LINE
  8
OUTLINE
  6
CONTINUOUS
 62
     3
 10
291.08219599509789
 20
-74.916678852938276
 30
0.0
 11
290.77451301991903
 21
-75.330494884915424
 31
0.0
  0
LINE
  8
OUTLINE
  6
CONTINUOUS
 62
     3
 10
290.77451301991903
 20
-75.330494884915424
 30
0.0
 11
290.46766272788062
 21
-75.742143414108796
 31
0.0
  0
LINE
  8
DETAIL
  6
CONTINUOUS
 62
     5
 10
248.4006462035538
 20
85.638126009693053
 30
0.0
 11
245.39579967689789
 21
85.638126009693053
 31
0.0
  0
LINE
  8
DETAIL
  6
CONTINUOUS
 62
     5
 10
49.479806138933498
 20
-228.9693053311793
 30
0.0
 11
71.515347334410478
 21
-228.9693053311793
 31
0.0
  0
LINE
  8
DETAIL
  6
CONTINUOUS
 62
     5
 10
248.4006462035538
 20
-85.63812600969311
 30
0.0
 11
245.39579967689789
 21
-85.63812600969311
 31
0.0
  0
LINE
  8
DETAIL
  6
CONTINUOUS
 62
     5
 10
237.38287560581571
 20
-79.628432956381403
 30
0.0
 11
245.39579967689789
 21
-79.628432956381403
 31
0.0
  0
LINE
  8
DETAIL
  6
CONTINUOUS
 62
     5
 10
237.38287560581571
 20
-74.62035541195479
 30
0.0
 11
245.39579967689789
 21
-74.62035541195479
 31
0.0
  0
LINE
  8
DETAIL
  6
CONTINUOUS
 62
     5
 10
248.4006462035538
 20
-63.549721702295642
 30
0.0
 11
245.39579967689789
 21
-63.549721702295642
 31
0.0
  0
LINE
  8
DETAIL
  6
CONTINUOUS
 62
     5
 10
248.4006462035538
 20
63.549721703071903
 30
0.0
 11
245.39579967689789
 21
63.549721703071903
 31
0.0
  0
LINE
  8
DETAIL
  6
CONTINUOUS
 62
     5
 10
237.38287560581571
 20
74.620355411954563
 30
0.0
 11
245.39579967689789
 21
74.620355411954563
 31
0.0
  0
LINE
  8
DETAIL
  6
CONTINUOUS
 62
     5
 10
237.38287560581571
 20
79.628432956381232
 30
0.0
 11
245.39579967689789
 21
79.628432956381232
 31
0.0
  0
LINE
  8
DETAIL
  6
CONTINUOUS
 62
     5
 10
111.5799676898225
 20
268.43295638126011
 30
0.0
 11
111.5799676898225
 21
261.32961628963932
 31
0.0
  0
LINE
  8
DETAIL
  6
CONTINUOUS
 62
     5
 10
111.5799676898225
 20
230.1666550768808
 30
0.0
 11
111.5799676898225
 21
-230.16665507610429
 31
0.0
  0
LINE
  8
DETAIL
  6
CONTINUOUS
 62
     5
 10
111.5799676898225
 20
-261.32961628886312
 30
0.0
 11
111.5799676898225
 21
-268.43295638126023
 31
0.0
  0
LINE
  8
DETAIL
  6
CONTINUOUS
 62
     5
 10
49.479806138933498
 20
228.96930533117899
 30
0.0
 11
71.515347334410478
 21
228.96930533117899
 31
0.0
  0
LINE
  8
DETAIL
  6
CONTINUOUS
 62
     5
 10
237.38287560581571
 20
79.628364703660566
 30
0.0
 11
237.38287560581571
 21
74.620423664675343
 31
0.0
  0
LINE
  8
DETAIL
  6
CONTINUOUS
 62
     5
 10
237.38287560581571
 20
-74.620423664675513
 30
0.0
 11
237.38287560581571
 21
-79.628364703660679
 31
0.0
  0
ARC
  8
DETAIL
  6
CONTINUOUS
 62
     5
 10
71.515347334410478
 20
-268.43295638126023
 30
0.0
 40
39.46365105008077
 50
75.872848825005249
 51
90.0
  0
ARC
  8
DETAIL
  6
CONTINUOUS
 62
     5
 10
49.479806138933498
 20
-258.41680129240711
 30
0.0
 40
29.447495961227791
 50
90.0
 51
106.3632296351
  0
ARC
  8
DETAIL
  6
CONTINUOUS
 62
     5
 10
71.515347334410478
 20
268.43295638126011
 30
0.0
 40
39.46365105008077
 50
270.0
 51
284.12715117499482
  0
ARC
  8
DETAIL
  6
CONTINUOUS
 62
     5
 10
49.479806138933498
 20
258.416801292407
 30
0.0
 40
29.447495961227681
 50
253.6367703649
 51
270.0
  0
LINE
  8
DETAIL
  6
CONTINUOUS
 62
     5
 10
6.4103392568653703
 20
-306.99515347334432
 30
0.0
 11
3.0048465266560811
 21
-306.99515347334432
 31
0.0
  0
LINE
  8
DETAIL
  6
CONTINUOUS
 62
     5
 10
3.0048465266560811
 20
-303.82456339745289
 30
0.0
 11
5.1082390953151284
 21
-303.82456339745289
 31
0.0
  0
LINE
  8
DETAIL
  6
CONTINUOUS
 62
     5
 10
16.426494345718709
 20
-296.97899838449132
 30
0.0
 11
13.890040625439889
 21
-296.97899838449132
 31
0.0
  0
LINE
  8
DETAIL
  6
CONTINUOUS
 62
     5
 10
20.032310177705941
 20
-291.97092084006442
 30
0.0
 11
20.53311793214851
 21
-291.97092084006442
 31
0.0
  0
LINE
  8
DETAIL
  6
CONTINUOUS
 62
     5
 10
57.843295638125433
 20
-264.4758163019124
 30
0.0
 11
61.348949919224587
 21
-264.4758163019124
 31
0.0
  0
LINE
  8
DETAIL
  6
CONTINUOUS
 62
     5
 10
20.032310177705941
 20
-261.92245557350572
 30
0.0
 11
20.53311793214851
 21
-261.92245557350572
 31
0.0
  0
LINE
  8
DETAIL
  6
CONTINUOUS
 62
     5
 10
178.28756058158331
 20
-261.32961628886312
 30
0.0
 11
14.523424878836471
 21
-261.32961628886312
 31
0.0
  0
LINE
  8
DETAIL
  6
CONTINUOUS
 62
     5
 10
14.523424878836471
 20
-257.08012157831467
 30
0.0
 11
178.28756058158331
 21
-257.08012157831467
 31
0.0
  0
LINE
  8
DETAIL
  6
CONTINUOUS
 62
     5
 10
5.1082390953151284
 20
-254.24712510435691
 30
0.0
 11
3.0048465266560811
 21
-254.24712510435691
 31
0.0
  0
LINE
  8
DETAIL
  6
CONTINUOUS
 62
     5
 10
3.0048465266560811
 20
-242.91513920852589
 30
0.0
 11
6.4103392568653703
 21
-242.91513920852589
 31
0.0
  0
LINE
  8
DETAIL
  6
CONTINUOUS
 62
     5
 10
14.523424878836471
 20
-235.9494849124745
 30
0.0
 11
18.082583469611961
 21
-235.9494849124745
 31
0.0
  0
LINE
  8
DETAIL
  6
CONTINUOUS
 62
     5
 10
14.523424878836471
 20
-233.0580699942895
 30
0.0
 11
18.082583469611961
 21
-233.0580699942895
 31
0.0
  0
LINE
  8
DETAIL
  6
CONTINUOUS
 62
     5
 10
178.28756058158331
 20
-230.16665507610429
 30
0.0
 11
18.529886914377979
 21
-230.16665507610429
 31
0.0
  0
LINE
  8
DETAIL
  6
CONTINUOUS
 62
     5
 10
14.523424878836471
 20
-227.2752401571428
 30
0.0
 11
18.082583469611961
 21
-227.2752401571428
 31
0.0
  0
LINE
  8
DETAIL
  6
CONTINUOUS
 62
     5
 10
14.523424878836471
 20
-224.3838252389576
 30
0.0
 11
18.082583469611961
 21
-224.3838252389576
 31
0.0
  0
LINE
  8
DETAIL
  6
CONTINUOUS
 62
     5
 10
14.523424878836471
 20
-213.16867623235791
 30
0.0
 11
10.01615508885283
 21
-213.16867623235791
 31
0.0
  0
LINE
  8
DETAIL
  6
CONTINUOUS
 62
     5
 10
13.021001615508739
 20
-201.12844121861971
 30
0.0
 11
16.426494345718709
 21
-201.12844121861971
 31
0.0
  0
LINE
  8
DETAIL
  6
CONTINUOUS
 62
     5
 10
289.46688206785109
 20
-95.153473344103531
 30
0.0
 11
286.46203554119518
 21
-95.153473344103531
 31
0.0
  0
LINE
  8
DETAIL
  6
CONTINUOUS
 62
     5
 10
286.46203554119518
 20
-94.652665589660785
 30
0.0
 11
290.46849757673613
 21
-94.652665589660785
 31
0.0
  0
LINE
  8
DETAIL
  6
CONTINUOUS
 62
     5
 10
243.39256865912759
 20
-66.106623586429805
 30
0.0
 11
209.5094914097256
 21
-66.106623586429805
 31
0.0
  0
LINE
  8
DETAIL
  6
CONTINUOUS
 62
     5
 10
305.19224555735008
 20
-65.30533117932157
 30
0.0
 11
290.46849757673613
 21
-65.30533117932157
 31
0.0
  0
LINE
  8
DETAIL
  6
CONTINUOUS
 62
     5
 10
208.70819900261719
 20
-65.30533117932157
 30
0.0
 11
159.85783521809361
 21
-65.30533117932157
 31
0.0
  0
LINE
  8
DETAIL
  6
CONTINUOUS
 62
     5
 10
18.082583469611961
 20
-224.3838252389576
 30
0.0
 11
18.529886914377979
 21
-225.15857753167771
 31
0.0
  0
LINE
  8
DETAIL
  6
CONTINUOUS
 62
     5
 10
245.39579967689789
 20
-62.052860909919787
 30
0.0
 11
239.46679334640771
 21
-62.052860909919787
 31
0.0
  0
LINE
  8
DETAIL
  6
CONTINUOUS
 62
     5
 10
245.39579967689789
 20
-58.294021516123848
 30
0.0
 11
239.46679334640771
 21
-58.294021516123848
 31
0.0
  0
LINE
  8
DETAIL
  6
CONTINUOUS
 62
     5
 10
235.68012924071081
 20
-57.790432526205109
 30
0.0
 11
238.88529886914381
 21
-57.790432526205109
 31
0.0
  0
LINE
  8
DETAIL
  6
CONTINUOUS
 62
     5
 10
313.10500807754443
 20
-53.285945072697977
 30
0.0
 11
312.60420032310162
 21
-53.285945072697977
 31
0.0
  0
LINE
  8
DETAIL
  6
CONTINUOUS
 62
     5
 10
235.68012924071081
 20
-51.279931718450648
 30
0.0
 11
238.88529886914381
 21
-51.279931718450648
 31
0.0
  0
LINE
  8
DETAIL
  6
CONTINUOUS
 62
     5
 10
245.39579967689789
 20
-50.776342728531922
 30
0.0
 11
239.46679334640771
 21
-50.776342728531922
 31
0.0
  0
LINE
  8
DETAIL
  6
CONTINUOUS
 62
     5
 10
245.39579967689789
 20
-47.017503334736027
 30
0.0
 11
239.46679334640771
 21
-47.017503334736027
 31
0.0
  0
LINE
  8
DETAIL
  6
CONTINUOUS
 62
     5
 10
313.10500807754443
 20
-43.870759289176192
 30
0.0
 11
312.60420032310162
 21
-43.870759289176192
 31
0.0
  0
LINE
  8
DETAIL
  6
CONTINUOUS
 62
     5
 10
-0.0000000000000568
 20
308.49757673667187
 30
0.0
 11
-0.0000000000000568
 21
-308.49757673667222
 31
0.0
  0
LINE
  8
DETAIL
  6
CONTINUOUS
 62
     5
 10
3.0048465266560811
 20
308.49757673667187
 30
0.0
 11
3.0048465266560811
 21
-308.49757673667222
 31
0.0
  0
LINE
  8
DETAIL
  6
CONTINUOUS
 62
     5
 10
116.5880452342486
 20
-23.037156704362019
 30
0.0
 11
111.5799676898225
 21
-23.037156704362019
 31
0.0
  0
LINE
  8
DETAIL
  6
CONTINUOUS
 62
     5
 10
122.5977382805724
 20
-19.030694668820789
 30
0.0
 11
118.5912762520194
 21
-19.030694668820789
 31
0.0
  0
LINE
  8
DETAIL
  6
CONTINUOUS
 62
     5
 10
126.1033925686593
 20
-14.022617124394291
 30
0.0
 11
123.5993537964457
 21
-14.022617124394291
 31
0.0
  0
LINE
  8
DETAIL
  6
CONTINUOUS
 62
     5
 10
126.1033925686593
 20
-13.867168483725999
 30
0.0
 11
128.10662358642969
 21
-13.867168483725999
 31
0.0
  0
LINE
  8
DETAIL
  6
CONTINUOUS
 62
     5
 10
134.1163166397416
 20
-8.5137318255250989
 30
0.0
 11
128.10662358642969
 21
-8.5137318255250989
 31
0.0
  0
LINE
  8
DETAIL
  6
CONTINUOUS
 62
     5
 10
148.63974151857789
 20
-26.049655247398331
 30
0.0
 11
139.16261785152361
 21
-25.220514364478959
 31
0.0
  0
LINE
  8
DETAIL
  6
CONTINUOUS
 62
     5
 10
5.1082390953151284
 20
303.82456339745278
 30
0.0
 11
5.1082390953151284
 21
253.84381916749919
 31
0.0
  0
LINE
  8
DETAIL
  6
CONTINUOUS
 62
     5
 10
5.1082390953151284
 20
-303.82456339745289
 30
0.0
 11
5.1082390953151284
 21
-253.84381916672311
 31
0.0
  0
LINE
  8
DETAIL
  6
CONTINUOUS
 62
     5
 10
10.01615508885283
 20
303.38933764135692
 30
0.0
 11
10.01615508885283
 21
300.17892012300388
 31
0.0
  0
LINE
  8
DETAIL
  6
CONTINUOUS
 62
     5
 10
10.01615508885283
 20
239.30932337731531
 30
0.0
 11
10.01615508885283
 21
-239.30932337653891
 31
0.0
  0
LINE
  8
DETAIL
  6
CONTINUOUS
 62
     5
 10
10.01615508885283
 20
-239.30932337653891
 30
0.0
 11
10.01615508885283
 21
-244.92793762580311
 31
0.0
  0
LINE
  8
DETAIL
  6
CONTINUOUS
 62
     5
 10
10.01615508885283
 20
-300.17892012222762
 30
0.0
 11
10.01615508885283
 21
-303.38933764135697
 31
0.0
  0
LINE
  8
DETAIL
  6
CONTINUOUS
 62
     5
 10
10.01615508885283
 20
239.30932337731531
 30
0.0
 11
10.01615508885283
 21
244.92793762657939
 31
0.0
  0
LINE
  8
DETAIL
  6
CONTINUOUS
 62
     5
 10
14.523424878836471
 20
294.50537591967509
 30
0.0
 11
14.523424878836471
 21
254.54418187469139
 31
0.0
  0
LINE
  8
DETAIL
  6
CONTINUOUS
 62
     5
 10
14.523424878836471
 20
250.22341240252459
 30
0.0
 11
14.523424878836471
 21
213.16867623313411
 31
0.0
  0
LINE
  8
DETAIL
  6
CONTINUOUS
 62
     5
 10
14.523424878836471
 20
-213.16867623235791
 30
0.0
 11
14.523424878836471
 21
-250.2234124025247
 31
0.0
  0
LINE
  8
DETAIL
  6
CONTINUOUS
 62
     5
 10
14.523424878836471
 20
-250.2234124025247
 30
0.0
 11
14.523424878836471
 21
-254.54418187391519
 31
0.0
  0
LINE
  8
DETAIL
  6
CONTINUOUS
 62
     5
 10
14.523424878836471
 20
-254.54418187391519
 30
0.0
 11
14.523424878836471
 21
-294.50537591889912
 31
0.0
  0
LINE
  8
DETAIL
  6
CONTINUOUS
 62
     5
 10
14.523424878836471
 20
250.22341240252459
 30
0.0
 11
14.523424878836471
 21
254.54418187469139
 31
0.0
  0
LINE
  8
DETAIL
  6
CONTINUOUS
 62
     5
 10
18.529886914377979
 20
266.33769383406599
 30
0.0
 11
18.529886914377979
 21
261.32961628963932
 31
0.0
  0
LINE
  8
DETAIL
  6
CONTINUOUS
 62
     5
 10
18.529886914377979
 20
-225.15857753167771
 30
0.0
 11
18.529886914377979
 21
-235.17473262053079
 31
0.0
  0
LINE
  8
DETAIL
  6
CONTINUOUS
 62
     5
 10
20.032310177705941
 20
293.37318255250398
 30
0.0
 11
20.032310177705941
 21
261.32961628963932
 31
0.0
  0
LINE
  8
DETAIL
  6
CONTINUOUS
 62
     5
 10
20.032310177705941
 20
230.1666550768808
 30
0.0
 11
20.032310177705941
 21
-230.16665507610429
 31
0.0
  0
LINE
  8
DETAIL
  6
CONTINUOUS
 62
     5
 10
20.032310177705941
 20
-261.32961628886312
 30
0.0
 11
20.032310177705941
 21
-293.37318255250432
 31
0.0
  0
LINE
  8
DETAIL
  6
CONTINUOUS
 62
     5
 10
20.53311793214851
 20
-261.92246381548142
 30
0.0
 11
20.53311793214851
 21
-291.97092084006442
 31
0.0
  0
LINE
  8
DETAIL
  6
CONTINUOUS
 62
     5
 10
134.1163166397416
 20
8.5137318255249284
 30
0.0
 11
128.10662358642969
 21
8.5137318255249284
 31
0.0
  0
LINE
  8
DETAIL
  6
CONTINUOUS
 62
     5
 10
128.10662358642969
 20
10.43553004348087
 30
0.0
 11
126.1033925686593
 21
10.43553004348087
 31
0.0
  0
LINE
  8
DETAIL
  6
CONTINUOUS
 62
     5
 10
126.1033925686593
 20
10.5313529508208
 30
0.0
 11
128.10662358642969
 21
10.5313529508208
 31
0.0
  0
LINE
  8
DETAIL
  6
CONTINUOUS
 62
     5
 10
126.1033925686593
 20
14.02261712439412
 30
0.0
 11
123.5993537964457
 21
14.02261712439412
 31
0.0
  0
LINE
  8
DETAIL
  6
CONTINUOUS
 62
     5
 10
122.5977382805724
 20
19.030694668820619
 30
0.0
 11
118.5912762520194
 21
19.030694668820619
 31
0.0
  0
LINE
  8
DETAIL
  6
CONTINUOUS
 62
     5
 10
116.5880452342486
 20
23.037156704361848
 30
0.0
 11
111.5799676898225
 21
23.037156704361848
 31
0.0
  0
LINE
  8
DETAIL
  6
CONTINUOUS
 62
     5
 10
57.843295638125433
 20
-261.32961628886312
 30
0.0
 11
57.843295638125433
 21
-264.47575240194868
 31
0.0
  0
LINE
  8
DETAIL
  6
CONTINUOUS
 62
     5
 10
61.348949919224587
 20
-261.32961628886312
 30
0.0
 11
61.348949919224587
 21
-264.47575240194868
 31
0.0
  0
LINE
  8
DETAIL
  6
CONTINUOUS
 62
     5
 10
123.5993576111255
 20
-18.02908296840371
 30
0.0
 11
122.59774230722221
 21
-19.030698695470448
 31
0.0
  0
LINE
  8
DETAIL
  6
CONTINUOUS
 62
     5
 10
208.70819900261719
 20
65.305331179321456
 30
0.0
 11
209.5094914097256
 21
66.106623586429691
 31
0.0
  0
LINE
  8
DETAIL
  6
CONTINUOUS
 62
     5
 10
245.39579967689789
 20
47.01750333473592
 30
0.0
 11
239.46679334640771
 21
47.01750333473592
 31
0.0
  0
LINE
  8
DETAIL
  6
CONTINUOUS
 62
     5
 10
245.39579967689789
 20
50.776342728531802
 30
0.0
 11
239.46679334640771
 21
50.776342728531802
 31
0.0
  0
LINE
  8
DETAIL
  6
CONTINUOUS
 62
     5
 10
235.68012924071081
 20
51.279931719226973
 30
0.0
 11
238.88529886914381
 21
51.279931719226973
 31
0.0
  0
LINE
  8
DETAIL
  6
CONTINUOUS
 62
     5
 10
235.68012924071081
 20
57.790432526981363
 30
0.0
 11
238.88529886914381
 21
57.790432526981363
 31
0.0
  0
LINE
  8
DETAIL
  6
CONTINUOUS
 62
     5
 10
245.39579967689789
 20
58.294021516900102
 30
0.0
 11
239.46679334640771
 21
58.294021516900102
 31
0.0
  0
LINE
  8
DETAIL
  6
CONTINUOUS
 62
     5
 10
245.39579967689789
 20
62.052860910696147
 30
0.0
 11
239.46679334640771
 21
62.052860910696147
 31
0.0
  0
LINE
  8
DETAIL
  6
CONTINUOUS
 62
     5
 10
305.19224555735008
 20
65.305331179321456
 30
0.0
 11
290.46849757673613
 21
65.305331179321456
 31
0.0
  0
LINE
  8
DETAIL
  6
CONTINUOUS
 62
     5
 10
208.70819900261719
 20
65.305331179321456
 30
0.0
 11
159.85783521809361
 21
65.305331179321456
 31
0.0
  0
LINE
  8
DETAIL
  6
CONTINUOUS
 62
     5
 10
243.39256865912759
 20
66.106623586429691
 30
0.0
 11
209.5094914097256
 21
66.106623586429691
 31
0.0
  0
LINE
  8
DETAIL
  6
CONTINUOUS
 62
     5
 10
286.46203554119518
 20
94.652665589660785
 30
0.0
 11
290.46849757673613
 21
94.652665589660785
 31
0.0
  0
LINE
  8
DETAIL
  6
CONTINUOUS
 62
     5
 10
107.57350565428101
 20
-268.43295638126023
 30
0.0
 11
107.57350565428101
 21
-261.32961628886312
 31
0.0
  0
LINE
  8
DETAIL
  6
CONTINUOUS
 62
     5
 10
107.57350565428101
 20
-230.16665507610429
 30
0.0
 11
107.57350565428101
 21
230.1666550768808
 31
0.0
  0
LINE
  8
DETAIL
  6
CONTINUOUS
 62
     5
 10
107.57350565428101
 20
261.32961628963932
 30
0.0
 11
107.57350565428101
 21
268.43295638126011
 31
0.0
  0
LINE
  8
DETAIL
  6
CONTINUOUS
 62
     5
 10
111.5799676898225
 20
-268.43295638126023
 30
0.0
 11
111.5799676898225
 21
-261.32961628886312
 31
0.0
  0
LINE
  8
DETAIL
  6
CONTINUOUS
 62
     5
 10
111.5799676898225
 20
261.32961628963932
 30
0.0
 11
111.5799676898225
 21
268.43295638126011
 31
0.0
  0
LINE
  8
DETAIL
  6
CONTINUOUS
 62
     5
 10
116.5880452342486
 20
-23.037156704362019
 30
0.0
 11
116.5880452342486
 21
23.037156704361848
 31
0.0
  0
LINE
  8
DETAIL
  6
CONTINUOUS
 62
     5
 10
122.5977382984308
 20
19.030694668820619
 30
0.0
 11
122.5977382984308
 21
-19.030694668820789
 31
0.0
  0
LINE
  8
DETAIL
  6
CONTINUOUS
 62
     5
 10
123.5993537964457
 20
18.028869745425769
 30
0.0
 11
123.5993537964457
 21
-18.028869744649459
 31
0.0
  0
LINE
  8
DETAIL
  6
CONTINUOUS
 62
     5
 10
126.1033925686593
 20
-14.022617124394291
 30
0.0
 11
126.1033925686593
 21
14.02261712439412
 31
0.0
  0
LINE
  8
DETAIL
  6
CONTINUOUS
 62
     5
 10
128.10662358642969
 20
10.530693296940511
 30
0.0
 11
128.10662358642969
 21
-13.86721098172848
 31
0.0
  0
LINE
  8
DETAIL
  6
CONTINUOUS
 62
     5
 10
134.1163166397416
 20
8.6272112157141692
 30
0.0
 11
134.1163166397416
 21
-15.024232633279549
 31
0.0
  0
LINE
  8
DETAIL
  6
CONTINUOUS
 62
     5
 10
18.082583469611961
 20
-235.9494849124745
 30
0.0
 11
18.529886914377979
 21
-235.17473262053079
 31
0.0
  0
LINE
  8
DETAIL
  6
CONTINUOUS
 62
     5
 10
123.5993576111255
 20
18.029082969179971
 30
0.0
 11
122.59774230722221
 21
19.030698696246759
 31
0.0
  0
LINE
  8
DETAIL
  6
CONTINUOUS
 62
     5
 10
208.70819900261719
 20
-65.30533117932157
 30
0.0
 11
209.5094914097256
 21
-66.106623586429805
 31
0.0
  0
LINE
  8
DETAIL
  6
CONTINUOUS
 62
     5
 10
134.1163166397416
 20
-15.024232633279549
 30
0.0
 11
134.6100802722321
 21
-20.66797678518742
 31
0.0
  0
LINE
  8
DETAIL
  6
CONTINUOUS
 62
     5
 10
148.63974151857789
 20
-17.028774629096741
 30
0.0
 11
148.63974151857789
 21
-26.049655247398331
 31
0.0
  0
LINE
  8
DETAIL
  6
CONTINUOUS
 62
     5
 10
152.44588045234241
 20
-57.893376413570373
 30
0.0
 11
152.44588045234241
 21
-22.885883937734089
 31
0.0
  0
LINE
  8
DETAIL
  6
CONTINUOUS
 62
     5
 10
152.44588045234241
 20
51.557134459956558
 30
0.0
 11
152.44588045234241
 21
57.893376413570188
 31
0.0
  0
LINE
  8
DETAIL
  6
CONTINUOUS
 62
     5
 10
239.46679334640771
 20
62.052860910696147
 30
0.0
 11
238.88529886914381
 21
61.045682930858668
 31
0.0
  0
LINE
  8
DETAIL
  6
CONTINUOUS
 62
     5
 10
18.082583469611961
 20
267.11244612600967
 30
0.0
 11
18.529886914377979
 21
266.33769383406599
 31
0.0
  0
LINE
  8
DETAIL
  6
CONTINUOUS
 62
     5
 10
239.46679334640771
 20
-62.052860909919787
 30
0.0
 11
238.88529886914381
 21
-61.045682930082357
 31
0.0
  0
LINE
  8
DETAIL
  6
CONTINUOUS
 62
     5
 10
208.70819900261719
 20
-65.30533117932157
 30
0.0
 11
208.70819900261719
 21
65.305331179321456
 31
0.0
  0
LINE
  8
DETAIL
  6
CONTINUOUS
 62
     5
 10
209.5094914097256
 20
-66.106623586429805
 30
0.0
 11
209.5094914097256
 21
66.106623586429691
 31
0.0
  0
LINE
  8
DETAIL
  6
CONTINUOUS
 62
     5
 10
239.46679334640771
 20
-47.017503334736027
 30
0.0
 11
238.88529886914381
 21
-48.024681314573513
 31
0.0
  0
LINE
  8
DETAIL
  6
CONTINUOUS
 62
     5
 10
16.426494345718709
 20
201.12844121939591
 30
0.0
 11
13.021001615508739
 21
201.12844121939591
 31
0.0
  0
LINE
  8
DETAIL
  6
CONTINUOUS
 62
     5
 10
14.523424878836471
 20
213.16867623313411
 30
0.0
 11
10.01615508885283
 21
213.16867623313411
 31
0.0
  0
LINE
  8
DETAIL
  6
CONTINUOUS
 62
     5
 10
14.523424878836471
 20
230.1666550768808
 30
0.0
 11
178.28756058158331
 21
230.1666550768808
 31
0.0
  0
LINE
  8
DETAIL
  6
CONTINUOUS
 62
     5
 10
235.68012924071081
 20
57.790432526981363
 30
0.0
 11
235.68012924071081
 21
51.279931719226973
 31
0.0
  0
LINE
  8
DETAIL
  6
CONTINUOUS
 62
     5
 10
235.68012924071081
 20
-51.279931718450648
 30
0.0
 11
235.68012924071081
 21
-57.790432526205109
 31
0.0
  0
LINE
  8
DETAIL
  6
CONTINUOUS
 62
     5
 10
238.88529886914381
 20
-61.045682930082357
 30
0.0
 11
238.88529886914381
 21
-48.024681314573513
 31
0.0
  0
LINE
  8
DETAIL
  6
CONTINUOUS
 62
     5
 10
238.88529886914381
 20
48.02468131534971
 30
0.0
 11
238.88529886914381
 21
61.045682930858668
 31
0.0
  0
LINE
  8
DETAIL
  6
CONTINUOUS
 62
     5
 10
245.39579967689789
 20
-85.638044237492409
 30
0.0
 11
245.39579967689789
 21
85.638044237492124
 31
0.0
  0
LINE
  8
DETAIL
  6
CONTINUOUS
 62
     5
 10
248.4006462035538
 20
-180.5892167830084
 30
0.0
 11
248.4006462035538
 21
180.5892167830082
 31
0.0
  0
LINE
  8
DETAIL
  6
CONTINUOUS
 62
     5
 10
6.4103392568653703
 20
242.91513920930211
 30
0.0
 11
3.0048465266560811
 21
242.91513920930211
 31
0.0
  0
LINE
  8
DETAIL
  6
CONTINUOUS
 62
     5
 10
5.1082390953151284
 20
254.2471251043568
 30
0.0
 11
3.0048465266560811
 21
254.2471251043568
 31
0.0
  0
LINE
  8
DETAIL
  6
CONTINUOUS
 62
     5
 10
178.28756058158331
 20
257.0801215783145
 30
0.0
 11
14.523424878836471
 21
257.0801215783145
 31
0.0
  0
LINE
  8
DETAIL
  6
CONTINUOUS
 62
     5
 10
14.523424878836471
 20
261.32961628963932
 30
0.0
 11
178.28756058158331
 21
261.32961628963932
 31
0.0
  0
LINE
  8
DETAIL
  6
CONTINUOUS
 62
     5
 10
239.46679334640771
 20
47.01750333473592
 30
0.0
 11
238.88529886914381
 21
48.02468131534971
 31
0.0
  0
LINE
  8
DETAIL
  6
CONTINUOUS
 62
     5
 10
286.46203554119518
 20
-180.5892167830084
 30
0.0
 11
286.46203554119518
 21
180.5892167830082
 31
0.0
  0
LINE
  8
DETAIL
  6
CONTINUOUS
 62
     5
 10
289.46688206785109
 20
-95.153473344103531
 30
0.0
 11
289.46688206785109
 21
-94.652665589660785
 31
0.0
  0
LINE
  8
DETAIL
  6
CONTINUOUS
 62
     5
 10
290.46849757673613
 20
94.652665589660785
 30
0.0
 11
290.46849757673613
 21
-94.652650945110338
 31
0.0
  0
LINE
  8
DETAIL
  6
CONTINUOUS
 62
     5
 10
14.523424878836471
 20
264.22103120782441
 30
0.0
 11
18.082583469611961
 21
264.22103120782441
 31
0.0
  0
LINE
  8
DETAIL
  6
CONTINUOUS
 62
     5
 10
14.523424878836471
 20
267.11244612600967
 30
0.0
 11
18.082583469611961
 21
267.11244612600967
 31
0.0
  0
LINE
  8
DETAIL
  6
CONTINUOUS
 62
     5
 10
312.60420032310162
 20
57.893376413570188
 30
0.0
 11
312.60420032310162
 21
-57.893376413570373
 31
0.0
  0
LINE
  8
DETAIL
  6
CONTINUOUS
 62
     5
 10
313.10500807754443
 20
-43.870759289176192
 30
0.0
 11
313.10500807754443
 21
-53.285945072697977
 31
0.0
  0
LINE
  8
DETAIL
  6
CONTINUOUS
 62
     5
 10
13.890040625439889
 20
296.97899838449098
 30
0.0
 11
16.426494345718709
 21
296.97899838449098
 31
0.0
  0
LINE
  8
DETAIL
  6
CONTINUOUS
 62
     5
 10
5.1082390953151284
 20
303.82456339745278
 30
0.0
 11
3.0048465266560811
 21
303.82456339745278
 31
0.0
  0
LINE
  8
DETAIL
  6
CONTINUOUS
 62
     5
 10
3.0048465266560811
 20
306.99515347334398
 30
0.0
 11
6.4103392568653703
 21
306.99515347334398
 31
0.0
  0
ARC
  8
DETAIL
  6
CONTINUOUS
 62
     5
 10
-69.79607393760881
 20
-348.48053422662213
 30
0.0
 40
101.63487156957321
 50
341.28247844360487
 51
345.37861730820168
  0
ARC
  8
DETAIL
  6
CONTINUOUS
 62
     5
 10
6.4103392568653703
 20
-303.38933764135697
 30
0.0
 40
3.605815831987115
 50
270.0
 51
0.0
  0
ARC
  8
DETAIL
  6
CONTINUOUS
 62
     5
 10
16.426494345718709
 20
-197.52262538663271
 30
0.0
 40
3.605815831987059
 50
270.0
 51
0.0
  0
ARC
  8
DETAIL
  6
CONTINUOUS
 62
     5
 10
16.426494345718709
 20
-293.37318255250432
 30
0.0
 40
3.605815831987059
 50
270.0
 51
0.0
  0
ARC
  8
DETAIL
  6
CONTINUOUS
 62
     5
 10
6.4103392568653703
 20
-239.30932337653891
 30
0.0
 40
3.605815831987031
 50
270.0
 51
0.0
  0
ARC
  8
DETAIL
  6
CONTINUOUS
 62
     5
 10
13.021001615508739
 20
-204.1332877452756
 30
0.0
 40
3.004846526655911
 50
90.0
 51
180.0
  0
ARC
  8
DETAIL
  6
CONTINUOUS
 62
     5
 10
118.5912762520194
 20
-21.033925686591321
 30
0.0
 40
2.0032310177705628
 50
90.0
 51
179.99999899700231
  0
ARC
  8
DETAIL
  6
CONTINUOUS
 62
     5
 10
109.5767366720515
 20
-268.43295638126023
 30
0.0
 40
2.0032310177707591
 50
180.0
 51
0.0
  0
ARC
  8
DETAIL
  6
CONTINUOUS
 62
     5
 10
1.502423263328126
 20
-308.49757673667222
 30
0.0
 40
1.5024232633281831
 50
180.0
 51
0.0
  0
ARC
  8
DETAIL
  6
CONTINUOUS
 62
     5
 10
6.4103392568653703
 20
239.30932337731531
 30
0.0
 40
3.6058158319872282
 50
0.0
 51
90.0
  0
ARC
  8
DETAIL
  6
CONTINUOUS
 62
     5
 10
6.4103392568653703
 20
303.38933764135692
 30
0.0
 40
3.6058158319872282
 50
0.0
 51
90.0
  0
ARC
  8
DETAIL
  6
CONTINUOUS
 62
     5
 10
16.426494345718709
 20
197.52262538740891
 30
0.0
 40
3.6058158319872282
 50
0.0
 51
90.0
  0
ARC
  8
DETAIL
  6
CONTINUOUS
 62
     5
 10
16.426494345718709
 20
293.37318255250398
 30
0.0
 40
3.6058158319872282
 50
0.0
 51
90.0
  0
ARC
  8
DETAIL
  6
CONTINUOUS
 62
     5
 10
13.021001615508739
 20
204.1332877460521
 30
0.0
 40
3.004846526655911
 50
180.0
 51
270.0
  0
ARC
  8
DETAIL
  6
CONTINUOUS
 62
     5
 10
118.5912762520194
 20
21.03392568659115
 30
0.0
 40
2.0032310177707591
 50
180.00000100299769
 51
270.0
  0
ARC
  8
DETAIL
  6
CONTINUOUS
 62
     5
 10
109.5767366720515
 20
268.43295638126011
 30
0.0
 40
2.0032310177705308
 50
0.0
 51
180.0
  0
ARC
  8
DETAIL
  6
CONTINUOUS
 62
     5
 10
1.502423263328126
 20
308.49757673667187
 30
0.0
 40
1.5024232633277279
 50
0.0
 51
180.0
  0
ARC
  8
DETAIL
  6
CONTINUOUS
 62
     5
 10
305.19224555735008
 20
-57.893376413570373
 30
0.0
 40
7.4119547657512124
 50
270.0
 51
0.0
  0
ARC
  8
DETAIL
  6
CONTINUOUS
 62
     5
 10
159.85783521809361
 20
-57.893376413570373
 30
0.0
 40
7.4119547657510338
 50
180.0
 51
270.0
  0
ARC
  8
DETAIL
  6
CONTINUOUS
 62
     5
 10
308.57520193861018
 20
-48.578352180937031
 30
0.0
 40
6.5330371567044256
 50
313.89739816709238
 51
46.102601832907602
  0
ARC
  8
DETAIL
  6
CONTINUOUS
 62
     5
 10
139.59910056986101
 20
-20.23149406684956
 30
0.0
 40
5.0080775444262402
 50
184.9999999999998
 51
265.00000000000023
  0
ARC
  8
DETAIL
  6
CONTINUOUS
 62
     5
 10
243.39256865912759
 20
-68.109854604200393
 30
0.0
 40
2.0032310177705308
 50
0.0000000047029463
 51
90.0
  0
ARC
  8
DETAIL
  6
CONTINUOUS
 62
     5
 10
305.19224555735008
 20
57.893376413570188
 30
0.0
 40
7.4119547657510338
 50
0.0
 51
90.0
  0
ARC
  8
DETAIL
  6
CONTINUOUS
 62
     5
 10
159.85783521809361
 20
57.893376413570188
 30
0.0
 40
7.4119547657512017
 50
90.0
 51
180.0
  0
ARC
  8
DETAIL
  6
CONTINUOUS
 62
     5
 10
243.39256865912759
 20
68.109854604200166
 30
0.0
 40
2.003231017770545
 50
270.0
 51
0.0
  0
LINE
  8
DETAIL
  6
CONTINUOUS
 62
     5
 10
141.01880723073799
 20
-4.2606669491846674
 30
0.0
 11
140.82222834228261
 21
-3.905267435468204
 31
0.0
  0
LINE
  8
DETAIL
  6
CONTINUOUS
 62
     5
 10
140.82222834228261
 20
-3.905267435468204
 30
0.0
 11
140.82222834228261
 21
-3.905267435468204
 31
0.0
  0
LINE
  8
DETAIL
  6
CONTINUOUS
 62
     5
 10
140.82222834228261
 20
-3.905267435468204
 30
0.0
 11
140.62661231952549
 21
-3.5500849619546671
 31
0.0
  0
LINE
  8
BASIS
  6
DASHDOT
 62
     6
 10
329.27065551376938
 20
0.0000000000000568
 30
0.0
 11
-43.737728995028249
 21
0.0000000000000568
 31
0.0
  0
LINE
  8
OUTLINE
  6
CONTINUOUS
 62
     3
 10
286.46203554119558
 20
94.652665589660785
 30
0.0
 11
286.46203554119558
 21
180.5892167830082
 31
0.0
  0
LINE
  8
OUTLINE
  6
CONTINUOUS
 62
     3
 10
290.46849757673641
 20
-65.30533117932157
 30
0.0
 11
290.46849757673641
 21
-94.652650945110338
 31
0.0
  0
LINE
  8
OUTLINE
  6
CONTINUOUS
 62
     3
 10
3.0048465266561948
 20
-306.99515347334432
 30
0.0
 11
3.0048465266561948
 21
-308.49757673667222
 31
0.0
  0
LINE
  8
DETAIL
  6
CONTINUOUS
 62
     5
 10
-0.0000000000000568
 20
-308.49757673667222
 30
0.0
 11
-0.0000000000000568
 21
308.49757673667187
 31
0.0
  0
ARC
  8
DETAIL
  6
CONTINUOUS
 62
     5
 10
180.0207374838337
 20
158.60097316803879
 30
0.0
 40
71.82823103640284
 50
17.825713933386769
 51
94.900356891020238
  0
ARC
  8
DETAIL
  6
CONTINUOUS
 62
     5
 10
181.33593718470539
 20
146.65481992165999
 30
0.0
 40
110.4673700512917
 50
17.889927548890391
 51
91.581293085542043
  0
ARC
  8
DETAIL
  6
CONTINUOUS
 62
     5
 10
181.7432774488679
 20
153.12425356769211
 30
0.0
 40
108.2605306695614
 50
14.696166418357249
 51
91.829213560950421
  0
ARC
  8
DETAIL
  6
CONTINUOUS
 62
     5
 10
7.4400528725272466
 20
244.74276694487531
 30
0.0
 40
2.582748692774937
 50
4.1113596476086594
 51
76.11576275436208
  0
ARC
  8
DETAIL
  6
CONTINUOUS
 62
     5
 10
14.807558491633189
 20
273.8029169826869
 30
0.0
 40
27.396835659990249
 50
244.47617510984071
 51
255.74152992609959
  0
ARC
  8
DETAIL
  6
CONTINUOUS
 62
     5
 10
8.2239250304718894
 20
244.5743584196162
 30
0.0
 40
6.3094149169788976
 50
3.2125347783309239
 51
76.065183007218479
  0
ARC
  8
DETAIL
  6
CONTINUOUS
 62
     5
 10
9.7604041384401512
 20
255.52165343395109
 30
0.0
 40
4.8235943083366486
 50
195.3210812098396
 51
269.79736619863718
  0
ARC
  8
DETAIL
  6
CONTINUOUS
 62
     5
 10
8.4573690126889574
 20
294.21069356948271
 30
0.0
 40
6.0732093211316043
 50
2.7811798058972972
 51
76.706645511596776
  0
ARC
  8
DETAIL
  6
CONTINUOUS
 62
     5
 10
10.36049858739165
 20
306.03281114590152
 30
0.0
 40
5.9333098970508251
 50
207.85228249827529
 51
265.10126175800781
  0
ARC
  8
DETAIL
  6
CONTINUOUS
 62
     5
 10
-470.87273939325382
 20
-144.44419274299011
 30
0.0
 40
653.59002816838267
 50
8.8165374642401666
 51
22.905157010988251
  0
ARC
  8
DETAIL
  6
CONTINUOUS
 62
     5
 10
-513.62801351436701
 20
410.26271998922249
 30
0.0
 40
704.40455134765807
 50
335.51324247343672
 51
337.8421418206139
  0
ARC
  8
DETAIL
  6
CONTINUOUS
 62
     5
 10
320.25819377450892
 20
95.196108647157018
 30
0.0
 40
188.1040386355136
 50
140.91294316918029
 51
164.77640071186289
  0
ARC
  8
DETAIL
  6
CONTINUOUS
 62
     5
 10
-182.37100463851721
 20
-25.23068386921085
 30
0.0
 40
341.44683780524332
 50
23.321331455369091
 51
30.580224976456279
  0
ARC
  8
DETAIL
  6
CONTINUOUS
 62
     5
 10
2202.6722751937391
 20
-746.28224902297893
 30
0.0
 40
2243.1522101878409
 50
154.6798199526994
 51
157.25828406496751
  0
ARC
  8
DETAIL
  6
CONTINUOUS
 62
     5
 10
175.8332603767812
 20
-115.8208130192638
 30
0.0
 40
46.598715480387497
 50
197.0595667618075
 51
253.03216140463971
  0
ARC
  8
DETAIL
  6
CONTINUOUS
 62
     5
 10
170.28526704338759
 20
-125.29975325110981
 30
0.0
 40
36.003031472635101
 50
257.07803133690561
 51
268.65525844706491
  0
ARC
  8
DETAIL
  6
CONTINUOUS
 62
     5
 10
166.04348465788269
 20
-169.53233809299391
 30
0.0
 40
8.9122122145488216
 50
8.1897520428705981
 51
67.59525262216242
  0
ARC
  8
DETAIL
  6
CONTINUOUS
 62
     5
 10
135.8958022356928
 20
-164.93940356504291
 30
0.0
 40
39.110461437545951
 50
339.19764361874059
 51
355.12546931915261
  0
ARC
  8
DETAIL
  6
CONTINUOUS
 62
     5
 10
83.282861889267167
 20
-153.8779541455045
 30
0.0
 40
92.598824593423004
 50
319.26710703448578
 51
344.36807518537643
  0
ARC
  8
DETAIL
  6
CONTINUOUS
 62
     5
 10
180.27293591088161
 20
-158.6009731672643
 30
0.0
 40
71.82823103640284
 50
265.09964310897982
 51
342.17428606661321
  0
ARC
  8
DETAIL
  6
CONTINUOUS
 62
     5
 10
181.5881356117533
 20
-146.6548199208855
 30
0.0
 40
110.4673700512917
 50
268.41870691445791
 51
342.11007245111313
  0
ARC
  8
DETAIL
  6
CONTINUOUS
 62
     5
 10
181.99547587591579
 20
-153.12425356691699
 30
0.0
 40
108.2605306695614
 50
268.17078643904961
 51
345.30383358164278
  0
ARC
  8
DETAIL
  6
CONTINUOUS
 62
     5
 10
7.4400528725272466
 20
-244.7427669448756
 30
0.0
 40
2.582748692774937
 50
283.88423724563791
 51
355.88864035239129
  0
ARC
  8
DETAIL
  6
CONTINUOUS
 62
     5
 10
14.807558491633189
 20
-273.80291698268672
 30
0.0
 40
27.396835659990249
 50
104.2584700739003
 51
115.5238248901592
  0
ARC
  8
DETAIL
  6
CONTINUOUS
 62
     5
 10
8.2239250304700704
 20
-244.574358419616
 30
0.0
 40
6.3094149169788976
 50
283.93481699278152
 51
356.78746522166898
  0
ARC
  8
DETAIL
  6
CONTINUOUS
 62
     5
 10
9.7604041384401512
 20
-255.52165343395151
 30
0.0
 40
4.8235943083366486
 50
90.202633801362836
 51
164.6789187901604
  0
ARC
  8
DETAIL
  6
CONTINUOUS
 62
     5
 10
8.4573690126889574
 20
-294.21069356948283
 30
0.0
 40
6.0732093211316043
 50
283.29335448840328
 51
357.2188201941027
  0
ARC
  8
DETAIL
  6
CONTINUOUS
 62
     5
 10
10.360498587389831
 20
-306.03281114590158
 30
0.0
 40
5.9333098970508251
 50
94.898738241992234
 51
152.14771750172471
  0
ARC
  8
DETAIL
  6
CONTINUOUS
 62
     5
 10
171.003158339512
 20
209.66716891358459
 30
0.0
 40
5.2548175026372057
 50
40.225308700046583
 51
51.783996151349882
  0
ARC
  8
DETAIL
  6
CONTINUOUS
 62
     5
 10
128.19166011408919
 20
-190.74781516426711
 30
0.0
 40
34.536944124439167
 50
241.25035916847679
 51
317.00036748934201
  0
ARC
  8
DETAIL
  6
CONTINUOUS
 62
     5
 10
-308.07358394243198
 20
225.51442166682889
 30
0.0
 40
454.20222658773321
 50
345.25806767812509
 51
346.67989199688282
  0
ARC
  8
DETAIL
  6
CONTINUOUS
 62
     5
 10
149.38265835036691
 20
22.844734789684541
 30
0.0
 40
20.81786342021957
 50
196.39929918742561
 51
222.46327610862289
  0
ARC
  8
DETAIL
  6
CONTINUOUS
 62
     5
 10
-472.22879100414332
 20
-416.74433299727559
 30
0.0
 40
741.6717778795761
 50
35.787139454522311
 51
36.971849505009232
  0
ARC
  8
DETAIL
  6
CONTINUOUS
 62
     5
 10
117.4510759639596
 20
30.70599518168871
 30
0.0
 40
3.185143896645489
 50
257.26764915837168
 51
334.08184249741561
  0
ARC
  8
DETAIL
  6
CONTINUOUS
 62
     5
 10
119.67618970999131
 20
18.491146217553311
 30
0.0
 40
9.5668242794718008
 50
107.8162077882439
 51
141.50423020486451
  0
ARC
  8
DETAIL
  6
CONTINUOUS
 62
     5
 10
167.35456623971729
 20
-100.3398555497029
 30
0.0
 40
46.37702199768092
 50
199.71674299174251
 51
218.94504801543451
  0
ARC
  8
DETAIL
  6
CONTINUOUS
 62
     5
 10
151.35243485965111
 20
-99.333600899470127
 30
0.0
 40
32.282410926553418
 50
190.09423410799249
 51
211.05347005402561
  0
ARC
  8
DETAIL
  6
CONTINUOUS
 62
     5
 10
-327.60158797490118
 20
-236.44883523379659
 30
0.0
 40
466.09341433827348
 50
16.38181395522459
 51
19.565283183045938
  0
ARC
  8
DETAIL
  6
CONTINUOUS
 62
     5
 10
111.7442220435204
 20
120.6024042644522
 30
0.0
 40
96.157349870609124
 50
269.90212827393259
 51
270.26483037772198
  0
LINE
  8
DETAIL
  6
CONTINUOUS
 62
     5
 10
31.659618430439021
 20
-351.29992636640281
 30
0.0
 11
31.61686461995231
 21
-381.04723569362648
 31
0.0
  0
LINE
  8
DETAIL
  6
CONTINUOUS
 62
     5
 10
34.58232807479277
 20
-351.29238237702509
 30
0.0
 11
25.388217799046121
 21
-351.36933625904902
 31
0.0
  0
LINE
  8
DETAIL
  6
CONTINUOUS
 62
     5
 10
31.61686461995231
 20
-381.04723569362648
 30
0.0
 11
28.5033986549243
 21
-380.42999299537797
 31
0.0
  0
ARC
  8
DETAIL
  6
CONTINUOUS
 62
     5
 10
94.208521466620368
 20
-305.00458185938578
 30
0.0
 40
69.069330183640218
 50
140.77581813743041
 51
179.11512105832659
  0
ARC
  8
DETAIL
  6
CONTINUOUS
 62
     5
 10
87.419921845054603
 20
-303.80430962571972
 30
0.0
 40
53.320908820074571
 50
127.18583627735021
 51
183.32201361222249
  0
LINE
  8
DETAIL
  6
CONTINUOUS
 62
     5
 10
28.478359175532379
 20
-351.28718835723453
 30
0.0
 11
28.5033986549243
 21
-380.42999299537797
 31
0.0
  0
ARC
  8
DETAIL
  6
CONTINUOUS
 62
     5
 10
672.16559119644353
 20
-324.36959540935197
 30
0.0
 40
647.34068058850369
 50
178.19130235432331
 51
182.3904261220647
  0
ARC
  8
DETAIL
  6
CONTINUOUS
 62
     5
 10
837.71060321203322
 20
-321.96950771791899
 30
0.0
 40
803.66339801137553
 50
178.9251640759914
 51
182.0909872967363
  0
ARC
  8
DETAIL
  6
CONTINUOUS
 62
     5
 10
435.21700504988462
 20
162.31390015022049
 30
0.0
 40
338.05505900180481
 50
207.04050567745941
 51
218.27518447924959
  0
ARC
  8
DETAIL
  6
CONTINUOUS
 62
     5
 10
171.60290955137609
 20
-44.199206730515641
 30
0.0
 40
3.3923719680891971
 50
238.46556889506991
 51
358.8422065083484
  0
ARC
  8
DETAIL
  6
CONTINUOUS
 62
     5
 10
-60.040305248087861
 20
-351.28056192251279
 30
0.0
 40
88.518690516924991
 50
340.95105743770159
 51
359.98008276617031
  0
LINE
  8
DETAIL
  6
CONTINUOUS
 62
     5
 10
23.630128070708341
 20
-380.16526577238972
 30
0.0
 11
26.463551567064091
 21
-381.09543291822888
 31
0.0
  0
ARC
  8
OUTLINE
  6
CONTINUOUS
 62
     3
 10
181.74327744886341
 20
153.12425356769191
 30
0.0
 40
108.2605306695614
 50
14.696166418357249
 51
91.829213560950421
  0
ARC
  8
OUTLINE
  6
CONTINUOUS
 62
     3
 10
8.4573690126844099
 20
294.21069356948249
 30
0.0
 40
6.0732093211316043
 50
2.7811798058972972
 51
76.706645511596776
  0
ARC
  8
OUTLINE
  6
CONTINUOUS
 62
     3
 10
181.9954758759113
 20
-153.12425356691719
 30
0.0
 40
108.2605306695614
 50
268.17078643904961
 51
345.30383358164278
  0
ARC
  8
OUTLINE
  6
CONTINUOUS
 62
     3
 10
8.4573690126844099
 20
-294.21069356948283
 30
0.0
 40
6.0732093211316043
 50
283.29335448840328
 51
357.2188201941027
  0
ENDSEC
  0
EOF
