  0
SECTION
  2
HEADER
  9
$ACADVER
  1
AC1009
  9
$DWGCODEPAGE
  3
dos932
  9
$INSBASE
 10
0.0
 20
0.0
 30
0.0
  9
$EXTMIN
 10
-656.21336238250842
 20
-491.54661920800208
 30
-0.0015258207003583
  9
$EXTMAX
 10
1102.601635191357
 20
635.1013264328958
 30
0.0000000349246037
  9
$LIMMIN
 10
-2970.0
 20
-2100.0
  9
$LIMMAX
 10
2970.0
 20
2100.0
  9
$ORTHOMODE
 70
     1
  9
$REGENMODE
 70
     1
  9
$FILLMODE
 70
     1
  9
$QTEXTMODE
 70
     0
  9
$MIRRTEXT
 70
     0
  9
$LTSCALE
 40
20.0
  9
$ATTMODE
 70
     1
  9
$TEXTSIZE
 40
64.0
  9
$TRACEWID
 40
0.05
  9
$TEXTSTYLE
  7
STANDARD
  9
$CLAYER
  8
SIZE
  9
$CELTYPE
  6
CONTINUOUS
  9
$CECOLOR
 62
     7
  9
$DIMSCALE
 40
1.0
  9
$DIMASZ
 40
12.0
  9
$DIMEXO
 40
20.0
  9
$DIMDLI
 40
200.0
  9
$DIMRND
 40
0.0
  9
$DIMDLE
 40
0.0
  9
$DIMEXE
 40
20.0
  9
$DIMTP
 40
0.0
  9
$DIMTM
 40
0.0
  9
$DIMTXT
 40
64.0
  9
$DIMCEN
 40
0.09
  9
$DIMTSZ
 40
0.0
  9
$DIMTOL
 70
     0
  9
$DIMLIM
 70
     0
  9
$DIMTIH
 70
     0
  9
$DIMTOH
 70
     0
  9
$DIMSE1
 70
     0
  9
$DIMSE2
 70
     0
  9
$DIMTAD
 70
     1
  9
$DIMZIN
 70
     8
  9
$DIMBLK
  1

  9
$DIMASO
 70
     1
  9
$DIMSHO
 70
     0
  9
$DIMPOST
  1

  9
$DIMAPOST
  1

  9
$DIMALT
 70
     0
  9
$DIMALTD
 70
     2
  9
$DIMALTF
 40
25.399999999999999
  9
$DIMLFAC
 40
1.0
  9
$DIMTOFL
 70
     1
  9
$DIMTVP
 40
0.0
  9
$DIMTIX
 70
     1
  9
$DIMSOXD
 70
     0
  9
$DIMSAH
 70
     0
  9
$DIMBLK1
  1

  9
$DIMBLK2
  1

  9
$DIMSTYLE
  2
STANDARD
  9
$DIMCLRD
 70
     7
  9
$DIMCLRE
 70
     7
  9
$DIMCLRT
 70
     7
  9
$DIMTFAC
 40
1.0
  9
$DIMGAP
 40
25.0
  9
$LUNITS
 70
     2
  9
$LUPREC
 70
     4
  9
$SKETCHINC
 40
0.1
  9
$FILLETRAD
 40
3.0
  9
$AUNITS
 70
     1
  9
$AUPREC
 70
     3
  9
$MENU
  1
ACAD
  9
$ELEVATION
 40
0.0
  9
$PELEVATION
 40
0.0
  9
$THICKNESS
 40
0.0
  9
$LIMCHECK
 70
     0
  9
$CHAMFERA
 40
0.0
  9
$CHAMFERB
 40
0.0
  9
$SKPOLY
 70
     0
  9
$TDCREATE
 40
2453019.62301037
  9
$TDUPDATE
 40
2458949.449313866
  9
$TDINDWG
 40
1.7127358912
  9
$TDUSRTIMER
 40
1.7127358912
  9
$USRTIMER
 70
     1
  9
$ANGBASE
 50
0.0
  9
$ANGDIR
 70
     0
  9
$PDMODE
 70
     3
  9
$PDSIZE
 40
-2.0
  9
$PLINEWID
 40
0.0
  9
$SPLFRAME
 70
     0
  9
$SPLINETYPE
 70
     6
  9
$SPLINESEGS
 70
     8
  9
$SURFTAB1
 70
     6
  9
$SURFTAB2
 70
     6
  9
$SURFTYPE
 70
     6
  9
$SURFU
 70
     6
  9
$SURFV
 70
     6
  9
$UCSNAME
  2

  9
$UCSORG
 10
0.0
 20
0.0
 30
0.0
  9
$UCSXDIR
 10
1.0
 20
0.0
 30
0.0
  9
$UCSYDIR
 10
0.0
 20
1.0
 30
0.0
  9
$PUCSNAME
  2

  9
$PUCSORG
 10
0.0
 20
0.0
 30
0.0
  9
$PUCSXDIR
 10
1.0
 20
0.0
 30
0.0
  9
$PUCSYDIR
 10
0.0
 20
1.0
 30
0.0
  9
$USERI1
 70
     0
  9
$USERI2
 70
     0
  9
$USERI3
 70
     0
  9
$USERI4
 70
     0
  9
$USERI5
 70
     0
  9
$USERR1
 40
20.0
  9
$USERR2
 40
0.0
  9
$USERR3
 40
0.0
  9
$USERR4
 40
0.0
  9
$USERR5
 40
0.0
  9
$WORLDVIEW
 70
     1
  9
$SHADEDGE
 70
     3
  9
$SHADEDIF
 70
    70
  9
$TILEMODE
 70
     1
  9
$MAXACTVP
 70
    48
  9
$PINSBASE
 10
0.0
 20
0.0
 30
0.0
  9
$PLIMCHECK
 70
     0
  9
$PEXTMIN
 10
-100000000000000000000.0
 20
-100000000000000000000.0
 30
-100000000000000000000.0
  9
$PEXTMAX
 10
100000000000000000000.0
 20
100000000000000000000.0
 30
100000000000000000000.0
  9
$PLIMMIN
 10
0.0
 20
0.0
  9
$PLIMMAX
 10
12.0
 20
9.0
  9
$UNITMODE
 70
     0
  9
$VISRETAIN
 70
     0
  9
$PLINEGEN
 70
     0
  9
$PSLTSCALE
 70
     0
  9
$TREEDEPTH
 70
  3020
  9
$ATTDIA
 70
     0
  9
$ATTREQ
 70
     1
  9
$BLIPMODE
 70
     1
  9
$COORDS
 70
     1
  9
$DRAGMODE
 70
     2
  9
$OSMODE
 70
     0
  9
$HANDLING
 70
     0
  9
$HANDSEED
  5
F1C9
  0
ENDSEC
  0
SECTION
  2
TABLES
  0
TABLE
  2
LTYPE
 70
     2
  0
LTYPE
  2
CONTINUOUS
 70
     0
  3
実線
 72
    65
 73
     0
 40
0.0
  0
LTYPE
  2
DASHDOT
 70
     0
  3
____ _ ____ _ ____ _ ____ _ ____ _ ____ _ ____
 72
    65
 73
     4
 40
5.5
 49
4.0
 49
-0.6
 49
0.3
 49
-0.6
  0
ENDTAB
  0
TABLE
  2
LAYER
 70
    12
  0
LAYER
  2
0
 70
     0
 62
     7
  6
CONTINUOUS
  0
LAYER
  2
BASIS
 70
     0
 62
     6
  6
DASHDOT
  0
LAYER
  2
OUTLINE
 70
     0
 62
     3
  6
CONTINUOUS
  0
LAYER
  2
DETAIL
 70
     0
 62
     5
  6
CONTINUOUS
  0
LAYER
  2
SIZE
 70
     0
 62
    30
  6
CONTINUOUS
  0
LAYER
  2
ARRANGE
 70
     0
 62
     1
  6
CONTINUOUS
  0
LAYER
  2
DEFPOINTS
 70
     0
 62
     7
  6
CONTINUOUS
  0
LAYER
  2
ETC
 70
     0
 62
    61
  6
CONTINUOUS
  0
LAYER
  2
FIX
 70
     0
 62
    11
  6
CONTINUOUS
  0
LAYER
  2
NOTE
 70
     0
 62
     4
  6
CONTINUOUS
  0
LAYER
  2
SERVICESPACE
 70
    64
 62
     2
  6
DASHDOT
  0
LAYER
  2
SYMBOLLINE
 70
    64
 62
    15
  6
CONTINUOUS
  0
ENDTAB
  0
TABLE
  2
STYLE
 70
     1
  0
STYLE
  2
STANDARD
 70
     0
 40
64.0
 41
0.9
 50
0.0
 71
     0
 42
64.0
  3
SIMPLEX.shx
  4
BIGFONT.shx
  0
ENDTAB
  0
TABLE
  2
APPID
 70
    19
  0
APPID
  2
ACAD
 70
     0
  0
APPID
  2
AUTOCAD_POSTSCRIPT_FIGURE
 70
     0
  0
APPID
  2
ACAD_EXEMPT_FROM_CAD_STANDARDS
 70
     0
  0
APPID
  2
ACAD_PSEXT
 70
     0
  0
APPID
  2
ACAUTHENVIRON
 70
     0
  0
APPID
  2
GENIUS_GENOENT_13
 70
     0
  0
APPID
  2
GENIUS_GENCFG_13
 70
     0
  0
APPID
  2
GENIUS_GENCFG0_13
 70
     0
  0
APPID
  2
GENIUS_GENCFG1_13
 70
     0
  0
APPID
  2
GENIUS_GENCFG2_13
 70
     0
  0
APPID
  2
GENIUS_GENCFG3_13
 70
     0
  0
APPID
  2
GENIUS_GENCFG4_13
 70
     0
  0
APPID
  2
GENIUS_GEVCFG0_13
 70
     0
  0
APPID
  2
CONTENTBLOCKICON
 70
     0
  0
APPID
  2
CONTENTBLOCKDESCRIPTION
 70
     0
  0
APPID
  2
ACAD_NAV_VCDISPLAY
 70
     0
  0
APPID
  2
ACAD_MLEADERVER
 70
     0
  0
APPID
  2
ACDBDYNAMICBLOCKTRUENAME
 70
     0
  0
APPID
  2
ACDBDYNAMICBLOCKGUID
 70
     0
  0
ENDTAB
  0
TABLE
  2
DIMSTYLE
 70
     1
  0
DIMSTYLE
  2
STANDARD
 70
     0
  3

  4

  5
_ORIGIN
  6

  7

 40
1.0
 41
12.0
 42
20.0
 43
200.0
 44
20.0
 45
0.0
 46
0.0
 47
0.0
 48
0.0
140
64.0
141
0.09
142
0.0
143
25.399999999999999
144
1.0
145
0.0
146
1.0
147
25.0
 71
     0
 72
     0
 73
     0
 74
     0
 75
     0
 76
     0
 77
     1
 78
     8
170
     0
171
     2
172
     1
173
     0
174
     1
175
     0
176
     7
177
     7
178
     7
  0
ENDTAB
  0
TABLE
  2
VIEW
 70
     1
  0
VIEW
  2
ALL
 70
     0
 40
4282.6198079999986
 10
0.0
 20
41.309904000000003
 41
5940.0
 11
0.0
 21
0.0
 31
1.0
 12
0.0
 22
0.0
 32
0.0
 42
50.0
 43
0.0
 44
0.0
 50
0.0
 71
     0
  0
ENDTAB
  0
TABLE
  2
UCS
 70
     0
  0
ENDTAB
  0
TABLE
  2
VPORT
 70
     1
  0
VPORT
  2
*ACTIVE
 70
     0
 10
0.0
 20
0.0
 11
1.0
 21
1.0
 12
223.1941364044242
 22
71.777353612446859
 13
0.0
 23
0.0
 14
1.0
 24
1.0
 15
0.0
 25
0.0
 16
0.0
 26
0.0
 36
1.0
 17
0.0
 27
0.0
 37
0.0
 40
1134.117434783268
 41
1.747787610619469
 42
50.0
 43
0.0
 44
0.0
 50
0.0
 51
0.0
 71
     0
 72
  1000
 73
     1
 74
     3
 75
     0
 76
     0
 77
     0
 78
     0
  0
ENDTAB
  0
ENDSEC
  0
SECTION
  2
BLOCKS
  0
BLOCK
  8
0
  2
_ORIGIN
 70
     0
 10
0.0
 20
0.0
 30
0.0
  3
_ORIGIN
  1
_ORIGIN
  0
CIRCLE
  8
0
  6
CONTINUOUS
 62
     7
 10
0.0
 20
0.0
 30
0.0
 40
0.5
  0
LINE
  8
0
  6
CONTINUOUS
 62
     7
 10
0.0
 20
0.0
 30
0.0
 11
-1.0
 21
0.0
 31
0.0
  0
ENDBLK
  8
0
  0
ENDSEC
  0
SECTION
  2
ENTITIES
  0
POINT
  8
ARRANGE
  6
CONTINUOUS
 62
     1
 10
0.0
 20
0.0
 30
0.0
  0
CIRCLE
  8
ARRANGE
  6
CONTINUOUS
 62
     1
 10
0.0
 20
0.0
 30
0.0
 40
40.0
  0
TEXT
  8
ETC
  6
CONTINUOUS
 62
    61
 10
323.62403950792208
 20
571.06627462735128
 30
0.0
 40
64.0
  1
EWF-50FTA2-HQ_1
 41
0.9
  0
TEXT
  8
ETC
  6
CONTINUOUS
 62
    61
 10
319.43804550792169
 20
453.11096461252009
 30
0.0
 40
64.0
  1
産業扇
 41
0.9
  0
LINE
  8
BASIS
  6
DASHDOT
 62
     6
 10
0.0
 20
-346.24069944203683
 30
0.0
 11
0.0
 21
97.92573098394746
 31
0.0
  0
LINE
  8
BASIS
  6
DASHDOT
 62
     6
 10
291.54466578190568
 20
0.0
 30
0.0
 11
-291.54466578190608
 21
0.0
 31
0.0
  0
TEXT
  8
ETC
  6
CONTINUOUS
 62
    61
 10
370.1394437564777
 20
344.9621917262948
 30
0.0
 40
40.0
  1
EWF-50FTA2-HQ
 41
0.9
  0
LINE
  8
NOTE
  6
CONTINUOUS
 62
     4
 10
-279.9523424878837
 20
-76.396141953386348
 30
0.0
 11
-279.9523424878837
 21
42.551185475438729
 31
0.0
  0
LINE
  8
NOTE
  6
CONTINUOUS
 62
     4
 10
279.95234248788353
 20
-76.396141953386291
 30
0.0
 11
279.95234248788353
 21
42.551185475438842
 31
0.0
  0
CIRCLE
  8
FIX
  6
CONTINUOUS
 62
    11
 10
-279.9523424878837
 20
-0.0000000000000568
 30
0.0
 40
9.8378378699999995
  0
CIRCLE
  8
FIX
  6
CONTINUOUS
 62
    11
 10
279.95234248788353
 20
0.0
 30
0.0
 40
9.8378378699999995
  0
LINE
  8
SIZE
  6
CONTINUOUS
 62
    30
 10
-279.9523424878837
 20
62.551185475438729
 30
0.0
 11
-279.9523424878837
 21
190.40822704203859
 31
0.0
  0
LINE
  8
SIZE
  6
CONTINUOUS
 62
    30
 10
279.95234248788353
 20
62.551185475438842
 30
0.0
 11
279.95234248788353
 21
190.40822704203859
 31
0.0
  0
LINE
  8
SIZE
  6
CONTINUOUS
 62
    30
 10
-267.9523424878837
 20
170.40822704203859
 30
0.0
 11
267.95234248788353
 21
170.40822704203859
 31
0.0
  0
CIRCLE
  8
SIZE
  6
CONTINUOUS
 62
    30
 10
-279.9523424878837
 20
170.40822704203859
 30
0.0
 40
6.0
  0
LINE
  8
SIZE
  6
CONTINUOUS
 62
    30
 10
-279.9523424878837
 20
170.40822704203859
 30
0.0
 11
-267.9523424878837
 21
170.40822704203859
 31
0.0
  0
CIRCLE
  8
SIZE
  6
CONTINUOUS
 62
    30
 10
279.95234248788353
 20
170.40822704203859
 30
0.0
 40
6.0
  0
LINE
  8
SIZE
  6
CONTINUOUS
 62
    30
 10
279.95234248788353
 20
170.40822704203859
 30
0.0
 11
267.95234248788353
 21
170.40822704203859
 31
0.0
  0
TEXT
  8
SIZE
  6
CONTINUOUS
 62
    30
 10
-73.55714285714285
 20
195.40822704203859
 30
0.0
 40
64.0
  1
560
 41
0.9
 72
     1
 11
0.5
 21
195.40822704203859
 31
0.0
  0
POINT
  8
DEFPOINTS
  6
CONTINUOUS
 62
    30
 10
-279.9523424878837
 20
42.551185475438729
 30
0.0
  0
POINT
  8
DEFPOINTS
  6
CONTINUOUS
 62
    30
 10
279.95234248788353
 20
42.551185475438842
 30
0.0
  0
POINT
  8
DEFPOINTS
  6
CONTINUOUS
 62
    30
 10
279.95234248788353
 20
170.40822704203859
 30
0.0
  0
LINE
  8
SIZE
  6
CONTINUOUS
 62
    30
 10
-310.0
 20
18.497576736672041
 30
0.0
 11
-310.0
 21
325.72685441009889
 31
0.0
  0
LINE
  8
SIZE
  6
CONTINUOUS
 62
    30
 10
310.0
 20
18.497576736672041
 30
0.0
 11
310.0
 21
325.72685441009889
 31
0.0
  0
LINE
  8
SIZE
  6
CONTINUOUS
 62
    30
 10
-298.0
 20
305.72685441009889
 30
0.0
 11
298.0
 21
305.72685441009889
 31
0.0
  0
CIRCLE
  8
SIZE
  6
CONTINUOUS
 62
    30
 10
-310.0
 20
305.72685441009889
 30
0.0
 40
6.0
  0
LINE
  8
SIZE
  6
CONTINUOUS
 62
    30
 10
-310.0
 20
305.72685441009889
 30
0.0
 11
-298.0
 21
305.72685441009889
 31
0.0
  0
CIRCLE
  8
SIZE
  6
CONTINUOUS
 62
    30
 10
310.0
 20
305.72685441009889
 30
0.0
 40
6.0
  0
LINE
  8
SIZE
  6
CONTINUOUS
 62
    30
 10
310.0
 20
305.72685441009889
 30
0.0
 11
298.0
 21
305.72685441009889
 31
0.0
  0
TEXT
  8
SIZE
  6
CONTINUOUS
 62
    30
 10
-73.78608300782426
 20
330.72685441009889
 30
0.0
 40
64.0
  1
620
 41
0.9
 72
     1
 11
0.2710598493185898
 21
330.72685441009889
 31
0.0
  0
POINT
  8
DEFPOINTS
  6
CONTINUOUS
 62
    30
 10
-310.0
 20
-1.5024232633279551
 30
0.0
  0
POINT
  8
DEFPOINTS
  6
CONTINUOUS
 62
    30
 10
310.0
 20
-1.5024232633279551
 30
0.0
  0
POINT
  8
DEFPOINTS
  6
CONTINUOUS
 62
    30
 10
310.0
 20
305.72685441009889
 30
0.0
  0
LINE
  8
SIZE
  6
CONTINUOUS
 62
    30
 10
-61.066200747967969
 20
-327.52827140549311
 30
0.0
 11
-423.13208100687098
 21
-327.528271405493
 31
0.0
  0
LINE
  8
SIZE
  6
CONTINUOUS
 62
    30
 10
-328.49757673667227
 20
0.0
 30
0.0
 11
-423.13208100687098
 21
0.0000000000000568
 31
0.0
  0
LINE
  8
SIZE
  6
CONTINUOUS
 62
    30
 10
-403.13208100687098
 20
-315.528271405493
 30
0.0
 11
-403.13208100687098
 21
-12.0
 31
0.0
  0
CIRCLE
  8
SIZE
  6
CONTINUOUS
 62
    30
 10
-403.13208100687098
 20
-327.528271405493
 30
0.0
 40
6.0
  0
LINE
  8
SIZE
  6
CONTINUOUS
 62
    30
 10
-403.13208100687098
 20
-327.528271405493
 30
0.0
 11
-403.13208100687098
 21
-315.528271405493
 31
0.0
  0
CIRCLE
  8
SIZE
  6
CONTINUOUS
 62
    30
 10
-403.13208100687098
 20
0.0
 30
0.0
 40
6.0
  0
LINE
  8
SIZE
  6
CONTINUOUS
 62
    30
 10
-403.13208100687098
 20
0.0
 30
0.0
 11
-403.13208100687098
 21
-12.0
 31
0.0
  0
TEXT
  8
SIZE
  6
CONTINUOUS
 62
    30
 10
-428.13208100687098
 20
-228.15348197082301
 30
0.0
 40
64.0
  1
327
 50
90.0
 41
0.9
 72
     1
 11
-428.13208100687098
 21
-154.09633911368019
 31
0.0
  0
POINT
  8
DEFPOINTS
  6
CONTINUOUS
 62
    30
 10
-41.066200747967969
 20
-327.52827140549311
 30
0.0
  0
POINT
  8
DEFPOINTS
  6
CONTINUOUS
 62
    30
 10
-308.49757673667227
 20
0.0
 30
0.0
  0
POINT
  8
DEFPOINTS
  6
CONTINUOUS
 62
    30
 10
-403.13208100687098
 20
0.0
 30
0.0
  0
LINE
  8
SIZE
  6
CONTINUOUS
 62
    30
 10
328.49757673667227
 20
0.0000000000002274
 30
0.0
 11
454.88033573669139
 21
0.0000000000001705
 31
0.0
  0
LINE
  8
SIZE
  6
CONTINUOUS
 62
    30
 10
323.38933764135709
 20
-10.01615508885379
 30
0.0
 11
454.88033573669139
 21
-10.01615508885385
 31
0.0
  0
LINE
  8
SIZE
  6
CONTINUOUS
 62
    30
 10
434.88033573669139
 20
-22.01615508885385
 30
0.0
 11
434.88033573669139
 21
-34.01615508885385
 31
0.0
  0
LINE
  8
SIZE
  6
CONTINUOUS
 62
    30
 10
434.88033573669139
 20
12.000000000000171
 30
0.0
 11
434.88033573669139
 21
156.28571428571439
 31
0.0
  0
LINE
  8
SIZE
  6
CONTINUOUS
 62
    30
 10
434.88033573669139
 20
-10.01615508885385
 30
0.0
 11
434.88033573669139
 21
0.0000000000001705
 31
0.0
  0
CIRCLE
  8
SIZE
  6
CONTINUOUS
 62
    30
 10
434.88033573669139
 20
-10.01615508885385
 30
0.0
 40
6.0
  0
LINE
  8
SIZE
  6
CONTINUOUS
 62
    30
 10
434.88033573669139
 20
-10.01615508885385
 30
0.0
 11
434.88033573669139
 21
-22.01615508885385
 31
0.0
  0
CIRCLE
  8
SIZE
  6
CONTINUOUS
 62
    30
 10
434.88033573669139
 20
0.0000000000001705
 30
0.0
 40
6.0
  0
LINE
  8
SIZE
  6
CONTINUOUS
 62
    30
 10
434.88033573669139
 20
0.0000000000001705
 30
0.0
 11
434.88033573669139
 21
12.000000000000171
 31
0.0
  0
TEXT
  8
SIZE
  6
CONTINUOUS
 62
    30
 10
409.88033573669139
 20
49.000000000000199
 30
0.0
 40
64.0
  1
10
 50
90.0
 41
0.9
 72
     1
 11
409.88033573669139
 21
90.142857142857338
 31
0.0
  0
POINT
  8
DEFPOINTS
  6
CONTINUOUS
 62
    30
 10
308.49757673667227
 20
0.0000000000002274
 30
0.0
  0
POINT
  8
DEFPOINTS
  6
CONTINUOUS
 62
    30
 10
303.38933764135709
 20
-10.01615508885379
 30
0.0
  0
POINT
  8
DEFPOINTS
  6
CONTINUOUS
 62
    30
 10
434.88033573669139
 20
-10.01615508885385
 30
0.0
  0
LINE
  8
SIZE
  6
CONTINUOUS
 62
    30
 10
323.38933764135709
 20
-10.01615508885334
 30
0.0
 11
454.88033573669139
 21
-10.016155088853401
 31
0.0
  0
LINE
  8
SIZE
  6
CONTINUOUS
 62
    30
 10
313.3731825525042
 20
-20.032310177705991
 30
0.0
 11
454.88033573669139
 21
-20.032310177706051
 31
0.0
  0
LINE
  8
SIZE
  6
CONTINUOUS
 62
    30
 10
434.88033573669139
 20
1.983844911146605
 30
0.0
 11
434.88033573669139
 21
13.983844911146599
 31
0.0
  0
LINE
  8
SIZE
  6
CONTINUOUS
 62
    30
 10
434.88033573669139
 20
-32.032310177706051
 30
0.0
 11
434.88033573669139
 21
-285.82692963999659
 31
0.0
  0
LINE
  8
SIZE
  6
CONTINUOUS
 62
    30
 10
434.88033573669139
 20
-10.016155088853401
 30
0.0
 11
434.88033573669139
 21
-20.032310177706051
 31
0.0
  0
CIRCLE
  8
SIZE
  6
CONTINUOUS
 62
    30
 10
434.88033573669139
 20
-10.016155088853401
 30
0.0
 40
6.0
  0
LINE
  8
SIZE
  6
CONTINUOUS
 62
    30
 10
434.88033573669139
 20
-10.016155088853401
 30
0.0
 11
434.88033573669139
 21
1.983844911146605
 31
0.0
  0
CIRCLE
  8
SIZE
  6
CONTINUOUS
 62
    30
 10
434.88033573669139
 20
-20.032310177706051
 30
0.0
 40
6.0
  0
LINE
  8
SIZE
  6
CONTINUOUS
 62
    30
 10
434.88033573669139
 20
-20.032310177706051
 30
0.0
 11
434.88033573669139
 21
-32.032310177706051
 31
0.0
  0
TEXT
  8
SIZE
  6
CONTINUOUS
 62
    30
 10
409.88033573669139
 20
-260.82692963999648
 30
0.0
 40
64.0
  1
10
 50
90.0
 41
0.9
 72
     1
 11
409.88033573669139
 21
-219.6840724971394
 31
0.0
  0
POINT
  8
DEFPOINTS
  6
CONTINUOUS
 62
    30
 10
303.38933764135709
 20
-10.01615508885334
 30
0.0
  0
POINT
  8
DEFPOINTS
  6
CONTINUOUS
 62
    30
 10
293.3731825525042
 20
-20.032310177705991
 30
0.0
  0
POINT
  8
DEFPOINTS
  6
CONTINUOUS
 62
    30
 10
434.88033573669139
 20
-20.032310177706051
 30
0.0
  0
LINE
  8
SIZE
  6
CONTINUOUS
 62
    30
 10
328.49757673667227
 20
0.0000000000002274
 30
0.0
 11
581.3356046717372
 21
0.0000000000001705
 31
0.0
  0
LINE
  8
SIZE
  6
CONTINUOUS
 62
    30
 10
282.42326332794852
 20
-155.2504038772208
 30
0.0
 11
581.3356046717372
 21
-155.25040387722089
 31
0.0
  0
LINE
  8
SIZE
  6
CONTINUOUS
 62
    30
 10
561.3356046717372
 20
-143.25040387722089
 30
0.0
 11
561.3356046717372
 21
-11.999999999999829
 31
0.0
  0
LINE
  8
SIZE
  6
CONTINUOUS
 62
    30
 10
561.3356046717372
 20
0.0000000000001705
 30
0.0
 11
561.3356046717372
 21
199.14285714285731
 31
0.0
  0
CIRCLE
  8
SIZE
  6
CONTINUOUS
 62
    30
 10
561.3356046717372
 20
-155.25040387722089
 30
0.0
 40
6.0
  0
LINE
  8
SIZE
  6
CONTINUOUS
 62
    30
 10
561.3356046717372
 20
-155.25040387722089
 30
0.0
 11
561.3356046717372
 21
-143.25040387722089
 31
0.0
  0
CIRCLE
  8
SIZE
  6
CONTINUOUS
 62
    30
 10
561.3356046717372
 20
0.0000000000001705
 30
0.0
 40
6.0
  0
LINE
  8
SIZE
  6
CONTINUOUS
 62
    30
 10
561.3356046717372
 20
0.0000000000001705
 30
0.0
 11
561.3356046717372
 21
-11.999999999999829
 31
0.0
  0
TEXT
  8
SIZE
  6
CONTINUOUS
 62
    30
 10
536.3356046717372
 20
37.000000000000213
 30
0.0
 40
64.0
  1
155
 50
90.0
 41
0.9
 72
     1
 11
536.3356046717372
 21
105.5714285714288
 31
0.0
  0
POINT
  8
DEFPOINTS
  6
CONTINUOUS
 62
    30
 10
308.49757673667227
 20
0.0000000000002274
 30
0.0
  0
POINT
  8
DEFPOINTS
  6
CONTINUOUS
 62
    30
 10
262.42326332794852
 20
-155.2504038772208
 30
0.0
  0
POINT
  8
DEFPOINTS
  6
CONTINUOUS
 62
    30
 10
561.3356046717372
 20
-155.25040387722089
 30
0.0
  0
TEXT
  8
NOTE
  6
CONTINUOUS
 62
     4
 10
-655.91338259807389
 20
123.31061913890819
 30
0.0
 40
64.0
  1
4-φ14
 41
0.9
  0
LINE
  8
DETAIL
  6
CONTINUOUS
 62
     4
 10
-282.25410212079868
 20
5.7694542100862796
 30
0.0
 11
-279.9523424878837
 21
-0.0000000000000568
 31
0.0
  0
LINE
  8
DETAIL
  6
CONTINUOUS
 62
     4
 10
-279.9523424878837
 20
-0.0000000000000568
 30
0.0
 11
-284.83045770355528
 21
3.845606744407462
 31
0.0
  0
LINE
  8
DETAIL
  6
CONTINUOUS
 62
     4
 10
-279.9523424878837
 20
-0.0000000000000568
 30
0.0
 11
-287.13221733647038
 21
9.6150609544937993
 31
0.0
  0
LINE
  8
NOTE
  6
CONTINUOUS
 62
     4
 10
-287.13221733647038
 20
9.6150609544937993
 30
0.0
 11
-347.37052545521652
 21
90.284294969253892
 31
0.0
  0
LINE
  8
NOTE
  6
CONTINUOUS
 62
     4
 10
-347.37052545521652
 20
90.284294969253892
 30
0.0
 11
-655.91338259807389
 21
90.284294969253892
 31
0.0
  0
ARC
  8
OUTLINE
  6
CONTINUOUS
 62
     3
 10
308.49757673667227
 20
-1.5024232633279551
 30
0.0
 40
1.5024232633281831
 50
270.0
 51
90.0
  0
ARC
  8
OUTLINE
  6
CONTINUOUS
 62
     3
 10
303.38933764135709
 20
-6.410339256866564
 30
0.0
 40
3.6058158319872282
 50
270.0
 51
0.0
  0
ARC
  8
OUTLINE
  6
CONTINUOUS
 62
     3
 10
293.3731825525042
 20
-16.426494345718989
 30
0.0
 40
3.6058158319870022
 50
270.0
 51
0.0
  0
ARC
  8
OUTLINE
  6
CONTINUOUS
 62
     3
 10
-308.49757673667227
 20
-1.5024232633279551
 30
0.0
 40
1.5024232633277279
 50
90.0
 51
270.0
  0
ARC
  8
OUTLINE
  6
CONTINUOUS
 62
     3
 10
-293.3731825525042
 20
-16.426494345718989
 30
0.0
 40
3.6058158319872282
 50
180.0
 51
270.0
  0
ARC
  8
OUTLINE
  6
CONTINUOUS
 62
     3
 10
-303.38933764135692
 20
-6.410339256866564
 30
0.0
 40
3.6058158319872282
 50
180.0
 51
270.0
  0
LINE
  8
OUTLINE
  6
CONTINUOUS
 62
     3
 10
306.99515347334409
 20
-3.004846526655911
 30
0.0
 11
306.99515347334409
 21
-6.410339256866564
 31
0.0
  0
LINE
  8
OUTLINE
  6
CONTINUOUS
 62
     3
 10
296.97899838449121
 20
-13.89004062543995
 30
0.0
 11
296.97899838449121
 21
-16.426494345718989
 31
0.0
  0
LINE
  8
OUTLINE
  6
CONTINUOUS
 62
     3
 10
308.49757673667227
 20
0.0
 30
0.0
 11
-308.49757673667227
 21
0.0
 31
0.0
  0
LINE
  8
OUTLINE
  6
CONTINUOUS
 62
     3
 10
308.49757673667227
 20
-3.004846526655911
 30
0.0
 11
306.99515347334409
 21
-3.004846526655911
 31
0.0
  0
LINE
  8
OUTLINE
  6
CONTINUOUS
 62
     3
 10
-300.17892012222802
 20
-10.01615508885334
 30
0.0
 11
-303.38933764135692
 21
-10.01615508885334
 31
0.0
  0
LINE
  8
OUTLINE
  6
CONTINUOUS
 62
     3
 10
303.38933764135709
 20
-10.01615508885334
 30
0.0
 11
300.17892012222728
 21
-10.01615508885334
 31
0.0
  0
LINE
  8
OUTLINE
  6
CONTINUOUS
 62
     3
 10
-275.94507269789977
 20
-20.032310177705881
 30
0.0
 11
-293.3731825525042
 21
-20.032310177705991
 31
0.0
  0
LINE
  8
OUTLINE
  6
CONTINUOUS
 62
     3
 10
293.3731825525042
 20
-20.032310177705991
 30
0.0
 11
275.94507269789977
 21
-20.032310177705991
 31
0.0
  0
LINE
  8
OUTLINE
  6
CONTINUOUS
 62
     3
 10
99.920612240598075
 20
-295.47965917917168
 30
0.0
 11
99.920612240598075
 21
-242.39095315024269
 31
0.0
  0
LINE
  8
OUTLINE
  6
CONTINUOUS
 62
     3
 10
41.066235864297369
 20
-327.52827140549311
 30
0.0
 11
41.066235864297369
 21
-313.39872734543093
 31
0.0
  0
LINE
  8
OUTLINE
  6
CONTINUOUS
 62
     3
 10
-41.066235864297141
 20
-327.52827140549311
 30
0.0
 11
-41.066235864297141
 21
-313.39872734543093
 31
0.0
  0
LINE
  8
OUTLINE
  6
CONTINUOUS
 62
     3
 10
99.920612240598075
 20
-242.39095315024269
 30
0.0
 11
179.52684310502539
 21
-242.39095315024269
 31
0.0
  0
LINE
  8
OUTLINE
  6
CONTINUOUS
 62
     3
 10
-179.5268431049831
 20
-242.39095315024269
 30
0.0
 11
-99.920612241374329
 21
-242.39095315024269
 31
0.0
  0
LINE
  8
OUTLINE
  6
CONTINUOUS
 62
     3
 10
-99.920612241374329
 20
-295.47965924905122
 30
0.0
 11
-99.920612241374329
 21
-242.39095315024269
 31
0.0
  0
LINE
  8
OUTLINE
  6
CONTINUOUS
 62
     3
 10
-41.066235864297141
 20
-313.39872734543093
 30
0.0
 11
-85.638126009692769
 21
-309.49919224555742
 31
0.0
  0
LINE
  8
OUTLINE
  6
CONTINUOUS
 62
     3
 10
-41.066200747967969
 20
-327.52827140549311
 30
0.0
 11
41.066200747191942
 21
-327.52827140549311
 31
0.0
  0
LINE
  8
OUTLINE
  6
CONTINUOUS
 62
     3
 10
41.066235864297369
 20
-313.39872734543093
 30
0.0
 11
85.638126009693224
 21
-309.49919224555742
 31
0.0
  0
LINE
  8
OUTLINE
  6
CONTINUOUS
 62
     3
 10
-258.14249525633983
 20
-140.22617124394199
 30
0.0
 11
-258.14249525633983
 21
-84.45273018870148
 31
0.0
  0
LINE
  8
OUTLINE
  6
CONTINUOUS
 62
     3
 10
-296.97899838449138
 20
-16.426494345718989
 30
0.0
 11
-296.97899838449138
 21
-13.89004062543995
 31
0.0
  0
LINE
  8
OUTLINE
  6
CONTINUOUS
 62
     3
 10
-306.99515347334409
 20
-6.410339256866564
 30
0.0
 11
-306.99515347334409
 21
-3.004846526655911
 31
0.0
  0
ARC
  8
OUTLINE
  6
CONTINUOUS
 62
     3
 10
275.94507269789977
 20
-39.463651050080898
 30
0.0
 40
19.431340872375131
 50
90.0
 51
156.376462246198
  0
ARC
  8
OUTLINE
  6
CONTINUOUS
 62
     3
 10
-275.94507269789977
 20
-39.463651050080898
 30
0.0
 40
19.431340872375049
 50
23.62353775380199
 51
90.0
  0
LINE
  8
OUTLINE
  6
CONTINUOUS
 62
     3
 10
258.14249525556352
 20
-31.676145383434228
 30
0.0
 11
258.14249525556352
 21
-84.45273018870148
 31
0.0
  0
LINE
  8
OUTLINE
  6
CONTINUOUS
 62
     3
 10
258.14249525556352
 20
-84.45273018870148
 30
0.0
 11
258.14249525556352
 21
-140.22617124394199
 31
0.0
  0
LINE
  8
OUTLINE
  6
CONTINUOUS
 62
     3
 10
-258.14249525633983
 20
-84.45273018870148
 30
0.0
 11
-258.14249525633983
 21
-31.676145381659921
 31
0.0
  0
LINE
  8
OUTLINE
  6
CONTINUOUS
 62
     3
 10
-306.99515347334409
 20
-3.004846526655911
 30
0.0
 11
-308.49757673667227
 21
-3.004846526655911
 31
0.0
  0
LINE
  8
SIZE
  6
CONTINUOUS
 62
    30
 10
-85.638126009692769
 20
-329.49919224555742
 30
0.0
 11
-85.638126009692769
 21
-491.35424232706578
 31
0.0
  0
LINE
  8
SIZE
  6
CONTINUOUS
 62
    30
 10
85.638126009693224
 20
-329.49919224555742
 30
0.0
 11
85.638126009693224
 21
-491.35424232706578
 31
0.0
  0
LINE
  8
SIZE
  6
CONTINUOUS
 62
    30
 10
-73.638126009692769
 20
-471.35424232706578
 30
0.0
 11
73.638126009693224
 21
-471.35424232706578
 31
0.0
  0
LINE
  8
SIZE
  6
CONTINUOUS
 62
    30
 10
85.638126009693224
 20
-471.35424232706578
 30
0.0
 11
370.37592320281061
 21
-471.35424232706578
 31
0.0
  0
CIRCLE
  8
SIZE
  6
CONTINUOUS
 62
    30
 10
-85.638126009692769
 20
-471.35424232706578
 30
0.0
 40
6.0
  0
LINE
  8
SIZE
  6
CONTINUOUS
 62
    30
 10
-85.638126009692769
 20
-471.35424232706578
 30
0.0
 11
-73.638126009692769
 21
-471.35424232706578
 31
0.0
  0
CIRCLE
  8
SIZE
  6
CONTINUOUS
 62
    30
 10
85.638126009693224
 20
-471.35424232706578
 30
0.0
 40
6.0
  0
LINE
  8
SIZE
  6
CONTINUOUS
 62
    30
 10
85.638126009693224
 20
-471.35424232706578
 30
0.0
 11
73.638126009693224
 21
-471.35424232706578
 31
0.0
  0
TEXT
  8
SIZE
  6
CONTINUOUS
 62
    30
 10
126.7702089170964
 20
-435.68757566039938
 30
0.0
 40
64.0
  1
φ200
 41
0.9
 72
     1
 11
241.1473517742393
 21
-435.68757566039938
 31
0.0
  0
POINT
  8
DEFPOINTS
  6
CONTINUOUS
 62
    30
 10
-85.638126009692769
 20
-309.49919224555742
 30
0.0
  0
POINT
  8
DEFPOINTS
  6
CONTINUOUS
 62
    30
 10
85.638126009693224
 20
-309.49919224555742
 30
0.0
  0
POINT
  8
DEFPOINTS
  6
CONTINUOUS
 62
    30
 10
85.638126009693224
 20
-471.35424232706578
 30
0.0
  0
LINE
  8
DETAIL
  6
CONTINUOUS
 62
     5
 10
-232.67069384831731
 20
-19.53150242326296
 30
0.0
 11
-232.75244035245561
 21
-19.53079167443207
 31
0.0
  0
LINE
  8
DETAIL
  6
CONTINUOUS
 62
     5
 10
-232.75244035245561
 20
-19.53079167443207
 30
0.0
 11
-232.83418786461081
 21
-19.52942761480654
 31
0.0
  0
LINE
  8
DETAIL
  6
CONTINUOUS
 62
     5
 10
-232.83418786461081
 20
-19.52942761480654
 30
0.0
 11
-232.83418786461081
 21
-19.52942761480654
 31
0.0
  0
LINE
  8
DETAIL
  6
CONTINUOUS
 62
     5
 10
-232.83418786461081
 20
-19.52942761480654
 30
0.0
 11
-232.9159303297547
 21
-19.52689735322997
 31
0.0
  0
LINE
  8
DETAIL
  6
CONTINUOUS
 62
     5
 10
-232.9159303297547
 20
-19.52689735322997
 30
0.0
 11
-232.99763344068541
 21
-19.523249677101379
 31
0.0
  0
LINE
  8
DETAIL
  6
CONTINUOUS
 62
     5
 10
-232.99763344068541
 20
-19.523249677101379
 30
0.0
 11
-232.99763344068541
 21
-19.523249677101379
 31
0.0
  0
LINE
  8
DETAIL
  6
CONTINUOUS
 62
     5
 10
-232.99763344068541
 20
-19.523249677101379
 30
0.0
 11
-233.07927560117059
 21
-19.518633721448172
 31
0.0
  0
LINE
  8
DETAIL
  6
CONTINUOUS
 62
     5
 10
-233.07927560117059
 20
-19.518633721448172
 30
0.0
 11
-233.1609143110359
 21
-19.51303833326233
 31
0.0
  0
LINE
  8
DETAIL
  6
CONTINUOUS
 62
     5
 10
-233.1609143110359
 20
-19.51303833326233
 30
0.0
 11
-233.1609143110359
 21
-19.51303833326233
 31
0.0
  0
LINE
  8
DETAIL
  6
CONTINUOUS
 62
     5
 10
-233.1609143110359
 20
-19.51303833326233
 30
0.0
 11
-233.24255481110751
 21
-19.506432155923449
 31
0.0
  0
LINE
  8
DETAIL
  6
CONTINUOUS
 62
     5
 10
-233.24255481110751
 20
-19.506432155923449
 30
0.0
 11
-233.3239142101568
 21
-19.498863306401969
 31
0.0
  0
LINE
  8
DETAIL
  6
CONTINUOUS
 62
     5
 10
-233.3239142101568
 20
-19.498863306401969
 30
0.0
 11
-233.3239142101568
 21
-19.498863306401969
 31
0.0
  0
LINE
  8
DETAIL
  6
CONTINUOUS
 62
     5
 10
-233.3239142101568
 20
-19.498863306401969
 30
0.0
 11
-233.4049059419817
 21
-19.490360368482921
 31
0.0
  0
LINE
  8
DETAIL
  6
CONTINUOUS
 62
     5
 10
-233.4049059419817
 20
-19.490360368482921
 30
0.0
 11
-233.4865168725423
 21
-19.480794319632199
 31
0.0
  0
LINE
  8
DETAIL
  6
CONTINUOUS
 62
     5
 10
-233.4865168725423
 20
-19.480794319632199
 30
0.0
 11
-233.4865168725423
 21
-19.480794319632199
 31
0.0
  0
LINE
  8
DETAIL
  6
CONTINUOUS
 62
     5
 10
-233.4865168725423
 20
-19.480794319632199
 30
0.0
 11
-233.56958151034519
 21
-19.47005114934268
 31
0.0
  0
LINE
  8
DETAIL
  6
CONTINUOUS
 62
     5
 10
-233.56958151034519
 20
-19.47005114934268
 30
0.0
 11
-233.65325150192101
 21
-19.458234501545579
 31
0.0
  0
LINE
  8
DETAIL
  6
CONTINUOUS
 62
     5
 10
-233.65325150192101
 20
-19.458234501545579
 30
0.0
 11
-233.65325150192101
 21
-19.458234501545579
 31
0.0
  0
LINE
  8
DETAIL
  6
CONTINUOUS
 62
     5
 10
-233.65325150192101
 20
-19.458234501545579
 30
0.0
 11
-233.7365160899553
 21
-19.445475704271981
 31
0.0
  0
LINE
  8
DETAIL
  6
CONTINUOUS
 62
     5
 10
-233.7365160899553
 20
-19.445475704271981
 30
0.0
 11
-233.81939776373429
 21
-19.431799167516829
 31
0.0
  0
LINE
  8
DETAIL
  6
CONTINUOUS
 62
     5
 10
-233.81939776373429
 20
-19.431799167516829
 30
0.0
 11
-233.81939776373429
 21
-19.431799167516829
 31
0.0
  0
LINE
  8
DETAIL
  6
CONTINUOUS
 62
     5
 10
-233.81939776373429
 20
-19.431799167516829
 30
0.0
 11
-233.9021492047423
 21
-19.417199515638458
 31
0.0
  0
LINE
  8
DETAIL
  6
CONTINUOUS
 62
     5
 10
-233.9021492047423
 20
-19.417199515638458
 30
0.0
 11
-233.9849106166553
 21
-19.401659148464429
 31
0.0
  0
LINE
  8
DETAIL
  6
CONTINUOUS
 62
     5
 10
-233.9849106166553
 20
-19.401659148464429
 30
0.0
 11
-233.9849106166553
 21
-19.401659148464429
 31
0.0
  0
LINE
  8
DETAIL
  6
CONTINUOUS
 62
     5
 10
-233.9849106166553
 20
-19.401659148464429
 30
0.0
 11
-234.06764824985501
 21
-19.38519636372871
 31
0.0
  0
LINE
  8
DETAIL
  6
CONTINUOUS
 62
     5
 10
-234.06764824985501
 20
-19.38519636372871
 30
0.0
 11
-234.1497450193535
 21
-19.367985275306861
 31
0.0
  0
LINE
  8
DETAIL
  6
CONTINUOUS
 62
     5
 10
-234.1497450193535
 20
-19.367985275306861
 30
0.0
 11
-234.1497450193535
 21
-19.367985275306861
 31
0.0
  0
LINE
  8
DETAIL
  6
CONTINUOUS
 62
     5
 10
-234.1497450193535
 20
-19.367985275306861
 30
0.0
 11
-234.23104946114341
 21
-19.350086191099081
 31
0.0
  0
LINE
  8
DETAIL
  6
CONTINUOUS
 62
     5
 10
-234.23104946114341
 20
-19.350086191099081
 30
0.0
 11
-234.3138559305003
 21
-19.330948378961921
 31
0.0
  0
LINE
  8
DETAIL
  6
CONTINUOUS
 62
     5
 10
-234.3138559305003
 20
-19.330948378961921
 30
0.0
 11
-234.3138559305003
 21
-19.330948378961921
 31
0.0
  0
LINE
  8
DETAIL
  6
CONTINUOUS
 62
     5
 10
-234.3138559305003
 20
-19.330948378961921
 30
0.0
 11
-234.40009705960571
 21
-19.310099819704192
 31
0.0
  0
LINE
  8
DETAIL
  6
CONTINUOUS
 62
     5
 10
-234.40009705960571
 20
-19.310099819704192
 30
0.0
 11
-234.48781276895991
 21
-19.287994385985261
 31
0.0
  0
LINE
  8
DETAIL
  6
CONTINUOUS
 62
     5
 10
-234.48781276895991
 20
-19.287994385985261
 30
0.0
 11
-234.48781276895991
 21
-19.287994385985261
 31
0.0
  0
LINE
  8
DETAIL
  6
CONTINUOUS
 62
     5
 10
-234.48781276895991
 20
-19.287994385985261
 30
0.0
 11
-234.57468897634701
 21
-19.265176979506119
 31
0.0
  0
LINE
  8
DETAIL
  6
CONTINUOUS
 62
     5
 10
-234.57468897634701
 20
-19.265176979506119
 30
0.0
 11
-234.66088830035409
 21
-19.241630726277211
 31
0.0
  0
LINE
  8
DETAIL
  6
CONTINUOUS
 62
     5
 10
-234.66088830035409
 20
-19.241630726277211
 30
0.0
 11
-234.66088830035409
 21
-19.241630726277211
 31
0.0
  0
LINE
  8
DETAIL
  6
CONTINUOUS
 62
     5
 10
-234.66088830035409
 20
-19.241630726277211
 30
0.0
 11
-234.74702873578761
 21
-19.217241647773331
 31
0.0
  0
LINE
  8
DETAIL
  6
CONTINUOUS
 62
     5
 10
-234.74702873578761
 20
-19.217241647773331
 30
0.0
 11
-234.83307308152121
 21
-19.192069123011379
 31
0.0
  0
LINE
  8
DETAIL
  6
CONTINUOUS
 62
     5
 10
-234.83307308152121
 20
-19.192069123011379
 30
0.0
 11
-234.83307308152121
 21
-19.192069123011379
 31
0.0
  0
LINE
  8
DETAIL
  6
CONTINUOUS
 62
     5
 10
-234.83307308152121
 20
-19.192069123011379
 30
0.0
 11
-234.91885635817701
 21
-19.166182956772669
 31
0.0
  0
LINE
  8
DETAIL
  6
CONTINUOUS
 62
     5
 10
-234.91885635817701
 20
-19.166182956772669
 30
0.0
 11
-235.00435766930059
 21
-19.139521299360691
 31
0.0
  0
LINE
  8
DETAIL
  6
CONTINUOUS
 62
     5
 10
-235.00435766930059
 20
-19.139521299360691
 30
0.0
 11
-235.00435766930059
 21
-19.139521299360691
 31
0.0
  0
LINE
  8
DETAIL
  6
CONTINUOUS
 62
     5
 10
-235.00435766930059
 20
-19.139521299360691
 30
0.0
 11
-235.08961185522909
 21
-19.112077702551009
 31
0.0
  0
LINE
  8
DETAIL
  6
CONTINUOUS
 62
     5
 10
-235.08961185522909
 20
-19.112077702551009
 30
0.0
 11
-235.1747326205307
 21
-19.08419897849717
 31
0.0
  0
LINE
  8
DETAIL
  6
CONTINUOUS
 62
     5
 10
-230.16665507610421
 20
-19.08419897849717
 30
0.0
 11
-230.2517654837475
 21
-19.112074375452949
 31
0.0
  0
LINE
  8
DETAIL
  6
CONTINUOUS
 62
     5
 10
-230.2517654837475
 20
-19.112074375452949
 30
0.0
 11
-230.3370093403162
 21
-19.139514767521181
 31
0.0
  0
LINE
  8
DETAIL
  6
CONTINUOUS
 62
     5
 10
-230.3370093403162
 20
-19.139514767521181
 30
0.0
 11
-230.3370093403162
 21
-19.139514767521181
 31
0.0
  0
LINE
  8
DETAIL
  6
CONTINUOUS
 62
     5
 10
-230.3370093403162
 20
-19.139514767521181
 30
0.0
 11
-230.42250032081259
 21
-19.166173429452101
 31
0.0
  0
LINE
  8
DETAIL
  6
CONTINUOUS
 62
     5
 10
-230.42250032081259
 20
-19.166173429452101
 30
0.0
 11
-230.508273004546
 21
-19.192056754564419
 31
0.0
  0
LINE
  8
DETAIL
  6
CONTINUOUS
 62
     5
 10
-230.508273004546
 20
-19.192056754564419
 30
0.0
 11
-230.508273004546
 21
-19.192056754564419
 31
0.0
  0
LINE
  8
DETAIL
  6
CONTINUOUS
 62
     5
 10
-230.508273004546
 20
-19.192056754564419
 30
0.0
 11
-230.5943064399041
 21
-19.21722656670568
 31
0.0
  0
LINE
  8
DETAIL
  6
CONTINUOUS
 62
     5
 10
-230.5943064399041
 20
-19.21722656670568
 30
0.0
 11
-230.68043664728361
 21
-19.241613293286949
 31
0.0
  0
LINE
  8
DETAIL
  6
CONTINUOUS
 62
     5
 10
-230.68043664728361
 20
-19.241613293286949
 30
0.0
 11
-230.68043664728361
 21
-19.241613293286949
 31
0.0
  0
LINE
  8
DETAIL
  6
CONTINUOUS
 62
     5
 10
-230.68043664728361
 20
-19.241613293286949
 30
0.0
 11
-230.76662669199871
 21
-19.2651576294063
 31
0.0
  0
LINE
  8
DETAIL
  6
CONTINUOUS
 62
     5
 10
-230.76662669199871
 20
-19.2651576294063
 30
0.0
 11
-230.85349084701781
 21
-19.287972737347669
 31
0.0
  0
LINE
  8
DETAIL
  6
CONTINUOUS
 62
     5
 10
-230.85349084701781
 20
-19.287972737347669
 30
0.0
 11
-230.85349084701781
 21
-19.287972737347669
 31
0.0
  0
LINE
  8
DETAIL
  6
CONTINUOUS
 62
     5
 10
-230.85349084701781
 20
-19.287972737347669
 30
0.0
 11
-230.94119073656569
 21
-19.310075278114478
 31
0.0
  0
LINE
  8
DETAIL
  6
CONTINUOUS
 62
     5
 10
-230.94119073656569
 20
-19.310075278114478
 30
0.0
 11
-231.0274261822378
 21
-19.330923440406419
 31
0.0
  0
LINE
  8
DETAIL
  6
CONTINUOUS
 62
     5
 10
-231.0274261822378
 20
-19.330923440406419
 30
0.0
 11
-231.0274261822378
 21
-19.330923440406419
 31
0.0
  0
LINE
  8
DETAIL
  6
CONTINUOUS
 62
     5
 10
-231.0274261822378
 20
-19.330923440406419
 30
0.0
 11
-231.11024886072099
 21
-19.350065892469271
 31
0.0
  0
LINE
  8
DETAIL
  6
CONTINUOUS
 62
     5
 10
-231.11024886072099
 20
-19.350065892469271
 30
0.0
 11
-231.1915796716996
 21
-19.367971693045089
 31
0.0
  0
LINE
  8
DETAIL
  6
CONTINUOUS
 62
     5
 10
-231.1915796716996
 20
-19.367971693045089
 30
0.0
 11
-231.1915796716996
 21
-19.367971693045089
 31
0.0
  0
LINE
  8
DETAIL
  6
CONTINUOUS
 62
     5
 10
-231.1915796716996
 20
-19.367971693045089
 30
0.0
 11
-231.27369913859391
 21
-19.38518815712132
 31
0.0
  0
LINE
  8
DETAIL
  6
CONTINUOUS
 62
     5
 10
-231.27369913859391
 20
-19.38518815712132
 30
0.0
 11
-231.35645705676731
 21
-19.40165523417318
 31
0.0
  0
LINE
  8
DETAIL
  6
CONTINUOUS
 62
     5
 10
-231.35645705676731
 20
-19.40165523417318
 30
0.0
 11
-231.35645705676731
 21
-19.40165523417318
 31
0.0
  0
LINE
  8
DETAIL
  6
CONTINUOUS
 62
     5
 10
-231.35645705676731
 20
-19.40165523417318
 30
0.0
 11
-231.43924010757269
 21
-19.417199712682532
 31
0.0
  0
LINE
  8
DETAIL
  6
CONTINUOUS
 62
     5
 10
-231.43924010757269
 20
-19.417199712682532
 30
0.0
 11
-231.5220132443774
 21
-19.431803102669392
 31
0.0
  0
LINE
  8
DETAIL
  6
CONTINUOUS
 62
     5
 10
-231.5220132443774
 20
-19.431803102669392
 30
0.0
 11
-231.5220132443774
 21
-19.431803102669392
 31
0.0
  0
LINE
  8
DETAIL
  6
CONTINUOUS
 62
     5
 10
-231.5220132443774
 20
-19.431803102669392
 30
0.0
 11
-231.60491539855141
 21
-19.445482714377022
 31
0.0
  0
LINE
  8
DETAIL
  6
CONTINUOUS
 62
     5
 10
-231.60491539855141
 20
-19.445482714377022
 30
0.0
 11
-231.6882031414666
 21
-19.458244337412449
 31
0.0
  0
LINE
  8
DETAIL
  6
CONTINUOUS
 62
     5
 10
-231.6882031414666
 20
-19.458244337412449
 30
0.0
 11
-231.6882031414666
 21
-19.458244337412449
 31
0.0
  0
LINE
  8
DETAIL
  6
CONTINUOUS
 62
     5
 10
-231.6882031414666
 20
-19.458244337412449
 30
0.0
 11
-231.7719002464905
 21
-19.470063721476439
 31
0.0
  0
LINE
  8
DETAIL
  6
CONTINUOUS
 62
     5
 10
-231.7719002464905
 20
-19.470063721476439
 30
0.0
 11
-231.85498165497069
 21
-19.480807977279479
 31
0.0
  0
LINE
  8
DETAIL
  6
CONTINUOUS
 62
     5
 10
-231.85498165497069
 20
-19.480807977279479
 30
0.0
 11
-231.85498165497069
 21
-19.480807977279479
 31
0.0
  0
LINE
  8
DETAIL
  6
CONTINUOUS
 62
     5
 10
-231.85498165497069
 20
-19.480807977279479
 30
0.0
 11
-231.9365868595319
 21
-19.49037221212393
 31
0.0
  0
LINE
  8
DETAIL
  6
CONTINUOUS
 62
     5
 10
-231.9365868595319
 20
-19.49037221212393
 30
0.0
 11
-232.0175623899149
 21
-19.49887215866374
 31
0.0
  0
LINE
  8
DETAIL
  6
CONTINUOUS
 62
     5
 10
-232.0175623899149
 20
-19.49887215866374
 30
0.0
 11
-232.0175623899149
 21
-19.49887215866374
 31
0.0
  0
LINE
  8
DETAIL
  6
CONTINUOUS
 62
     5
 10
-232.0175623899149
 20
-19.49887215866374
 30
0.0
 11
-232.09890936096261
 21
-19.506438785059341
 31
0.0
  0
LINE
  8
DETAIL
  6
CONTINUOUS
 62
     5
 10
-232.09890936096261
 20
-19.506438785059341
 30
0.0
 11
-232.18054019079889
 21
-19.51304337614306
 31
0.0
  0
LINE
  8
DETAIL
  6
CONTINUOUS
 62
     5
 10
-232.18054019079889
 20
-19.51304337614306
 30
0.0
 11
-232.18054019079889
 21
-19.51304337614306
 31
0.0
  0
LINE
  8
DETAIL
  6
CONTINUOUS
 62
     5
 10
-232.18054019079889
 20
-19.51304337614306
 30
0.0
 11
-232.26216817848541
 21
-19.518637300809811
 31
0.0
  0
LINE
  8
DETAIL
  6
CONTINUOUS
 62
     5
 10
-232.26216817848541
 20
-19.518637300809811
 30
0.0
 11
-232.3437988435455
 21
-19.523251947528479
 31
0.0
  0
LINE
  8
DETAIL
  6
CONTINUOUS
 62
     5
 10
-232.3437988435455
 20
-19.523251947528479
 30
0.0
 11
-232.3437988435455
 21
-19.523251947528479
 31
0.0
  0
LINE
  8
DETAIL
  6
CONTINUOUS
 62
     5
 10
-232.3437988435455
 20
-19.523251947528479
 30
0.0
 11
-232.42549071433629
 21
-19.526898610920171
 31
0.0
  0
LINE
  8
DETAIL
  6
CONTINUOUS
 62
     5
 10
-232.42549071433629
 20
-19.526898610920171
 30
0.0
 11
-232.50722213407769
 21
-19.529428190630821
 31
0.0
  0
LINE
  8
DETAIL
  6
CONTINUOUS
 62
     5
 10
-232.50722213407769
 20
-19.529428190630821
 30
0.0
 11
-232.50722213407769
 21
-19.529428190630821
 31
0.0
  0
LINE
  8
DETAIL
  6
CONTINUOUS
 62
     5
 10
-232.50722213407769
 20
-19.529428190630821
 30
0.0
 11
-232.58895852972611
 21
-19.530791877642059
 31
0.0
  0
LINE
  8
DETAIL
  6
CONTINUOUS
 62
     5
 10
-232.58895852972611
 20
-19.530791877642059
 30
0.0
 11
-232.67069384831731
 21
-19.53150242326296
 31
0.0
  0
LINE
  8
DETAIL
  6
CONTINUOUS
 62
     5
 10
-225.15857753167759
 20
-19.08419897849717
 30
0.0
 11
-225.24368793931879
 21
-19.11207437545227
 31
0.0
  0
LINE
  8
DETAIL
  6
CONTINUOUS
 62
     5
 10
-225.24368793931879
 20
-19.11207437545227
 30
0.0
 11
-225.3289317958847
 21
-19.139514767518449
 31
0.0
  0
LINE
  8
DETAIL
  6
CONTINUOUS
 62
     5
 10
-225.3289317958847
 20
-19.139514767518449
 30
0.0
 11
-225.3289317958847
 21
-19.139514767518449
 31
0.0
  0
LINE
  8
DETAIL
  6
CONTINUOUS
 62
     5
 10
-225.3289317958847
 20
-19.139514767518449
 30
0.0
 11
-225.4144227763766
 21
-19.166173429446872
 31
0.0
  0
LINE
  8
DETAIL
  6
CONTINUOUS
 62
     5
 10
-225.4144227763766
 20
-19.166173429446872
 30
0.0
 11
-225.50019546010279
 21
-19.192056754554191
 31
0.0
  0
LINE
  8
DETAIL
  6
CONTINUOUS
 62
     5
 10
-225.50019546010279
 20
-19.192056754554191
 30
0.0
 11
-225.50019546010279
 21
-19.192056754554191
 31
0.0
  0
LINE
  8
DETAIL
  6
CONTINUOUS
 62
     5
 10
-225.50019546010279
 20
-19.192056754554191
 30
0.0
 11
-225.5862288954531
 21
-19.217226566689309
 31
0.0
  0
LINE
  8
DETAIL
  6
CONTINUOUS
 62
     5
 10
-225.5862288954531
 20
-19.217226566689309
 30
0.0
 11
-225.6723591028256
 21
-19.241613293261249
 31
0.0
  0
LINE
  8
DETAIL
  6
CONTINUOUS
 62
     5
 10
-225.6723591028256
 20
-19.241613293261249
 30
0.0
 11
-225.6723591028256
 21
-19.241613293261249
 31
0.0
  0
LINE
  8
DETAIL
  6
CONTINUOUS
 62
     5
 10
-225.6723591028256
 20
-19.241613293261249
 30
0.0
 11
-225.7585491475343
 21
-19.265157629369241
 31
0.0
  0
LINE
  8
DETAIL
  6
CONTINUOUS
 62
     5
 10
-225.7585491475343
 20
-19.265157629369241
 30
0.0
 11
-225.8454133025466
 21
-19.28797273729538
 31
0.0
  0
LINE
  8
DETAIL
  6
CONTINUOUS
 62
     5
 10
-225.8454133025466
 20
-19.28797273729538
 30
0.0
 11
-225.8454133025466
 21
-19.28797273729538
 31
0.0
  0
LINE
  8
DETAIL
  6
CONTINUOUS
 62
     5
 10
-225.8454133025466
 20
-19.28797273729538
 30
0.0
 11
-225.93311319208669
 21
-19.31007527804309
 31
0.0
  0
LINE
  8
DETAIL
  6
CONTINUOUS
 62
     5
 10
-225.93311319208669
 20
-19.31007527804309
 30
0.0
 11
-226.0193486377589
 21
-19.3309234403132
 31
0.0
  0
LINE
  8
DETAIL
  6
CONTINUOUS
 62
     5
 10
-226.0193486377589
 20
-19.3309234403132
 30
0.0
 11
-226.0193486377589
 21
-19.3309234403132
 31
0.0
  0
LINE
  8
DETAIL
  6
CONTINUOUS
 62
     5
 10
-226.0193486377589
 20
-19.3309234403132
 30
0.0
 11
-226.10217131625859
 21
-19.350065892356952
 31
0.0
  0
LINE
  8
DETAIL
  6
CONTINUOUS
 62
     5
 10
-226.10217131625859
 20
-19.350065892356952
 30
0.0
 11
-226.18350212727501
 21
-19.367971692917759
 31
0.0
  0
LINE
  8
DETAIL
  6
CONTINUOUS
 62
     5
 10
-226.18350212727501
 20
-19.367971692917759
 30
0.0
 11
-226.18350212727501
 21
-19.367971692917759
 31
0.0
  0
LINE
  8
DETAIL
  6
CONTINUOUS
 62
     5
 10
-226.18350212727501
 20
-19.367971692917759
 30
0.0
 11
-226.2656215942188
 21
-19.385188156983759
 31
0.0
  0
LINE
  8
DETAIL
  6
CONTINUOUS
 62
     5
 10
-226.2656215942188
 20
-19.385188156983759
 30
0.0
 11
-226.3483795123955
 21
-19.40165523402743
 31
0.0
  0
LINE
  8
DETAIL
  6
CONTINUOUS
 62
     5
 10
-226.3483795123955
 20
-19.40165523402743
 30
0.0
 11
-226.3483795123955
 21
-19.40165523402743
 31
0.0
  0
LINE
  8
DETAIL
  6
CONTINUOUS
 62
     5
 10
-226.3483795123955
 20
-19.40165523402743
 30
0.0
 11
-226.431162563144
 21
-19.417199712534511
 31
0.0
  0
LINE
  8
DETAIL
  6
CONTINUOUS
 62
     5
 10
-226.431162563144
 20
-19.417199712534511
 30
0.0
 11
-226.5139357000464
 21
-19.431803102551608
 31
0.0
  0
LINE
  8
DETAIL
  6
CONTINUOUS
 62
     5
 10
-226.5139357000464
 20
-19.431803102551608
 30
0.0
 11
-226.5139357000464
 21
-19.431803102551608
 31
0.0
  0
LINE
  8
DETAIL
  6
CONTINUOUS
 62
     5
 10
-226.5139357000464
 20
-19.431803102551608
 30
0.0
 11
-226.59683785452921
 21
-19.445482714332911
 31
0.0
  0
LINE
  8
DETAIL
  6
CONTINUOUS
 62
     5
 10
-226.59683785452921
 20
-19.445482714332911
 30
0.0
 11
-226.68012559715359
 21
-19.458244337401769
 31
0.0
  0
LINE
  8
DETAIL
  6
CONTINUOUS
 62
     5
 10
-226.68012559715359
 20
-19.458244337401769
 30
0.0
 11
-226.68012559715359
 21
-19.458244337401769
 31
0.0
  0
LINE
  8
DETAIL
  6
CONTINUOUS
 62
     5
 10
-226.68012559715359
 20
-19.458244337401769
 30
0.0
 11
-226.7638227010691
 21
-19.470063721438009
 31
0.0
  0
LINE
  8
DETAIL
  6
CONTINUOUS
 62
     5
 10
-226.7638227010691
 20
-19.470063721438009
 30
0.0
 11
-226.84690411064321
 21
-19.48080797748548
 31
0.0
  0
LINE
  8
DETAIL
  6
CONTINUOUS
 62
     5
 10
-226.84690411064321
 20
-19.48080797748548
 30
0.0
 11
-226.84690411064321
 21
-19.48080797748548
 31
0.0
  0
LINE
  8
DETAIL
  6
CONTINUOUS
 62
     5
 10
-226.84690411064321
 20
-19.48080797748548
 30
0.0
 11
-226.92850932105239
 21
-19.490372213109591
 31
0.0
  0
LINE
  8
DETAIL
  6
CONTINUOUS
 62
     5
 10
-226.92850932105239
 20
-19.490372213109591
 30
0.0
 11
-227.0094848594965
 21
-19.498872160605519
 31
0.0
  0
LINE
  8
DETAIL
  6
CONTINUOUS
 62
     5
 10
-227.0094848594965
 20
-19.498872160605519
 30
0.0
 11
-227.0094848594965
 21
-19.498872160605519
 31
0.0
  0
LINE
  8
DETAIL
  6
CONTINUOUS
 62
     5
 10
-227.0094848594965
 20
-19.498872160605519
 30
0.0
 11
-227.09083183780791
 21
-19.506438787729849
 31
0.0
  0
LINE
  8
DETAIL
  6
CONTINUOUS
 62
     5
 10
-227.09083183780791
 20
-19.506438787729849
 30
0.0
 11
-227.17246267432529
 21
-19.513043379347661
 31
0.0
  0
LINE
  8
DETAIL
  6
CONTINUOUS
 62
     5
 10
-227.17246267432529
 20
-19.513043379347661
 30
0.0
 11
-227.17246267432529
 21
-19.513043379347661
 31
0.0
  0
LINE
  8
DETAIL
  6
CONTINUOUS
 62
     5
 10
-227.17246267432529
 20
-19.513043379347661
 30
0.0
 11
-227.2540906689139
 21
-19.518637304472801
 31
0.0
  0
LINE
  8
DETAIL
  6
CONTINUOUS
 62
     5
 10
-227.2540906689139
 20
-19.518637304472801
 30
0.0
 11
-227.33572134103949
 21
-19.523251951573911
 31
0.0
  0
LINE
  8
DETAIL
  6
CONTINUOUS
 62
     5
 10
-227.33572134103949
 20
-19.523251951573911
 30
0.0
 11
-227.33572134103949
 21
-19.523251951573911
 31
0.0
  0
LINE
  8
DETAIL
  6
CONTINUOUS
 62
     5
 10
-227.33572134103949
 20
-19.523251951573911
 30
0.0
 11
-227.41741321884109
 21
-19.52689861524982
 31
0.0
  0
LINE
  8
DETAIL
  6
CONTINUOUS
 62
     5
 10
-227.41741321884109
 20
-19.52689861524982
 30
0.0
 11
-227.4991446455515
 21
-19.52942819514487
 31
0.0
  0
LINE
  8
DETAIL
  6
CONTINUOUS
 62
     5
 10
-227.4991446455515
 20
-19.52942819514487
 30
0.0
 11
-227.4991446455515
 21
-19.52942819514487
 31
0.0
  0
LINE
  8
DETAIL
  6
CONTINUOUS
 62
     5
 10
-227.4991446455515
 20
-19.52942819514487
 30
0.0
 11
-227.58088104818259
 21
-19.530791882252061
 31
0.0
  0
LINE
  8
DETAIL
  6
CONTINUOUS
 62
     5
 10
-227.58088104818259
 20
-19.530791882252061
 30
0.0
 11
-227.66261637377099
 21
-19.531502427922081
 31
0.0
  0
LINE
  8
DETAIL
  6
CONTINUOUS
 62
     5
 10
-227.66261637377099
 20
-19.531502427922081
 30
0.0
 11
-227.74436287535309
 21
-19.530791678791051
 31
0.0
  0
LINE
  8
DETAIL
  6
CONTINUOUS
 62
     5
 10
-227.74436287535309
 20
-19.530791678791051
 30
0.0
 11
-227.82611038495659
 21
-19.529427618651649
 31
0.0
  0
LINE
  8
DETAIL
  6
CONTINUOUS
 62
     5
 10
-227.82611038495659
 20
-19.529427618651649
 30
0.0
 11
-227.82611038495659
 21
-19.529427618651649
 31
0.0
  0
LINE
  8
DETAIL
  6
CONTINUOUS
 62
     5
 10
-227.82611038495659
 20
-19.529427618651649
 30
0.0
 11
-227.90785284755751
 21
-19.5268973561931
 31
0.0
  0
LINE
  8
DETAIL
  6
CONTINUOUS
 62
     5
 10
-227.90785284755751
 20
-19.5268973561931
 30
0.0
 11
-227.98955595594839
 21
-19.523249678906271
 31
0.0
  0
LINE
  8
DETAIL
  6
CONTINUOUS
 62
     5
 10
-227.98955595594839
 20
-19.523249678906271
 30
0.0
 11
-227.98955595594839
 21
-19.523249678906271
 31
0.0
  0
LINE
  8
DETAIL
  6
CONTINUOUS
 62
     5
 10
-227.98955595594839
 20
-19.523249678906271
 30
0.0
 11
-228.07119811389379
 21
-19.518633721954071
 31
0.0
  0
LINE
  8
DETAIL
  6
CONTINUOUS
 62
     5
 10
-228.07119811389379
 20
-19.518633721954071
 30
0.0
 11
-228.15283682122799
 21
-19.513038332396722
 31
0.0
  0
LINE
  8
DETAIL
  6
CONTINUOUS
 62
     5
 10
-228.15283682122799
 20
-19.513038332396722
 30
0.0
 11
-228.15283682122799
 21
-19.513038332396722
 31
0.0
  0
LINE
  8
DETAIL
  6
CONTINUOUS
 62
     5
 10
-228.15283682122799
 20
-19.513038332396722
 30
0.0
 11
-228.23447731878011
 21
-19.506432153672218
 31
0.0
  0
LINE
  8
DETAIL
  6
CONTINUOUS
 62
     5
 10
-228.23447731878011
 20
-19.506432153672218
 30
0.0
 11
-228.3158367152769
 21
-19.49886330283471
 31
0.0
  0
LINE
  8
DETAIL
  6
CONTINUOUS
 62
     5
 10
-228.3158367152769
 20
-19.49886330283471
 30
0.0
 11
-228.3158367152769
 21
-19.49886330283471
 31
0.0
  0
LINE
  8
DETAIL
  6
CONTINUOUS
 62
     5
 10
-228.3158367152769
 20
-19.49886330283471
 30
0.0
 11
-228.3968284445034
 21
-19.49036036375173
 31
0.0
  0
LINE
  8
DETAIL
  6
CONTINUOUS
 62
     5
 10
-228.3968284445034
 20
-19.49036036375173
 30
0.0
 11
-228.47843937257559
 21
-19.480794313931479
 31
0.0
  0
LINE
  8
DETAIL
  6
CONTINUOUS
 62
     5
 10
-228.47843937257559
 20
-19.480794313931479
 30
0.0
 11
-228.47843937257559
 21
-19.480794313931479
 31
0.0
  0
LINE
  8
DETAIL
  6
CONTINUOUS
 62
     5
 10
-228.47843937257559
 20
-19.480794313931479
 30
0.0
 11
-228.5615040081336
 21
-19.4700511428955
 31
0.0
  0
LINE
  8
DETAIL
  6
CONTINUOUS
 62
     5
 10
-228.5615040081336
 20
-19.4700511428955
 30
0.0
 11
-228.64517399757349
 21
-19.458234494590901
 31
0.0
  0
LINE
  8
DETAIL
  6
CONTINUOUS
 62
     5
 10
-228.64517399757349
 20
-19.458234494590901
 30
0.0
 11
-228.64517399757349
 21
-19.458234494590901
 31
0.0
  0
LINE
  8
DETAIL
  6
CONTINUOUS
 62
     5
 10
-228.64517399757349
 20
-19.458234494590901
 30
0.0
 11
-228.72843858342389
 21
-19.445475697053102
 31
0.0
  0
LINE
  8
DETAIL
  6
CONTINUOUS
 62
     5
 10
-228.72843858342389
 20
-19.445475697053102
 30
0.0
 11
-228.81132025498641
 21
-19.431799160242011
 31
0.0
  0
LINE
  8
DETAIL
  6
CONTINUOUS
 62
     5
 10
-228.81132025498641
 20
-19.431799160242011
 30
0.0
 11
-228.81132025498641
 21
-19.431799160242011
 31
0.0
  0
LINE
  8
DETAIL
  6
CONTINUOUS
 62
     5
 10
-228.81132025498641
 20
-19.431799160242011
 30
0.0
 11
-228.89407169378859
 21
-19.417199508472319
 31
0.0
  0
LINE
  8
DETAIL
  6
CONTINUOUS
 62
     5
 10
-228.89407169378859
 20
-19.417199508472319
 30
0.0
 11
-228.97683310350041
 21
-19.401659141544091
 31
0.0
  0
LINE
  8
DETAIL
  6
CONTINUOUS
 62
     5
 10
-228.97683310350041
 20
-19.401659141544091
 30
0.0
 11
-228.97683310350041
 21
-19.401659141544091
 31
0.0
  0
LINE
  8
DETAIL
  6
CONTINUOUS
 62
     5
 10
-228.97683310350041
 20
-19.401659141544091
 30
0.0
 11
-229.05957073449301
 21
-19.385196357158971
 31
0.0
  0
LINE
  8
DETAIL
  6
CONTINUOUS
 62
     5
 10
-229.05957073449301
 20
-19.385196357158971
 30
0.0
 11
-229.14166750180149
 21
-19.367985269158002
 31
0.0
  0
LINE
  8
DETAIL
  6
CONTINUOUS
 62
     5
 10
-229.14166750180149
 20
-19.367985269158002
 30
0.0
 11
-229.14166750180149
 21
-19.367985269158002
 31
0.0
  0
LINE
  8
DETAIL
  6
CONTINUOUS
 62
     5
 10
-229.14166750180149
 20
-19.367985269158002
 30
0.0
 11
-229.22297194142769
 21
-19.350086185406781
 31
0.0
  0
LINE
  8
DETAIL
  6
CONTINUOUS
 62
     5
 10
-229.22297194142769
 20
-19.350086185406781
 30
0.0
 11
-229.30577840857521
 21
-19.33094837374529
 31
0.0
  0
LINE
  8
DETAIL
  6
CONTINUOUS
 62
     5
 10
-229.30577840857521
 20
-19.33094837374529
 30
0.0
 11
-229.30577840857521
 21
-19.33094837374529
 31
0.0
  0
LINE
  8
DETAIL
  6
CONTINUOUS
 62
     5
 10
-229.30577840857521
 20
-19.33094837374529
 30
0.0
 11
-229.39201953535991
 21
-19.310099814969821
 31
0.0
  0
LINE
  8
DETAIL
  6
CONTINUOUS
 62
     5
 10
-229.39201953535991
 20
-19.310099814969821
 30
0.0
 11
-229.47973524235141
 21
-19.28799438172814
 31
0.0
  0
LINE
  8
DETAIL
  6
CONTINUOUS
 62
     5
 10
-229.47973524235141
 20
-19.28799438172814
 30
0.0
 11
-229.47973524235141
 21
-19.28799438172814
 31
0.0
  0
LINE
  8
DETAIL
  6
CONTINUOUS
 62
     5
 10
-229.47973524235141
 20
-19.28799438172814
 30
0.0
 11
-229.5666114474127
 21
-19.265176975713761
 31
0.0
  0
LINE
  8
DETAIL
  6
CONTINUOUS
 62
     5
 10
-229.5666114474127
 20
-19.265176975713761
 30
0.0
 11
-229.65281076913021
 21
-19.241630722947551
 31
0.0
  0
LINE
  8
DETAIL
  6
CONTINUOUS
 62
     5
 10
-229.65281076913021
 20
-19.241630722947551
 30
0.0
 11
-229.65281076913021
 21
-19.241630722947551
 31
0.0
  0
LINE
  8
DETAIL
  6
CONTINUOUS
 62
     5
 10
-229.65281076913021
 20
-19.241630722947551
 30
0.0
 11
-229.73895120229119
 21
-19.217241644918889
 31
0.0
  0
LINE
  8
DETAIL
  6
CONTINUOUS
 62
     5
 10
-229.73895120229119
 20
-19.217241644918889
 30
0.0
 11
-229.82499554577319
 21
-19.192069120649879
 31
0.0
  0
LINE
  8
DETAIL
  6
CONTINUOUS
 62
     5
 10
-229.82499554577319
 20
-19.192069120649879
 30
0.0
 11
-229.82499554577319
 21
-19.192069120649879
 31
0.0
  0
LINE
  8
DETAIL
  6
CONTINUOUS
 62
     5
 10
-229.82499554577319
 20
-19.192069120649879
 30
0.0
 11
-229.9107788202061
 21
-19.166182954931401
 31
0.0
  0
LINE
  8
DETAIL
  6
CONTINUOUS
 62
     5
 10
-229.9107788202061
 20
-19.166182954931401
 30
0.0
 11
-229.996280129144
 21
-19.139521298083761
 31
0.0
  0
LINE
  8
DETAIL
  6
CONTINUOUS
 62
     5
 10
-229.996280129144
 20
-19.139521298083761
 30
0.0
 11
-229.996280129144
 21
-19.139521298083761
 31
0.0
  0
LINE
  8
DETAIL
  6
CONTINUOUS
 62
     5
 10
-229.996280129144
 20
-19.139521298083761
 30
0.0
 11
-230.08153431292641
 21
-19.112077701896851
 31
0.0
  0
LINE
  8
DETAIL
  6
CONTINUOUS
 62
     5
 10
-230.08153431292641
 20
-19.112077701896851
 30
0.0
 11
-230.16665507610421
 21
-19.08419897849717
 31
0.0
  0
LINE
  8
DETAIL
  6
CONTINUOUS
 62
     5
 10
261.32961628963949
 20
-19.08419897849717
 30
0.0
 11
261.24450588179479
 21
-19.112074375452949
 31
0.0
  0
LINE
  8
DETAIL
  6
CONTINUOUS
 62
     5
 10
261.24450588179479
 20
-19.112074375452949
 30
0.0
 11
261.15926202504852
 21
-19.139514767521181
 31
0.0
  0
LINE
  8
DETAIL
  6
CONTINUOUS
 62
     5
 10
261.15926202504852
 20
-19.139514767521181
 30
0.0
 11
261.15926202504852
 21
-19.139514767521181
 31
0.0
  0
LINE
  8
DETAIL
  6
CONTINUOUS
 62
     5
 10
261.15926202504852
 20
-19.139514767521181
 30
0.0
 11
261.07377104441872
 21
-19.166173429452101
 31
0.0
  0
LINE
  8
DETAIL
  6
CONTINUOUS
 62
     5
 10
261.07377104441872
 20
-19.166173429452101
 30
0.0
 11
260.98799836058879
 21
-19.192056754564419
 31
0.0
  0
LINE
  8
DETAIL
  6
CONTINUOUS
 62
     5
 10
260.98799836058879
 20
-19.192056754564419
 30
0.0
 11
260.98799836058879
 21
-19.192056754564419
 31
0.0
  0
LINE
  8
DETAIL
  6
CONTINUOUS
 62
     5
 10
260.98799836058879
 20
-19.192056754564419
 30
0.0
 11
260.90196492516088
 21
-19.21722656670568
 31
0.0
  0
LINE
  8
DETAIL
  6
CONTINUOUS
 62
     5
 10
260.90196492516088
 20
-19.21722656670568
 30
0.0
 11
260.8158347177332
 21
-19.241613293286949
 31
0.0
  0
LINE
  8
DETAIL
  6
CONTINUOUS
 62
     5
 10
260.8158347177332
 20
-19.241613293286949
 30
0.0
 11
260.8158347177332
 21
-19.241613293286949
 31
0.0
  0
LINE
  8
DETAIL
  6
CONTINUOUS
 62
     5
 10
260.8158347177332
 20
-19.241613293286949
 30
0.0
 11
260.72964467298931
 21
-19.2651576294063
 31
0.0
  0
LINE
  8
DETAIL
  6
CONTINUOUS
 62
     5
 10
260.72964467298931
 20
-19.2651576294063
 30
0.0
 11
260.64278051795549
 21
-19.287972737347669
 31
0.0
  0
LINE
  8
DETAIL
  6
CONTINUOUS
 62
     5
 10
260.64278051795549
 20
-19.287972737347669
 30
0.0
 11
260.64278051795549
 21
-19.287972737347669
 31
0.0
  0
LINE
  8
DETAIL
  6
CONTINUOUS
 62
     5
 10
260.64278051795549
 20
-19.287972737347669
 30
0.0
 11
260.55508062840232
 21
-19.310075278114478
 31
0.0
  0
LINE
  8
DETAIL
  6
CONTINUOUS
 62
     5
 10
260.55508062840232
 20
-19.310075278114478
 30
0.0
 11
260.46884518272958
 21
-19.330923440406419
 31
0.0
  0
LINE
  8
DETAIL
  6
CONTINUOUS
 62
     5
 10
260.46884518272958
 20
-19.330923440406419
 30
0.0
 11
260.46884518272958
 21
-19.330923440406419
 31
0.0
  0
LINE
  8
DETAIL
  6
CONTINUOUS
 62
     5
 10
260.46884518272958
 20
-19.330923440406419
 30
0.0
 11
260.38602250424668
 21
-19.350065892469271
 31
0.0
  0
LINE
  8
DETAIL
  6
CONTINUOUS
 62
     5
 10
260.38602250424668
 20
-19.350065892469271
 30
0.0
 11
260.30469169326898
 21
-19.367971693045089
 31
0.0
  0
LINE
  8
DETAIL
  6
CONTINUOUS
 62
     5
 10
260.30469169326898
 20
-19.367971693045089
 30
0.0
 11
260.30469169326898
 21
-19.367971693045089
 31
0.0
  0
LINE
  8
DETAIL
  6
CONTINUOUS
 62
     5
 10
260.30469169326898
 20
-19.367971693045089
 30
0.0
 11
260.22257222637882
 21
-19.38518815712132
 31
0.0
  0
LINE
  8
DETAIL
  6
CONTINUOUS
 62
     5
 10
260.22257222637882
 20
-19.38518815712132
 30
0.0
 11
260.13981430821292
 21
-19.40165523417318
 31
0.0
  0
LINE
  8
DETAIL
  6
CONTINUOUS
 62
     5
 10
260.13981430821292
 20
-19.40165523417318
 30
0.0
 11
260.13981430821292
 21
-19.40165523417318
 31
0.0
  0
LINE
  8
DETAIL
  6
CONTINUOUS
 62
     5
 10
260.13981430821292
 20
-19.40165523417318
 30
0.0
 11
260.05703125741962
 21
-19.417199712682532
 31
0.0
  0
LINE
  8
DETAIL
  6
CONTINUOUS
 62
     5
 10
260.05703125741962
 20
-19.417199712682532
 30
0.0
 11
259.97425812063278
 21
-19.431803102669392
 31
0.0
  0
LINE
  8
DETAIL
  6
CONTINUOUS
 62
     5
 10
259.97425812063278
 20
-19.431803102669392
 30
0.0
 11
259.97425812063278
 21
-19.431803102669392
 31
0.0
  0
LINE
  8
DETAIL
  6
CONTINUOUS
 62
     5
 10
259.97425812063278
 20
-19.431803102669392
 30
0.0
 11
259.8913559664843
 21
-19.445482714377022
 31
0.0
  0
LINE
  8
DETAIL
  6
CONTINUOUS
 62
     5
 10
259.8913559664843
 20
-19.445482714377022
 30
0.0
 11
259.80806822360319
 21
-19.458244337412449
 31
0.0
  0
LINE
  8
DETAIL
  6
CONTINUOUS
 62
     5
 10
259.80806822360319
 20
-19.458244337412449
 30
0.0
 11
259.80806822360319
 21
-19.458244337412449
 31
0.0
  0
LINE
  8
DETAIL
  6
CONTINUOUS
 62
     5
 10
259.80806822360319
 20
-19.458244337412449
 30
0.0
 11
259.72437111862291
 21
-19.470063721476439
 31
0.0
  0
LINE
  8
DETAIL
  6
CONTINUOUS
 62
     5
 10
259.72437111862291
 20
-19.470063721476439
 30
0.0
 11
259.64128971019591
 21
-19.480807977279479
 31
0.0
  0
LINE
  8
DETAIL
  6
CONTINUOUS
 62
     5
 10
259.64128971019591
 20
-19.480807977279479
 30
0.0
 11
259.64128971019591
 21
-19.480807977279479
 31
0.0
  0
LINE
  8
DETAIL
  6
CONTINUOUS
 62
     5
 10
259.64128971019591
 20
-19.480807977279479
 30
0.0
 11
259.55968450569799
 21
-19.49037221212393
 31
0.0
  0
LINE
  8
DETAIL
  6
CONTINUOUS
 62
     5
 10
259.55968450569799
 20
-19.49037221212393
 30
0.0
 11
259.47870897538041
 21
-19.49887215866374
 31
0.0
  0
LINE
  8
DETAIL
  6
CONTINUOUS
 62
     5
 10
259.47870897538041
 20
-19.49887215866374
 30
0.0
 11
259.47870897538041
 21
-19.49887215866374
 31
0.0
  0
LINE
  8
DETAIL
  6
CONTINUOUS
 62
     5
 10
259.47870897538041
 20
-19.49887215866374
 30
0.0
 11
259.39736200439393
 21
-19.506438785059341
 31
0.0
  0
LINE
  8
DETAIL
  6
CONTINUOUS
 62
     5
 10
259.39736200439393
 20
-19.506438785059341
 30
0.0
 11
259.31573117460539
 21
-19.51304337614306
 31
0.0
  0
LINE
  8
DETAIL
  6
CONTINUOUS
 62
     5
 10
259.31573117460539
 20
-19.51304337614306
 30
0.0
 11
259.31573117460539
 21
-19.51304337614306
 31
0.0
  0
LINE
  8
DETAIL
  6
CONTINUOUS
 62
     5
 10
259.31573117460539
 20
-19.51304337614306
 30
0.0
 11
259.23410318694459
 21
-19.518637300809811
 31
0.0
  0
LINE
  8
DETAIL
  6
CONTINUOUS
 62
     5
 10
259.23410318694459
 20
-19.518637300809811
 30
0.0
 11
259.15247252188328
 21
-19.523251947528479
 31
0.0
  0
LINE
  8
DETAIL
  6
CONTINUOUS
 62
     5
 10
259.15247252188328
 20
-19.523251947528479
 30
0.0
 11
259.15247252188328
 21
-19.523251947528479
 31
0.0
  0
LINE
  8
DETAIL
  6
CONTINUOUS
 62
     5
 10
259.15247252188328
 20
-19.523251947528479
 30
0.0
 11
259.07078065105628
 21
-19.526898610920171
 31
0.0
  0
LINE
  8
DETAIL
  6
CONTINUOUS
 62
     5
 10
259.07078065105628
 20
-19.526898610920171
 30
0.0
 11
258.989049231227
 21
-19.529428190630821
 31
0.0
  0
LINE
  8
DETAIL
  6
CONTINUOUS
 62
     5
 10
258.989049231227
 20
-19.529428190630821
 30
0.0
 11
258.989049231227
 21
-19.529428190630821
 31
0.0
  0
LINE
  8
DETAIL
  6
CONTINUOUS
 62
     5
 10
258.989049231227
 20
-19.529428190630821
 30
0.0
 11
258.90731283542851
 21
-19.530791877642059
 31
0.0
  0
LINE
  8
DETAIL
  6
CONTINUOUS
 62
     5
 10
258.90731283542851
 20
-19.530791877642059
 30
0.0
 11
258.8255775166499
 21
-19.53150242326296
 31
0.0
  0
LINE
  8
DETAIL
  6
CONTINUOUS
 62
     5
 10
266.33769383406622
 20
-19.08419897849717
 30
0.0
 11
266.25258342622328
 21
-19.11207437545227
 31
0.0
  0
LINE
  8
DETAIL
  6
CONTINUOUS
 62
     5
 10
266.25258342622328
 20
-19.11207437545227
 30
0.0
 11
266.16733956948161
 21
-19.139514767518449
 31
0.0
  0
LINE
  8
DETAIL
  6
CONTINUOUS
 62
     5
 10
266.16733956948161
 20
-19.139514767518449
 30
0.0
 11
266.16733956948161
 21
-19.139514767518449
 31
0.0
  0
LINE
  8
DETAIL
  6
CONTINUOUS
 62
     5
 10
266.16733956948161
 20
-19.139514767518449
 30
0.0
 11
266.08184858885897
 21
-19.166173429446872
 31
0.0
  0
LINE
  8
DETAIL
  6
CONTINUOUS
 62
     5
 10
266.08184858885897
 20
-19.166173429446872
 30
0.0
 11
265.99607590504093
 21
-19.192056754554191
 31
0.0
  0
LINE
  8
DETAIL
  6
CONTINUOUS
 62
     5
 10
265.99607590504093
 20
-19.192056754554191
 30
0.0
 11
265.99607590504093
 21
-19.192056754554191
 31
0.0
  0
LINE
  8
DETAIL
  6
CONTINUOUS
 62
     5
 10
265.99607590504093
 20
-19.192056754554191
 30
0.0
 11
265.91004246962939
 21
-19.217226566689309
 31
0.0
  0
LINE
  8
DETAIL
  6
CONTINUOUS
 62
     5
 10
265.91004246962939
 20
-19.217226566689309
 30
0.0
 11
265.82391226222171
 21
-19.241613293261249
 31
0.0
  0
LINE
  8
DETAIL
  6
CONTINUOUS
 62
     5
 10
265.82391226222171
 20
-19.241613293261249
 30
0.0
 11
265.82391226222171
 21
-19.241613293261249
 31
0.0
  0
LINE
  8
DETAIL
  6
CONTINUOUS
 62
     5
 10
265.82391226222171
 20
-19.241613293261249
 30
0.0
 11
265.73772221750193
 21
-19.265157629369241
 31
0.0
  0
LINE
  8
DETAIL
  6
CONTINUOUS
 62
     5
 10
265.73772221750193
 20
-19.265157629369241
 30
0.0
 11
265.65085806249863
 21
-19.28797273729538
 31
0.0
  0
LINE
  8
DETAIL
  6
CONTINUOUS
 62
     5
 10
265.65085806249863
 20
-19.28797273729538
 30
0.0
 11
265.65085806249863
 21
-19.28797273729538
 31
0.0
  0
LINE
  8
DETAIL
  6
CONTINUOUS
 62
     5
 10
265.65085806249863
 20
-19.28797273729538
 30
0.0
 11
265.56315817298452
 21
-19.31007527804309
 31
0.0
  0
LINE
  8
DETAIL
  6
CONTINUOUS
 62
     5
 10
265.56315817298452
 20
-19.31007527804309
 30
0.0
 11
265.47692272734912
 21
-19.3309234403132
 31
0.0
  0
LINE
  8
DETAIL
  6
CONTINUOUS
 62
     5
 10
265.47692272734912
 20
-19.3309234403132
 30
0.0
 11
265.47692272734912
 21
-19.3309234403132
 31
0.0
  0
LINE
  8
DETAIL
  6
CONTINUOUS
 62
     5
 10
265.47692272734912
 20
-19.3309234403132
 30
0.0
 11
265.39410004889208
 21
-19.350065892356952
 31
0.0
  0
LINE
  8
DETAIL
  6
CONTINUOUS
 62
     5
 10
265.39410004889208
 20
-19.350065892356952
 30
0.0
 11
265.31276923792302
 21
-19.367971692917759
 31
0.0
  0
LINE
  8
DETAIL
  6
CONTINUOUS
 62
     5
 10
265.31276923792302
 20
-19.367971692917759
 30
0.0
 11
265.31276923792302
 21
-19.367971692917759
 31
0.0
  0
LINE
  8
DETAIL
  6
CONTINUOUS
 62
     5
 10
265.31276923792302
 20
-19.367971692917759
 30
0.0
 11
265.23064977102831
 21
-19.385188156983759
 31
0.0
  0
LINE
  8
DETAIL
  6
CONTINUOUS
 62
     5
 10
265.23064977102831
 20
-19.385188156983759
 30
0.0
 11
265.14789185290101
 21
-19.40165523402743
 31
0.0
  0
LINE
  8
DETAIL
  6
CONTINUOUS
 62
     5
 10
265.14789185290101
 20
-19.40165523402743
 30
0.0
 11
265.14789185290101
 21
-19.40165523402743
 31
0.0
  0
LINE
  8
DETAIL
  6
CONTINUOUS
 62
     5
 10
265.14789185290101
 20
-19.40165523402743
 30
0.0
 11
265.06510880219781
 21
-19.417199712534511
 31
0.0
  0
LINE
  8
DETAIL
  6
CONTINUOUS
 62
     5
 10
265.06510880219781
 20
-19.417199712534511
 30
0.0
 11
264.98233566533418
 21
-19.431803102551608
 31
0.0
  0
LINE
  8
DETAIL
  6
CONTINUOUS
 62
     5
 10
264.98233566533418
 20
-19.431803102551608
 30
0.0
 11
264.98233566533418
 21
-19.431803102551608
 31
0.0
  0
LINE
  8
DETAIL
  6
CONTINUOUS
 62
     5
 10
264.98233566533418
 20
-19.431803102551608
 30
0.0
 11
264.89943351088192
 21
-19.445482714332911
 31
0.0
  0
LINE
  8
DETAIL
  6
CONTINUOUS
 62
     5
 10
264.89943351088192
 20
-19.445482714332911
 30
0.0
 11
264.81614576827627
 21
-19.458244337401769
 31
0.0
  0
LINE
  8
DETAIL
  6
CONTINUOUS
 62
     5
 10
264.81614576827627
 20
-19.458244337401769
 30
0.0
 11
264.81614576827627
 21
-19.458244337401769
 31
0.0
  0
LINE
  8
DETAIL
  6
CONTINUOUS
 62
     5
 10
264.81614576827627
 20
-19.458244337401769
 30
0.0
 11
264.73244866436471
 21
-19.470063721438009
 31
0.0
  0
LINE
  8
DETAIL
  6
CONTINUOUS
 62
     5
 10
264.73244866436471
 20
-19.470063721438009
 30
0.0
 11
264.64936725477861
 21
-19.48080797748548
 31
0.0
  0
LINE
  8
DETAIL
  6
CONTINUOUS
 62
     5
 10
264.64936725477861
 20
-19.48080797748548
 30
0.0
 11
264.64936725477861
 21
-19.48080797748548
 31
0.0
  0
LINE
  8
DETAIL
  6
CONTINUOUS
 62
     5
 10
264.64936725477861
 20
-19.48080797748548
 30
0.0
 11
264.56776204433942
 21
-19.490372213109591
 31
0.0
  0
LINE
  8
DETAIL
  6
CONTINUOUS
 62
     5
 10
264.56776204433942
 20
-19.490372213109591
 30
0.0
 11
264.48678650585038
 21
-19.498872160605519
 31
0.0
  0
LINE
  8
DETAIL
  6
CONTINUOUS
 62
     5
 10
264.48678650585038
 20
-19.498872160605519
 30
0.0
 11
264.48678650585038
 21
-19.498872160605519
 31
0.0
  0
LINE
  8
DETAIL
  6
CONTINUOUS
 62
     5
 10
264.48678650585038
 20
-19.498872160605519
 30
0.0
 11
264.4054395274834
 21
-19.506438787729849
 31
0.0
  0
LINE
  8
DETAIL
  6
CONTINUOUS
 62
     5
 10
264.4054395274834
 20
-19.506438787729849
 30
0.0
 11
264.32380869090548
 21
-19.513043379347661
 31
0.0
  0
LINE
  8
DETAIL
  6
CONTINUOUS
 62
     5
 10
264.32380869090548
 20
-19.513043379347661
 30
0.0
 11
264.32380869090548
 21
-19.513043379347661
 31
0.0
  0
LINE
  8
DETAIL
  6
CONTINUOUS
 62
     5
 10
264.32380869090548
 20
-19.513043379347661
 30
0.0
 11
264.24218069625391
 21
-19.518637304472801
 31
0.0
  0
LINE
  8
DETAIL
  6
CONTINUOUS
 62
     5
 10
264.24218069625391
 20
-19.518637304472801
 30
0.0
 11
264.16055002406671
 21
-19.523251951573911
 31
0.0
  0
LINE
  8
DETAIL
  6
CONTINUOUS
 62
     5
 10
264.16055002406671
 20
-19.523251951573911
 30
0.0
 11
264.16055002406671
 21
-19.523251951573911
 31
0.0
  0
LINE
  8
DETAIL
  6
CONTINUOUS
 62
     5
 10
264.16055002406671
 20
-19.523251951573911
 30
0.0
 11
264.07885814620931
 21
-19.52689861524982
 31
0.0
  0
LINE
  8
DETAIL
  6
CONTINUOUS
 62
     5
 10
264.07885814620931
 20
-19.52689861524982
 30
0.0
 11
263.99712671945599
 21
-19.52942819514487
 31
0.0
  0
LINE
  8
DETAIL
  6
CONTINUOUS
 62
     5
 10
263.99712671945599
 20
-19.52942819514487
 30
0.0
 11
263.99712671945599
 21
-19.52942819514487
 31
0.0
  0
LINE
  8
DETAIL
  6
CONTINUOUS
 62
     5
 10
263.99712671945599
 20
-19.52942819514487
 30
0.0
 11
263.91539031679991
 21
-19.530791882252061
 31
0.0
  0
LINE
  8
DETAIL
  6
CONTINUOUS
 62
     5
 10
263.91539031679991
 20
-19.530791882252061
 30
0.0
 11
263.83365499119651
 21
-19.531502427922081
 31
0.0
  0
LINE
  8
DETAIL
  6
CONTINUOUS
 62
     5
 10
263.83365499119651
 20
-19.531502427922081
 30
0.0
 11
263.75190848962939
 21
-19.530791678791051
 31
0.0
  0
LINE
  8
DETAIL
  6
CONTINUOUS
 62
     5
 10
263.75190848962939
 20
-19.530791678791051
 30
0.0
 11
263.67016098005121
 21
-19.529427618651649
 31
0.0
  0
LINE
  8
DETAIL
  6
CONTINUOUS
 62
     5
 10
263.67016098005121
 20
-19.529427618651649
 30
0.0
 11
263.67016098005121
 21
-19.529427618651649
 31
0.0
  0
LINE
  8
DETAIL
  6
CONTINUOUS
 62
     5
 10
263.67016098005121
 20
-19.529427618651649
 30
0.0
 11
263.58841851749321
 21
-19.5268973561931
 31
0.0
  0
LINE
  8
DETAIL
  6
CONTINUOUS
 62
     5
 10
263.58841851749321
 20
-19.5268973561931
 30
0.0
 11
263.50671540915801
 21
-19.523249678906271
 31
0.0
  0
LINE
  8
DETAIL
  6
CONTINUOUS
 62
     5
 10
263.50671540915801
 20
-19.523249678906271
 30
0.0
 11
263.50671540915801
 21
-19.523249678906271
 31
0.0
  0
LINE
  8
DETAIL
  6
CONTINUOUS
 62
     5
 10
263.50671540915801
 20
-19.523249678906271
 30
0.0
 11
263.42507325127423
 21
-19.518633721954071
 31
0.0
  0
LINE
  8
DETAIL
  6
CONTINUOUS
 62
     5
 10
263.42507325127423
 20
-19.518633721954071
 30
0.0
 11
263.34343454400278
 21
-19.513038332396722
 31
0.0
  0
LINE
  8
DETAIL
  6
CONTINUOUS
 62
     5
 10
263.34343454400278
 20
-19.513038332396722
 30
0.0
 11
263.34343454400278
 21
-19.513038332396722
 31
0.0
  0
LINE
  8
DETAIL
  6
CONTINUOUS
 62
     5
 10
263.34343454400278
 20
-19.513038332396722
 30
0.0
 11
263.26179404651162
 21
-19.506432153672218
 31
0.0
  0
LINE
  8
DETAIL
  6
CONTINUOUS
 62
     5
 10
263.26179404651162
 20
-19.506432153672218
 30
0.0
 11
263.18043465006991
 21
-19.49886330283471
 31
0.0
  0
LINE
  8
DETAIL
  6
CONTINUOUS
 62
     5
 10
263.18043465006991
 20
-19.49886330283471
 30
0.0
 11
263.18043465006991
 21
-19.49886330283471
 31
0.0
  0
LINE
  8
DETAIL
  6
CONTINUOUS
 62
     5
 10
263.18043465006991
 20
-19.49886330283471
 30
0.0
 11
263.09944292088858
 21
-19.49036036375173
 31
0.0
  0
LINE
  8
DETAIL
  6
CONTINUOUS
 62
     5
 10
263.09944292088858
 20
-19.49036036375173
 30
0.0
 11
263.01783199284591
 21
-19.480794313931479
 31
0.0
  0
LINE
  8
DETAIL
  6
CONTINUOUS
 62
     5
 10
263.01783199284591
 20
-19.480794313931479
 30
0.0
 11
263.01783199284591
 21
-19.480794313931479
 31
0.0
  0
LINE
  8
DETAIL
  6
CONTINUOUS
 62
     5
 10
263.01783199284591
 20
-19.480794313931479
 30
0.0
 11
262.93476735730019
 21
-19.4700511428955
 31
0.0
  0
LINE
  8
DETAIL
  6
CONTINUOUS
 62
     5
 10
262.93476735730019
 20
-19.4700511428955
 30
0.0
 11
262.85109736785671
 21
-19.458234494590901
 31
0.0
  0
LINE
  8
DETAIL
  6
CONTINUOUS
 62
     5
 10
262.85109736785671
 20
-19.458234494590901
 30
0.0
 11
262.85109736785671
 21
-19.458234494590901
 31
0.0
  0
LINE
  8
DETAIL
  6
CONTINUOUS
 62
     5
 10
262.85109736785671
 20
-19.458234494590901
 30
0.0
 11
262.76783278198718
 21
-19.445475697053102
 31
0.0
  0
LINE
  8
DETAIL
  6
CONTINUOUS
 62
     5
 10
262.76783278198718
 20
-19.445475697053102
 30
0.0
 11
262.68495111039459
 21
-19.431799160242011
 31
0.0
  0
LINE
  8
DETAIL
  6
CONTINUOUS
 62
     5
 10
262.68495111039459
 20
-19.431799160242011
 30
0.0
 11
262.68495111039459
 21
-19.431799160242011
 31
0.0
  0
LINE
  8
DETAIL
  6
CONTINUOUS
 62
     5
 10
262.68495111039459
 20
-19.431799160242011
 30
0.0
 11
262.60219967155308
 21
-19.417199508472319
 31
0.0
  0
LINE
  8
DETAIL
  6
CONTINUOUS
 62
     5
 10
262.60219967155308
 20
-19.417199508472319
 30
0.0
 11
262.51943826179598
 21
-19.401659141544091
 31
0.0
  0
LINE
  8
DETAIL
  6
CONTINUOUS
 62
     5
 10
262.51943826179598
 20
-19.401659141544091
 30
0.0
 11
262.51943826179598
 21
-19.401659141544091
 31
0.0
  0
LINE
  8
DETAIL
  6
CONTINUOUS
 62
     5
 10
262.51943826179598
 20
-19.401659141544091
 30
0.0
 11
262.43670063075479
 21
-19.385196357158971
 31
0.0
  0
LINE
  8
DETAIL
  6
CONTINUOUS
 62
     5
 10
262.43670063075479
 20
-19.385196357158971
 30
0.0
 11
262.35460386339668
 21
-19.367985269158002
 31
0.0
  0
LINE
  8
DETAIL
  6
CONTINUOUS
 62
     5
 10
262.35460386339668
 20
-19.367985269158002
 30
0.0
 11
262.35460386339668
 21
-19.367985269158002
 31
0.0
  0
LINE
  8
DETAIL
  6
CONTINUOUS
 62
     5
 10
262.35460386339668
 20
-19.367985269158002
 30
0.0
 11
262.27329942372307
 21
-19.350086185406781
 31
0.0
  0
LINE
  8
DETAIL
  6
CONTINUOUS
 62
     5
 10
262.27329942372307
 20
-19.350086185406781
 30
0.0
 11
262.19049295653258
 21
-19.33094837374529
 31
0.0
  0
LINE
  8
DETAIL
  6
CONTINUOUS
 62
     5
 10
262.19049295653258
 20
-19.33094837374529
 30
0.0
 11
262.19049295653258
 21
-19.33094837374529
 31
0.0
  0
LINE
  8
DETAIL
  6
CONTINUOUS
 62
     5
 10
262.19049295653258
 20
-19.33094837374529
 30
0.0
 11
262.1042518297113
 21
-19.310099814969821
 31
0.0
  0
LINE
  8
DETAIL
  6
CONTINUOUS
 62
     5
 10
262.1042518297113
 20
-19.310099814969821
 30
0.0
 11
262.01653612269462
 21
-19.28799438172814
 31
0.0
  0
LINE
  8
DETAIL
  6
CONTINUOUS
 62
     5
 10
262.01653612269462
 20
-19.28799438172814
 30
0.0
 11
262.01653612269462
 21
-19.28799438172814
 31
0.0
  0
LINE
  8
DETAIL
  6
CONTINUOUS
 62
     5
 10
262.01653612269462
 20
-19.28799438172814
 30
0.0
 11
261.92965991762372
 21
-19.265176975713761
 31
0.0
  0
LINE
  8
DETAIL
  6
CONTINUOUS
 62
     5
 10
261.92965991762372
 20
-19.265176975713761
 30
0.0
 11
261.84346059591729
 21
-19.241630722947551
 31
0.0
  0
LINE
  8
DETAIL
  6
CONTINUOUS
 62
     5
 10
261.84346059591729
 20
-19.241630722947551
 30
0.0
 11
261.84346059591729
 21
-19.241630722947551
 31
0.0
  0
LINE
  8
DETAIL
  6
CONTINUOUS
 62
     5
 10
261.84346059591729
 20
-19.241630722947551
 30
0.0
 11
261.75732016279107
 21
-19.217241644918889
 31
0.0
  0
LINE
  8
DETAIL
  6
CONTINUOUS
 62
     5
 10
261.75732016279107
 20
-19.217241644918889
 30
0.0
 11
261.67127581937069
 21
-19.192069120649879
 31
0.0
  0
LINE
  8
DETAIL
  6
CONTINUOUS
 62
     5
 10
261.67127581937069
 20
-19.192069120649879
 30
0.0
 11
261.67127581937069
 21
-19.192069120649879
 31
0.0
  0
LINE
  8
DETAIL
  6
CONTINUOUS
 62
     5
 10
261.67127581937069
 20
-19.192069120649879
 30
0.0
 11
261.58549254502901
 21
-19.166182954931401
 31
0.0
  0
LINE
  8
DETAIL
  6
CONTINUOUS
 62
     5
 10
261.58549254502901
 20
-19.166182954931401
 30
0.0
 11
261.49999123622177
 21
-19.139521298083761
 31
0.0
  0
LINE
  8
DETAIL
  6
CONTINUOUS
 62
     5
 10
261.49999123622177
 20
-19.139521298083761
 30
0.0
 11
261.49999123622177
 21
-19.139521298083761
 31
0.0
  0
LINE
  8
DETAIL
  6
CONTINUOUS
 62
     5
 10
261.49999123622177
 20
-19.139521298083761
 30
0.0
 11
261.41473705261569
 21
-19.112077701896851
 31
0.0
  0
LINE
  8
DETAIL
  6
CONTINUOUS
 62
     5
 10
261.41473705261569
 20
-19.112077701896851
 30
0.0
 11
261.32961628963949
 21
-19.08419897849717
 31
0.0
  0
ARC
  8
DETAIL
  6
CONTINUOUS
 62
     5
 10
308.49757673667227
 20
-1.502423263327501
 30
0.0
 40
1.5024232633279551
 50
270.0
 51
90.0
  0
ARC
  8
DETAIL
  6
CONTINUOUS
 62
     5
 10
204.13328774527551
 20
-13.02100161550857
 30
0.0
 40
3.004846526655911
 50
90.0
 51
180.0
  0
ARC
  8
DETAIL
  6
CONTINUOUS
 62
     5
 10
239.3093233773152
 20
-6.4103392568658819
 30
0.0
 40
3.6058158319872282
 50
270.0
 51
0.0
  0
ARC
  8
DETAIL
  6
CONTINUOUS
 62
     5
 10
303.38933764135709
 20
-6.4103392568658819
 30
0.0
 40
3.6058158319872282
 50
270.0
 51
0.0
  0
ARC
  8
DETAIL
  6
CONTINUOUS
 62
     5
 10
293.3731825525042
 20
-16.426494345718542
 30
0.0
 40
3.6058158319872282
 50
270.0
 51
0.0
  0
ARC
  8
DETAIL
  6
CONTINUOUS
 62
     5
 10
197.5226253866326
 20
-16.426494345718542
 30
0.0
 40
3.6058158319872282
 50
270.0
 51
0.0
  0
ARC
  8
DETAIL
  6
CONTINUOUS
 62
     5
 10
258.82963008328028
 20
-12.89442817176973
 30
0.0
 40
6.6370754883720604
 50
264.05504026050562
 51
269.96501547099632
  0
ARC
  8
DETAIL
  6
CONTINUOUS
 62
     5
 10
262.42326332794852
 20
-153.2471728594501
 30
0.0
 40
2.0032310177707591
 50
270.0
 51
90.0
  0
ARC
  8
DETAIL
  6
CONTINUOUS
 62
     5
 10
-308.49757673667182
 20
-1.502423263327501
 30
0.0
 40
1.5024232633279551
 50
90.0
 51
270.0
  0
ARC
  8
DETAIL
  6
CONTINUOUS
 62
     5
 10
-204.13328774527551
 20
-13.02100161550857
 30
0.0
 40
3.004846526655911
 50
0.0
 51
90.0
  0
ARC
  8
DETAIL
  6
CONTINUOUS
 62
     5
 10
-239.30932337653891
 20
-6.4103392568658819
 30
0.0
 40
3.6058158319870022
 50
180.0
 51
270.0
  0
ARC
  8
DETAIL
  6
CONTINUOUS
 62
     5
 10
-293.37318255250369
 20
-16.426494345718542
 30
0.0
 40
3.6058158319872282
 50
180.0
 51
270.0
  0
ARC
  8
DETAIL
  6
CONTINUOUS
 62
     5
 10
-197.5226253866326
 20
-16.426494345718542
 30
0.0
 40
3.6058158319872282
 50
180.0
 51
270.0
  0
ARC
  8
DETAIL
  6
CONTINUOUS
 62
     5
 10
-303.38933764135692
 20
-6.4103392568658819
 30
0.0
 40
3.6058158319872282
 50
180.0
 51
270.0
  0
ARC
  8
DETAIL
  6
CONTINUOUS
 62
     5
 10
-262.42326332794818
 20
-153.2471728594501
 30
0.0
 40
2.0032310177705308
 50
90.0
 51
270.0
  0
LINE
  8
DETAIL
  6
CONTINUOUS
 62
     5
 10
306.99515347334409
 20
-3.0048465266556832
 30
0.0
 11
306.99515347334409
 21
-6.4103392568658819
 31
0.0
  0
LINE
  8
DETAIL
  6
CONTINUOUS
 62
     5
 10
303.82456339745289
 20
-5.1082390953147296
 30
0.0
 11
303.82456339745289
 21
-3.0048465266556832
 31
0.0
  0
LINE
  8
DETAIL
  6
CONTINUOUS
 62
     5
 10
296.97899838449121
 20
-13.8900406254395
 30
0.0
 11
296.97899838449121
 21
-16.426494345718542
 31
0.0
  0
LINE
  8
DETAIL
  6
CONTINUOUS
 62
     5
 10
266.33769383406622
 20
-19.53150242326296
 30
0.0
 11
266.33769383406622
 21
-14.52342487883652
 31
0.0
  0
LINE
  8
DETAIL
  6
CONTINUOUS
 62
     5
 10
263.83365506185282
 20
-20.43295638125937
 30
0.0
 11
263.83365506185282
 21
-19.53150242326296
 31
0.0
  0
LINE
  8
DETAIL
  6
CONTINUOUS
 62
     5
 10
261.32961628963949
 20
-14.52342487883652
 30
0.0
 11
261.32961628963949
 21
-19.08419897849717
 31
0.0
  0
LINE
  8
DETAIL
  6
CONTINUOUS
 62
     5
 10
258.82557751742661
 20
-20.43295638125937
 30
0.0
 11
258.82557751742661
 21
-19.53150242326296
 31
0.0
  0
LINE
  8
DETAIL
  6
CONTINUOUS
 62
     5
 10
258.14249525634023
 20
-14.52342487883652
 30
0.0
 11
258.14249525634023
 21
-140.22617124394151
 31
0.0
  0
LINE
  8
DETAIL
  6
CONTINUOUS
 62
     5
 10
254.24712510435711
 20
-5.1082390953147296
 30
0.0
 11
254.24712510435711
 21
-3.0048465266556832
 31
0.0
  0
LINE
  8
DETAIL
  6
CONTINUOUS
 62
     5
 10
251.76825318974079
 20
-140.22617124394151
 30
0.0
 11
251.76825318974079
 21
-14.52342487883652
 31
0.0
  0
LINE
  8
DETAIL
  6
CONTINUOUS
 62
     5
 10
242.91513920930271
 20
-6.4103392568658819
 30
0.0
 11
242.91513920930271
 21
-3.0048465266556832
 31
0.0
  0
LINE
  8
DETAIL
  6
CONTINUOUS
 62
     5
 10
229.10428139885519
 20
-140.22617124394151
 30
0.0
 11
229.10428139885519
 21
-14.52342487883652
 31
0.0
  0
LINE
  8
DETAIL
  6
CONTINUOUS
 62
     5
 10
213.16867623313419
 20
-14.52342487883652
 30
0.0
 11
213.16867623313419
 21
-10.01615508885266
 31
0.0
  0
LINE
  8
DETAIL
  6
CONTINUOUS
 62
     5
 10
201.1284412186196
 20
-16.426494345718542
 30
0.0
 11
201.1284412186196
 21
-13.02100161550857
 31
0.0
  0
LINE
  8
DETAIL
  6
CONTINUOUS
 62
     5
 10
308.49757673667227
 20
0.0
 30
0.0
 11
-308.49757673667182
 21
0.0
 31
0.0
  0
LINE
  8
DETAIL
  6
CONTINUOUS
 62
     5
 10
308.49757673667227
 20
-3.0048465266556832
 30
0.0
 11
-308.49757673667182
 21
-3.0048465266556832
 31
0.0
  0
LINE
  8
DETAIL
  6
CONTINUOUS
 62
     5
 10
-303.82456339745289
 20
-5.1082390953147296
 30
0.0
 11
-253.84381916672331
 21
-5.1082390953147296
 31
0.0
  0
LINE
  8
DETAIL
  6
CONTINUOUS
 62
     5
 10
303.82456339745289
 20
-5.1082390953147296
 30
0.0
 11
253.8438191674995
 21
-5.1082390953147296
 31
0.0
  0
LINE
  8
DETAIL
  6
CONTINUOUS
 62
     5
 10
239.3093233773152
 20
-10.01615508885266
 30
0.0
 11
244.92793762657951
 21
-10.01615508885266
 31
0.0
  0
LINE
  8
DETAIL
  6
CONTINUOUS
 62
     5
 10
-300.17892012222768
 20
-10.01615508885266
 30
0.0
 11
-303.38933764135692
 21
-10.01615508885266
 31
0.0
  0
LINE
  8
DETAIL
  6
CONTINUOUS
 62
     5
 10
-239.30932337653891
 20
-10.01615508885266
 30
0.0
 11
-244.927937625803
 21
-10.01615508885266
 31
0.0
  0
LINE
  8
DETAIL
  6
CONTINUOUS
 62
     5
 10
239.3093233773152
 20
-10.01615508885266
 30
0.0
 11
-239.30932337653891
 21
-10.01615508885266
 31
0.0
  0
LINE
  8
DETAIL
  6
CONTINUOUS
 62
     5
 10
303.38933764135709
 20
-10.01615508885266
 30
0.0
 11
300.17892012300399
 21
-10.01615508885266
 31
0.0
  0
LINE
  8
DETAIL
  6
CONTINUOUS
 62
     5
 10
-251.76825318974079
 20
-14.52342487883652
 30
0.0
 11
-294.50537591889878
 21
-14.52342487883652
 31
0.0
  0
LINE
  8
DETAIL
  6
CONTINUOUS
 62
     5
 10
-213.16867623235771
 20
-14.52342487883652
 30
0.0
 11
-250.22341240252439
 21
-14.52342487883652
 31
0.0
  0
LINE
  8
DETAIL
  6
CONTINUOUS
 62
     5
 10
-250.22341240252439
 20
-14.52342487883652
 30
0.0
 11
-251.76825318974079
 21
-14.52342487883652
 31
0.0
  0
LINE
  8
DETAIL
  6
CONTINUOUS
 62
     5
 10
294.50537591967532
 20
-14.52342487883652
 30
0.0
 11
213.16867623313419
 21
-14.52342487883652
 31
0.0
  0
LINE
  8
DETAIL
  6
CONTINUOUS
 62
     5
 10
-225.15857753167759
 20
-19.53150242326296
 30
0.0
 11
-235.1747326205307
 21
-19.53150242326296
 31
0.0
  0
LINE
  8
DETAIL
  6
CONTINUOUS
 62
     5
 10
266.33769383406622
 20
-19.53150242326296
 30
0.0
 11
258.14249525634023
 21
-19.53150242326296
 31
0.0
  0
LINE
  8
DETAIL
  6
CONTINUOUS
 62
     5
 10
-258.14249525556369
 20
-20.03231017770554
 30
0.0
 11
-293.37318255250369
 21
-20.03231017770554
 31
0.0
  0
LINE
  8
DETAIL
  6
CONTINUOUS
 62
     5
 10
229.10428139885519
 20
-20.03231017770554
 30
0.0
 11
-227.6626163038909
 21
-20.03231017770554
 31
0.0
  0
LINE
  8
DETAIL
  6
CONTINUOUS
 62
     5
 10
258.82557751742661
 20
-20.03231017770554
 30
0.0
 11
258.14249525634023
 21
-20.03231017770554
 31
0.0
  0
LINE
  8
DETAIL
  6
CONTINUOUS
 62
     5
 10
293.3731825525042
 20
-20.03231017770554
 30
0.0
 11
263.83365506185282
 21
-20.03231017770554
 31
0.0
  0
LINE
  8
DETAIL
  6
CONTINUOUS
 62
     5
 10
258.82557751742661
 20
-20.43295638125937
 30
0.0
 11
263.83365506185282
 21
-20.43295638125937
 31
0.0
  0
LINE
  8
DETAIL
  6
CONTINUOUS
 62
     5
 10
-232.67069384831731
 20
-20.43295638125937
 30
0.0
 11
-227.6626163038909
 21
-20.43295638125937
 31
0.0
  0
LINE
  8
DETAIL
  6
CONTINUOUS
 62
     5
 10
-227.16180854944861
 20
-21.434571890145211
 30
0.0
 11
-233.17150160275989
 21
-21.434571890145211
 31
0.0
  0
LINE
  8
DETAIL
  6
CONTINUOUS
 62
     5
 10
264.3344628162954
 20
-21.434571890145211
 30
0.0
 11
258.32476976298358
 21
-21.434571890145211
 31
0.0
  0
LINE
  8
DETAIL
  6
CONTINUOUS
 62
     5
 10
99.920612241374783
 20
-210.3392568659124
 30
0.0
 11
99.920612241374783
 21
-157.2505507671035
 31
0.0
  0
LINE
  8
DETAIL
  6
CONTINUOUS
 62
     5
 10
99.920612241374783
 20
-295.47965917917048
 30
0.0
 11
99.920612241374783
 21
-242.39095315024221
 31
0.0
  0
LINE
  8
DETAIL
  6
CONTINUOUS
 62
     5
 10
98.000140315312365
 20
-210.3392568659124
 30
0.0
 11
98.000140315312365
 21
-157.23514911798199
 31
0.0
  0
LINE
  8
DETAIL
  6
CONTINUOUS
 62
     5
 10
98.000140315312365
 20
-295.49506127241972
 30
0.0
 11
98.000140315312365
 21
-242.39095315024221
 31
0.0
  0
LINE
  8
DETAIL
  6
CONTINUOUS
 62
     5
 10
96.321880113010593
 20
-242.39095315024221
 30
0.0
 11
96.321880113010593
 21
-276.44588045234241
 31
0.0
  0
LINE
  8
DETAIL
  6
CONTINUOUS
 62
     5
 10
96.321880113010593
 20
-176.28432956381241
 30
0.0
 11
96.321880113010593
 21
-210.3392568659124
 31
0.0
  0
LINE
  8
DETAIL
  6
CONTINUOUS
 62
     5
 10
94.196576264818304
 20
-176.28432956381241
 30
0.0
 11
94.196576264818304
 21
-157.2077688749043
 31
0.0
  0
LINE
  8
DETAIL
  6
CONTINUOUS
 62
     5
 10
94.196576264818304
 20
-295.52244094558591
 30
0.0
 11
94.196576264818304
 21
-276.44588045234241
 31
0.0
  0
LINE
  8
DETAIL
  6
CONTINUOUS
 62
     5
 10
88.58395213750623
 20
-176.28432956381241
 30
0.0
 11
88.58395213750623
 21
-157.1690466149953
 31
0.0
  0
LINE
  8
DETAIL
  6
CONTINUOUS
 62
     5
 10
88.58395213750623
 20
-295.56116305486421
 30
0.0
 11
88.58395213750623
 21
-276.44588045234241
 31
0.0
  0
LINE
  8
DETAIL
  6
CONTINUOUS
 62
     5
 10
87.11464157245382
 20
-176.28432956381241
 30
0.0
 11
87.11464157245382
 21
-172.2778675282714
 31
0.0
  0
LINE
  8
DETAIL
  6
CONTINUOUS
 62
     5
 10
87.11464157245382
 20
-280.45234248788358
 30
0.0
 11
87.11464157245382
 21
-276.44588045234241
 31
0.0
  0
LINE
  8
DETAIL
  6
CONTINUOUS
 62
     5
 10
86.731734860052029
 20
-172.2778675282714
 30
0.0
 11
86.731734860052029
 21
-162.26171243941801
 31
0.0
  0
LINE
  8
DETAIL
  6
CONTINUOUS
 62
     5
 10
86.731734860052029
 20
-280.45234248788358
 30
0.0
 11
86.731734860052029
 21
-290.46849757673641
 31
0.0
  0
LINE
  8
DETAIL
  6
CONTINUOUS
 62
     5
 10
79.923122940326721
 20
-162.26171243941801
 30
0.0
 11
79.923122940326721
 21
-158.70255384864319
 31
0.0
  0
LINE
  8
DETAIL
  6
CONTINUOUS
 62
     5
 10
77.553278473331602
 20
-210.3392568659124
 30
0.0
 11
77.553278473331602
 21
-242.39095315024221
 31
0.0
  0
LINE
  8
DETAIL
  6
CONTINUOUS
 62
     5
 10
75.834044748268752
 20
-162.26171243941801
 30
0.0
 11
75.834044748268752
 21
-158.70255384864319
 31
0.0
  0
LINE
  8
DETAIL
  6
CONTINUOUS
 62
     5
 10
70.248260059986933
 20
-162.26171243941801
 30
0.0
 11
70.248260059986933
 21
-158.70255384864319
 31
0.0
  0
LINE
  8
DETAIL
  6
CONTINUOUS
 62
     5
 10
68.751553563762627
 20
-162.26171243941801
 30
0.0
 11
68.751553563762627
 21
-158.70255384864319
 31
0.0
  0
LINE
  8
DETAIL
  6
CONTINUOUS
 62
     5
 10
65.782974275288097
 20
-290.46849757673641
 30
0.0
 11
65.782974275288097
 21
-294.0276561675114
 31
0.0
  0
LINE
  8
DETAIL
  6
CONTINUOUS
 62
     5
 10
65.158918899475339
 20
-276.44588045234241
 30
0.0
 11
65.158918899475339
 21
-176.28432956381241
 31
0.0
  0
LINE
  8
DETAIL
  6
CONTINUOUS
 62
     5
 10
61.693896083230129
 20
-290.46849757673641
 30
0.0
 11
61.693896083230129
 21
-294.0276561675114
 31
0.0
  0
LINE
  8
DETAIL
  6
CONTINUOUS
 62
     5
 10
61.61767330761063
 20
-176.28432956381241
 30
0.0
 11
61.61767330761063
 21
-172.2778675282714
 31
0.0
  0
LINE
  8
DETAIL
  6
CONTINUOUS
 62
     5
 10
61.61767330761063
 20
-280.45234248788358
 30
0.0
 11
61.61767330761063
 21
-276.44588045234241
 31
0.0
  0
LINE
  8
DETAIL
  6
CONTINUOUS
 62
     5
 10
58.784676833652838
 20
-276.44588045234241
 30
0.0
 11
58.784676833652838
 21
-176.28432956381241
 31
0.0
  0
LINE
  8
DETAIL
  6
CONTINUOUS
 62
     5
 10
56.108111394948082
 20
-290.46849757673641
 30
0.0
 11
56.108111394948082
 21
-294.0276561675114
 31
0.0
  0
LINE
  8
DETAIL
  6
CONTINUOUS
 62
     5
 10
54.611404898723997
 20
-290.46849757673641
 30
0.0
 11
54.611404898723997
 21
-294.0276561675114
 31
0.0
  0
LINE
  8
DETAIL
  6
CONTINUOUS
 62
     5
 10
47.68723171544525
 20
-295.85659634078428
 30
0.0
 11
47.68723171544525
 21
-156.87361373593311
 31
0.0
  0
LINE
  8
DETAIL
  6
CONTINUOUS
 62
     5
 10
41.066235864297603
 20
-327.52827140549232
 30
0.0
 11
41.066235864297603
 21
-313.39872734543059
 31
0.0
  0
LINE
  8
DETAIL
  6
CONTINUOUS
 62
     5
 10
38.424915809420327
 20
-280.45234248788358
 30
0.0
 11
38.424915809420327
 21
-172.2778675282714
 31
0.0
  0
LINE
  8
DETAIL
  6
CONTINUOUS
 62
     5
 10
35.081071526918997
 20
-295.94958540531712
 30
0.0
 11
35.081071526918997
 21
-156.7806246147197
 31
0.0
  0
LINE
  8
DETAIL
  6
CONTINUOUS
 62
     5
 10
27.399528234762329
 20
-280.45234248788358
 30
0.0
 11
27.399528234762329
 21
-172.2778675282714
 31
0.0
  0
LINE
  8
DETAIL
  6
CONTINUOUS
 62
     5
 10
21.81646731873116
 20
-296.045467971672
 30
0.0
 11
21.81646731873116
 21
-156.6847420553527
 31
0.0
  0
LINE
  8
DETAIL
  6
CONTINUOUS
 62
     5
 10
15.84084000861594
 20
-280.45234248788358
 30
0.0
 11
15.84084000861594
 21
-172.2778675282714
 31
0.0
  0
LINE
  8
DETAIL
  6
CONTINUOUS
 62
     5
 10
8.1515995233371541
 20
-296.14460231150451
 30
0.0
 11
8.1515995233371541
 21
-156.5856077054259
 31
0.0
  0
LINE
  8
DETAIL
  6
CONTINUOUS
 62
     5
 10
3.9738278509225888
 20
-280.45234248788358
 30
0.0
 11
3.9738278509225888
 21
-172.2778675282714
 31
0.0
  0
LINE
  8
DETAIL
  6
CONTINUOUS
 62
     5
 10
-3.9738278501458808
 20
-280.45234248788358
 30
0.0
 11
-3.9738278501458808
 21
-172.2778675282714
 31
0.0
  0
LINE
  8
DETAIL
  6
CONTINUOUS
 62
     5
 10
-8.1515995233371541
 20
-296.14460231072849
 30
0.0
 11
-8.1515995233371541
 21
-156.58560770464959
 31
0.0
  0
LINE
  8
DETAIL
  6
CONTINUOUS
 62
     5
 10
-15.84084000861594
 20
-280.45234248788358
 30
0.0
 11
-15.84084000861594
 21
-172.2778675282714
 31
0.0
  0
LINE
  8
DETAIL
  6
CONTINUOUS
 62
     5
 10
257.71756053201631
 20
-151.24394184168
 30
0.0
 11
262.42326332794852
 21
-151.24394184168
 31
0.0
  0
LINE
  8
DETAIL
  6
CONTINUOUS
 62
     5
 10
-228.4843534328686
 20
-151.24394184168
 30
0.0
 11
228.4843534328688
 21
-151.24394184168
 31
0.0
  0
LINE
  8
DETAIL
  6
CONTINUOUS
 62
     5
 10
-262.42326332794818
 20
-151.24394184168
 30
0.0
 11
-257.71756053123931
 21
-151.24394184168
 31
0.0
  0
LINE
  8
DETAIL
  6
CONTINUOUS
 62
     5
 10
257.35151204596059
 20
-155.25040387722109
 30
0.0
 11
262.42326332794852
 21
-155.25040387722109
 31
0.0
  0
LINE
  8
DETAIL
  6
CONTINUOUS
 62
     5
 10
-227.94968340371449
 20
-155.25040387722109
 30
0.0
 11
227.94968340371449
 21
-155.25040387722109
 31
0.0
  0
LINE
  8
DETAIL
  6
CONTINUOUS
 62
     5
 10
-262.42326332794818
 20
-155.25040387722109
 30
0.0
 11
-257.35151204518411
 21
-155.25040387722109
 31
0.0
  0
LINE
  8
DETAIL
  6
CONTINUOUS
 62
     5
 10
47.68723171544525
 20
-162.26171243941801
 30
0.0
 11
86.731686871022248
 21
-162.26171243941801
 31
0.0
  0
LINE
  8
DETAIL
  6
CONTINUOUS
 62
     5
 10
-86.731686871022248
 20
-162.26171243941801
 30
0.0
 11
-47.687231714668542
 21
-162.26171243941801
 31
0.0
  0
LINE
  8
DETAIL
  6
CONTINUOUS
 62
     5
 10
-99.920576911522403
 20
-172.2778675282714
 30
0.0
 11
99.920563322162707
 21
-172.2778675282714
 31
0.0
  0
LINE
  8
DETAIL
  6
CONTINUOUS
 62
     5
 10
-21.816467318730702
 20
-296.04546796080172
 30
0.0
 11
-21.816467318730702
 21
-156.68474204448259
 31
0.0
  0
LINE
  8
DETAIL
  6
CONTINUOUS
 62
     5
 10
-27.39952823398562
 20
-280.45234248788358
 30
0.0
 11
-27.39952823398562
 21
-172.2778675282714
 31
0.0
  0
LINE
  8
DETAIL
  6
CONTINUOUS
 62
     5
 10
-35.081071526918777
 20
-295.94958540143489
 30
0.0
 11
-35.081071526918777
 21
-156.78062461083709
 31
0.0
  0
LINE
  8
DETAIL
  6
CONTINUOUS
 62
     5
 10
-38.424915809419872
 20
-280.45234248788358
 30
0.0
 11
-38.424915809419872
 21
-172.2778675282714
 31
0.0
  0
LINE
  8
DETAIL
  6
CONTINUOUS
 62
     5
 10
-41.066235864297141
 20
-327.52827140549232
 30
0.0
 11
-41.066235864297141
 21
-313.39872734543059
 31
0.0
  0
LINE
  8
DETAIL
  6
CONTINUOUS
 62
     5
 10
58.784676833652838
 20
-176.28432956381241
 30
0.0
 11
96.321880113010593
 21
-176.28432956381241
 31
0.0
  0
LINE
  8
DETAIL
  6
CONTINUOUS
 62
     5
 10
-96.321880112233885
 20
-176.28432956381241
 30
0.0
 11
-58.78467683287613
 21
-176.28432956381241
 31
0.0
  0
LINE
  8
DETAIL
  6
CONTINUOUS
 62
     5
 10
-47.687231714668542
 20
-295.85659628022199
 30
0.0
 11
-47.687231714668542
 21
-156.87361367537031
 31
0.0
  0
LINE
  8
DETAIL
  6
CONTINUOUS
 62
     5
 10
-54.611404897947068
 20
-162.26171243941801
 30
0.0
 11
-54.611404897947068
 21
-158.70255384864319
 31
0.0
  0
LINE
  8
DETAIL
  6
CONTINUOUS
 62
     5
 10
-58.700483090005037
 20
-162.26171243941801
 30
0.0
 11
-58.700483090005037
 21
-158.70255384864319
 31
0.0
  0
LINE
  8
DETAIL
  6
CONTINUOUS
 62
     5
 10
-58.78467683287613
 20
-176.28432956381241
 30
0.0
 11
-58.78467683287613
 21
-276.44588045234241
 31
0.0
  0
LINE
  8
DETAIL
  6
CONTINUOUS
 62
     5
 10
-61.617673306833687
 20
-176.28432956381241
 30
0.0
 11
-61.617673306833687
 21
-172.2778675282714
 31
0.0
  0
LINE
  8
DETAIL
  6
CONTINUOUS
 62
     5
 10
-61.617673306833687
 20
-280.45234248788358
 30
0.0
 11
-61.617673306833687
 21
-276.44588045234241
 31
0.0
  0
LINE
  8
DETAIL
  6
CONTINUOUS
 62
     5
 10
-64.286267778286856
 20
-162.26171243941801
 30
0.0
 11
-64.286267778286856
 21
-158.70255384864319
 31
0.0
  0
LINE
  8
DETAIL
  6
CONTINUOUS
 62
     5
 10
-65.158918899474884
 20
-176.28432956381241
 30
0.0
 11
-65.158918899474884
 21
-276.44588045234241
 31
0.0
  0
LINE
  8
DETAIL
  6
CONTINUOUS
 62
     5
 10
-65.782974274511389
 20
-162.26171243941801
 30
0.0
 11
-65.782974274511389
 21
-158.70255384864319
 31
0.0
  0
LINE
  8
DETAIL
  6
CONTINUOUS
 62
     5
 10
77.553278473331602
 20
-210.3392568659124
 30
0.0
 11
179.52684310575981
 21
-210.3392568659124
 31
0.0
  0
LINE
  8
DETAIL
  6
CONTINUOUS
 62
     5
 10
-77.553278472554666
 20
-210.3392568659124
 30
0.0
 11
-179.5268431049831
 21
-210.3392568659124
 31
0.0
  0
LINE
  8
DETAIL
  6
CONTINUOUS
 62
     5
 10
-68.751553562985919
 20
-290.46849757673641
 30
0.0
 11
-68.751553562985919
 21
-294.0276561675114
 31
0.0
  0
LINE
  8
DETAIL
  6
CONTINUOUS
 62
     5
 10
-72.84063175504366
 20
-290.46849757673641
 30
0.0
 11
-72.84063175504366
 21
-294.0276561675114
 31
0.0
  0
LINE
  8
DETAIL
  6
CONTINUOUS
 62
     5
 10
-77.553278472554666
 20
-210.3392568659124
 30
0.0
 11
-77.553278472554666
 21
-242.39095315024221
 31
0.0
  0
LINE
  8
DETAIL
  6
CONTINUOUS
 62
     5
 10
-78.426416443325706
 20
-290.46849757673641
 30
0.0
 11
-78.426416443325706
 21
-294.0276561675114
 31
0.0
  0
LINE
  8
DETAIL
  6
CONTINUOUS
 62
     5
 10
-79.923122940326266
 20
-290.46849757673641
 30
0.0
 11
-79.923122940326266
 21
-294.0276561675114
 31
0.0
  0
LINE
  8
DETAIL
  6
CONTINUOUS
 62
     5
 10
-86.731734860051574
 20
-172.2778675282714
 30
0.0
 11
-86.731734860051574
 21
-162.26171243941801
 31
0.0
  0
LINE
  8
DETAIL
  6
CONTINUOUS
 62
     5
 10
-86.731734860051574
 20
-280.45234248788358
 30
0.0
 11
-86.731734860051574
 21
-290.46849757673641
 31
0.0
  0
LINE
  8
DETAIL
  6
CONTINUOUS
 62
     5
 10
-87.11464157245382
 20
-176.28432956381241
 30
0.0
 11
-87.11464157245382
 21
-172.2778675282714
 31
0.0
  0
LINE
  8
DETAIL
  6
CONTINUOUS
 62
     5
 10
-87.11464157245382
 20
-280.45234248788358
 30
0.0
 11
-87.11464157245382
 21
-276.44588045234241
 31
0.0
  0
LINE
  8
DETAIL
  6
CONTINUOUS
 62
     5
 10
-88.583952136729749
 20
-176.28432956381241
 30
0.0
 11
-88.583952136729749
 21
-157.16904696129001
 31
0.0
  0
LINE
  8
DETAIL
  6
CONTINUOUS
 62
     5
 10
-88.583952136729749
 20
-295.56116340115932
 30
0.0
 11
-88.583952136729749
 21
-276.44588045234241
 31
0.0
  0
LINE
  8
DETAIL
  6
CONTINUOUS
 62
     5
 10
77.553278473331602
 20
-242.39095315024221
 30
0.0
 11
179.52684310502539
 21
-242.39095315024221
 31
0.0
  0
LINE
  8
DETAIL
  6
CONTINUOUS
 62
     5
 10
-179.5268431049831
 20
-242.39095315024221
 30
0.0
 11
-77.553278472554666
 21
-242.39095315024221
 31
0.0
  0
LINE
  8
DETAIL
  6
CONTINUOUS
 62
     5
 10
-94.196576264041596
 20
-176.28432956381241
 30
0.0
 11
-94.196576264041596
 21
-157.2077690705687
 31
0.0
  0
LINE
  8
DETAIL
  6
CONTINUOUS
 62
     5
 10
-94.196576264041596
 20
-295.52244114125028
 30
0.0
 11
-94.196576264041596
 21
-276.44588045234241
 31
0.0
  0
LINE
  8
DETAIL
  6
CONTINUOUS
 62
     5
 10
-96.321880112233885
 20
-210.3392568659124
 30
0.0
 11
-96.321880112233885
 21
-176.28432956381241
 31
0.0
  0
LINE
  8
DETAIL
  6
CONTINUOUS
 62
     5
 10
-96.321880112233885
 20
-276.44588045234241
 30
0.0
 11
-96.321880112233885
 21
-242.39095315024221
 31
0.0
  0
LINE
  8
DETAIL
  6
CONTINUOUS
 62
     5
 10
-98.000140314535656
 20
-210.3392568659124
 30
0.0
 11
-98.000140314535656
 21
-157.23514874373501
 31
0.0
  0
LINE
  8
DETAIL
  6
CONTINUOUS
 62
     5
 10
-98.000140314535656
 20
-295.49506089739612
 30
0.0
 11
-98.000140314535656
 21
-242.39095315024221
 31
0.0
  0
LINE
  8
DETAIL
  6
CONTINUOUS
 62
     5
 10
-99.920612240598075
 20
-210.3392568659124
 30
0.0
 11
-99.920612240598075
 21
-157.25055083698379
 31
0.0
  0
LINE
  8
DETAIL
  6
CONTINUOUS
 62
     5
 10
-99.920612240598075
 20
-295.47965924905111
 30
0.0
 11
-99.920612240598075
 21
-242.39095315024221
 31
0.0
  0
LINE
  8
DETAIL
  6
CONTINUOUS
 62
     5
 10
-96.321880112233885
 20
-276.44588045234241
 30
0.0
 11
-58.78467683287613
 21
-276.44588045234241
 31
0.0
  0
LINE
  8
DETAIL
  6
CONTINUOUS
 62
     5
 10
96.321880113010593
 20
-276.44588045234241
 30
0.0
 11
58.784676833652838
 21
-276.44588045234241
 31
0.0
  0
LINE
  8
DETAIL
  6
CONTINUOUS
 62
     5
 10
-99.920563321385998
 20
-280.45234248788358
 30
0.0
 11
99.920563322162707
 21
-280.45234248788358
 31
0.0
  0
LINE
  8
DETAIL
  6
CONTINUOUS
 62
     5
 10
-47.687231714668542
 20
-290.46849757673641
 30
0.0
 11
-86.731686871022248
 21
-290.46849757673641
 31
0.0
  0
LINE
  8
DETAIL
  6
CONTINUOUS
 62
     5
 10
86.731686871022248
 20
-290.46849757673641
 30
0.0
 11
47.68723171544525
 21
-290.46849757673641
 31
0.0
  0
LINE
  8
DETAIL
  6
CONTINUOUS
 62
     5
 10
-41.066235864297141
 20
-313.39872734543059
 30
0.0
 11
-85.638126009692769
 21
-309.49919224555708
 31
0.0
  0
LINE
  8
DETAIL
  6
CONTINUOUS
 62
     5
 10
85.638126009693224
 20
-309.49919224555708
 30
0.0
 11
-85.638126009692769
 21
-309.49919224555708
 31
0.0
  0
LINE
  8
DETAIL
  6
CONTINUOUS
 62
     5
 10
-41.066235864297141
 20
-313.39872734543059
 30
0.0
 11
41.066235864297603
 21
-313.39872734543059
 31
0.0
  0
LINE
  8
DETAIL
  6
CONTINUOUS
 62
     5
 10
41.066235864297603
 20
-313.39872734543059
 30
0.0
 11
85.638126009693224
 21
-309.49919224555708
 31
0.0
  0
LINE
  8
DETAIL
  6
CONTINUOUS
 62
     5
 10
-41.066200747191488
 20
-327.52827140549232
 30
0.0
 11
41.066200747968203
 21
-327.52827140549232
 31
0.0
  0
LINE
  8
DETAIL
  6
CONTINUOUS
 62
     5
 10
-201.1284412186196
 20
-13.02100161550857
 30
0.0
 11
-201.1284412186196
 21
-16.426494345718542
 31
0.0
  0
LINE
  8
DETAIL
  6
CONTINUOUS
 62
     5
 10
-213.16867623235771
 20
-14.52342487883652
 30
0.0
 11
-213.16867623235771
 21
-10.01615508885266
 31
0.0
  0
LINE
  8
DETAIL
  6
CONTINUOUS
 62
     5
 10
-225.15857753167759
 20
-19.53150242326296
 30
0.0
 11
-225.15857753167759
 21
-14.52342487883652
 31
0.0
  0
LINE
  8
DETAIL
  6
CONTINUOUS
 62
     5
 10
-227.6626163038909
 20
-20.43295638125937
 30
0.0
 11
-227.6626163038909
 21
-19.53150242326296
 31
0.0
  0
LINE
  8
DETAIL
  6
CONTINUOUS
 62
     5
 10
-229.10428139807871
 20
-140.22617124394151
 30
0.0
 11
-229.10428139807871
 21
-20.43295638125937
 31
0.0
  0
LINE
  8
DETAIL
  6
CONTINUOUS
 62
     5
 10
-230.16665507610421
 20
-14.52342487883652
 30
0.0
 11
-230.16665507610421
 21
-19.08419897849717
 31
0.0
  0
LINE
  8
DETAIL
  6
CONTINUOUS
 62
     5
 10
-232.67069384831731
 20
-20.43295638125937
 30
0.0
 11
-232.67069384831731
 21
-19.53150242326296
 31
0.0
  0
LINE
  8
DETAIL
  6
CONTINUOUS
 62
     5
 10
-235.1747326205307
 20
-14.52342487883652
 30
0.0
 11
-235.1747326205307
 21
-19.53150242326296
 31
0.0
  0
LINE
  8
DETAIL
  6
CONTINUOUS
 62
     5
 10
-242.91513920852569
 20
-3.0048465266556832
 30
0.0
 11
-242.91513920852569
 21
-6.4103392568658819
 31
0.0
  0
LINE
  8
DETAIL
  6
CONTINUOUS
 62
     5
 10
-251.76825318974079
 20
-14.52342487883652
 30
0.0
 11
-251.76825318974079
 21
-140.22617124394151
 31
0.0
  0
LINE
  8
DETAIL
  6
CONTINUOUS
 62
     5
 10
-254.2471251043564
 20
-5.1082390953147296
 30
0.0
 11
-254.2471251043564
 21
-3.0048465266556832
 31
0.0
  0
LINE
  8
DETAIL
  6
CONTINUOUS
 62
     5
 10
-258.14249525556369
 20
-140.22617124394151
 30
0.0
 11
-258.14249525556369
 21
-14.52342487883652
 31
0.0
  0
LINE
  8
DETAIL
  6
CONTINUOUS
 62
     5
 10
-296.97899838449121
 20
-16.426494345718542
 30
0.0
 11
-296.97899838449121
 21
-13.8900406254395
 31
0.0
  0
LINE
  8
DETAIL
  6
CONTINUOUS
 62
     5
 10
-303.82456339745289
 20
-3.0048465266556832
 30
0.0
 11
-303.82456339745289
 21
-5.1082390953147296
 31
0.0
  0
LINE
  8
DETAIL
  6
CONTINUOUS
 62
     5
 10
-306.99515347334392
 20
-6.4103392568658819
 30
0.0
 11
-306.99515347334392
 21
-3.0048465266556832
 31
0.0
  0
LINE
  8
DETAIL
  6
CONTINUOUS
 62
     5
 10
264.3344628162954
 20
-19.53150242326296
 30
0.0
 11
264.3344628162954
 21
-21.434571890145211
 31
0.0
  0
LINE
  8
DETAIL
  6
CONTINUOUS
 62
     5
 10
258.32476976298358
 20
-19.53150242326296
 30
0.0
 11
258.32476976298358
 21
-21.434571890145211
 31
0.0
  0
LINE
  8
DETAIL
  6
CONTINUOUS
 62
     5
 10
-227.16180854944861
 20
-19.53150242326296
 30
0.0
 11
-227.16180854944861
 21
-21.434571890145211
 31
0.0
  0
LINE
  8
DETAIL
  6
CONTINUOUS
 62
     5
 10
-233.17150160275989
 20
-19.53150242326296
 30
0.0
 11
-233.17150160275989
 21
-21.434571890145211
 31
0.0
  0
LINE
  8
DETAIL
  6
CONTINUOUS
 62
     5
 10
-87.870944394591788
 20
-157.25055083698319
 30
0.0
 11
-84.716957509124541
 21
-155.25040387722109
 31
0.0
  0
LINE
  8
DETAIL
  6
CONTINUOUS
 62
     5
 10
-5.6575031725587914
 20
-156.57600986845591
 30
0.0
 11
-5.3679452044489153
 21
-155.25040387722109
 31
0.0
  0
LINE
  8
DETAIL
  6
CONTINUOUS
 62
     5
 10
-93.704854752822939
 20
-157.25055083698319
 30
0.0
 11
-90.378975538574196
 21
-155.25040387722109
 31
0.0
  0
LINE
  8
DETAIL
  6
CONTINUOUS
 62
     5
 10
-19.356374608658371
 20
-156.57600986845591
 30
0.0
 11
-18.751774040906639
 21
-155.25040387722109
 31
0.0
  0
LINE
  8
DETAIL
  6
CONTINUOUS
 62
     5
 10
-32.67849623105576
 20
-156.57600986845591
 30
0.0
 11
-31.77062092590813
 21
-155.25040387722109
 31
0.0
  0
LINE
  8
DETAIL
  6
CONTINUOUS
 62
     5
 10
-97.714906700261054
 20
-157.25055083698319
 30
0.0
 11
-94.281869613344725
 21
-155.25040387722109
 31
0.0
  0
LINE
  8
DETAIL
  6
CONTINUOUS
 62
     5
 10
-45.364568096203577
 20
-156.57600986845591
 30
0.0
 11
-44.171088813631741
 21
-155.25040387722109
 31
0.0
  0
LINE
  8
DETAIL
  6
CONTINUOUS
 62
     5
 10
-8.1203645798650541
 20
-155.25040387722109
 30
0.0
 11
-8.1514851279753202
 21
-156.57600986845591
 31
0.0
  0
LINE
  8
DETAIL
  6
CONTINUOUS
 62
     5
 10
-21.450620704853009
 20
-155.25040387722109
 30
0.0
 11
-21.80181404333052
 21
-156.57600986845591
 31
0.0
  0
LINE
  8
DETAIL
  6
CONTINUOUS
 62
     5
 10
-34.363364896901658
 20
-155.25040387722109
 30
0.0
 11
-35.02779544659461
 21
-156.57600986845591
 31
0.0
  0
LINE
  8
DETAIL
  6
CONTINUOUS
 62
     5
 10
-46.607265278911882
 20
-155.25040387722109
 30
0.0
 11
-47.57200065502002
 21
-156.57600986845591
 31
0.0
  0
LINE
  8
DETAIL
  6
CONTINUOUS
 62
     5
 10
-86.01229551302049
 20
-155.25040387722109
 30
0.0
 11
-88.982767492343555
 21
-157.25055083698319
 31
0.0
  0
LINE
  8
DETAIL
  6
CONTINUOUS
 62
     5
 10
-91.323194299482566
 20
-155.25039902909131
 30
0.0
 11
-94.514841821503069
 21
-157.25055083698319
 31
0.0
  0
LINE
  8
DETAIL
  6
CONTINUOUS
 62
     5
 10
-94.855527180590343
 20
-155.25040387722109
 30
0.0
 11
-98.207292264238276
 21
-157.25055083698319
 31
0.0
  0
LINE
  8
DETAIL
  6
CONTINUOUS
 62
     5
 10
-96.350258410814831
 20
-155.2503988132396
 30
0.0
 11
-99.920612241374329
 21
-157.25055083698319
 31
0.0
  0
LINE
  8
DETAIL
  6
CONTINUOUS
 62
     5
 10
-4.2039970629048176
 20
-302.80839937360912
 30
0.0
 11
-5.6575031725587914
 21
-296.15420014770012
 31
0.0
  0
LINE
  8
DETAIL
  6
CONTINUOUS
 62
     5
 10
-8.1514851279753202
 20
-296.15420014770012
 30
0.0
 11
-7.9952680253718427
 21
-302.80839937360912
 31
0.0
  0
LINE
  8
DETAIL
  6
CONTINUOUS
 62
     5
 10
88.701658746354951
 20
-270.90180744701769
 30
0.0
 11
94.721741279938215
 21
-265.98643064115078
 31
0.0
  0
LINE
  8
DETAIL
  6
CONTINUOUS
 62
     5
 10
88.271652850964529
 20
-270.5507091034051
 30
0.0
 11
93.86172948915555
 21
-265.98643064115078
 31
0.0
  0
LINE
  8
DETAIL
  6
CONTINUOUS
 62
     5
 10
88.701658746354951
 20
-251.24030022449369
 30
0.0
 11
82.681576212771688
 21
-256.15567702941729
 31
0.0
  0
LINE
  8
DETAIL
  6
CONTINUOUS
 62
     5
 10
84.281645098495574
 20
-251.24027166865841
 30
0.0
 11
78.261527591239428
 21
-256.15567702941729
 31
0.0
  0
LINE
  8
DETAIL
  6
CONTINUOUS
 62
     5
 10
81.619167561071663
 20
-201.48985268126671
 30
0.0
 11
87.639250094654926
 21
-196.57447587539991
 31
0.0
  0
LINE
  8
DETAIL
  6
CONTINUOUS
 62
     5
 10
81.18916166568124
 20
-201.13875433765409
 30
0.0
 11
86.779238303874081
 21
-196.57447587539991
 31
0.0
  0
LINE
  8
DETAIL
  6
CONTINUOUS
 62
     5
 10
81.619167561071663
 20
-181.8283454587436
 30
0.0
 11
75.5990850274884
 21
-186.74372226366631
 31
0.0
  0
LINE
  8
DETAIL
  6
CONTINUOUS
 62
     5
 10
94.721741279938215
 20
-265.98643064115078
 30
0.0
 11
94.721741279938215
 21
-256.15567702941729
 31
0.0
  0
LINE
  8
DETAIL
  6
CONTINUOUS
 62
     5
 10
93.86172948915555
 20
-265.98643064115078
 30
0.0
 11
93.86172948915555
 21
-256.15567702941729
 31
0.0
  0
LINE
  8
DETAIL
  6
CONTINUOUS
 62
     5
 10
87.639250094654926
 20
-196.57447587539991
 30
0.0
 11
87.639250094654926
 21
-186.74372226366631
 31
0.0
  0
LINE
  8
DETAIL
  6
CONTINUOUS
 62
     5
 10
86.779238303874081
 20
-196.57447587539991
 30
0.0
 11
86.779238303874081
 21
-186.74372226366631
 31
0.0
  0
LINE
  8
DETAIL
  6
CONTINUOUS
 62
     5
 10
85.638126009693224
 20
-309.49919224555742
 30
0.0
 11
85.638126009693224
 21
-303.83986335387181
 31
0.0
  0
LINE
  8
DETAIL
  6
CONTINUOUS
 62
     5
 10
82.681576212771688
 20
-256.15567702941729
 30
0.0
 11
82.681576212771688
 21
-265.98643064115078
 31
0.0
  0
LINE
  8
DETAIL
  6
CONTINUOUS
 62
     5
 10
78.261527591239428
 20
-256.15567702941729
 30
0.0
 11
78.261527591239428
 21
-265.98648775248881
 31
0.0
  0
LINE
  8
DETAIL
  6
CONTINUOUS
 62
     5
 10
75.5990850274884
 20
-186.74372226366631
 30
0.0
 11
75.5990850274884
 21
-196.57447587539991
 31
0.0
  0
LINE
  8
DETAIL
  6
CONTINUOUS
 62
     5
 10
77.199153913988994
 20
-181.82831690290641
 30
0.0
 11
71.179036406732848
 21
-186.74372226366631
 31
0.0
  0
LINE
  8
DETAIL
  6
CONTINUOUS
 62
     5
 10
71.179036406732848
 20
-186.74372226366631
 30
0.0
 11
71.179036406732848
 21
-196.5745329867386
 31
0.0
  0
LINE
  8
DETAIL
  6
CONTINUOUS
 62
     5
 10
87.639250094654926
 20
-186.74372226366631
 30
0.0
 11
81.619167561071663
 21
-181.8283454587436
 31
0.0
  0
LINE
  8
DETAIL
  6
CONTINUOUS
 62
     5
 10
86.779238303874081
 20
-186.74372226366631
 30
0.0
 11
81.18916166568124
 21
-182.1794438014131
 31
0.0
  0
LINE
  8
DETAIL
  6
CONTINUOUS
 62
     5
 10
75.5990850274884
 20
-196.57447587539991
 30
0.0
 11
81.619167561071663
 21
-201.48985268126671
 31
0.0
  0
LINE
  8
DETAIL
  6
CONTINUOUS
 62
     5
 10
71.179036406732848
 20
-196.5745329867386
 30
0.0
 11
77.199153913988994
 21
-201.4899383474976
 31
0.0
  0
LINE
  8
DETAIL
  6
CONTINUOUS
 62
     5
 10
-65.782974275287415
 20
-158.70255384864319
 30
0.0
 11
-54.611404897947068
 21
-158.70255384864319
 31
0.0
  0
LINE
  8
DETAIL
  6
CONTINUOUS
 62
     5
 10
-77.199153913988994
 20
-270.90189311324872
 30
0.0
 11
-71.179036406732848
 21
-265.98648775248881
 31
0.0
  0
LINE
  8
DETAIL
  6
CONTINUOUS
 62
     5
 10
-81.619167561848371
 20
-270.90180744701769
 30
0.0
 11
-75.599085028265108
 21
-265.98643064115078
 31
0.0
  0
LINE
  8
DETAIL
  6
CONTINUOUS
 62
     5
 10
-81.189161666457949
 20
-251.5913985671632
 30
0.0
 11
-86.779238304650789
 21
-256.15567702941729
 31
0.0
  0
LINE
  8
DETAIL
  6
CONTINUOUS
 62
     5
 10
-81.619167561848371
 20
-251.24030022449369
 30
0.0
 11
-87.639250095431635
 21
-256.15567702941729
 31
0.0
  0
LINE
  8
DETAIL
  6
CONTINUOUS
 62
     5
 10
77.199153913988994
 20
-181.82831690290641
 30
0.0
 11
81.619202534746364
 21
-181.82831690290641
 31
0.0
  0
LINE
  8
DETAIL
  6
CONTINUOUS
 62
     5
 10
-84.281645098495574
 20
-181.82831690290641
 30
0.0
 11
-88.701693720027833
 21
-181.82831690290641
 31
0.0
  0
LINE
  8
DETAIL
  6
CONTINUOUS
 62
     5
 10
94.721741279938215
 20
-256.15567702941729
 30
0.0
 11
88.701658746354951
 21
-251.24030022449369
 31
0.0
  0
LINE
  8
DETAIL
  6
CONTINUOUS
 62
     5
 10
93.86172948915555
 20
-256.15567702941729
 30
0.0
 11
88.271652850964529
 21
-251.5913985671632
 31
0.0
  0
LINE
  8
DETAIL
  6
CONTINUOUS
 62
     5
 10
82.681576212771688
 20
-265.98643064115078
 30
0.0
 11
88.701658746354951
 21
-270.90180744701769
 31
0.0
  0
LINE
  8
DETAIL
  6
CONTINUOUS
 62
     5
 10
78.261527591239428
 20
-265.98648775248881
 30
0.0
 11
84.281645098495574
 21
-270.90189311324872
 31
0.0
  0
LINE
  8
DETAIL
  6
CONTINUOUS
 62
     5
 10
71.179036406732848
 20
-186.74372226366631
 30
0.0
 11
75.5990850274884
 21
-186.74372226366631
 31
0.0
  0
LINE
  8
DETAIL
  6
CONTINUOUS
 62
     5
 10
-78.261527591239428
 20
-186.74372226366631
 30
0.0
 11
-82.681576212771688
 21
-186.74372226366631
 31
0.0
  0
LINE
  8
DETAIL
  6
CONTINUOUS
 62
     5
 10
71.179036406732848
 20
-196.5745329867386
 30
0.0
 11
75.5990850274884
 21
-196.5745329867386
 31
0.0
  0
LINE
  8
DETAIL
  6
CONTINUOUS
 62
     5
 10
-78.261527591239428
 20
-196.5745329867386
 30
0.0
 11
-82.681576212771688
 21
-196.5745329867386
 31
0.0
  0
LINE
  8
DETAIL
  6
CONTINUOUS
 62
     5
 10
77.199153913988994
 20
-201.4899383474976
 30
0.0
 11
81.619202534746364
 21
-201.4899383474976
 31
0.0
  0
LINE
  8
DETAIL
  6
CONTINUOUS
 62
     5
 10
-84.281645098495574
 20
-201.4899383474976
 30
0.0
 11
-88.701693720027833
 21
-201.4899383474976
 31
0.0
  0
LINE
  8
DETAIL
  6
CONTINUOUS
 62
     5
 10
-84.281645098495574
 20
-201.4899383474976
 30
0.0
 11
-78.261527591239428
 21
-196.5745329867386
 31
0.0
  0
LINE
  8
DETAIL
  6
CONTINUOUS
 62
     5
 10
-88.701658746354951
 20
-201.48985268126671
 30
0.0
 11
-82.681576212771688
 21
-196.57447587539991
 31
0.0
  0
LINE
  8
DETAIL
  6
CONTINUOUS
 62
     5
 10
-88.271652850964529
 20
-182.1794438014131
 30
0.0
 11
-93.861729490099606
 21
-186.74372226366631
 31
0.0
  0
LINE
  8
DETAIL
  6
CONTINUOUS
 62
     5
 10
-88.701658746354951
 20
-181.8283454587436
 30
0.0
 11
-94.721741279938215
 21
-186.74372226366631
 31
0.0
  0
LINE
  8
DETAIL
  6
CONTINUOUS
 62
     5
 10
-78.261527591239428
 20
-186.74372226366631
 30
0.0
 11
-84.281645098495574
 21
-181.82831690290641
 31
0.0
  0
LINE
  8
DETAIL
  6
CONTINUOUS
 62
     5
 10
-82.681576212771688
 20
-186.74372226366631
 30
0.0
 11
-88.701658746354951
 21
-181.8283454587436
 31
0.0
  0
LINE
  8
DETAIL
  6
CONTINUOUS
 62
     5
 10
84.281645098495574
 20
-251.24027166865841
 30
0.0
 11
88.701693719252944
 21
-251.24027166865841
 31
0.0
  0
LINE
  8
DETAIL
  6
CONTINUOUS
 62
     5
 10
-77.199153913988994
 20
-251.24027166865841
 30
0.0
 11
-81.619202534746364
 21
-251.24027166865841
 31
0.0
  0
LINE
  8
DETAIL
  6
CONTINUOUS
 62
     5
 10
78.261527591239428
 20
-256.15567702941729
 30
0.0
 11
82.681576212771688
 21
-256.15567702941729
 31
0.0
  0
LINE
  8
DETAIL
  6
CONTINUOUS
 62
     5
 10
-71.179036406732848
 20
-256.15567702941729
 30
0.0
 11
-75.599085028265108
 21
-256.15567702941729
 31
0.0
  0
LINE
  8
DETAIL
  6
CONTINUOUS
 62
     5
 10
-71.179036406732848
 20
-265.98648775248881
 30
0.0
 11
-71.179036406732848
 21
-256.15567702941729
 31
0.0
  0
LINE
  8
DETAIL
  6
CONTINUOUS
 62
     5
 10
-93.861729490099606
 20
-196.57447587539991
 30
0.0
 11
-88.271652850964529
 21
-201.13875433765409
 31
0.0
  0
LINE
  8
DETAIL
  6
CONTINUOUS
 62
     5
 10
-94.721741279938215
 20
-196.57447587539991
 30
0.0
 11
-88.701658746354951
 21
-201.48985268126671
 31
0.0
  0
LINE
  8
DETAIL
  6
CONTINUOUS
 62
     5
 10
-87.639250095431635
 20
-265.98643064115078
 30
0.0
 11
-86.779238304650789
 21
-265.98643064115078
 31
0.0
  0
LINE
  8
DETAIL
  6
CONTINUOUS
 62
     5
 10
78.261527591239428
 20
-265.98648775248881
 30
0.0
 11
82.681576212771688
 21
-265.98648775248881
 31
0.0
  0
LINE
  8
DETAIL
  6
CONTINUOUS
 62
     5
 10
-71.179036406732848
 20
-265.98648775248881
 30
0.0
 11
-75.599085028265108
 21
-265.98648775248881
 31
0.0
  0
LINE
  8
DETAIL
  6
CONTINUOUS
 62
     5
 10
84.281645098495574
 20
-270.90189311324872
 30
0.0
 11
88.701693719252944
 21
-270.90189311324872
 31
0.0
  0
LINE
  8
DETAIL
  6
CONTINUOUS
 62
     5
 10
-77.199153913988994
 20
-270.90189311324872
 30
0.0
 11
-81.619202534746364
 21
-270.90189311324872
 31
0.0
  0
LINE
  8
DETAIL
  6
CONTINUOUS
 62
     5
 10
-75.599085028265108
 20
-265.98643064115078
 30
0.0
 11
-75.599085028265108
 21
-256.15567702941729
 31
0.0
  0
LINE
  8
DETAIL
  6
CONTINUOUS
 62
     5
 10
-78.261527591239428
 20
-196.5745329867386
 30
0.0
 11
-78.261527591239428
 21
-186.74372226366631
 31
0.0
  0
LINE
  8
DETAIL
  6
CONTINUOUS
 62
     5
 10
-82.681576212771688
 20
-196.57447587539991
 30
0.0
 11
-82.681576212771688
 21
-186.74372226366631
 31
0.0
  0
LINE
  8
DETAIL
  6
CONTINUOUS
 62
     5
 10
-85.638126009693224
 20
-309.49919224555742
 30
0.0
 11
-85.638126009693224
 21
-303.83986335387181
 31
0.0
  0
LINE
  8
DETAIL
  6
CONTINUOUS
 62
     5
 10
-86.779238304650789
 20
-256.15567702941729
 30
0.0
 11
-86.779238304650789
 21
-265.98643064115078
 31
0.0
  0
LINE
  8
DETAIL
  6
CONTINUOUS
 62
     5
 10
-87.639250095431635
 20
-256.15567702941729
 30
0.0
 11
-87.639250095431635
 21
-265.98643064115078
 31
0.0
  0
LINE
  8
DETAIL
  6
CONTINUOUS
 62
     5
 10
-93.861729490099606
 20
-186.74372226366631
 30
0.0
 11
-93.861729490099606
 21
-196.57447587539991
 31
0.0
  0
LINE
  8
DETAIL
  6
CONTINUOUS
 62
     5
 10
-94.721741279938215
 20
-186.74372226366631
 30
0.0
 11
-94.721741279938215
 21
-196.57447587539991
 31
0.0
  0
LINE
  8
DETAIL
  6
CONTINUOUS
 62
     5
 10
-71.179036406732848
 20
-256.15567702941729
 30
0.0
 11
-77.199153913988994
 21
-251.24027166865841
 31
0.0
  0
LINE
  8
DETAIL
  6
CONTINUOUS
 62
     5
 10
-75.599085028265108
 20
-256.15567702941729
 30
0.0
 11
-81.619167561848371
 21
-251.24030022449369
 31
0.0
  0
LINE
  8
DETAIL
  6
CONTINUOUS
 62
     5
 10
-68.751553563763082
 20
-294.02765616751282
 30
0.0
 11
-79.923122940326721
 21
-294.02765616751282
 31
0.0
  0
LINE
  8
DETAIL
  6
CONTINUOUS
 62
     5
 10
-86.779238304650789
 20
-265.98643064115078
 30
0.0
 11
-81.189161666457949
 21
-270.5507091034051
 31
0.0
  0
LINE
  8
DETAIL
  6
CONTINUOUS
 62
     5
 10
-87.639250095431635
 20
-265.98643064115078
 30
0.0
 11
-81.619167561848371
 21
-270.90180744701769
 31
0.0
  0
ARC
  8
DETAIL
  6
CONTINUOUS
 62
     5
 10
-155.7811450171757
 20
-142.78896640233961
 30
0.0
 40
102.3934272392944
 50
178.56579972406479
 51
256.59066046909783
  0
ARC
  8
DETAIL
  6
CONTINUOUS
 62
     5
 10
-146.68664786320011
 20
-142.54584196918401
 30
0.0
 40
105.1072055107373
 50
178.73540416910129
 51
251.79337519667149
  0
ARC
  8
DETAIL
  6
CONTINUOUS
 62
     5
 10
-158.42869480915761
 20
-142.8357989183078
 30
0.0
 40
70.723749168130652
 50
177.88536942925069
 51
252.64340993694799
  0
ARC
  8
DETAIL
  6
CONTINUOUS
 62
     5
 10
-244.8285110490051
 20
-7.3528644026182519
 30
0.0
 40
2.6636832864976592
 50
196.46838332681151
 51
267.46639426036222
  0
ARC
  8
DETAIL
  6
CONTINUOUS
 62
     5
 10
-266.73313199394943
 20
-12.47350787052528
 30
0.0
 40
19.83654487623626
 50
12.713433326741789
 51
28.518707579103769
  0
ARC
  8
DETAIL
  6
CONTINUOUS
 62
     5
 10
-244.57455386720719
 20
-8.263478677461535
 30
0.0
 40
6.2699128004271394
 50
197.8175045336464
 51
266.7689928472895
  0
ARC
  8
DETAIL
  6
CONTINUOUS
 62
     5
 10
-258.02261627301408
 20
-11.43632474280912
 30
0.0
 40
7.5833378678227117
 50
9.520895958354453
 51
56.560933884316327
  0
ARC
  8
DETAIL
  6
CONTINUOUS
 62
     5
 10
-294.27953023519512
 20
-8.409770622913129
 30
0.0
 40
6.1178243382903963
 50
195.2228769202238
 51
267.88438753397031
  0
ARC
  8
DETAIL
  6
CONTINUOUS
 62
     5
 10
-307.00606157416041
 20
-11.08413318923613
 30
0.0
 40
6.9064438884136017
 50
8.895629327386354
 51
59.912811811573157
  0
ARC
  8
DETAIL
  6
CONTINUOUS
 62
     5
 10
155.7811450171757
 20
-142.78896640233961
 30
0.0
 40
102.3934272392944
 50
283.40933953090217
 51
1.4342002759351531
  0
ARC
  8
DETAIL
  6
CONTINUOUS
 62
     5
 10
146.68664786320011
 20
-142.54584196918401
 30
0.0
 40
105.1072055107373
 50
288.20662480332828
 51
1.264595830898642
  0
ARC
  8
DETAIL
  6
CONTINUOUS
 62
     5
 10
158.42869480915761
 20
-142.8357989183078
 30
0.0
 40
70.723749168130652
 50
287.35659006305201
 51
2.1146305707489179
  0
ARC
  8
DETAIL
  6
CONTINUOUS
 62
     5
 10
244.8285110490051
 20
-7.3528644026182519
 30
0.0
 40
2.6636832864976592
 50
272.53360573963772
 51
343.53161667318852
  0
ARC
  8
DETAIL
  6
CONTINUOUS
 62
     5
 10
266.73313199394943
 20
-12.47350787052528
 30
0.0
 40
19.83654487623626
 50
151.48129242089621
 51
167.28656667325819
  0
ARC
  8
DETAIL
  6
CONTINUOUS
 62
     5
 10
244.57455386720719
 20
-8.263478677461535
 30
0.0
 40
6.2699128004271394
 50
273.23100715271062
 51
342.18249546635371
  0
ARC
  8
DETAIL
  6
CONTINUOUS
 62
     5
 10
258.02261627301408
 20
-11.43632474280912
 30
0.0
 40
7.5833378678227117
 50
123.4390661156837
 51
170.47910404164551
  0
ARC
  8
DETAIL
  6
CONTINUOUS
 62
     5
 10
294.27953023519512
 20
-8.409770622913129
 30
0.0
 40
6.1178243382903963
 50
272.11561246602969
 51
344.77712307977617
  0
ARC
  8
DETAIL
  6
CONTINUOUS
 62
     5
 10
307.00606157416041
 20
-11.08413318923613
 30
0.0
 40
6.9064438884136017
 50
120.08718818842679
 51
171.1043706726137
  0
LINE
  8
DETAIL
  6
CONTINUOUS
 62
     5
 10
-98.207292264238276
 20
-157.25055083698319
 30
0.0
 11
-97.714906700261054
 21
-157.25055083698319
 31
0.0
  0
LINE
  8
DETAIL
  6
CONTINUOUS
 62
     5
 10
-94.514841821503069
 20
-157.25055083698319
 30
0.0
 11
-93.704854752822939
 21
-157.25055083698319
 31
0.0
  0
LINE
  8
DETAIL
  6
CONTINUOUS
 62
     5
 10
-88.982767492343555
 20
-157.25055083698319
 30
0.0
 11
-87.870944394591788
 21
-157.25055083698319
 31
0.0
  0
LINE
  8
DETAIL
  6
CONTINUOUS
 62
     5
 10
-5.6575031725587914
 20
-156.57600986845591
 30
0.0
 11
-8.1515995233366993
 21
-156.5856077046501
 31
0.0
  0
LINE
  8
DETAIL
  6
CONTINUOUS
 62
     5
 10
-19.356374608658371
 20
-156.57600986845591
 30
0.0
 11
-21.81646731873116
 21
-156.68474204448279
 31
0.0
  0
LINE
  8
DETAIL
  6
CONTINUOUS
 62
     5
 10
-32.67849623105576
 20
-156.57600986845591
 30
0.0
 11
-35.02779544659461
 21
-156.57600986845591
 31
0.0
  0
LINE
  8
DETAIL
  6
CONTINUOUS
 62
     5
 10
-45.364568096203577
 20
-156.57600986845591
 30
0.0
 11
-47.57200065502002
 21
-156.57600986845591
 31
0.0
  0
LINE
  8
DETAIL
  6
CONTINUOUS
 62
     5
 10
-87.870944394591788
 20
-295.47965924905111
 30
0.0
 11
-74.687925919030022
 21
-303.8398634229743
 31
0.0
  0
LINE
  8
DETAIL
  6
CONTINUOUS
 62
     5
 10
-5.6575031725587914
 20
-296.15420021757922
 30
0.0
 11
-3.9743053953679919
 21
-303.85993552315989
 31
0.0
  0
LINE
  8
DETAIL
  6
CONTINUOUS
 62
     5
 10
-93.704854752822939
 20
-295.47965924905111
 30
0.0
 11
-79.803361588423286
 21
-303.8398634229743
 31
0.0
  0
LINE
  8
DETAIL
  6
CONTINUOUS
 62
     5
 10
-19.356374608658371
 20
-296.15420021757922
 30
0.0
 11
-15.843373726773279
 21
-303.85656648156868
 31
0.0
  0
LINE
  8
DETAIL
  6
CONTINUOUS
 62
     5
 10
-32.67849623105576
 20
-296.15420021757922
 30
0.0
 11
-27.40558061562842
 21
-303.85328454276618
 31
0.0
  0
LINE
  8
DETAIL
  6
CONTINUOUS
 62
     5
 10
-97.714906700261054
 20
-295.47965924905111
 30
0.0
 11
-83.365515600176877
 21
-303.8398634229743
 31
0.0
  0
LINE
  8
DETAIL
  6
CONTINUOUS
 62
     5
 10
-45.364568096203577
 20
-296.15420021757922
 30
0.0
 11
-38.435691016704368
 21
-303.8501536398453
 31
0.0
  0
LINE
  8
DETAIL
  6
CONTINUOUS
 62
     5
 10
-7.9706083016735647
 20
-303.85880117037601
 30
0.0
 11
-8.1514851279753202
 21
-296.15420021757922
 31
0.0
  0
LINE
  8
DETAIL
  6
CONTINUOUS
 62
     5
 10
-19.761517639602971
 20
-303.85545431425822
 30
0.0
 11
-21.80181404333052
 21
-296.15420021757922
 31
0.0
  0
LINE
  8
DETAIL
  6
CONTINUOUS
 62
     5
 10
-31.169335976946972
 20
-303.85221619873118
 30
0.0
 11
-35.02779544659461
 21
-296.15420021757922
 31
0.0
  0
LINE
  8
DETAIL
  6
CONTINUOUS
 62
     5
 10
-41.971852327651497
 20
-303.84914989850768
 30
0.0
 11
-47.57200065502002
 21
-296.15420021757922
 31
0.0
  0
LINE
  8
DETAIL
  6
CONTINUOUS
 62
     5
 10
-76.566803695857743
 20
-303.8398634229743
 30
0.0
 11
-88.982767492343555
 21
-295.47965924905111
 31
0.0
  0
LINE
  8
DETAIL
  6
CONTINUOUS
 62
     5
 10
-81.172164509174763
 20
-303.8398634229743
 30
0.0
 11
-94.514841821503069
 21
-295.47965924905111
 31
0.0
  0
LINE
  8
DETAIL
  6
CONTINUOUS
 62
     5
 10
-84.197601473490067
 20
-303.8398634229743
 30
0.0
 11
-98.207292264238276
 21
-295.47965924905111
 31
0.0
  0
LINE
  8
DETAIL
  6
CONTINUOUS
 62
     5
 10
-85.638126009693224
 20
-303.80858054689912
 30
0.0
 11
-99.920612241374329
 21
-295.47965924905111
 31
0.0
  0
LINE
  8
DETAIL
  6
CONTINUOUS
 62
     5
 10
-84.197601473490067
 20
-303.8398634229743
 30
0.0
 11
-83.365515600176877
 21
-303.8398634229743
 31
0.0
  0
LINE
  8
DETAIL
  6
CONTINUOUS
 62
     5
 10
-81.172164509174763
 20
-303.8398634229743
 30
0.0
 11
-79.803361588423286
 21
-303.8398634229743
 31
0.0
  0
LINE
  8
DETAIL
  6
CONTINUOUS
 62
     5
 10
-76.566803695857743
 20
-303.8398634229743
 30
0.0
 11
-74.687925919030022
 21
-303.8398634229743
 31
0.0
  0
LINE
  8
DETAIL
  6
CONTINUOUS
 62
     5
 10
-98.207292264238276
 20
-295.47965924905111
 30
0.0
 11
-97.714906700261054
 21
-295.47965924905111
 31
0.0
  0
LINE
  8
DETAIL
  6
CONTINUOUS
 62
     5
 10
-94.514841821503069
 20
-295.47965924905111
 30
0.0
 11
-93.704854752822939
 21
-295.47965924905111
 31
0.0
  0
LINE
  8
DETAIL
  6
CONTINUOUS
 62
     5
 10
-88.982767492343555
 20
-295.47965924905111
 30
0.0
 11
-87.870944394591788
 21
-295.47965924905111
 31
0.0
  0
LINE
  8
DETAIL
  6
CONTINUOUS
 62
     5
 10
-41.971852327651497
 20
-303.84914989850768
 30
0.0
 11
-38.435691016704368
 21
-303.8501536398453
 31
0.0
  0
LINE
  8
DETAIL
  6
CONTINUOUS
 62
     5
 10
-31.169335976946972
 20
-303.85221619873118
 30
0.0
 11
-27.40558061562842
 21
-303.85328454276618
 31
0.0
  0
LINE
  8
DETAIL
  6
CONTINUOUS
 62
     5
 10
-19.761517639602971
 20
-303.85545431425822
 30
0.0
 11
-15.843373726773279
 21
-303.85656648156868
 31
0.0
  0
LINE
  8
DETAIL
  6
CONTINUOUS
 62
     5
 10
-7.9706083016735647
 20
-303.85880117037601
 30
0.0
 11
-3.9743053953679919
 21
-303.85993552315989
 31
0.0
  0
LINE
  8
DETAIL
  6
CONTINUOUS
 62
     5
 10
-5.6575031725587914
 20
-296.15420021757922
 30
0.0
 11
-8.1515995233366993
 21
-296.14460238138508
 31
0.0
  0
LINE
  8
DETAIL
  6
CONTINUOUS
 62
     5
 10
-19.356374608658371
 20
-296.15420021757922
 30
0.0
 11
-21.81646731873116
 21
-296.04546804155223
 31
0.0
  0
LINE
  8
DETAIL
  6
CONTINUOUS
 62
     5
 10
-32.67849623105576
 20
-296.15420021757922
 30
0.0
 11
-35.02779544659461
 21
-296.15420021757922
 31
0.0
  0
LINE
  8
DETAIL
  6
CONTINUOUS
 62
     5
 10
-45.364568096203577
 20
-296.15420021757922
 30
0.0
 11
-47.57200065502002
 21
-296.15420021757922
 31
0.0
  0
LINE
  8
DETAIL
  6
CONTINUOUS
 62
     5
 10
4.2039970629048176
 20
-302.80839937360912
 30
0.0
 11
5.6575031725587914
 21
-296.15420014770012
 31
0.0
  0
LINE
  8
DETAIL
  6
CONTINUOUS
 62
     5
 10
8.1514851279753202
 20
-296.15420014770012
 30
0.0
 11
7.9952680253718427
 21
-302.80839937360912
 31
0.0
  0
LINE
  8
DETAIL
  6
CONTINUOUS
 62
     5
 10
79.923122940326721
 20
-158.70255384864319
 30
0.0
 11
68.751553562986373
 21
-158.70255384864319
 31
0.0
  0
LINE
  8
DETAIL
  6
CONTINUOUS
 62
     5
 10
54.611404897947068
 20
-294.02765616751282
 30
0.0
 11
65.782974274510707
 21
-294.02765616751282
 31
0.0
  0
LINE
  8
DETAIL
  6
CONTINUOUS
 62
     5
 10
87.870944394591788
 20
-295.47965924905111
 30
0.0
 11
74.687925919030022
 21
-303.8398634229743
 31
0.0
  0
LINE
  8
DETAIL
  6
CONTINUOUS
 62
     5
 10
5.6575031725587914
 20
-296.15420021757922
 30
0.0
 11
3.9743053953679919
 21
-303.85993552315989
 31
0.0
  0
LINE
  8
DETAIL
  6
CONTINUOUS
 62
     5
 10
93.704854752822939
 20
-295.47965924905111
 30
0.0
 11
79.803361588423286
 21
-303.8398634229743
 31
0.0
  0
LINE
  8
DETAIL
  6
CONTINUOUS
 62
     5
 10
19.356374608658371
 20
-296.15420021757922
 30
0.0
 11
15.843373726773279
 21
-303.85656648156868
 31
0.0
  0
LINE
  8
DETAIL
  6
CONTINUOUS
 62
     5
 10
32.67849623105576
 20
-296.15420021757922
 30
0.0
 11
27.40558061562842
 21
-303.85328454276618
 31
0.0
  0
LINE
  8
DETAIL
  6
CONTINUOUS
 62
     5
 10
97.714906700261054
 20
-295.47965924905111
 30
0.0
 11
83.365515600176877
 21
-303.8398634229743
 31
0.0
  0
LINE
  8
DETAIL
  6
CONTINUOUS
 62
     5
 10
45.364568096203577
 20
-296.15420021757922
 30
0.0
 11
38.435691016704368
 21
-303.8501536398453
 31
0.0
  0
LINE
  8
DETAIL
  6
CONTINUOUS
 62
     5
 10
7.9706083016735647
 20
-303.85880117037601
 30
0.0
 11
8.1514851279753202
 21
-296.15420021757922
 31
0.0
  0
LINE
  8
DETAIL
  6
CONTINUOUS
 62
     5
 10
19.761517639602971
 20
-303.85545431425822
 30
0.0
 11
21.80181404333052
 21
-296.15420021757922
 31
0.0
  0
LINE
  8
DETAIL
  6
CONTINUOUS
 62
     5
 10
31.169335976946972
 20
-303.85221619873118
 30
0.0
 11
35.02779544659461
 21
-296.15420021757922
 31
0.0
  0
LINE
  8
DETAIL
  6
CONTINUOUS
 62
     5
 10
41.971852327651497
 20
-303.84914989850768
 30
0.0
 11
47.57200065502002
 21
-296.15420021757922
 31
0.0
  0
LINE
  8
DETAIL
  6
CONTINUOUS
 62
     5
 10
76.566803695857743
 20
-303.8398634229743
 30
0.0
 11
88.982767492343555
 21
-295.47965924905111
 31
0.0
  0
LINE
  8
DETAIL
  6
CONTINUOUS
 62
     5
 10
81.172164509174763
 20
-303.8398634229743
 30
0.0
 11
94.514841821503069
 21
-295.47965924905111
 31
0.0
  0
LINE
  8
DETAIL
  6
CONTINUOUS
 62
     5
 10
84.197601473490067
 20
-303.8398634229743
 30
0.0
 11
98.207292264238276
 21
-295.47965924905111
 31
0.0
  0
LINE
  8
DETAIL
  6
CONTINUOUS
 62
     5
 10
85.638126009693224
 20
-303.80858054689912
 30
0.0
 11
99.920612241374329
 21
-295.47965924905111
 31
0.0
  0
LINE
  8
DETAIL
  6
CONTINUOUS
 62
     5
 10
84.197601473490067
 20
-303.8398634229743
 30
0.0
 11
83.365515600176877
 21
-303.8398634229743
 31
0.0
  0
LINE
  8
DETAIL
  6
CONTINUOUS
 62
     5
 10
81.172164509174763
 20
-303.8398634229743
 30
0.0
 11
79.803361588423286
 21
-303.8398634229743
 31
0.0
  0
LINE
  8
DETAIL
  6
CONTINUOUS
 62
     5
 10
76.566803695857743
 20
-303.8398634229743
 30
0.0
 11
74.687925919030022
 21
-303.8398634229743
 31
0.0
  0
LINE
  8
DETAIL
  6
CONTINUOUS
 62
     5
 10
98.207292264238276
 20
-295.47965924905111
 30
0.0
 11
97.714906700261054
 21
-295.47965924905111
 31
0.0
  0
LINE
  8
DETAIL
  6
CONTINUOUS
 62
     5
 10
94.514841821503069
 20
-295.47965924905111
 30
0.0
 11
93.704854752822939
 21
-295.47965924905111
 31
0.0
  0
LINE
  8
DETAIL
  6
CONTINUOUS
 62
     5
 10
88.982767492343555
 20
-295.47965924905111
 30
0.0
 11
87.870944394591788
 21
-295.47965924905111
 31
0.0
  0
LINE
  8
DETAIL
  6
CONTINUOUS
 62
     5
 10
41.971852327651497
 20
-303.84914989850768
 30
0.0
 11
38.435691016704368
 21
-303.8501536398453
 31
0.0
  0
LINE
  8
DETAIL
  6
CONTINUOUS
 62
     5
 10
31.169335976946972
 20
-303.85221619873118
 30
0.0
 11
27.40558061562842
 21
-303.85328454276618
 31
0.0
  0
LINE
  8
DETAIL
  6
CONTINUOUS
 62
     5
 10
19.761517639602971
 20
-303.85545431425822
 30
0.0
 11
15.843373726773279
 21
-303.85656648156868
 31
0.0
  0
LINE
  8
DETAIL
  6
CONTINUOUS
 62
     5
 10
7.9706083016735647
 20
-303.85880117037601
 30
0.0
 11
3.9743053953679919
 21
-303.85993552315989
 31
0.0
  0
LINE
  8
DETAIL
  6
CONTINUOUS
 62
     5
 10
5.6575031725587914
 20
-296.15420021757922
 30
0.0
 11
8.1515995233366993
 21
-296.14460238138508
 31
0.0
  0
LINE
  8
DETAIL
  6
CONTINUOUS
 62
     5
 10
19.356374608658371
 20
-296.15420021757922
 30
0.0
 11
21.81646731873116
 21
-296.04546804155223
 31
0.0
  0
LINE
  8
DETAIL
  6
CONTINUOUS
 62
     5
 10
32.67849623105576
 20
-296.15420021757922
 30
0.0
 11
35.02779544659461
 21
-296.15420021757922
 31
0.0
  0
LINE
  8
DETAIL
  6
CONTINUOUS
 62
     5
 10
45.364568096203577
 20
-296.15420021757922
 30
0.0
 11
47.57200065502002
 21
-296.15420021757922
 31
0.0
  0
LINE
  8
DETAIL
  6
CONTINUOUS
 62
     5
 10
87.870944394591788
 20
-157.25055083698319
 30
0.0
 11
84.716957509124541
 21
-155.25040387722109
 31
0.0
  0
LINE
  8
DETAIL
  6
CONTINUOUS
 62
     5
 10
5.6575031725587914
 20
-156.57600986845591
 30
0.0
 11
5.3679452044489153
 21
-155.25040387722109
 31
0.0
  0
LINE
  8
DETAIL
  6
CONTINUOUS
 62
     5
 10
93.704854752822939
 20
-157.25055083698319
 30
0.0
 11
90.378975538574196
 21
-155.25040387722109
 31
0.0
  0
LINE
  8
DETAIL
  6
CONTINUOUS
 62
     5
 10
19.356374608658371
 20
-156.57600986845591
 30
0.0
 11
18.751774040906639
 21
-155.25040387722109
 31
0.0
  0
LINE
  8
DETAIL
  6
CONTINUOUS
 62
     5
 10
32.67849623105576
 20
-156.57600986845591
 30
0.0
 11
31.77062092590813
 21
-155.25040387722109
 31
0.0
  0
LINE
  8
DETAIL
  6
CONTINUOUS
 62
     5
 10
97.714906700261054
 20
-157.25055083698319
 30
0.0
 11
94.281869613344725
 21
-155.25040387722109
 31
0.0
  0
LINE
  8
DETAIL
  6
CONTINUOUS
 62
     5
 10
45.364568096203577
 20
-156.57600986845591
 30
0.0
 11
44.171088813631741
 21
-155.25040387722109
 31
0.0
  0
LINE
  8
DETAIL
  6
CONTINUOUS
 62
     5
 10
8.1203645798650541
 20
-155.25040387722109
 30
0.0
 11
8.1514851279753202
 21
-156.57600986845591
 31
0.0
  0
LINE
  8
DETAIL
  6
CONTINUOUS
 62
     5
 10
21.450620704853009
 20
-155.25040387722109
 30
0.0
 11
21.80181404333052
 21
-156.57600986845591
 31
0.0
  0
LINE
  8
DETAIL
  6
CONTINUOUS
 62
     5
 10
34.363364896901658
 20
-155.25040387722109
 30
0.0
 11
35.02779544659461
 21
-156.57600986845591
 31
0.0
  0
LINE
  8
DETAIL
  6
CONTINUOUS
 62
     5
 10
46.607265278911882
 20
-155.25040387722109
 30
0.0
 11
47.57200065502002
 21
-156.57600986845591
 31
0.0
  0
LINE
  8
DETAIL
  6
CONTINUOUS
 62
     5
 10
86.01229551302049
 20
-155.25040387722109
 30
0.0
 11
88.982767492343555
 21
-157.25055083698319
 31
0.0
  0
LINE
  8
DETAIL
  6
CONTINUOUS
 62
     5
 10
91.323194299482566
 20
-155.25039902909131
 30
0.0
 11
94.514841821503069
 21
-157.25055083698319
 31
0.0
  0
LINE
  8
DETAIL
  6
CONTINUOUS
 62
     5
 10
94.855527180590343
 20
-155.25040387722109
 30
0.0
 11
98.207292264238276
 21
-157.25055083698319
 31
0.0
  0
LINE
  8
DETAIL
  6
CONTINUOUS
 62
     5
 10
96.350258410814831
 20
-155.2503988132396
 30
0.0
 11
99.920612241374329
 21
-157.25055083698319
 31
0.0
  0
LINE
  8
DETAIL
  6
CONTINUOUS
 62
     5
 10
98.207292264238276
 20
-157.25055083698319
 30
0.0
 11
97.714906700261054
 21
-157.25055083698319
 31
0.0
  0
LINE
  8
DETAIL
  6
CONTINUOUS
 62
     5
 10
94.514841821503069
 20
-157.25055083698319
 30
0.0
 11
93.704854752822939
 21
-157.25055083698319
 31
0.0
  0
LINE
  8
DETAIL
  6
CONTINUOUS
 62
     5
 10
88.982767492343555
 20
-157.25055083698319
 30
0.0
 11
87.870944394591788
 21
-157.25055083698319
 31
0.0
  0
LINE
  8
DETAIL
  6
CONTINUOUS
 62
     5
 10
5.6575031725587914
 20
-156.57600986845591
 30
0.0
 11
8.1515995233366993
 21
-156.5856077046501
 31
0.0
  0
LINE
  8
DETAIL
  6
CONTINUOUS
 62
     5
 10
19.356374608658371
 20
-156.57600986845591
 30
0.0
 11
21.81646731873116
 21
-156.68474204448279
 31
0.0
  0
LINE
  8
DETAIL
  6
CONTINUOUS
 62
     5
 10
32.67849623105576
 20
-156.57600986845591
 30
0.0
 11
35.02779544659461
 21
-156.57600986845591
 31
0.0
  0
LINE
  8
DETAIL
  6
CONTINUOUS
 62
     5
 10
45.364568096203577
 20
-156.57600986845591
 30
0.0
 11
47.57200065502002
 21
-156.57600986845591
 31
0.0
  0
ARC
  8
DETAIL
  6
CONTINUOUS
 62
     5
 10
-288.31793448191343
 20
-42.582636618604681
 30
0.0
 40
22.673140255335859
 50
27.313806893449499
 51
84.033747418609678
  0
ARC
  8
DETAIL
  6
CONTINUOUS
 62
     5
 10
-333.29562003296002
 20
-71.34989250225982
 30
0.0
 40
75.995874369389853
 50
8.5396328488580249
 51
31.026713911518168
  0
ARC
  8
DETAIL
  6
CONTINUOUS
 62
     5
 10
288.31793448191371
 20
-42.582636618604681
 30
0.0
 40
22.673140255335859
 50
95.966252581390322
 51
152.68619310655049
  0
ARC
  8
DETAIL
  6
CONTINUOUS
 62
     5
 10
333.29562003296002
 20
-71.34989250225982
 30
0.0
 40
75.995874369389853
 50
148.9732860884819
 51
171.46036715114201
  0
LINE
  8
OUTLINE
  6
CONTINUOUS
 62
     3
 10
85.638126009693224
 20
-309.49919224555742
 30
0.0
 11
85.638126009693224
 21
-303.83986335387181
 31
0.0
  0
LINE
  8
OUTLINE
  6
CONTINUOUS
 62
     3
 10
-85.638126009693224
 20
-309.49919224555742
 30
0.0
 11
-85.638126009693224
 21
-303.83986335387181
 31
0.0
  0
ARC
  8
OUTLINE
  6
CONTINUOUS
 62
     3
 10
-155.7811450171757
 20
-142.78896640233961
 30
0.0
 40
102.3934272392944
 50
178.56579972406479
 51
256.59066046909783
  0
ARC
  8
OUTLINE
  6
CONTINUOUS
 62
     3
 10
-294.27953023519512
 20
-8.409770622913129
 30
0.0
 40
6.1178243382903963
 50
195.2228769202238
 51
267.88438753397031
  0
ARC
  8
OUTLINE
  6
CONTINUOUS
 62
     3
 10
155.7811450171757
 20
-142.78896640233961
 30
0.0
 40
102.3934272392944
 50
283.40933953090217
 51
1.4342002759351531
  0
ARC
  8
OUTLINE
  6
CONTINUOUS
 62
     3
 10
294.27953023519512
 20
-8.409770622913129
 30
0.0
 40
6.1178243382903963
 50
272.11561246602969
 51
344.77712307977617
  0
LINE
  8
OUTLINE
  6
CONTINUOUS
 62
     3
 10
-85.638126009693224
 20
-303.80858054689912
 30
0.0
 11
-99.920612241374329
 21
-295.47965924905111
 31
0.0
  0
LINE
  8
OUTLINE
  6
CONTINUOUS
 62
     3
 10
85.638126009693224
 20
-303.80858054689912
 30
0.0
 11
99.920612241374329
 21
-295.47965924905111
 31
0.0
  0
ENDSEC
  0
EOF
