  0
SECTION
  2
HEADER
  9
$ACADVER
  1
AC1009
  9
$DWGCODEPAGE
  3
dos932
  9
$INSBASE
 10
0.0
 20
0.0
 30
0.0
  9
$EXTMIN
 10
-635.36680474105196
 20
-459.18272756876291
 30
-0.0000000349181948
  9
$EXTMAX
 10
932.20368577423869
 20
558.83789860973775
 30
0.0000000814935746
  9
$LIMMIN
 10
-2970.0
 20
-2100.0
  9
$LIMMAX
 10
2970.0
 20
2100.0
  9
$ORTHOMODE
 70
     1
  9
$REGENMODE
 70
     1
  9
$FILLMODE
 70
     1
  9
$QTEXTMODE
 70
     0
  9
$MIRRTEXT
 70
     0
  9
$LTSCALE
 40
20.0
  9
$ATTMODE
 70
     1
  9
$TEXTSIZE
 40
64.0
  9
$TRACEWID
 40
0.05
  9
$TEXTSTYLE
  7
STANDARD
  9
$CLAYER
  8
SIZE
  9
$CELTYPE
  6
CONTINUOUS
  9
$CECOLOR
 62
     7
  9
$DIMSCALE
 40
1.0
  9
$DIMASZ
 40
12.0
  9
$DIMEXO
 40
20.0
  9
$DIMDLI
 40
200.0
  9
$DIMRND
 40
0.0
  9
$DIMDLE
 40
0.0
  9
$DIMEXE
 40
20.0
  9
$DIMTP
 40
0.0
  9
$DIMTM
 40
0.0
  9
$DIMTXT
 40
64.0
  9
$DIMCEN
 40
0.09
  9
$DIMTSZ
 40
0.0
  9
$DIMTOL
 70
     0
  9
$DIMLIM
 70
     0
  9
$DIMTIH
 70
     0
  9
$DIMTOH
 70
     0
  9
$DIMSE1
 70
     0
  9
$DIMSE2
 70
     0
  9
$DIMTAD
 70
     1
  9
$DIMZIN
 70
     8
  9
$DIMBLK
  1

  9
$DIMASO
 70
     1
  9
$DIMSHO
 70
     0
  9
$DIMPOST
  1

  9
$DIMAPOST
  1

  9
$DIMALT
 70
     0
  9
$DIMALTD
 70
     2
  9
$DIMALTF
 40
25.399999999999999
  9
$DIMLFAC
 40
1.0
  9
$DIMTOFL
 70
     1
  9
$DIMTVP
 40
0.0
  9
$DIMTIX
 70
     1
  9
$DIMSOXD
 70
     0
  9
$DIMSAH
 70
     0
  9
$DIMBLK1
  1

  9
$DIMBLK2
  1

  9
$DIMSTYLE
  2
STANDARD
  9
$DIMCLRD
 70
     7
  9
$DIMCLRE
 70
     7
  9
$DIMCLRT
 70
     7
  9
$DIMTFAC
 40
1.0
  9
$DIMGAP
 40
25.0
  9
$LUNITS
 70
     2
  9
$LUPREC
 70
     4
  9
$SKETCHINC
 40
0.1
  9
$FILLETRAD
 40
3.0
  9
$AUNITS
 70
     1
  9
$AUPREC
 70
     3
  9
$MENU
  1
ACAD
  9
$ELEVATION
 40
0.0
  9
$PELEVATION
 40
0.0
  9
$THICKNESS
 40
0.0
  9
$LIMCHECK
 70
     0
  9
$CHAMFERA
 40
0.0
  9
$CHAMFERB
 40
0.0
  9
$SKPOLY
 70
     0
  9
$TDCREATE
 40
2453019.62301037
  9
$TDUPDATE
 40
2458949.622010544
  9
$TDINDWG
 40
1.7129442245
  9
$TDUSRTIMER
 40
1.7129442245
  9
$USRTIMER
 70
     1
  9
$ANGBASE
 50
0.0
  9
$ANGDIR
 70
     0
  9
$PDMODE
 70
     3
  9
$PDSIZE
 40
-2.0
  9
$PLINEWID
 40
0.0
  9
$SPLFRAME
 70
     0
  9
$SPLINETYPE
 70
     6
  9
$SPLINESEGS
 70
     8
  9
$SURFTAB1
 70
     6
  9
$SURFTAB2
 70
     6
  9
$SURFTYPE
 70
     6
  9
$SURFU
 70
     6
  9
$SURFV
 70
     6
  9
$UCSNAME
  2

  9
$UCSORG
 10
0.0
 20
0.0
 30
0.0
  9
$UCSXDIR
 10
1.0
 20
0.0
 30
0.0
  9
$UCSYDIR
 10
0.0
 20
1.0
 30
0.0
  9
$PUCSNAME
  2

  9
$PUCSORG
 10
0.0
 20
0.0
 30
0.0
  9
$PUCSXDIR
 10
1.0
 20
0.0
 30
0.0
  9
$PUCSYDIR
 10
0.0
 20
1.0
 30
0.0
  9
$USERI1
 70
     0
  9
$USERI2
 70
     0
  9
$USERI3
 70
     0
  9
$USERI4
 70
     0
  9
$USERI5
 70
     0
  9
$USERR1
 40
20.0
  9
$USERR2
 40
0.0
  9
$USERR3
 40
0.0
  9
$USERR4
 40
0.0
  9
$USERR5
 40
0.0
  9
$WORLDVIEW
 70
     1
  9
$SHADEDGE
 70
     3
  9
$SHADEDIF
 70
    70
  9
$TILEMODE
 70
     1
  9
$MAXACTVP
 70
    48
  9
$PINSBASE
 10
0.0
 20
0.0
 30
0.0
  9
$PLIMCHECK
 70
     0
  9
$PEXTMIN
 10
-100000000000000000000.0
 20
-100000000000000000000.0
 30
-100000000000000000000.0
  9
$PEXTMAX
 10
100000000000000000000.0
 20
100000000000000000000.0
 30
100000000000000000000.0
  9
$PLIMMIN
 10
0.0
 20
0.0
  9
$PLIMMAX
 10
12.0
 20
9.0
  9
$UNITMODE
 70
     0
  9
$VISRETAIN
 70
     0
  9
$PLINEGEN
 70
     0
  9
$PSLTSCALE
 70
     0
  9
$TREEDEPTH
 70
  3020
  9
$ATTDIA
 70
     0
  9
$ATTREQ
 70
     1
  9
$BLIPMODE
 70
     1
  9
$COORDS
 70
     1
  9
$DRAGMODE
 70
     2
  9
$OSMODE
 70
     0
  9
$HANDLING
 70
     0
  9
$HANDSEED
  5
EEFB
  0
ENDSEC
  0
SECTION
  2
TABLES
  0
TABLE
  2
LTYPE
 70
     2
  0
LTYPE
  2
CONTINUOUS
 70
     0
  3
実線
 72
    65
 73
     0
 40
0.0
  0
LTYPE
  2
DASHDOT
 70
     0
  3
____ _ ____ _ ____ _ ____ _ ____ _ ____ _ ____
 72
    65
 73
     4
 40
5.5
 49
4.0
 49
-0.6
 49
0.3
 49
-0.6
  0
ENDTAB
  0
TABLE
  2
LAYER
 70
    12
  0
LAYER
  2
0
 70
     0
 62
     7
  6
CONTINUOUS
  0
LAYER
  2
BASIS
 70
     0
 62
     6
  6
DASHDOT
  0
LAYER
  2
OUTLINE
 70
     0
 62
     3
  6
CONTINUOUS
  0
LAYER
  2
DETAIL
 70
     0
 62
     5
  6
CONTINUOUS
  0
LAYER
  2
SIZE
 70
     0
 62
    30
  6
CONTINUOUS
  0
LAYER
  2
ARRANGE
 70
     0
 62
     1
  6
CONTINUOUS
  0
LAYER
  2
DEFPOINTS
 70
     0
 62
     7
  6
CONTINUOUS
  0
LAYER
  2
ETC
 70
     0
 62
    61
  6
CONTINUOUS
  0
LAYER
  2
FIX
 70
     0
 62
    11
  6
CONTINUOUS
  0
LAYER
  2
NOTE
 70
     0
 62
     4
  6
CONTINUOUS
  0
LAYER
  2
SERVICESPACE
 70
    64
 62
     2
  6
DASHDOT
  0
LAYER
  2
SYMBOLLINE
 70
    64
 62
    15
  6
CONTINUOUS
  0
ENDTAB
  0
TABLE
  2
STYLE
 70
     1
  0
STYLE
  2
STANDARD
 70
     0
 40
64.0
 41
0.9
 50
0.0
 71
     0
 42
64.0
  3
SIMPLEX.shx
  4
BIGFONT.shx
  0
ENDTAB
  0
TABLE
  2
APPID
 70
    19
  0
APPID
  2
ACAD
 70
     0
  0
APPID
  2
AUTOCAD_POSTSCRIPT_FIGURE
 70
     0
  0
APPID
  2
ACAD_EXEMPT_FROM_CAD_STANDARDS
 70
     0
  0
APPID
  2
ACAD_PSEXT
 70
     0
  0
APPID
  2
ACAUTHENVIRON
 70
     0
  0
APPID
  2
GENIUS_GENOENT_13
 70
     0
  0
APPID
  2
GENIUS_GENCFG_13
 70
     0
  0
APPID
  2
GENIUS_GENCFG0_13
 70
     0
  0
APPID
  2
GENIUS_GENCFG1_13
 70
     0
  0
APPID
  2
GENIUS_GENCFG2_13
 70
     0
  0
APPID
  2
GENIUS_GENCFG3_13
 70
     0
  0
APPID
  2
GENIUS_GENCFG4_13
 70
     0
  0
APPID
  2
GENIUS_GEVCFG0_13
 70
     0
  0
APPID
  2
CONTENTBLOCKICON
 70
     0
  0
APPID
  2
CONTENTBLOCKDESCRIPTION
 70
     0
  0
APPID
  2
ACAD_NAV_VCDISPLAY
 70
     0
  0
APPID
  2
ACAD_MLEADERVER
 70
     0
  0
APPID
  2
ACDBDYNAMICBLOCKTRUENAME
 70
     0
  0
APPID
  2
ACDBDYNAMICBLOCKGUID
 70
     0
  0
ENDTAB
  0
TABLE
  2
DIMSTYLE
 70
     1
  0
DIMSTYLE
  2
STANDARD
 70
     0
  3

  4

  5
_ORIGIN
  6

  7

 40
1.0
 41
12.0
 42
20.0
 43
200.0
 44
20.0
 45
0.0
 46
0.0
 47
0.0
 48
0.0
140
64.0
141
0.09
142
0.0
143
25.399999999999999
144
1.0
145
0.0
146
1.0
147
25.0
 71
     0
 72
     0
 73
     0
 74
     0
 75
     0
 76
     0
 77
     1
 78
     8
170
     0
171
     2
172
     1
173
     0
174
     1
175
     0
176
     7
177
     7
178
     7
  0
ENDTAB
  0
TABLE
  2
VIEW
 70
     1
  0
VIEW
  2
ALL
 70
     0
 40
4282.6198079999986
 10
0.0
 20
41.309904000000003
 41
5940.0
 11
0.0
 21
0.0
 31
1.0
 12
0.0
 22
0.0
 32
0.0
 42
50.0
 43
0.0
 44
0.0
 50
0.0
 71
     0
  0
ENDTAB
  0
TABLE
  2
UCS
 70
     0
  0
ENDTAB
  0
TABLE
  2
VPORT
 70
     1
  0
VPORT
  2
*ACTIVE
 70
     0
 10
0.0
 20
0.0
 11
1.0
 21
1.0
 12
148.41844051659331
 22
49.827585520487503
 13
0.0
 23
0.0
 14
1.0
 24
1.0
 15
0.0
 25
0.0
 16
0.0
 26
0.0
 36
1.0
 17
0.0
 27
0.0
 37
0.0
 40
1024.7699341973639
 41
1.747787610619469
 42
50.0
 43
0.0
 44
0.0
 50
0.0
 51
0.0
 71
     0
 72
  1000
 73
     1
 74
     3
 75
     0
 76
     0
 77
     0
 78
     0
  0
ENDTAB
  0
ENDSEC
  0
SECTION
  2
BLOCKS
  0
BLOCK
  8
0
  2
_ORIGIN
 70
     0
 10
0.0
 20
0.0
 30
0.0
  3
_ORIGIN
  1
_ORIGIN
  0
CIRCLE
  8
0
  6
CONTINUOUS
 62
     7
 10
0.0
 20
0.0
 30
0.0
 40
0.5
  0
LINE
  8
0
  6
CONTINUOUS
 62
     7
 10
0.0
 20
0.0
 30
0.0
 11
-1.0
 21
0.0
 31
0.0
  0
ENDBLK
  8
0
  0
ENDSEC
  0
SECTION
  2
ENTITIES
  0
CIRCLE
  8
ARRANGE
  6
CONTINUOUS
 62
     1
 10
0.0
 20
0.0
 30
0.0
 40
39.999999999999993
  0
POINT
  8
ARRANGE
  6
CONTINUOUS
 62
     1
 10
0.0000000000015916
 20
0.0
 30
0.0
 50
359.99829045418988
  0
TEXT
  8
ETC
  6
CONTINUOUS
 62
    61
 10
344.87539504366401
 20
494.56101113953292
 30
0.0
 40
64.0
  1
EWF-50FTA2_1
 41
0.9
  0
TEXT
  8
ETC
  6
CONTINUOUS
 62
    61
 10
340.68940104366362
 20
376.60570112470168
 30
0.0
 40
64.0
  1
産業扇
 41
0.9
  0
LINE
  8
SIZE
  6
CONTINUOUS
 62
    30
 10
-309.99999999999977
 20
18.497576736672041
 30
0.0
 11
-309.99999999999977
 21
264.96668498765212
 31
0.0
  0
LINE
  8
SIZE
  6
CONTINUOUS
 62
    30
 10
310.0
 20
18.497576736672041
 30
0.0
 11
310.0
 21
264.96668498765212
 31
0.0
  0
LINE
  8
SIZE
  6
CONTINUOUS
 62
    30
 10
-297.99999999999977
 20
244.9666849876522
 30
0.0
 11
298.0
 21
244.9666849876522
 31
0.0
  0
CIRCLE
  8
SIZE
  6
CONTINUOUS
 62
    30
 10
-309.99999999999977
 20
244.9666849876522
 30
0.0
 40
6.0
  0
LINE
  8
SIZE
  6
CONTINUOUS
 62
    30
 10
-309.99999999999977
 20
244.9666849876522
 30
0.0
 11
-297.99999999999977
 21
244.9666849876522
 31
0.0
  0
CIRCLE
  8
SIZE
  6
CONTINUOUS
 62
    30
 10
310.0
 20
244.9666849876522
 30
0.0
 40
6.0
  0
LINE
  8
SIZE
  6
CONTINUOUS
 62
    30
 10
310.0
 20
244.9666849876522
 30
0.0
 11
298.0
 21
244.9666849876522
 31
0.0
  0
TEXT
  8
SIZE
  6
CONTINUOUS
 62
    30
 10
-74.834492931621895
 20
269.96668498765212
 30
0.0
 40
64.0
  1
620
 41
0.9
 72
     1
 11
-0.7773500744790454
 21
269.96668498765212
 31
0.0
  0
POINT
  8
DEFPOINTS
  6
CONTINUOUS
 62
    30
 10
-309.99999999999977
 20
-1.5024232633279551
 30
0.0
  0
POINT
  8
DEFPOINTS
  6
CONTINUOUS
 62
    30
 10
310.0
 20
-1.5024232633279551
 30
0.0
  0
POINT
  8
DEFPOINTS
  6
CONTINUOUS
 62
    30
 10
310.0
 20
244.9666849876522
 30
0.0
  0
LINE
  8
SIZE
  6
CONTINUOUS
 62
    30
 10
-281.22969256213418
 20
44.796828318904552
 30
0.0
 11
-281.22969256213418
 21
151.39419561661629
 31
0.0
  0
LINE
  8
SIZE
  6
CONTINUOUS
 62
    30
 10
279.67499241363288
 20
44.796828318904197
 30
0.0
 11
279.67499241363288
 21
151.39419561661629
 31
0.0
  0
LINE
  8
SIZE
  6
CONTINUOUS
 62
    30
 10
-269.22969256213418
 20
131.39419561661629
 30
0.0
 11
267.67499241363288
 21
131.39419561661629
 31
0.0
  0
CIRCLE
  8
SIZE
  6
CONTINUOUS
 62
    30
 10
-281.22969256213418
 20
131.39419561661629
 30
0.0
 40
6.0
  0
LINE
  8
SIZE
  6
CONTINUOUS
 62
    30
 10
-281.22969256213418
 20
131.39419561661629
 30
0.0
 11
-269.22969256213418
 21
131.39419561661629
 31
0.0
  0
CIRCLE
  8
SIZE
  6
CONTINUOUS
 62
    30
 10
279.67499241363288
 20
131.39419561661629
 30
0.0
 40
6.0
  0
LINE
  8
SIZE
  6
CONTINUOUS
 62
    30
 10
279.67499241363288
 20
131.39419561661629
 30
0.0
 11
267.67499241363288
 21
131.39419561661629
 31
0.0
  0
TEXT
  8
SIZE
  6
CONTINUOUS
 62
    30
 10
-74.834492931393612
 20
156.39419561661629
 30
0.0
 40
64.0
  1
560
 41
0.9
 72
     1
 11
-0.7773500742507622
 21
156.39419561661629
 31
0.0
  0
POINT
  8
DEFPOINTS
  6
CONTINUOUS
 62
    30
 10
-281.22969256213418
 20
24.796828318904549
 30
0.0
  0
POINT
  8
DEFPOINTS
  6
CONTINUOUS
 62
    30
 10
279.67499241363288
 20
24.79682831890409
 30
0.0
  0
POINT
  8
DEFPOINTS
  6
CONTINUOUS
 62
    30
 10
279.67499241363288
 20
131.39419561661629
 30
0.0
  0
CIRCLE
  8
FIX
  6
CONTINUOUS
 62
    11
 10
-281.22969256213418
 20
0.0
 30
0.0
 40
7.0
  0
CIRCLE
  8
FIX
  6
CONTINUOUS
 62
    11
 10
279.67499241363288
 20
0.0
 30
0.0
 40
7.0
  0
LINE
  8
SIZE
  6
CONTINUOUS
 62
    30
 10
327.72022666242128
 20
0.0
 30
0.0
 11
458.87747230986042
 21
0.0
 31
0.0
  0
LINE
  8
SIZE
  6
CONTINUOUS
 62
    30
 10
322.6119875671061
 20
-10.016155088853001
 30
0.0
 11
458.87747230986042
 21
-10.016155088853109
 31
0.0
  0
LINE
  8
SIZE
  6
CONTINUOUS
 62
    30
 10
438.87747230986042
 20
-22.016155088853111
 30
0.0
 11
438.87747230986042
 21
-34.016155088853111
 31
0.0
  0
LINE
  8
SIZE
  6
CONTINUOUS
 62
    30
 10
438.87747230986042
 20
12.0
 30
0.0
 11
438.87747230986042
 21
156.28571428571431
 31
0.0
  0
LINE
  8
SIZE
  6
CONTINUOUS
 62
    30
 10
438.87747230986042
 20
-10.016155088853109
 30
0.0
 11
438.87747230986042
 21
0.0
 31
0.0
  0
CIRCLE
  8
SIZE
  6
CONTINUOUS
 62
    30
 10
438.87747230986042
 20
-10.016155088853109
 30
0.0
 40
6.0
  0
LINE
  8
SIZE
  6
CONTINUOUS
 62
    30
 10
438.87747230986042
 20
-10.016155088853109
 30
0.0
 11
438.87747230986042
 21
-22.016155088853111
 31
0.0
  0
CIRCLE
  8
SIZE
  6
CONTINUOUS
 62
    30
 10
438.87747230986042
 20
0.0
 30
0.0
 40
6.0
  0
LINE
  8
SIZE
  6
CONTINUOUS
 62
    30
 10
438.87747230986042
 20
0.0
 30
0.0
 11
438.87747230986042
 21
12.0
 31
0.0
  0
TEXT
  8
SIZE
  6
CONTINUOUS
 62
    30
 10
413.87747230986042
 20
49.000000000000092
 30
0.0
 40
64.0
  1
10
 50
90.0
 41
0.9
 72
     1
 11
413.87747230986042
 21
90.142857142857224
 31
0.0
  0
POINT
  8
DEFPOINTS
  6
CONTINUOUS
 62
    30
 10
307.72022666242128
 20
0.0
 30
0.0
  0
POINT
  8
DEFPOINTS
  6
CONTINUOUS
 62
    30
 10
302.6119875671061
 20
-10.016155088853001
 30
0.0
  0
POINT
  8
DEFPOINTS
  6
CONTINUOUS
 62
    30
 10
438.87747230986042
 20
-10.016155088853109
 30
0.0
  0
LINE
  8
SIZE
  6
CONTINUOUS
 62
    30
 10
322.6119875671061
 20
-10.016155088853001
 30
0.0
 11
458.87747230986042
 21
-10.016155088853109
 31
0.0
  0
LINE
  8
SIZE
  6
CONTINUOUS
 62
    30
 10
312.59583247825321
 20
-20.032310177706339
 30
0.0
 11
458.87747230986042
 21
-20.032310177706339
 31
0.0
  0
LINE
  8
SIZE
  6
CONTINUOUS
 62
    30
 10
438.87747230986042
 20
1.983844911146889
 30
0.0
 11
438.87747230986042
 21
13.983844911146891
 31
0.0
  0
LINE
  8
SIZE
  6
CONTINUOUS
 62
    30
 10
438.87747230986042
 20
-32.032310177706343
 30
0.0
 11
438.87747230986042
 21
-257.26694449511132
 31
0.0
  0
LINE
  8
SIZE
  6
CONTINUOUS
 62
    30
 10
438.87747230986042
 20
-10.016155088853109
 30
0.0
 11
438.87747230986042
 21
-20.032310177706339
 31
0.0
  0
CIRCLE
  8
SIZE
  6
CONTINUOUS
 62
    30
 10
438.87747230986042
 20
-10.016155088853109
 30
0.0
 40
6.0
  0
LINE
  8
SIZE
  6
CONTINUOUS
 62
    30
 10
438.87747230986042
 20
-10.016155088853109
 30
0.0
 11
438.87747230986042
 21
1.983844911146889
 31
0.0
  0
CIRCLE
  8
SIZE
  6
CONTINUOUS
 62
    30
 10
438.87747230986042
 20
-20.032310177706339
 30
0.0
 40
6.0
  0
LINE
  8
SIZE
  6
CONTINUOUS
 62
    30
 10
438.87747230986042
 20
-20.032310177706339
 30
0.0
 11
438.87747230986042
 21
-32.032310177706343
 31
0.0
  0
TEXT
  8
SIZE
  6
CONTINUOUS
 62
    30
 10
413.87747230986042
 20
-232.2669444951112
 30
0.0
 40
64.0
  1
10
 50
90.0
 41
0.9
 72
     1
 11
413.87747230986042
 21
-191.12408735225409
 31
0.0
  0
POINT
  8
DEFPOINTS
  6
CONTINUOUS
 62
    30
 10
302.6119875671061
 20
-10.016155088853001
 30
0.0
  0
POINT
  8
DEFPOINTS
  6
CONTINUOUS
 62
    30
 10
292.59583247825321
 20
-20.032310177706339
 30
0.0
  0
POINT
  8
DEFPOINTS
  6
CONTINUOUS
 62
    30
 10
438.87747230986042
 20
-20.032310177706339
 30
0.0
  0
LINE
  8
SIZE
  6
CONTINUOUS
 62
    30
 10
327.72022666242128
 20
0.0
 30
0.0
 11
600.4362798262091
 21
0.0
 31
0.0
  0
LINE
  8
SIZE
  6
CONTINUOUS
 62
    30
 10
313.45581583198691
 20
-84.452730188701366
 30
0.0
 11
600.4362798262091
 21
-84.452730188701423
 31
0.0
  0
LINE
  8
SIZE
  6
CONTINUOUS
 62
    30
 10
580.4362798262091
 20
-12.0
 30
0.0
 11
580.4362798262091
 21
-72.452730188701423
 31
0.0
  0
LINE
  8
SIZE
  6
CONTINUOUS
 62
    30
 10
580.4362798262091
 20
-84.452730188701423
 30
0.0
 11
580.4362798262091
 21
-272.32282483267983
 31
0.0
  0
CIRCLE
  8
SIZE
  6
CONTINUOUS
 62
    30
 10
580.4362798262091
 20
0.0
 30
0.0
 40
6.0
  0
LINE
  8
SIZE
  6
CONTINUOUS
 62
    30
 10
580.4362798262091
 20
0.0
 30
0.0
 11
580.4362798262091
 21
-12.0
 31
0.0
  0
CIRCLE
  8
SIZE
  6
CONTINUOUS
 62
    30
 10
580.4362798262091
 20
-84.452730188701423
 30
0.0
 40
6.0
  0
LINE
  8
SIZE
  6
CONTINUOUS
 62
    30
 10
580.4362798262091
 20
-84.452730188701423
 30
0.0
 11
580.4362798262091
 21
-72.452730188701423
 31
0.0
  0
TEXT
  8
SIZE
  6
CONTINUOUS
 62
    30
 10
555.4362798262091
 20
-247.32282483267969
 30
0.0
 40
64.0
  1
84
 50
90.0
 41
0.9
 72
     1
 11
555.4362798262091
 21
-199.32282483267969
 31
0.0
  0
POINT
  8
DEFPOINTS
  6
CONTINUOUS
 62
    30
 10
307.72022666242128
 20
0.0
 30
0.0
  0
POINT
  8
DEFPOINTS
  6
CONTINUOUS
 62
    30
 10
293.45581583198691
 20
-84.452730188701366
 30
0.0
  0
POINT
  8
DEFPOINTS
  6
CONTINUOUS
 62
    30
 10
580.4362798262091
 20
-84.452730188701423
 30
0.0
  0
TEXT
  8
NOTE
  6
CONTINUOUS
 62
     4
 10
-628.01975295431339
 20
89.566182407517999
 30
0.0
 40
64.0
  1
4-φ14
 41
0.9
  0
LINE
  8
SIZE
  6
CONTINUOUS
 62
    30
 10
-328.01960185989128
 20
0.0
 30
0.0
 11
-384.5966677755473
 21
0.0
 31
0.0
  0
LINE
  8
SIZE
  6
CONTINUOUS
 62
    30
 10
-20.00000000001819
 20
-295.09532458984017
 30
0.0
 11
-384.5966677755473
 21
-295.09532458984012
 31
0.0
  0
LINE
  8
SIZE
  6
CONTINUOUS
 62
    30
 10
-364.5966677755473
 20
-11.99999999999989
 30
0.0
 11
-364.5966677755473
 21
-283.09532458984017
 31
0.0
  0
CIRCLE
  8
SIZE
  6
CONTINUOUS
 62
    30
 10
-364.5966677755473
 20
0.0
 30
0.0
 40
6.0
  0
LINE
  8
SIZE
  6
CONTINUOUS
 62
    30
 10
-364.5966677755473
 20
0.0
 30
0.0
 11
-364.5966677755473
 21
-11.99999999999989
 31
0.0
  0
CIRCLE
  8
SIZE
  6
CONTINUOUS
 62
    30
 10
-364.5966677755473
 20
-295.09532458984017
 30
0.0
 40
6.0
  0
LINE
  8
SIZE
  6
CONTINUOUS
 62
    30
 10
-364.5966677755473
 20
-295.09532458984017
 30
0.0
 11
-364.5966677755473
 21
-283.09532458984017
 31
0.0
  0
TEXT
  8
SIZE
  6
CONTINUOUS
 62
    30
 10
-389.5966677755473
 20
-221.60480515206291
 30
0.0
 40
64.0
  1
295
 50
90.0
 41
0.9
 72
     1
 11
-389.5966677755473
 21
-147.54766229492009
 31
0.0
  0
POINT
  8
DEFPOINTS
  6
CONTINUOUS
 62
    30
 10
-308.01960185989128
 20
0.0
 30
0.0
  0
POINT
  8
DEFPOINTS
  6
CONTINUOUS
 62
    30
 10
-0.0000000000181899
 20
-295.09532458984017
 30
0.0
  0
POINT
  8
DEFPOINTS
  6
CONTINUOUS
 62
    30
 10
-364.5966677755473
 20
-295.09532458984017
 30
0.0
  0
LINE
  8
NOTE
  6
CONTINUOUS
 62
     4
 10
-281.22969256213418
 20
-55.428046801112323
 30
0.0
 11
-281.22969256213418
 21
16.03525237625843
 31
0.0
  0
LINE
  8
NOTE
  6
CONTINUOUS
 62
     4
 10
279.67499241363288
 20
-55.428046801112323
 30
0.0
 11
279.67499241363288
 21
16.03525237625843
 31
0.0
  0
LINE
  8
DETAIL
  6
CONTINUOUS
 62
     4
 10
-283.93444707329559
 20
5.4966390564275116
 30
0.0
 11
-281.1710484336636
 21
-0.0664830210105265
 31
0.0
  0
LINE
  8
DETAIL
  6
CONTINUOUS
 62
     4
 10
-281.1710484336636
 20
-0.0664830210105265
 30
0.0
 11
-286.34578807309958
 21
3.3696149045513271
 31
0.0
  0
LINE
  8
DETAIL
  6
CONTINUOUS
 62
     4
 10
-281.1710484336636
 20
-0.0664830210105265
 30
0.0
 11
-289.10918671273163
 21
8.9327369819893647
 31
0.0
  0
LINE
  8
NOTE
  6
CONTINUOUS
 62
     4
 10
-289.1091867127318
 20
8.9327369819893647
 30
0.0
 11
-337.27464131316492
 21
63.536411956604979
 31
0.0
  0
LINE
  8
NOTE
  6
CONTINUOUS
 62
     4
 10
-337.27464131316492
 20
63.536411956604979
 30
0.0
 11
-635.14320355819927
 21
63.697866805785338
 31
0.0
  0
LINE
  8
NOTE
  6
CONTINUOUS
 62
     4
 10
-281.22969256213418
 20
-46.485854787462422
 30
0.0
 11
-281.22969256213418
 21
24.796828318904549
 31
0.0
  0
LINE
  8
NOTE
  6
CONTINUOUS
 62
     4
 10
279.67499241363288
 20
-46.485854787462422
 30
0.0
 11
279.67499241363288
 21
24.79682831890409
 31
0.0
  0
ARC
  8
OUTLINE
  6
CONTINUOUS
 62
     3
 10
308.49757673667227
 20
-1.5024232633279551
 30
0.0
 40
1.5024232633279551
 50
270.0
 51
90.0
  0
ARC
  8
OUTLINE
  6
CONTINUOUS
 62
     3
 10
293.45581583198691
 20
-82.449499170930608
 30
0.0
 40
2.0032310177706449
 50
270.0
 51
90.0
  0
ARC
  8
OUTLINE
  6
CONTINUOUS
 62
     3
 10
303.38933764135709
 20
-6.4103392568659956
 30
0.0
 40
3.605815831987115
 50
270.0
 51
0.0
  0
ARC
  8
OUTLINE
  6
CONTINUOUS
 62
     3
 10
293.37318255250369
 20
-16.426494345718989
 30
0.0
 40
3.6058158319872282
 50
270.0
 51
0.0
  0
ARC
  8
OUTLINE
  6
CONTINUOUS
 62
     3
 10
0.0
 20
-288.54289176090441
 30
0.0
 40
6.5330371567043164
 50
223.89739816710519
 51
316.10260183289478
  0
ARC
  8
OUTLINE
  6
CONTINUOUS
 62
     3
 10
57.893376413570422
 20
-285.15993537964448
 30
0.0
 40
7.4119547657512621
 50
270.0
 51
0.0
  0
ARC
  8
OUTLINE
  6
CONTINUOUS
 62
     3
 10
-308.49757673667182
 20
-1.5024232633279551
 30
0.0
 40
1.5024232633279551
 50
90.0
 51
270.0
  0
ARC
  8
OUTLINE
  6
CONTINUOUS
 62
     3
 10
-293.45581583198691
 20
-82.449499170930608
 30
0.0
 40
2.0032310177707591
 50
90.0
 51
270.0
  0
ARC
  8
OUTLINE
  6
CONTINUOUS
 62
     3
 10
-293.37318255250398
 20
-16.426494345718989
 30
0.0
 40
3.6058158319872282
 50
180.0
 51
270.0
  0
ARC
  8
OUTLINE
  6
CONTINUOUS
 62
     3
 10
-303.38933764135692
 20
-6.4103392568659956
 30
0.0
 40
3.6058158319870022
 50
180.0
 51
270.0
  0
ARC
  8
OUTLINE
  6
CONTINUOUS
 62
     3
 10
-57.893376413570188
 20
-285.15993537964448
 30
0.0
 40
7.4119547657512017
 50
180.0
 51
270.0
  0
LINE
  8
OUTLINE
  6
CONTINUOUS
 62
     3
 10
306.99515347334409
 20
-3.004846526655911
 30
0.0
 11
306.99515347334409
 21
-6.4103392568659956
 31
0.0
  0
LINE
  8
OUTLINE
  6
CONTINUOUS
 62
     3
 10
296.97899838449121
 20
-13.221324717285601
 30
0.0
 11
296.97899838449121
 21
-16.426494345718989
 31
0.0
  0
LINE
  8
OUTLINE
  6
CONTINUOUS
 62
     3
 10
262.98813544301271
 20
-56.841680129240558
 30
0.0
 11
262.98813544301271
 21
-60.347334410339037
 31
0.0
  0
LINE
  8
OUTLINE
  6
CONTINUOUS
 62
     3
 10
261.32961628886278
 20
-20.032310177705881
 30
0.0
 11
261.32961628886278
 21
-158.25525040387731
 31
0.0
  0
LINE
  8
OUTLINE
  6
CONTINUOUS
 62
     3
 10
89.644588045234286
 20
-270.43618739903047
 30
0.0
 11
89.644588045234286
 21
-266.42972536348918
 31
0.0
  0
LINE
  8
OUTLINE
  6
CONTINUOUS
 62
     3
 10
65.305331179321456
 20
-285.15993537964448
 30
0.0
 11
65.305331179321456
 21
-270.43618739903047
 31
0.0
  0
LINE
  8
OUTLINE
  6
CONTINUOUS
 62
     3
 10
4.7075928917611236
 20
-293.07269789983832
 30
0.0
 11
4.7075928917611236
 21
-292.57189014539563
 31
0.0
  0
LINE
  8
OUTLINE
  6
CONTINUOUS
 62
     3
 10
-4.7075928917606689
 20
-293.07269789983832
 30
0.0
 11
-4.7075928917606689
 21
-292.57189014539563
 31
0.0
  0
LINE
  8
OUTLINE
  6
CONTINUOUS
 62
     3
 10
308.49757673667227
 20
0.0
 30
0.0
 11
-308.49757673667182
 21
0.0
 31
0.0
  0
LINE
  8
OUTLINE
  6
CONTINUOUS
 62
     3
 10
308.49757673667227
 20
-3.004846526655911
 30
0.0
 11
306.99515347334409
 21
-3.004846526655911
 31
0.0
  0
LINE
  8
OUTLINE
  6
CONTINUOUS
 62
     3
 10
-301.74493768103088
 20
-10.01615508885266
 30
0.0
 11
-303.38933764135692
 21
-10.01615508885266
 31
0.0
  0
LINE
  8
OUTLINE
  6
CONTINUOUS
 62
     3
 10
303.38933764135709
 20
-10.01615508885266
 30
0.0
 11
301.74493768103088
 21
-10.01615508885266
 31
0.0
  0
LINE
  8
OUTLINE
  6
CONTINUOUS
 62
     3
 10
-261.32961628886301
 20
-20.032310177705881
 30
0.0
 11
-293.37318255250398
 21
-20.032310177705881
 31
0.0
  0
LINE
  8
OUTLINE
  6
CONTINUOUS
 62
     3
 10
293.37318255250369
 20
-20.032310177705881
 30
0.0
 11
261.32961628886278
 21
-20.032310177705881
 31
0.0
  0
LINE
  8
OUTLINE
  6
CONTINUOUS
 62
     3
 10
-65.305331179321456
 20
-285.15993537964448
 30
0.0
 11
-65.305331179321456
 21
-270.43618739903047
 31
0.0
  0
LINE
  8
OUTLINE
  6
CONTINUOUS
 62
     3
 10
262.98812737806662
 20
-56.841680129240558
 30
0.0
 11
261.32961628886278
 21
-56.841680129240558
 31
0.0
  0
LINE
  8
OUTLINE
  6
CONTINUOUS
 62
     3
 10
262.98812737806662
 20
-60.347334410339037
 30
0.0
 11
261.32961628886278
 21
-60.347334410339037
 31
0.0
  0
LINE
  8
OUTLINE
  6
CONTINUOUS
 62
     3
 10
-261.32961628886301
 20
-80.446268153160304
 30
0.0
 11
-293.45581583198691
 21
-80.446268153160304
 31
0.0
  0
LINE
  8
OUTLINE
  6
CONTINUOUS
 62
     3
 10
293.45581583198691
 20
-80.446268153160304
 30
0.0
 11
261.32961628886278
 21
-80.446268153160304
 31
0.0
  0
LINE
  8
OUTLINE
  6
CONTINUOUS
 62
     3
 10
-261.32961628886301
 20
-84.452730188701366
 30
0.0
 11
-293.45581583198691
 21
-84.452730188701366
 31
0.0
  0
LINE
  8
OUTLINE
  6
CONTINUOUS
 62
     3
 10
293.45581583198691
 20
-84.452730188701366
 30
0.0
 11
261.32961628886278
 21
-84.452730188701366
 31
0.0
  0
LINE
  8
OUTLINE
  6
CONTINUOUS
 62
     3
 10
-89.644588045234286
 20
-270.43618739903047
 30
0.0
 11
-89.644588045234286
 21
-266.42972536348918
 31
0.0
  0
LINE
  8
OUTLINE
  6
CONTINUOUS
 62
     3
 10
89.644588045234286
 20
-266.42972536348918
 30
0.0
 11
184.8387114935567
 21
-266.42972536348918
 31
0.0
  0
LINE
  8
OUTLINE
  6
CONTINUOUS
 62
     3
 10
-184.8387114935565
 20
-266.42972536348918
 30
0.0
 11
-89.644588045234286
 21
-266.42972536348918
 31
0.0
  0
LINE
  8
OUTLINE
  6
CONTINUOUS
 62
     3
 10
89.644588045234286
 20
-270.43618739903047
 30
0.0
 11
65.305331179321456
 21
-270.43618739903047
 31
0.0
  0
LINE
  8
OUTLINE
  6
CONTINUOUS
 62
     3
 10
-261.32961628886301
 20
-158.25525040387731
 30
0.0
 11
-261.32961628886301
 21
-20.032310177705881
 31
0.0
  0
LINE
  8
OUTLINE
  6
CONTINUOUS
 62
     3
 10
57.893376413570422
 20
-292.57189014539563
 30
0.0
 11
-57.893376413570188
 21
-292.57189014539563
 31
0.0
  0
LINE
  8
OUTLINE
  6
CONTINUOUS
 62
     3
 10
-4.7075928917606689
 20
-293.07269789983832
 30
0.0
 11
4.7075928917611236
 21
-293.07269789983832
 31
0.0
  0
LINE
  8
OUTLINE
  6
CONTINUOUS
 62
     3
 10
-296.97899838449081
 20
-16.426494345718989
 30
0.0
 11
-296.97899838449081
 21
-13.221324717285601
 31
0.0
  0
LINE
  8
OUTLINE
  6
CONTINUOUS
 62
     3
 10
-306.99515347334409
 20
-6.4103392568659956
 30
0.0
 11
-306.99515347334409
 21
-3.004846526655911
 31
0.0
  0
ARC
  8
OUTLINE
  6
CONTINUOUS
 62
     3
 10
275.94507269789977
 20
-39.463651050080557
 30
0.0
 40
19.43134087237468
 50
90.0
 51
138.79111123369549
  0
ARC
  8
OUTLINE
  6
CONTINUOUS
 62
     3
 10
295.97738287560611
 20
-44.471728594506999
 30
0.0
 40
39.463651050080827
 50
208.58710129420089
 51
245.74386833760931
  0
ARC
  8
OUTLINE
  6
CONTINUOUS
 62
     3
 10
-275.94507269789977
 20
-39.463651050080557
 30
0.0
 40
19.431340872374761
 50
41.208888766304533
 51
90.0
  0
ARC
  8
OUTLINE
  6
CONTINUOUS
 62
     3
 10
-295.9773828756056
 20
-44.471728594506999
 30
0.0
 40
39.463651050080877
 50
294.25613166249059
 51
331.41289870579902
  0
ARC
  8
DETAIL
  6
CONTINUOUS
 62
     5
 10
308.49757673667227
 20
-1.5024232633279551
 30
0.0
 40
1.5024232633279551
 50
270.0
 51
90.0
  0
ARC
  8
DETAIL
  6
CONTINUOUS
 62
     5
 10
293.45581583198691
 20
-82.449499170930608
 30
0.0
 40
2.0032310177706449
 50
270.0
 51
90.0
  0
ARC
  8
DETAIL
  6
CONTINUOUS
 62
     5
 10
204.13328774527551
 20
-13.02100161550891
 30
0.0
 40
3.004846526655911
 50
90.0
 51
180.0
  0
ARC
  8
DETAIL
  6
CONTINUOUS
 62
     5
 10
239.30932337653849
 20
-6.4103392568659956
 30
0.0
 40
3.605815831987115
 50
270.0
 51
0.0
  0
ARC
  8
DETAIL
  6
CONTINUOUS
 62
     5
 10
303.38933764135709
 20
-6.4103392568659956
 30
0.0
 40
3.605815831987115
 50
270.0
 51
0.0
  0
ARC
  8
DETAIL
  6
CONTINUOUS
 62
     5
 10
197.5226253866322
 20
-16.426494345718989
 30
0.0
 40
3.6058158319872282
 50
270.0
 51
0.0
  0
ARC
  8
DETAIL
  6
CONTINUOUS
 62
     5
 10
293.37318255250369
 20
-16.426494345718989
 30
0.0
 40
3.6058158319872282
 50
270.0
 51
0.0
  0
ARC
  8
DETAIL
  6
CONTINUOUS
 62
     5
 10
21.033925686590919
 20
-94.151857835217925
 30
0.0
 40
2.0032310177704522
 50
90.0
 51
180.0
  0
ARC
  8
DETAIL
  6
CONTINUOUS
 62
     5
 10
11.21809369951529
 20
-132.57647624868821
 30
0.0
 40
1.0016155088852621
 50
135.0002801929968
 51
138.39087706069481
  0
ARC
  8
DETAIL
  6
CONTINUOUS
 62
     5
 10
11.7189014539581
 20
-128.39275016929
 30
0.0
 40
1.602584814216452
 50
315.00028019301521
 51
352.29929887529619
  0
ARC
  8
DETAIL
  6
CONTINUOUS
 62
     5
 10
13.021001615508791
 20
-135.51857835218061
 30
0.0
 40
3.6058158319870279
 50
59.493559476906078
 51
90.0
  0
ARC
  8
DETAIL
  6
CONTINUOUS
 62
     5
 10
20.23149406684934
 20
-119.56679039293169
 30
0.0
 40
5.008077544426496
 50
5.0000000111033236
 51
85.000000064000588
  0
ARC
  8
DETAIL
  6
CONTINUOUS
 62
     5
 10
57.893376413569968
 20
-139.82552504038739
 30
0.0
 40
7.4119547657512621
 50
0.0
 51
90.0
  0
ARC
  8
DETAIL
  6
CONTINUOUS
 62
     5
 10
83.634894991922465
 20
-235.37964458804529
 30
0.0
 40
6.0096930533118211
 50
0.0
 51
90.0
  0
ARC
  8
DETAIL
  6
CONTINUOUS
 62
     5
 10
0.0
 20
-288.54289176090441
 30
0.0
 40
6.5330371567043164
 50
223.8973981671075
 51
316.10260183289239
  0
ARC
  8
DETAIL
  6
CONTINUOUS
 62
     5
 10
57.893376413569968
 20
-285.15993537964448
 30
0.0
 40
7.4119547657512621
 50
270.0
 51
0.0
  0
ARC
  8
DETAIL
  6
CONTINUOUS
 62
     5
 10
-11.218093699515521
 20
-132.57647624868821
 30
0.0
 40
1.001615508885412
 50
41.609122939305188
 51
44.999719806984757
  0
ARC
  8
DETAIL
  6
CONTINUOUS
 62
     5
 10
-11.7189014539581
 20
-128.39275016929
 30
0.0
 40
1.6025848142165111
 50
187.7007011247037
 51
224.9997198070032
  0
ARC
  8
DETAIL
  6
CONTINUOUS
 62
     5
 10
-21.03392568659137
 20
-94.151857835217925
 30
0.0
 40
2.0032310177705881
 50
0.0
 51
90.0
  0
ARC
  8
DETAIL
  6
CONTINUOUS
 62
     5
 10
-13.021001615508791
 20
-135.51857835218061
 30
0.0
 40
3.6058158319872282
 50
90.0
 51
120.5064405230939
  0
ARC
  8
DETAIL
  6
CONTINUOUS
 62
     5
 10
-20.23149406684956
 20
-119.56679039293169
 30
0.0
 40
5.008077544426401
 50
94.999999935999412
 51
174.99999998889669
  0
ARC
  8
DETAIL
  6
CONTINUOUS
 62
     5
 10
-57.893376413570422
 20
-139.82552504038739
 30
0.0
 40
7.4119547657511484
 50
90.0
 51
180.0
  0
ARC
  8
DETAIL
  6
CONTINUOUS
 62
     5
 10
-308.49757673667182
 20
-1.5024232633279551
 30
0.0
 40
1.5024232633279551
 50
90.0
 51
270.0
  0
ARC
  8
DETAIL
  6
CONTINUOUS
 62
     5
 10
-293.45581583198691
 20
-82.449499170930608
 30
0.0
 40
2.0032310177707591
 50
90.0
 51
270.0
  0
ARC
  8
DETAIL
  6
CONTINUOUS
 62
     5
 10
-204.13328774527551
 20
-13.02100161550891
 30
0.0
 40
3.004846526655911
 50
0.0
 51
90.0
  0
ARC
  8
DETAIL
  6
CONTINUOUS
 62
     5
 10
-239.30932337653891
 20
-6.4103392568659956
 30
0.0
 40
3.605815831987115
 50
180.0
 51
270.0
  0
ARC
  8
DETAIL
  6
CONTINUOUS
 62
     5
 10
-293.3731825525042
 20
-16.426494345718989
 30
0.0
 40
3.6058158319872282
 50
180.0
 51
270.0
  0
ARC
  8
DETAIL
  6
CONTINUOUS
 62
     5
 10
-197.5226253866326
 20
-16.426494345718989
 30
0.0
 40
3.605815831987115
 50
180.0
 51
270.0
  0
ARC
  8
DETAIL
  6
CONTINUOUS
 62
     5
 10
-303.38933764135709
 20
-6.4103392568659956
 30
0.0
 40
3.6058158319870022
 50
180.0
 51
270.0
  0
ARC
  8
DETAIL
  6
CONTINUOUS
 62
     5
 10
-83.634894991922465
 20
-235.37964458804529
 30
0.0
 40
6.0096930533118211
 50
90.0
 51
180.0
  0
ARC
  8
DETAIL
  6
CONTINUOUS
 62
     5
 10
-57.893376413570422
 20
-285.15993537964448
 30
0.0
 40
7.4119547657512017
 50
180.0
 51
270.0
  0
ARC
  8
DETAIL
  6
CONTINUOUS
 62
     5
 10
-141.5845001171183
 20
-453.54705756724388
 30
0.0
 40
363.07717324238882
 50
62.188280677795241
 51
63.504649477797557
  0
LINE
  8
DETAIL
  6
CONTINUOUS
 62
     5
 10
306.99515347334409
 20
-3.004846526655911
 30
0.0
 11
306.99515347334409
 21
-6.4103392568659956
 31
0.0
  0
LINE
  8
DETAIL
  6
CONTINUOUS
 62
     5
 10
303.82456339745289
 20
-4.649685047049843
 30
0.0
 11
303.82456339745289
 21
-3.004846526655911
 31
0.0
  0
LINE
  8
DETAIL
  6
CONTINUOUS
 62
     5
 10
296.97899838449121
 20
-13.221324717285601
 30
0.0
 11
296.97899838449121
 21
-16.426494345718989
 31
0.0
  0
LINE
  8
DETAIL
  6
CONTINUOUS
 62
     5
 10
266.33769383328939
 20
-17.227786752826891
 30
0.0
 11
266.33769383328939
 21
-13.221324717285601
 31
0.0
  0
LINE
  8
DETAIL
  6
CONTINUOUS
 62
     5
 10
262.98813544301271
 20
-56.841680129240558
 30
0.0
 11
262.98813544301271
 21
-60.347334410339037
 31
0.0
  0
LINE
  8
DETAIL
  6
CONTINUOUS
 62
     5
 10
261.32961628886278
 20
-13.221324717285601
 30
0.0
 11
261.32961628886278
 21
-158.25525040387731
 31
0.0
  0
LINE
  8
DETAIL
  6
CONTINUOUS
 62
     5
 10
257.0801215783149
 20
-158.25525040387731
 30
0.0
 11
257.0801215783149
 21
-13.221324717285601
 31
0.0
  0
LINE
  8
DETAIL
  6
CONTINUOUS
 62
     5
 10
254.2513763913216
 20
-5.5846764042707946
 30
0.0
 11
254.24712510435711
 21
-3.004846526655911
 31
0.0
  0
LINE
  8
DETAIL
  6
CONTINUOUS
 62
     5
 10
242.91513920852589
 20
-6.4103392568659956
 30
0.0
 11
242.91513920852589
 21
-3.004846526655911
 31
0.0
  0
LINE
  8
DETAIL
  6
CONTINUOUS
 62
     5
 10
230.16665507610421
 20
-158.25525040387731
 30
0.0
 11
230.16665507610421
 21
-13.221324717285601
 31
0.0
  0
LINE
  8
DETAIL
  6
CONTINUOUS
 62
     5
 10
213.16867623313419
 20
-13.221324717285601
 30
0.0
 11
213.16867623313419
 21
-10.01615508885266
 31
0.0
  0
LINE
  8
DETAIL
  6
CONTINUOUS
 62
     5
 10
201.1284412186196
 20
-16.426494345718989
 30
0.0
 11
201.1284412186196
 21
-13.02100161550891
 31
0.0
  0
LINE
  8
DETAIL
  6
CONTINUOUS
 62
     5
 10
10.50984111710568
 20
-131.8682305937308
 30
0.0
 11
12.85210558550307
 21
-129.5259432170665
 31
0.0
  0
LINE
  8
DETAIL
  6
CONTINUOUS
 62
     5
 10
18.029080978371891
 20
-99.159941185132197
 30
0.0
 11
19.030700802744828
 21
-98.158321783922247
 31
0.0
  0
LINE
  8
DETAIL
  6
CONTINUOUS
 62
     5
 10
95.738626137380834
 20
-197.81906300484641
 30
0.0
 11
95.738626137380834
 21
-177.28594507269781
 31
0.0
  0
LINE
  8
DETAIL
  6
CONTINUOUS
 62
     5
 10
95.738626137380834
 20
-225.36348949919201
 30
0.0
 11
95.738626137380834
 21
-204.8303715670431
 31
0.0
  0
LINE
  8
DETAIL
  6
CONTINUOUS
 62
     5
 10
89.644588045234286
 20
-270.43618739903047
 30
0.0
 11
89.644588045234286
 21
-228.36833602584809
 31
0.0
  0
LINE
  8
DETAIL
  6
CONTINUOUS
 62
     5
 10
86.138933764135345
 20
-229.3699515347331
 30
0.0
 11
86.138933764135345
 21
-225.36348949919201
 31
0.0
  0
LINE
  8
DETAIL
  6
CONTINUOUS
 62
     5
 10
81.605500137205581
 20
-197.81906300484641
 30
0.0
 11
81.605500137205581
 21
-177.28594507269781
 31
0.0
  0
LINE
  8
DETAIL
  6
CONTINUOUS
 62
     5
 10
81.605500137205581
 20
-225.36348949919201
 30
0.0
 11
81.605500137205581
 21
-204.8303715670431
 31
0.0
  0
LINE
  8
DETAIL
  6
CONTINUOUS
 62
     5
 10
65.305331179321456
 20
-177.28594507269781
 30
0.0
 11
65.305331179321456
 21
-139.82552504038739
 31
0.0
  0
LINE
  8
DETAIL
  6
CONTINUOUS
 62
     5
 10
65.305331179321456
 20
-285.15993537964448
 30
0.0
 11
65.305331179321456
 21
-270.43618739903047
 31
0.0
  0
LINE
  8
DETAIL
  6
CONTINUOUS
 62
     5
 10
63.549721702295301
 20
-229.3699515347331
 30
0.0
 11
63.549721702295301
 21
-225.36348949919201
 31
0.0
  0
LINE
  8
DETAIL
  6
CONTINUOUS
 62
     5
 10
61.045682930081973
 20
-225.36348949919201
 30
0.0
 11
61.045682930081973
 21
-218.85298869143739
 31
0.0
  0
LINE
  8
DETAIL
  6
CONTINUOUS
 62
     5
 10
57.790432526204768
 20
-215.64781906300459
 30
0.0
 11
57.790432526204768
 21
-218.85298869143739
 31
0.0
  0
LINE
  8
DETAIL
  6
CONTINUOUS
 62
     5
 10
55.490888453143732
 20
-197.81906300484641
 30
0.0
 11
55.490888453143732
 21
-177.28594507269781
 31
0.0
  0
LINE
  8
DETAIL
  6
CONTINUOUS
 62
     5
 10
55.490888453143732
 20
-225.36348949919201
 30
0.0
 11
55.490888453143732
 21
-204.8303715670431
 31
0.0
  0
LINE
  8
DETAIL
  6
CONTINUOUS
 62
     5
 10
37.997723787704672
 20
-204.8303715670431
 30
0.0
 11
37.997723787704672
 21
-197.81906300484641
 31
0.0
  0
LINE
  8
DETAIL
  6
CONTINUOUS
 62
     5
 10
23.037156704361681
 20
-92.148626817447507
 30
0.0
 11
23.037156704361681
 21
-84.452730188701366
 31
0.0
  0
LINE
  8
DETAIL
  6
CONTINUOUS
 62
     5
 10
21.37050398504698
 20
-197.81906300484641
 30
0.0
 11
21.37050398504698
 21
-177.28594507269781
 31
0.0
  0
LINE
  8
DETAIL
  6
CONTINUOUS
 62
     5
 10
21.37050398504698
 20
-225.36348949919201
 30
0.0
 11
21.37050398504698
 21
-204.8303715670431
 31
0.0
  0
LINE
  8
DETAIL
  6
CONTINUOUS
 62
     5
 10
19.030694668820619
 20
-98.158315649997917
 30
0.0
 11
19.030694668820619
 21
-94.151857835217925
 31
0.0
  0
LINE
  8
DETAIL
  6
CONTINUOUS
 62
     5
 10
14.02261712439395
 20
-103.6672051696281
 30
0.0
 11
14.02261712439395
 21
-99.159935379644367
 31
0.0
  0
LINE
  8
DETAIL
  6
CONTINUOUS
 62
     5
 10
8.5137318255251557
 20
-114.0840064620354
 30
0.0
 11
8.5137318255251557
 21
-103.6672051696281
 31
0.0
  0
LINE
  8
DETAIL
  6
CONTINUOUS
 62
     5
 10
6.0800045985647557
 20
-103.6672051696281
 30
0.0
 11
6.0800045985647557
 21
-101.6639741518578
 31
0.0
  0
LINE
  8
DETAIL
  6
CONTINUOUS
 62
     5
 10
4.7075928917608962
 20
-293.07269789983832
 30
0.0
 11
4.7075928917608962
 21
-292.57189014539563
 31
0.0
  0
LINE
  8
DETAIL
  6
CONTINUOUS
 62
     5
 10
-4.7075928917608962
 20
-293.07269789983832
 30
0.0
 11
-4.7075928917608962
 21
-292.57189014539563
 31
0.0
  0
LINE
  8
DETAIL
  6
CONTINUOUS
 62
     5
 10
-6.1568613812726198
 20
-103.6672051696281
 30
0.0
 11
-6.1568613812726198
 21
-101.6639741518578
 31
0.0
  0
LINE
  8
DETAIL
  6
CONTINUOUS
 62
     5
 10
-8.5137318255251557
 20
-114.0840064620354
 30
0.0
 11
-8.5137318255251557
 21
-103.6672051696281
 31
0.0
  0
LINE
  8
DETAIL
  6
CONTINUOUS
 62
     5
 10
26.049655248174531
 20
-128.60743134087249
 30
0.0
 11
25.220514364478731
 21
-119.1303076738174
 31
0.0
  0
LINE
  8
DETAIL
  6
CONTINUOUS
 62
     5
 10
308.49757673667227
 20
0.0
 30
0.0
 11
-308.49757673667182
 21
0.0
 31
0.0
  0
LINE
  8
DETAIL
  6
CONTINUOUS
 62
     5
 10
308.49757673667227
 20
-3.004846526655911
 30
0.0
 11
-308.49757673667182
 21
-3.004846526655911
 31
0.0
  0
LINE
  8
DETAIL
  6
CONTINUOUS
 62
     5
 10
-256.36215952694369
 20
-3.806138933763918
 30
0.0
 11
-303.82456339745249
 21
-3.806138933763918
 31
0.0
  0
LINE
  8
DETAIL
  6
CONTINUOUS
 62
     5
 10
303.82456339745289
 20
-3.806138933763918
 30
0.0
 11
256.3621595269442
 21
-3.806138933763918
 31
0.0
  0
LINE
  8
DETAIL
  6
CONTINUOUS
 62
     5
 10
239.30932337653849
 20
-10.01615508885266
 30
0.0
 11
247.43345430266339
 21
-10.01615508885266
 31
0.0
  0
LINE
  8
DETAIL
  6
CONTINUOUS
 62
     5
 10
-301.74493768103088
 20
-10.01615508885266
 30
0.0
 11
-303.38933764135709
 21
-10.01615508885266
 31
0.0
  0
LINE
  8
DETAIL
  6
CONTINUOUS
 62
     5
 10
-239.30932337653891
 20
-10.01615508885266
 30
0.0
 11
-247.43345430344041
 21
-10.01615508885266
 31
0.0
  0
LINE
  8
DETAIL
  6
CONTINUOUS
 62
     5
 10
239.30932337653849
 20
-10.01615508885266
 30
0.0
 11
-239.30932337653891
 21
-10.01615508885266
 31
0.0
  0
LINE
  8
DETAIL
  6
CONTINUOUS
 62
     5
 10
303.38933764135709
 20
-10.01615508885266
 30
0.0
 11
301.74493768103088
 21
-10.01615508885266
 31
0.0
  0
LINE
  8
DETAIL
  6
CONTINUOUS
 62
     5
 10
-213.16867623313439
 20
-13.221324717285601
 30
0.0
 11
-297.1132369911677
 21
-13.219793289310809
 31
0.0
  0
LINE
  8
DETAIL
  6
CONTINUOUS
 62
     5
 10
297.010892596536
 20
-13.221324717285601
 30
0.0
 11
213.16867623313419
 21
-13.221324717285601
 31
0.0
  0
LINE
  8
DETAIL
  6
CONTINUOUS
 62
     5
 10
-225.15857753167779
 20
-17.227786752826891
 30
0.0
 11
-235.1747326205309
 21
-17.227786752826891
 31
0.0
  0
LINE
  8
DETAIL
  6
CONTINUOUS
 62
     5
 10
266.33769383328939
 20
-17.227786752826891
 30
0.0
 11
261.32961628886278
 21
-17.227786752826891
 31
0.0
  0
LINE
  8
DETAIL
  6
CONTINUOUS
 62
     5
 10
-261.32961628886318
 20
-20.032310177705881
 30
0.0
 11
-293.3731825525042
 21
-20.032310177705881
 31
0.0
  0
LINE
  8
DETAIL
  6
CONTINUOUS
 62
     5
 10
230.16665507610421
 20
-20.032310177705881
 30
0.0
 11
-230.16665507610421
 21
-20.032310177705881
 31
0.0
  0
LINE
  8
DETAIL
  6
CONTINUOUS
 62
     5
 10
293.37318255250369
 20
-20.032310177705881
 30
0.0
 11
261.32961628886278
 21
-20.032310177705881
 31
0.0
  0
LINE
  8
DETAIL
  6
CONTINUOUS
 62
     5
 10
-26.049655248174759
 20
-128.60743134087249
 30
0.0
 11
-25.220514364478959
 21
-119.1303076738174
 31
0.0
  0
LINE
  8
DETAIL
  6
CONTINUOUS
 62
     5
 10
-14.02261712439395
 20
-103.6672051696281
 30
0.0
 11
-14.02261712439395
 21
-99.159935379644367
 31
0.0
  0
LINE
  8
DETAIL
  6
CONTINUOUS
 62
     5
 10
-19.030694668820839
 20
-98.158315649997917
 30
0.0
 11
-19.030694668820839
 21
-94.151857835217925
 31
0.0
  0
LINE
  8
DETAIL
  6
CONTINUOUS
 62
     5
 10
-21.370503985047211
 20
-197.81906300484641
 30
0.0
 11
-21.370503985047211
 21
-177.28594507269781
 31
0.0
  0
LINE
  8
DETAIL
  6
CONTINUOUS
 62
     5
 10
-21.370503985047211
 20
-225.36348949919201
 30
0.0
 11
-21.370503985047211
 21
-204.8303715670431
 31
0.0
  0
LINE
  8
DETAIL
  6
CONTINUOUS
 62
     5
 10
-23.037156704361909
 20
-92.148626817447507
 30
0.0
 11
-23.037156704361909
 21
-88.57222562765628
 31
0.0
  0
LINE
  8
DETAIL
  6
CONTINUOUS
 62
     5
 10
-37.999678005560327
 20
-197.81906300484641
 30
0.0
 11
-37.999678005560327
 21
-204.8303715670431
 31
0.0
  0
LINE
  8
DETAIL
  6
CONTINUOUS
 62
     5
 10
-55.490888453143953
 20
-197.81906300484641
 30
0.0
 11
-55.490888453143953
 21
-177.28594507269781
 31
0.0
  0
LINE
  8
DETAIL
  6
CONTINUOUS
 62
     5
 10
-55.490888453143953
 20
-225.36348949919201
 30
0.0
 11
-55.490888453143953
 21
-204.8303715670431
 31
0.0
  0
LINE
  8
DETAIL
  6
CONTINUOUS
 62
     5
 10
-57.790432526205223
 20
-215.64781906300459
 30
0.0
 11
-57.790432526205223
 21
-218.85298869143739
 31
0.0
  0
LINE
  8
DETAIL
  6
CONTINUOUS
 62
     5
 10
-61.045682930082421
 20
-225.36348949919201
 30
0.0
 11
-61.045682930082421
 21
-218.85298869143739
 31
0.0
  0
LINE
  8
DETAIL
  6
CONTINUOUS
 62
     5
 10
-65.305331179321456
 20
-177.28594507269781
 30
0.0
 11
-65.305331179321456
 21
-139.82552504038739
 31
0.0
  0
LINE
  8
DETAIL
  6
CONTINUOUS
 62
     5
 10
-65.305331179321456
 20
-285.15993537964448
 30
0.0
 11
-65.305331179321456
 21
-270.43618739903047
 31
0.0
  0
LINE
  8
DETAIL
  6
CONTINUOUS
 62
     5
 10
262.98812737806662
 20
-56.841680129240558
 30
0.0
 11
261.32961628886278
 21
-56.841680129240558
 31
0.0
  0
LINE
  8
DETAIL
  6
CONTINUOUS
 62
     5
 10
262.98812737806662
 20
-60.347334410339037
 30
0.0
 11
261.32961628886278
 21
-60.347334410339037
 31
0.0
  0
LINE
  8
DETAIL
  6
CONTINUOUS
 62
     5
 10
-261.32961628886318
 20
-80.446268153160304
 30
0.0
 11
-293.45581583198691
 21
-80.446268153160304
 31
0.0
  0
LINE
  8
DETAIL
  6
CONTINUOUS
 62
     5
 10
230.16665507610421
 20
-80.446268153160304
 30
0.0
 11
-230.16665507610421
 21
-80.446268153160304
 31
0.0
  0
LINE
  8
DETAIL
  6
CONTINUOUS
 62
     5
 10
293.45581583198691
 20
-80.446268153160304
 30
0.0
 11
261.32961628886278
 21
-80.446268153160304
 31
0.0
  0
LINE
  8
DETAIL
  6
CONTINUOUS
 62
     5
 10
-261.32961628886318
 20
-84.452730188701366
 30
0.0
 11
-293.45581583198691
 21
-84.452730188701366
 31
0.0
  0
LINE
  8
DETAIL
  6
CONTINUOUS
 62
     5
 10
230.16665507610421
 20
-84.452730188701366
 30
0.0
 11
-230.16665507610421
 21
-84.452730188701366
 31
0.0
  0
LINE
  8
DETAIL
  6
CONTINUOUS
 62
     5
 10
293.45581583198691
 20
-84.452730188701366
 30
0.0
 11
261.32961628886278
 21
-84.452730188701366
 31
0.0
  0
LINE
  8
DETAIL
  6
CONTINUOUS
 62
     5
 10
-81.605500137205581
 20
-197.81906300484641
 30
0.0
 11
-81.605500137205581
 21
-177.28594507269781
 31
0.0
  0
LINE
  8
DETAIL
  6
CONTINUOUS
 62
     5
 10
-81.605500137205581
 20
-225.36348949919201
 30
0.0
 11
-81.605500137205581
 21
-204.8303715670431
 31
0.0
  0
LINE
  8
DETAIL
  6
CONTINUOUS
 62
     5
 10
-89.644588045234286
 20
-270.43618739903047
 30
0.0
 11
-89.644588045234286
 21
-228.36833602584809
 31
0.0
  0
LINE
  8
DETAIL
  6
CONTINUOUS
 62
     5
 10
-95.738626137380834
 20
-197.81906300484641
 30
0.0
 11
-95.738626137380834
 21
-177.28594507269781
 31
0.0
  0
LINE
  8
DETAIL
  6
CONTINUOUS
 62
     5
 10
-95.738626137380834
 20
-225.36348949919201
 30
0.0
 11
-95.738626137380834
 21
-204.8303715670431
 31
0.0
  0
LINE
  8
DETAIL
  6
CONTINUOUS
 62
     5
 10
-10.509841117882161
 20
-131.8682305937308
 30
0.0
 11
-12.85210558550307
 21
-129.5259432170665
 31
0.0
  0
LINE
  8
DETAIL
  6
CONTINUOUS
 62
     5
 10
15.024232633279549
 20
-114.0840064620354
 30
0.0
 11
20.66797677975228
 21
-114.5777700945259
 31
0.0
  0
LINE
  8
DETAIL
  6
CONTINUOUS
 62
     5
 10
-23.03692035105405
 20
-92.148626817447507
 30
0.0
 11
23.03692035105405
 21
-92.148626817447507
 31
0.0
  0
LINE
  8
DETAIL
  6
CONTINUOUS
 62
     5
 10
19.03069452906038
 20
-98.158311733603682
 30
0.0
 11
-19.030694529836861
 21
-98.158311733603682
 31
0.0
  0
LINE
  8
DETAIL
  6
CONTINUOUS
 62
     5
 10
18.029464257028391
 20
-99.159935379644367
 30
0.0
 11
-18.029464257805099
 21
-99.159935379644367
 31
0.0
  0
LINE
  8
DETAIL
  6
CONTINUOUS
 62
     5
 10
-14.02240771531979
 20
-101.6639741518578
 30
0.0
 11
14.02204835275688
 21
-101.6639741518578
 31
0.0
  0
LINE
  8
DETAIL
  6
CONTINUOUS
 62
     5
 10
-6.1568561099797989
 20
-103.6672051696281
 30
0.0
 11
-14.02240771531979
 21
-103.6672051696281
 31
0.0
  0
LINE
  8
DETAIL
  6
CONTINUOUS
 62
     5
 10
14.02234276715399
 20
-103.6672051696281
 30
0.0
 11
6.0799822268224943
 21
-103.6672051696281
 31
0.0
  0
LINE
  8
DETAIL
  6
CONTINUOUS
 62
     5
 10
15.024232633279549
 20
-114.0840064620354
 30
0.0
 11
-15.024232633279549
 21
-114.0840064620354
 31
0.0
  0
LINE
  8
DETAIL
  6
CONTINUOUS
 62
     5
 10
-15.024232633279549
 20
-114.0840064620354
 30
0.0
 11
-20.66797677975228
 21
-114.5777700945259
 31
0.0
  0
LINE
  8
DETAIL
  6
CONTINUOUS
 62
     5
 10
26.049655248174531
 20
-128.60743134087249
 30
0.0
 11
-26.049655248174759
 21
-128.60743134087249
 31
0.0
  0
LINE
  8
DETAIL
  6
CONTINUOUS
 62
     5
 10
-13.02092624898887
 20
-131.9127625201935
 30
0.0
 11
13.021001615508791
 21
-131.9127625201935
 31
0.0
  0
LINE
  8
DETAIL
  6
CONTINUOUS
 62
     5
 10
-57.893376413570422
 20
-132.41357027463641
 30
0.0
 11
57.893376413569968
 21
-132.41357027463641
 31
0.0
  0
LINE
  8
DETAIL
  6
CONTINUOUS
 62
     5
 10
92.26726523407342
 20
-177.28594507269781
 30
0.0
 11
95.738612343038767
 21
-177.28594507269781
 31
0.0
  0
LINE
  8
DETAIL
  6
CONTINUOUS
 62
     5
 10
77.087058652390169
 20
-177.28594507269781
 30
0.0
 11
81.60549395824728
 21
-177.28594507269781
 31
0.0
  0
LINE
  8
DETAIL
  6
CONTINUOUS
 62
     5
 10
50.171046187198499
 20
-177.28594507269781
 30
0.0
 11
55.49087473955251
 21
-177.28594507269781
 31
0.0
  0
LINE
  8
DETAIL
  6
CONTINUOUS
 62
     5
 10
15.61694674082946
 20
-177.28594507269781
 30
0.0
 11
35.493655053987823
 21
-177.28594507269781
 31
0.0
  0
LINE
  8
DETAIL
  6
CONTINUOUS
 62
     5
 10
-10.46293237489817
 20
-177.28594507269781
 30
0.0
 11
10.46293237489817
 21
-177.28594507269781
 31
0.0
  0
LINE
  8
DETAIL
  6
CONTINUOUS
 62
     5
 10
-35.49365505398805
 20
-177.28594507269781
 30
0.0
 11
-15.616946740829921
 21
-177.28594507269781
 31
0.0
  0
LINE
  8
DETAIL
  6
CONTINUOUS
 62
     5
 10
-55.490873864497637
 20
-177.28594507269781
 30
0.0
 11
-50.171046187198733
 21
-177.28594507269781
 31
0.0
  0
LINE
  8
DETAIL
  6
CONTINUOUS
 62
     5
 10
-81.605485132384274
 20
-177.28594507269781
 30
0.0
 11
-77.087058652390169
 21
-177.28594507269781
 31
0.0
  0
LINE
  8
DETAIL
  6
CONTINUOUS
 62
     5
 10
-92.26726523407342
 20
-177.28594507269781
 30
0.0
 11
-95.738644432004548
 21
-177.28594507269781
 31
0.0
  0
LINE
  8
DETAIL
  6
CONTINUOUS
 62
     5
 10
58.868129456362567
 20
-197.81906300484641
 30
0.0
 11
95.73863806825193
 21
-197.81906300484641
 31
0.0
  0
LINE
  8
DETAIL
  6
CONTINUOUS
 62
     5
 10
37.997723787704672
 20
-197.81906300484641
 30
0.0
 11
55.490876078145448
 21
-197.81906300484641
 31
0.0
  0
LINE
  8
DETAIL
  6
CONTINUOUS
 62
     5
 10
11.342306497777139
 20
-197.81906300484641
 30
0.0
 11
21.370443261524539
 21
-197.81906300484641
 31
0.0
  0
LINE
  8
DETAIL
  6
CONTINUOUS
 62
     5
 10
-21.370443261524539
 20
-197.81906300484641
 30
0.0
 11
-11.34299272707926
 21
-197.81906300484641
 31
0.0
  0
LINE
  8
DETAIL
  6
CONTINUOUS
 62
     5
 10
-55.490874442173663
 20
-197.81906300484641
 30
0.0
 11
-37.999678005560327
 21
-197.81906300484641
 31
0.0
  0
LINE
  8
DETAIL
  6
CONTINUOUS
 62
     5
 10
-95.738644432004548
 20
-197.81906300484641
 30
0.0
 11
-58.87105414957864
 21
-197.81906300484641
 31
0.0
  0
LINE
  8
DETAIL
  6
CONTINUOUS
 62
     5
 10
58.868129456362567
 20
-204.8303715670431
 30
0.0
 11
95.73863806825193
 21
-204.8303715670431
 31
0.0
  0
LINE
  8
DETAIL
  6
CONTINUOUS
 62
     5
 10
37.997723787704672
 20
-204.8303715670431
 30
0.0
 11
55.490876078145448
 21
-204.8303715670431
 31
0.0
  0
LINE
  8
DETAIL
  6
CONTINUOUS
 62
     5
 10
11.342306497777139
 20
-204.8303715670431
 30
0.0
 11
21.370443261524539
 21
-204.8303715670431
 31
0.0
  0
LINE
  8
DETAIL
  6
CONTINUOUS
 62
     5
 10
-21.370443261524539
 20
-204.8303715670431
 30
0.0
 11
-11.34299272707926
 21
-204.8303715670431
 31
0.0
  0
LINE
  8
DETAIL
  6
CONTINUOUS
 62
     5
 10
-55.490874442173663
 20
-204.8303715670431
 30
0.0
 11
-37.999678005560327
 21
-204.8303715670431
 31
0.0
  0
LINE
  8
DETAIL
  6
CONTINUOUS
 62
     5
 10
-95.738644432004548
 20
-204.8303715670431
 30
0.0
 11
-58.87105414957864
 21
-204.8303715670431
 31
0.0
  0
LINE
  8
DETAIL
  6
CONTINUOUS
 62
     5
 10
-201.1284412186196
 20
-13.02100161550891
 30
0.0
 11
-201.1284412186196
 21
-16.426494345718989
 31
0.0
  0
LINE
  8
DETAIL
  6
CONTINUOUS
 62
     5
 10
-213.16867623313439
 20
-13.221324717285601
 30
0.0
 11
-213.16867623313439
 21
-10.01615508885266
 31
0.0
  0
LINE
  8
DETAIL
  6
CONTINUOUS
 62
     5
 10
-225.15857753167779
 20
-17.227786752826891
 30
0.0
 11
-225.15857753167779
 21
-13.221324717285601
 31
0.0
  0
LINE
  8
DETAIL
  6
CONTINUOUS
 62
     5
 10
-55.490888453143953
 20
-215.64781906300459
 30
0.0
 11
-57.790432526205223
 21
-215.64781906300459
 31
0.0
  0
LINE
  8
DETAIL
  6
CONTINUOUS
 62
     5
 10
57.790432526204768
 20
-215.64781906300459
 30
0.0
 11
55.490888453143732
 21
-215.64781906300459
 31
0.0
  0
LINE
  8
DETAIL
  6
CONTINUOUS
 62
     5
 10
55.490888453143732
 20
-218.85298869143739
 30
0.0
 11
61.045682930081973
 21
-218.85298869143739
 31
0.0
  0
LINE
  8
DETAIL
  6
CONTINUOUS
 62
     5
 10
-61.045682930082421
 20
-218.85298869143739
 30
0.0
 11
-55.490888453143953
 21
-218.85298869143739
 31
0.0
  0
LINE
  8
DETAIL
  6
CONTINUOUS
 62
     5
 10
92.26726523407342
 20
-225.36348949919201
 30
0.0
 11
95.738635594494554
 21
-225.36348949919201
 31
0.0
  0
LINE
  8
DETAIL
  6
CONTINUOUS
 62
     5
 10
77.087058652390169
 20
-225.36348949919201
 30
0.0
 11
81.605514487482651
 21
-225.36348949919201
 31
0.0
  0
LINE
  8
DETAIL
  6
CONTINUOUS
 62
     5
 10
55.490888453143732
 20
-225.36348949919201
 30
0.0
 11
63.549681757247981
 21
-225.36348949919201
 31
0.0
  0
LINE
  8
DETAIL
  6
CONTINUOUS
 62
     5
 10
50.171046187198499
 20
-225.36348949919201
 30
0.0
 11
55.49087473955251
 21
-225.36348949919201
 31
0.0
  0
LINE
  8
DETAIL
  6
CONTINUOUS
 62
     5
 10
21.37050398504698
 20
-225.36348949919201
 30
0.0
 11
38.170003763284058
 21
-225.36348949919201
 31
0.0
  0
LINE
  8
DETAIL
  6
CONTINUOUS
 62
     5
 10
15.61694674082946
 20
-225.36348949919201
 30
0.0
 11
21.370455728919751
 21
-225.36348949919201
 31
0.0
  0
LINE
  8
DETAIL
  6
CONTINUOUS
 62
     5
 10
-11.6532128876031
 20
-225.36348949919201
 30
0.0
 11
11.653212886826619
 21
-225.36348949919201
 31
0.0
  0
LINE
  8
DETAIL
  6
CONTINUOUS
 62
     5
 10
-21.370441863921769
 20
-225.36348949919201
 30
0.0
 11
-15.616946740829921
 21
-225.36348949919201
 31
0.0
  0
LINE
  8
DETAIL
  6
CONTINUOUS
 62
     5
 10
-38.17117217650366
 20
-225.36348949919201
 30
0.0
 11
-21.370441863921769
 21
-225.36348949919201
 31
0.0
  0
LINE
  8
DETAIL
  6
CONTINUOUS
 62
     5
 10
-55.490873864497637
 20
-225.36348949919201
 30
0.0
 11
-50.171046187198733
 21
-225.36348949919201
 31
0.0
  0
LINE
  8
DETAIL
  6
CONTINUOUS
 62
     5
 10
-63.549681758024242
 20
-225.36348949919201
 30
0.0
 11
-55.490873864497637
 21
-225.36348949919201
 31
0.0
  0
LINE
  8
DETAIL
  6
CONTINUOUS
 62
     5
 10
-81.605482171018593
 20
-225.36348949919201
 30
0.0
 11
-77.087058652390169
 21
-225.36348949919201
 31
0.0
  0
LINE
  8
DETAIL
  6
CONTINUOUS
 62
     5
 10
-92.26726523407342
 20
-225.36348949919201
 30
0.0
 11
-95.738644432781257
 21
-225.36348949919201
 31
0.0
  0
LINE
  8
DETAIL
  6
CONTINUOUS
 62
     5
 10
89.644588045234286
 20
-228.36833602584809
 30
0.0
 11
180.5892167830084
 21
-228.36833602584809
 31
0.0
  0
LINE
  8
DETAIL
  6
CONTINUOUS
 62
     5
 10
-180.5892167830084
 20
-228.36833602584809
 30
0.0
 11
-89.644588045234286
 21
-228.36833602584809
 31
0.0
  0
LINE
  8
DETAIL
  6
CONTINUOUS
 62
     5
 10
83.843891088602504
 20
-229.3699515347331
 30
0.0
 11
86.138933764135345
 21
-229.3699515347331
 31
0.0
  0
LINE
  8
DETAIL
  6
CONTINUOUS
 62
     5
 10
-86.1389337641358
 20
-229.3699515347331
 30
0.0
 11
-83.843891088602504
 21
-229.3699515347331
 31
0.0
  0
LINE
  8
DETAIL
  6
CONTINUOUS
 62
     5
 10
83.634894991922465
 20
-229.3699515347331
 30
0.0
 11
-83.634894991922465
 21
-229.3699515347331
 31
0.0
  0
LINE
  8
DETAIL
  6
CONTINUOUS
 62
     5
 10
-230.16665507610421
 20
-17.227786752826891
 30
0.0
 11
-230.16665507610421
 21
-158.25525040387731
 31
0.0
  0
LINE
  8
DETAIL
  6
CONTINUOUS
 62
     5
 10
-230.16665507610421
 20
-13.221324717285601
 30
0.0
 11
-230.16665507610421
 21
-16.780483308061431
 31
0.0
  0
LINE
  8
DETAIL
  6
CONTINUOUS
 62
     5
 10
-235.1747326205309
 20
-13.221324717285601
 30
0.0
 11
-235.1747326205309
 21
-17.227786752826891
 31
0.0
  0
LINE
  8
DETAIL
  6
CONTINUOUS
 62
     5
 10
-242.91513920852589
 20
-3.004846526655911
 30
0.0
 11
-242.91513920852589
 21
-6.4103392568659956
 31
0.0
  0
LINE
  8
DETAIL
  6
CONTINUOUS
 62
     5
 10
-254.24712510435691
 20
-5.589724262231698
 30
0.0
 11
-254.24712510435691
 21
-3.004846526655911
 31
0.0
  0
LINE
  8
DETAIL
  6
CONTINUOUS
 62
     5
 10
-2.3813407691075099
 20
-243.2207186064295
 30
0.0
 11
2.3813546643873451
 21
-243.2207186064295
 31
0.0
  0
LINE
  8
DETAIL
  6
CONTINUOUS
 62
     5
 10
-1.446161488297093
 20
-244.02201101353751
 30
0.0
 11
1.4460395187036279
 21
-244.02201101353751
 31
0.0
  0
LINE
  8
DETAIL
  6
CONTINUOUS
 62
     5
 10
89.644588045234286
 20
-266.42972536348918
 30
0.0
 11
184.8387114935567
 21
-266.42972536348918
 31
0.0
  0
LINE
  8
DETAIL
  6
CONTINUOUS
 62
     5
 10
-184.8387114935567
 20
-266.42972536348918
 30
0.0
 11
-89.644588045234286
 21
-266.42972536348918
 31
0.0
  0
LINE
  8
DETAIL
  6
CONTINUOUS
 62
     5
 10
89.644588045234286
 20
-270.43618739903047
 30
0.0
 11
-89.644588045234286
 21
-270.43618739903047
 31
0.0
  0
LINE
  8
DETAIL
  6
CONTINUOUS
 62
     5
 10
-257.08012157831467
 20
-13.221324717285601
 30
0.0
 11
-257.08012157831467
 21
-158.25525040387731
 31
0.0
  0
LINE
  8
DETAIL
  6
CONTINUOUS
 62
     5
 10
-261.32961628886318
 20
-158.25525040387731
 30
0.0
 11
-261.32961628886318
 21
-13.221324717285601
 31
0.0
  0
LINE
  8
DETAIL
  6
CONTINUOUS
 62
     5
 10
57.893376413569968
 20
-292.57189014539563
 30
0.0
 11
-57.893376413570422
 21
-292.57189014539563
 31
0.0
  0
LINE
  8
DETAIL
  6
CONTINUOUS
 62
     5
 10
-4.7075928917608962
 20
-293.07269789983832
 30
0.0
 11
4.7075928917608962
 21
-293.07269789983832
 31
0.0
  0
LINE
  8
DETAIL
  6
CONTINUOUS
 62
     5
 10
-296.97899838449121
 20
-16.426494345718989
 30
0.0
 11
-296.97899838449121
 21
-13.221324717285601
 31
0.0
  0
LINE
  8
DETAIL
  6
CONTINUOUS
 62
     5
 10
-303.82456339745249
 20
-3.004846526655911
 30
0.0
 11
-303.82456339745249
 21
-4.649685047049843
 31
0.0
  0
LINE
  8
DETAIL
  6
CONTINUOUS
 62
     5
 10
-306.99515347334409
 20
-6.4103392568659956
 30
0.0
 11
-306.99515347334409
 21
-3.004846526655911
 31
0.0
  0
ARC
  8
DETAIL
  6
CONTINUOUS
 62
     5
 10
275.94507269789977
 20
-39.463651050080557
 30
0.0
 40
19.43134087237468
 50
90.0
 51
138.79111123369549
  0
ARC
  8
DETAIL
  6
CONTINUOUS
 62
     5
 10
295.97738287560611
 20
-44.471728594506999
 30
0.0
 40
39.463651050080827
 50
208.58710129420089
 51
245.74386833760931
  0
CIRCLE
  8
DETAIL
  6
CONTINUOUS
 62
     5
 10
0.0
 20
-241.38933764135689
 30
0.0
 40
3.004846526655911
  0
ARC
  8
DETAIL
  6
CONTINUOUS
 62
     5
 10
-275.94507269789977
 20
-39.463651050080557
 30
0.0
 40
19.431340872374761
 50
41.208888766304533
 51
90.0
  0
ARC
  8
DETAIL
  6
CONTINUOUS
 62
     5
 10
-295.97738287560583
 20
-44.471728594506999
 30
0.0
 40
39.463651050080877
 50
294.25613166249059
 51
331.41289870579902
  0
LINE
  8
DETAIL
  6
CONTINUOUS
 62
     5
 10
2.504038772213335
 20
-217.35056542810949
 30
0.0
 11
2.504038772213335
 21
-225.36348949919201
 31
0.0
  0
LINE
  8
DETAIL
  6
CONTINUOUS
 62
     5
 10
-2.504038772213335
 20
-217.35056542810949
 30
0.0
 11
-2.504038772213335
 21
-225.36348949919201
 31
0.0
  0
LINE
  8
DETAIL
  6
CONTINUOUS
 62
     5
 10
-63.549721702295528
 20
-229.3699515347331
 30
0.0
 11
-63.549721702295528
 21
-225.36348949919201
 31
0.0
  0
LINE
  8
DETAIL
  6
CONTINUOUS
 62
     5
 10
-86.1389337641358
 20
-229.3699515347331
 30
0.0
 11
-86.1389337641358
 21
-225.36348949919201
 31
0.0
  0
LINE
  8
DETAIL
  6
CONTINUOUS
 62
     5
 10
81.605500137205581
 20
-177.28594507269781
 30
0.0
 11
92.26726523407342
 21
-177.28594507269781
 31
0.0
  0
LINE
  8
DETAIL
  6
CONTINUOUS
 62
     5
 10
55.490888453143732
 20
-177.28594507269781
 30
0.0
 11
77.087058652390169
 21
-177.28594507269781
 31
0.0
  0
LINE
  8
DETAIL
  6
CONTINUOUS
 62
     5
 10
35.493655053987823
 20
-177.28594507269781
 30
0.0
 11
50.171046187198499
 21
-177.28594507269781
 31
0.0
  0
LINE
  8
DETAIL
  6
CONTINUOUS
 62
     5
 10
10.46293237489817
 20
-177.28594507269781
 30
0.0
 11
15.61694674082946
 21
-177.28594507269781
 31
0.0
  0
LINE
  8
DETAIL
  6
CONTINUOUS
 62
     5
 10
-15.616946740829921
 20
-177.28594507269781
 30
0.0
 11
-10.46293237489817
 21
-177.28594507269781
 31
0.0
  0
LINE
  8
DETAIL
  6
CONTINUOUS
 62
     5
 10
-50.171046187198733
 20
-177.28594507269781
 30
0.0
 11
-35.49365505398805
 21
-177.28594507269781
 31
0.0
  0
LINE
  8
DETAIL
  6
CONTINUOUS
 62
     5
 10
-77.087058652390169
 20
-177.28594507269781
 30
0.0
 11
-55.490873864497637
 21
-177.28594507269781
 31
0.0
  0
LINE
  8
DETAIL
  6
CONTINUOUS
 62
     5
 10
-81.605485132384274
 20
-177.28594507269781
 30
0.0
 11
-92.26726523407342
 21
-177.28594507269781
 31
0.0
  0
LINE
  8
DETAIL
  6
CONTINUOUS
 62
     5
 10
2.504038772213335
 20
-217.35056542810949
 30
0.0
 11
-2.504038772213335
 21
-217.35056542810949
 31
0.0
  0
LINE
  8
DETAIL
  6
CONTINUOUS
 62
     5
 10
81.605500137205581
 20
-225.36348949919201
 30
0.0
 11
92.26726523407342
 21
-225.36348949919201
 31
0.0
  0
LINE
  8
DETAIL
  6
CONTINUOUS
 62
     5
 10
63.549681757247981
 20
-225.36348949919201
 30
0.0
 11
77.087058652390169
 21
-225.36348949919201
 31
0.0
  0
LINE
  8
DETAIL
  6
CONTINUOUS
 62
     5
 10
38.170003763284058
 20
-225.36348949919201
 30
0.0
 11
50.171046187198499
 21
-225.36348949919201
 31
0.0
  0
LINE
  8
DETAIL
  6
CONTINUOUS
 62
     5
 10
11.653212886826619
 20
-225.36348949919201
 30
0.0
 11
15.61694674082946
 21
-225.36348949919201
 31
0.0
  0
LINE
  8
DETAIL
  6
CONTINUOUS
 62
     5
 10
-15.616946740829921
 20
-225.36348949919201
 30
0.0
 11
-11.6532128876031
 21
-225.36348949919201
 31
0.0
  0
LINE
  8
DETAIL
  6
CONTINUOUS
 62
     5
 10
-50.171046187198733
 20
-225.36348949919201
 30
0.0
 11
-38.17117217650366
 21
-225.36348949919201
 31
0.0
  0
LINE
  8
DETAIL
  6
CONTINUOUS
 62
     5
 10
-77.087058652390169
 20
-225.36348949919201
 30
0.0
 11
-63.549681758024242
 21
-225.36348949919201
 31
0.0
  0
LINE
  8
DETAIL
  6
CONTINUOUS
 62
     5
 10
-81.605482171018593
 20
-225.36348949919201
 30
0.0
 11
-92.26726523407342
 21
-225.36348949919201
 31
0.0
  0
LINE
  8
BASIS
  6
DASHDOT
 62
     6
 10
0.0
 20
-329.04503816231221
 30
0.0
 11
0.0
 21
59.656244667230567
 31
0.0
  0
LINE
  8
OUTLINE
  6
CONTINUOUS
 62
     3
 10
-306.99515347334409
 20
-3.004846526655911
 30
0.0
 11
-308.49757673667182
 21
-3.004846526655911
 31
0.0
  0
LINE
  8
OUTLINE
  6
CONTINUOUS
 62
     3
 10
-65.305331179321456
 20
-270.43618739903047
 30
0.0
 11
-89.644588045234286
 21
-270.43618739903047
 31
0.0
  0
LINE
  8
SIZE
  6
CONTINUOUS
 62
    30
 10
-65.305331179321456
 20
-305.15993537964448
 30
0.0
 11
-65.305331179321456
 21
-459.08713494128818
 31
0.0
  0
LINE
  8
SIZE
  6
CONTINUOUS
 62
    30
 10
65.305331179321456
 20
-305.15993537964448
 30
0.0
 11
65.305331179321456
 21
-459.08713494128818
 31
0.0
  0
LINE
  8
SIZE
  6
CONTINUOUS
 62
    30
 10
-53.305331179321463
 20
-439.08713494128818
 30
0.0
 11
53.305331179321463
 21
-439.08713494128818
 31
0.0
  0
LINE
  8
SIZE
  6
CONTINUOUS
 62
    30
 10
65.305331179321456
 20
-439.08713494128818
 30
0.0
 11
300.10533117932118
 21
-439.08713494128818
 31
0.0
  0
CIRCLE
  8
SIZE
  6
CONTINUOUS
 62
    30
 10
-65.305331179321456
 20
-439.08713494128818
 30
0.0
 40
6.0
  0
LINE
  8
SIZE
  6
CONTINUOUS
 62
    30
 10
-65.305331179321456
 20
-439.08713494128818
 30
0.0
 11
-53.305331179321463
 21
-439.08713494128818
 31
0.0
  0
CIRCLE
  8
SIZE
  6
CONTINUOUS
 62
    30
 10
65.305331179321456
 20
-439.08713494128818
 30
0.0
 40
6.0
  0
LINE
  8
SIZE
  6
CONTINUOUS
 62
    30
 10
65.305331179321456
 20
-439.08713494128818
 30
0.0
 11
53.305331179321463
 21
-439.08713494128818
 31
0.0
  0
TEXT
  8
SIZE
  6
CONTINUOUS
 62
    30
 10
92.156759750750126
 20
-403.42046827462173
 30
0.0
 40
64.0
  1
φ131
 41
0.9
 72
     1
 11
188.70533117932149
 21
-403.42046827462173
 31
0.0
  0
POINT
  8
DEFPOINTS
  6
CONTINUOUS
 62
    30
 10
-65.305331179321456
 20
-285.15993537964448
 30
0.0
  0
POINT
  8
DEFPOINTS
  6
CONTINUOUS
 62
    30
 10
65.305331179321456
 20
-285.15993537964448
 30
0.0
  0
POINT
  8
DEFPOINTS
  6
CONTINUOUS
 62
    30
 10
65.305331179321456
 20
-439.08713494128818
 30
0.0
  0
ARC
  8
DETAIL
  6
CONTINUOUS
 62
     5
 10
-152.5628775486957
 20
-162.47640809285011
 30
0.0
 40
108.84861794440459
 50
177.77750800631489
 51
252.75127135914019
  0
ARC
  8
DETAIL
  6
CONTINUOUS
 62
     5
 10
-144.83485553614099
 20
-161.5047497688314
 30
0.0
 40
112.29229267853241
 50
178.3417508950443
 51
249.1300757920315
  0
ARC
  8
DETAIL
  6
CONTINUOUS
 62
     5
 10
-160.3273189665608
 20
-161.45619646376329
 30
0.0
 40
69.912652101748208
 50
177.37579922072251
 51
253.15298014466671
  0
ARC
  8
DETAIL
  6
CONTINUOUS
 62
     5
 10
-247.31570524511719
 20
-7.3550756443356704
 30
0.0
 40
2.6636832864976592
 50
196.46838332678729
 51
267.46639426037541
  0
ARC
  8
DETAIL
  6
CONTINUOUS
 62
     5
 10
-269.22032619006131
 20
-12.4757191122427
 30
0.0
 40
19.83654487623626
 50
12.71343332678993
 51
28.518707579123401
  0
ARC
  8
DETAIL
  6
CONTINUOUS
 62
     5
 10
-247.1849248038441
 20
-7.708187378395337
 30
0.0
 40
5.5187362891911294
 50
195.44839624695459
 51
267.4188821182164
  0
ARC
  8
DETAIL
  6
CONTINUOUS
 62
     5
 10
-260.47904586649179
 20
-10.83391032113934
 30
0.0
 40
8.1448341791574972
 50
11.72892543526098
 51
59.638119644133923
  0
ARC
  8
DETAIL
  6
CONTINUOUS
 62
     5
 10
-296.75285928064392
 20
-7.7020045258774417
 30
0.0
 40
5.5295447309985617
 50
195.4839156734175
 51
266.26320644225638
  0
ARC
  8
DETAIL
  6
CONTINUOUS
 62
     5
 10
-313.86375133744832
 20
-11.11301303520383
 30
0.0
 40
11.939845190663521
 50
9.3256426496288469
 51
32.773833256101163
  0
ARC
  8
DETAIL
  6
CONTINUOUS
 62
     5
 10
592.12566245864582
 20
-1673.5929939567559
 30
0.0
 40
1735.8494602259991
 50
113.7256206175137
 51
118.28369913243181
  0
ARC
  8
DETAIL
  6
CONTINUOUS
 62
     5
 10
82.34409435159705
 20
-92.042700604841741
 30
0.0
 40
10.350124103523241
 50
215.97468690664161
 51
287.74391833326553
  0
ARC
  8
DETAIL
  6
CONTINUOUS
 62
     5
 10
157.87844867553349
 20
-134.24747441739319
 30
0.0
 40
24.514389668355751
 50
339.29453385076238
 51
87.773813711714013
  0
ARC
  8
DETAIL
  6
CONTINUOUS
 62
     5
 10
188.5570642337739
 20
-142.1774186816306
 30
0.0
 40
7.7826218264580289
 50
185.43737532144999
 51
279.33145107699733
  0
ARC
  8
DETAIL
  6
CONTINUOUS
 62
     5
 10
150.54089851644039
 20
-15.728741782568701
 30
0.0
 40
139.7611226000335
 50
286.32212134171778
 51
304.73122647623251
  0
ARC
  8
DETAIL
  6
CONTINUOUS
 62
     5
 10
94.907225177538749
 20
74.023919860909814
 30
0.0
 40
177.90437785865731
 50
266.9202948927616
 51
273.57967542030929
  0
ARC
  8
DETAIL
  6
CONTINUOUS
 62
     5
 10
117.28436549352639
 20
-253.22562038640839
 30
0.0
 40
150.11586801784631
 50
78.561669905519182
 51
94.305327839361127
  0
ARC
  8
DETAIL
  6
CONTINUOUS
 62
     5
 10
88.165678416892661
 20
-103.19960709791491
 30
0.0
 40
2.84811101624343
 50
152.90563965740691
 51
188.55974926752299
  0
ARC
  8
DETAIL
  6
CONTINUOUS
 62
     5
 10
-107.02260629567419
 20
49.189126389508367
 30
0.0
 40
161.61796904041549
 50
288.00536078963012
 51
304.21842892041627
  0
ARC
  8
DETAIL
  6
CONTINUOUS
 62
     5
 10
120.09732432377039
 20
-797.7150276822556
 30
0.0
 40
738.57840322113771
 50
112.86182081948679
 51
118.31005422994529
  0
ARC
  8
DETAIL
  6
CONTINUOUS
 62
     5
 10
-35.055087746239217
 20
-778.64296205313372
 30
0.0
 40
674.4881661099115
 50
91.870053791956224
 51
101.2678937294059
  0
ARC
  8
DETAIL
  6
CONTINUOUS
 62
     5
 10
160.2330195797463
 20
-84.519523760590573
 30
0.0
 40
25.28927666280585
 50
238.58419641582219
 51
267.2036756829292
  0
ARC
  8
DETAIL
  6
CONTINUOUS
 62
     5
 10
-5.3860296206100884
 20
-189.4633785788844
 30
0.0
 40
120.9966426988166
 50
49.016894161208647
 51
60.213857490140988
  0
ARC
  8
DETAIL
  6
CONTINUOUS
 62
     5
 10
451.81007229074788
 20
1072.298076467546
 30
0.0
 40
1304.0573105863621
 50
242.50401917354921
 51
243.51834718537461
  0
ARC
  8
DETAIL
  6
CONTINUOUS
 62
     5
 10
171.3934664689441
 20
578.36220719473977
 30
0.0
 40
737.93959774231962
 50
248.32522215649141
 51
254.40593895228059
  0
ARC
  8
DETAIL
  6
CONTINUOUS
 62
     5
 10
35.68972341157837
 20
129.79672018763901
 30
0.0
 40
249.060772921732
 50
249.60111764950889
 51
258.29364725050431
  0
ARC
  8
DETAIL
  6
CONTINUOUS
 62
     5
 10
-69.7761640006986
 20
-1162.1496052942109
 30
0.0
 40
1058.694377774676
 50
87.814774373135847
 51
88.981270165114822
  0
ARC
  8
DETAIL
  6
CONTINUOUS
 62
     5
 10
74.269627785665762
 20
-212.729113719059
 30
0.0
 40
150.0223376902853
 50
128.45571340653831
 51
133.67787080054501
  0
ARC
  8
DETAIL
  6
CONTINUOUS
 62
     5
 10
152.5628775486957
 20
-162.47640809285011
 30
0.0
 40
108.84861794440459
 50
287.24872864085978
 51
2.2224919936850549
  0
ARC
  8
DETAIL
  6
CONTINUOUS
 62
     5
 10
144.83485553614079
 20
-161.5047497688314
 30
0.0
 40
112.29229267853241
 50
290.86992420796838
 51
1.658249104955744
  0
ARC
  8
DETAIL
  6
CONTINUOUS
 62
     5
 10
160.3273189665606
 20
-161.45619646376329
 30
0.0
 40
69.912652101748208
 50
286.84701985533337
 51
2.624200779277539
  0
ARC
  8
DETAIL
  6
CONTINUOUS
 62
     5
 10
247.31570524511699
 20
-7.3550756443356704
 30
0.0
 40
2.6636832864976592
 50
272.53360573962459
 51
343.53161667321268
  0
ARC
  8
DETAIL
  6
CONTINUOUS
 62
     5
 10
269.22032619006131
 20
-12.4757191122427
 30
0.0
 40
19.83654487623626
 50
151.4812924208766
 51
167.2865666732103
  0
ARC
  8
DETAIL
  6
CONTINUOUS
 62
     5
 10
247.18492480384381
 20
-7.708187378395337
 30
0.0
 40
5.5187362891911294
 50
272.5811178817836
 51
344.5516037530395
  0
ARC
  8
DETAIL
  6
CONTINUOUS
 62
     5
 10
260.47904586649202
 20
-10.83391032113934
 30
0.0
 40
8.1448341791574972
 50
120.36188035586611
 51
168.271074564739
  0
ARC
  8
DETAIL
  6
CONTINUOUS
 62
     5
 10
296.75285928064392
 20
-7.7020045258774417
 30
0.0
 40
5.5295447309985617
 50
273.73679355774362
 51
344.51608432658242
  0
ARC
  8
DETAIL
  6
CONTINUOUS
 62
     5
 10
313.86375133744832
 20
-11.11301303520383
 30
0.0
 40
11.939845190663521
 50
147.22616674389889
 51
170.67435735037111
  0
LINE
  8
DETAIL
  6
CONTINUOUS
 62
     5
 10
-58.87105414957864
 20
-197.81906300484641
 30
0.0
 11
-58.87105414957864
 21
-204.8303715670431
 31
0.0
  0
LINE
  8
DETAIL
  6
CONTINUOUS
 62
     5
 10
-71.75547412558808
 20
-197.81906300477229
 30
0.0
 11
-71.755474125588989
 21
-204.83037156711751
 31
0.0
  0
LINE
  8
DETAIL
  6
CONTINUOUS
 62
     5
 10
-11.34299272707926
 20
-197.81906300484641
 30
0.0
 11
-11.34299272707926
 21
-204.8303715670431
 31
0.0
  0
LINE
  8
DETAIL
  6
CONTINUOUS
 62
     5
 10
58.871054149578413
 20
-197.81906300484641
 30
0.0
 11
58.871054149578413
 21
-204.8303715670431
 31
0.0
  0
LINE
  8
DETAIL
  6
CONTINUOUS
 62
     5
 10
71.75547412558808
 20
-197.81906300477229
 30
0.0
 11
71.755474125588989
 21
-204.83037156711751
 31
0.0
  0
LINE
  8
DETAIL
  6
CONTINUOUS
 62
     5
 10
11.34299272707926
 20
-197.81906300484641
 30
0.0
 11
11.34299272707926
 21
-204.8303715670431
 31
0.0
  0
ARC
  8
OUTLINE
  6
CONTINUOUS
 62
     3
 10
-152.56287754869601
 20
-162.47640809285011
 30
0.0
 40
108.84861794440459
 50
177.77750800631489
 51
252.75127135914019
  0
ARC
  8
OUTLINE
  6
CONTINUOUS
 62
     3
 10
-296.75285928064432
 20
-7.7020045258774417
 30
0.0
 40
5.5295447309985617
 50
195.48391567342341
 51
266.26320644225638
  0
ARC
  8
OUTLINE
  6
CONTINUOUS
 62
     3
 10
152.5628775486957
 20
-162.47640809285011
 30
0.0
 40
108.84861794440459
 50
287.24872864085978
 51
2.2224919936850549
  0
ARC
  8
OUTLINE
  6
CONTINUOUS
 62
     3
 10
296.75285928064392
 20
-7.7020045258774417
 30
0.0
 40
5.5295447309985617
 50
273.73679355774362
 51
344.51608432657662
  0
TEXT
  8
ETC
  6
CONTINUOUS
 62
    61
 10
391.50670589514078
 20
268.55394607494333
 30
0.0
 40
40.0
  1
EWF-50FTA2
 41
0.9
  0
TEXT
  8
ETC
  6
CONTINUOUS
 62
    61
 10
391.50670589514078
 20
202.5539460749433
 30
0.0
 40
40.0
  1
EWF-50FTA2-PR
 41
0.9
  0
ENDSEC
  0
EOF
