  0
SECTION
  2
HEADER
  9
$ACADVER
  1
AC1009
  9
$DWGCODEPAGE
  3
dos932
  9
$INSBASE
 10
0.0
 20
0.0
 30
0.0
  9
$EXTMIN
 10
-446.84141389657998
 20
-438.99534961557401
 30
-0.0015258207003583
  9
$EXTMAX
 10
937.18873216676002
 20
682.52564289435395
 30
0.0000000349246037
  9
$LIMMIN
 10
-2970.0
 20
-2100.0
  9
$LIMMAX
 10
2970.0
 20
2100.0
  9
$ORTHOMODE
 70
     1
  9
$REGENMODE
 70
     1
  9
$FILLMODE
 70
     1
  9
$QTEXTMODE
 70
     0
  9
$MIRRTEXT
 70
     0
  9
$LTSCALE
 40
20.0
  9
$ATTMODE
 70
     1
  9
$TEXTSIZE
 40
64.0
  9
$TRACEWID
 40
0.05
  9
$TEXTSTYLE
  7
STANDARD
  9
$CLAYER
  8
SIZE
  9
$CELTYPE
  6
CONTINUOUS
  9
$CECOLOR
 62
     7
  9
$DIMSCALE
 40
1.0
  9
$DIMASZ
 40
12.0
  9
$DIMEXO
 40
20.0
  9
$DIMDLI
 40
200.0
  9
$DIMRND
 40
0.0
  9
$DIMDLE
 40
0.0
  9
$DIMEXE
 40
20.0
  9
$DIMTP
 40
0.0
  9
$DIMTM
 40
0.0
  9
$DIMTXT
 40
64.0
  9
$DIMCEN
 40
0.09
  9
$DIMTSZ
 40
0.0
  9
$DIMTOL
 70
     0
  9
$DIMLIM
 70
     0
  9
$DIMTIH
 70
     0
  9
$DIMTOH
 70
     0
  9
$DIMSE1
 70
     0
  9
$DIMSE2
 70
     0
  9
$DIMTAD
 70
     1
  9
$DIMZIN
 70
     8
  9
$DIMBLK
  1

  9
$DIMASO
 70
     1
  9
$DIMSHO
 70
     0
  9
$DIMPOST
  1

  9
$DIMAPOST
  1

  9
$DIMALT
 70
     0
  9
$DIMALTD
 70
     2
  9
$DIMALTF
 40
25.399999999999999
  9
$DIMLFAC
 40
1.0
  9
$DIMTOFL
 70
     1
  9
$DIMTVP
 40
0.0
  9
$DIMTIX
 70
     1
  9
$DIMSOXD
 70
     0
  9
$DIMSAH
 70
     0
  9
$DIMBLK1
  1

  9
$DIMBLK2
  1

  9
$DIMSTYLE
  2
STANDARD
  9
$DIMCLRD
 70
     7
  9
$DIMCLRE
 70
     7
  9
$DIMCLRT
 70
     7
  9
$DIMTFAC
 40
1.0
  9
$DIMGAP
 40
25.0
  9
$LUNITS
 70
     2
  9
$LUPREC
 70
     4
  9
$SKETCHINC
 40
0.1
  9
$FILLETRAD
 40
3.0
  9
$AUNITS
 70
     1
  9
$AUPREC
 70
     3
  9
$MENU
  1
ACAD
  9
$ELEVATION
 40
0.0
  9
$PELEVATION
 40
0.0
  9
$THICKNESS
 40
0.0
  9
$LIMCHECK
 70
     0
  9
$CHAMFERA
 40
0.0
  9
$CHAMFERB
 40
0.0
  9
$SKPOLY
 70
     0
  9
$TDCREATE
 40
2453019.62301037
  9
$TDUPDATE
 40
2458949.447923704
  9
$TDINDWG
 40
1.7135229282
  9
$TDUSRTIMER
 40
1.7135229282
  9
$USRTIMER
 70
     1
  9
$ANGBASE
 50
0.0
  9
$ANGDIR
 70
     0
  9
$PDMODE
 70
     3
  9
$PDSIZE
 40
-2.0
  9
$PLINEWID
 40
0.0
  9
$SPLFRAME
 70
     0
  9
$SPLINETYPE
 70
     6
  9
$SPLINESEGS
 70
     8
  9
$SURFTAB1
 70
     6
  9
$SURFTAB2
 70
     6
  9
$SURFTYPE
 70
     6
  9
$SURFU
 70
     6
  9
$SURFV
 70
     6
  9
$UCSNAME
  2

  9
$UCSORG
 10
0.0
 20
0.0
 30
0.0
  9
$UCSXDIR
 10
1.0
 20
0.0
 30
0.0
  9
$UCSYDIR
 10
0.0
 20
1.0
 30
0.0
  9
$PUCSNAME
  2

  9
$PUCSORG
 10
0.0
 20
0.0
 30
0.0
  9
$PUCSXDIR
 10
1.0
 20
0.0
 30
0.0
  9
$PUCSYDIR
 10
0.0
 20
1.0
 30
0.0
  9
$USERI1
 70
     0
  9
$USERI2
 70
     0
  9
$USERI3
 70
     0
  9
$USERI4
 70
     0
  9
$USERI5
 70
     0
  9
$USERR1
 40
20.0
  9
$USERR2
 40
0.0
  9
$USERR3
 40
0.0
  9
$USERR4
 40
0.0
  9
$USERR5
 40
0.0
  9
$WORLDVIEW
 70
     1
  9
$SHADEDGE
 70
     3
  9
$SHADEDIF
 70
    70
  9
$TILEMODE
 70
     1
  9
$MAXACTVP
 70
    48
  9
$PINSBASE
 10
0.0
 20
0.0
 30
0.0
  9
$PLIMCHECK
 70
     0
  9
$PEXTMIN
 10
-100000000000000000000.0
 20
-100000000000000000000.0
 30
-100000000000000000000.0
  9
$PEXTMAX
 10
100000000000000000000.0
 20
100000000000000000000.0
 30
100000000000000000000.0
  9
$PLIMMIN
 10
0.0
 20
0.0
  9
$PLIMMAX
 10
12.0
 20
9.0
  9
$UNITMODE
 70
     0
  9
$VISRETAIN
 70
     0
  9
$PLINEGEN
 70
     0
  9
$PSLTSCALE
 70
     0
  9
$TREEDEPTH
 70
  3020
  9
$ATTDIA
 70
     0
  9
$ATTREQ
 70
     1
  9
$BLIPMODE
 70
     1
  9
$COORDS
 70
     1
  9
$DRAGMODE
 70
     2
  9
$OSMODE
 70
     0
  9
$HANDLING
 70
     0
  9
$HANDSEED
  5
1031F
  0
ENDSEC
  0
SECTION
  2
TABLES
  0
TABLE
  2
LTYPE
 70
     2
  0
LTYPE
  2
CONTINUOUS
 70
     0
  3
実線
 72
    65
 73
     0
 40
0.0
  0
LTYPE
  2
DASHDOT
 70
     0
  3
____ _ ____ _ ____ _ ____ _ ____ _ ____ _ ____
 72
    65
 73
     4
 40
5.5
 49
4.0
 49
-0.6
 49
0.3
 49
-0.6
  0
ENDTAB
  0
TABLE
  2
LAYER
 70
    12
  0
LAYER
  2
0
 70
     0
 62
     7
  6
CONTINUOUS
  0
LAYER
  2
BASIS
 70
     0
 62
     6
  6
DASHDOT
  0
LAYER
  2
OUTLINE
 70
     0
 62
     3
  6
CONTINUOUS
  0
LAYER
  2
DETAIL
 70
     0
 62
     5
  6
CONTINUOUS
  0
LAYER
  2
SIZE
 70
     0
 62
    30
  6
CONTINUOUS
  0
LAYER
  2
ARRANGE
 70
     0
 62
     1
  6
CONTINUOUS
  0
LAYER
  2
DEFPOINTS
 70
     0
 62
     7
  6
CONTINUOUS
  0
LAYER
  2
ETC
 70
     0
 62
    61
  6
CONTINUOUS
  0
LAYER
  2
FIX
 70
     0
 62
    11
  6
CONTINUOUS
  0
LAYER
  2
NOTE
 70
     0
 62
     4
  6
CONTINUOUS
  0
LAYER
  2
SERVICESPACE
 70
    64
 62
     2
  6
DASHDOT
  0
LAYER
  2
SYMBOLLINE
 70
    64
 62
    15
  6
CONTINUOUS
  0
ENDTAB
  0
TABLE
  2
STYLE
 70
     1
  0
STYLE
  2
STANDARD
 70
     0
 40
64.0
 41
0.9
 50
0.0
 71
     0
 42
64.0
  3
SIMPLEX.shx
  4
BIGFONT.shx
  0
ENDTAB
  0
TABLE
  2
APPID
 70
    19
  0
APPID
  2
ACAD
 70
     0
  0
APPID
  2
AUTOCAD_POSTSCRIPT_FIGURE
 70
     0
  0
APPID
  2
ACAD_EXEMPT_FROM_CAD_STANDARDS
 70
     0
  0
APPID
  2
ACAD_PSEXT
 70
     0
  0
APPID
  2
ACAUTHENVIRON
 70
     0
  0
APPID
  2
GENIUS_GENOENT_13
 70
     0
  0
APPID
  2
GENIUS_GENCFG_13
 70
     0
  0
APPID
  2
GENIUS_GENCFG0_13
 70
     0
  0
APPID
  2
GENIUS_GENCFG1_13
 70
     0
  0
APPID
  2
GENIUS_GENCFG2_13
 70
     0
  0
APPID
  2
GENIUS_GENCFG3_13
 70
     0
  0
APPID
  2
GENIUS_GENCFG4_13
 70
     0
  0
APPID
  2
GENIUS_GEVCFG0_13
 70
     0
  0
APPID
  2
CONTENTBLOCKICON
 70
     0
  0
APPID
  2
CONTENTBLOCKDESCRIPTION
 70
     0
  0
APPID
  2
ACAD_NAV_VCDISPLAY
 70
     0
  0
APPID
  2
ACAD_MLEADERVER
 70
     0
  0
APPID
  2
ACDBDYNAMICBLOCKTRUENAME
 70
     0
  0
APPID
  2
ACDBDYNAMICBLOCKGUID
 70
     0
  0
ENDTAB
  0
TABLE
  2
DIMSTYLE
 70
     1
  0
DIMSTYLE
  2
STANDARD
 70
     0
  3

  4

  5
_ORIGIN
  6

  7

 40
1.0
 41
12.0
 42
20.0
 43
200.0
 44
20.0
 45
0.0
 46
0.0
 47
0.0
 48
0.0
140
64.0
141
0.09
142
0.0
143
25.399999999999999
144
1.0
145
0.0
146
1.0
147
25.0
 71
     0
 72
     0
 73
     0
 74
     0
 75
     0
 76
     0
 77
     1
 78
     8
170
     0
171
     2
172
     1
173
     0
174
     1
175
     0
176
     7
177
     7
178
     7
  0
ENDTAB
  0
TABLE
  2
VIEW
 70
     1
  0
VIEW
  2
ALL
 70
     0
 40
4282.6198079999986
 10
0.0
 20
41.309904000000003
 41
5940.0
 11
0.0
 21
0.0
 31
1.0
 12
0.0
 22
0.0
 32
0.0
 42
50.0
 43
0.0
 44
0.0
 50
0.0
 71
     0
  0
ENDTAB
  0
TABLE
  2
UCS
 70
     0
  0
ENDTAB
  0
TABLE
  2
VPORT
 70
     1
  0
VPORT
  2
*ACTIVE
 70
     0
 10
0.0
 20
0.0
 11
1.0
 21
1.0
 12
245.17365913508999
 22
121.76514663939
 13
0.0
 23
0.0
 14
1.0
 24
1.0
 15
0.0
 25
0.0
 16
0.0
 26
0.0
 36
1.0
 17
0.0
 27
0.0
 37
0.0
 40
1128.956490802811
 41
1.747787610619469
 42
50.0
 43
0.0
 44
0.0
 50
0.0
 51
0.0
 71
     0
 72
  1000
 73
     1
 74
     3
 75
     0
 76
     0
 77
     0
 78
     0
  0
ENDTAB
  0
ENDSEC
  0
SECTION
  2
BLOCKS
  0
BLOCK
  8
0
  2
_ORIGIN
 70
     0
 10
0.0
 20
0.0
 30
0.0
  3
_ORIGIN
  1
_ORIGIN
  0
CIRCLE
  8
0
  6
CONTINUOUS
 62
     7
 10
0.0
 20
0.0
 30
0.0
 40
0.5
  0
LINE
  8
0
  6
CONTINUOUS
 62
     7
 10
0.0
 20
0.0
 30
0.0
 11
-1.0
 21
0.0
 31
0.0
  0
ENDBLK
  8
0
  0
ENDSEC
  0
SECTION
  2
ENTITIES
  0
CIRCLE
  8
ARRANGE
  6
CONTINUOUS
 62
     1
 10
0.0
 20
0.0
 30
0.0
 40
40.0
  0
POINT
  8
ARRANGE
  6
CONTINUOUS
 62
     1
 10
-0.0000000000000568
 20
0.0
 30
0.0
 50
359.99829045418988
  0
POINT
  8
ARRANGE
  6
CONTINUOUS
 62
     1
 10
0.0000000000015348
 20
0.0000000000000568
 30
0.0
 50
359.99829045418988
  0
TEXT
  8
ETC
  6
CONTINUOUS
 62
    61
 10
322.49492737393479
 20
618.20754398805229
 30
0.0
 40
64.0
  1
EWF-50FTA2_4
 41
0.9
  0
TEXT
  8
ETC
  6
CONTINUOUS
 62
    61
 10
318.30893337393462
 20
500.25223397322088
 30
0.0
 40
64.0
  1
産業扇
 41
0.9
  0
TEXT
  8
NOTE
  6
CONTINUOUS
 62
     4
 10
111.20894172444871
 20
-424.37655265318779
 30
0.0
 40
64.0
  1
4-φ14
 41
0.9
  0
LINE
  8
SIZE
  6
CONTINUOUS
 62
    30
 10
-10.01615508885294
 20
323.38933764135709
 30
0.0
 11
-10.01615508885294
 21
394.68769811185541
 31
0.0
  0
LINE
  8
SIZE
  6
CONTINUOUS
 62
    30
 10
-0.0000000000000568
 20
328.4975767366721
 30
0.0
 11
-0.0000000000000568
 21
394.68769811185541
 31
0.0
  0
LINE
  8
SIZE
  6
CONTINUOUS
 62
    30
 10
-22.01615508885294
 20
374.68769811185541
 30
0.0
 11
-34.01615508885294
 21
374.68769811185541
 31
0.0
  0
LINE
  8
SIZE
  6
CONTINUOUS
 62
    30
 10
11.99999999999994
 20
374.68769811185541
 30
0.0
 11
156.28571428571431
 21
374.68769811185541
 31
0.0
  0
LINE
  8
SIZE
  6
CONTINUOUS
 62
    30
 10
-10.01615508885294
 20
374.68769811185541
 30
0.0
 11
-0.0000000000000568
 21
374.68769811185541
 31
0.0
  0
CIRCLE
  8
SIZE
  6
CONTINUOUS
 62
    30
 10
-10.01615508885294
 20
374.68769811185541
 30
0.0
 40
6.0
  0
LINE
  8
SIZE
  6
CONTINUOUS
 62
    30
 10
-10.01615508885294
 20
374.68769811185541
 30
0.0
 11
-22.01615508885294
 21
374.68769811185541
 31
0.0
  0
CIRCLE
  8
SIZE
  6
CONTINUOUS
 62
    30
 10
-0.0000000000000568
 20
374.68769811185541
 30
0.0
 40
6.0
  0
LINE
  8
SIZE
  6
CONTINUOUS
 62
    30
 10
-0.0000000000000568
 20
374.68769811185541
 30
0.0
 11
11.99999999999994
 21
374.68769811185541
 31
0.0
  0
TEXT
  8
SIZE
  6
CONTINUOUS
 62
    30
 10
48.999999999999908
 20
399.68769811185541
 30
0.0
 40
64.0
  1
10
 41
0.9
 72
     1
 11
90.142857142857054
 21
399.68769811185541
 31
0.0
  0
POINT
  8
DEFPOINTS
  6
CONTINUOUS
 62
    30
 10
-10.01615508885294
 20
303.38933764135709
 30
0.0
  0
POINT
  8
DEFPOINTS
  6
CONTINUOUS
 62
    30
 10
-0.0000000000000568
 20
308.4975767366721
 30
0.0
  0
POINT
  8
DEFPOINTS
  6
CONTINUOUS
 62
    30
 10
-0.0000000000000568
 20
374.68769811185541
 30
0.0
  0
LINE
  8
SIZE
  6
CONTINUOUS
 62
    30
 10
-20.032310177705821
 20
313.37318255250398
 30
0.0
 11
-20.032310177705821
 21
394.68769811185541
 31
0.0
  0
LINE
  8
SIZE
  6
CONTINUOUS
 62
    30
 10
-10.01615508885294
 20
323.38933764135709
 30
0.0
 11
-10.01615508885294
 21
394.68769811185541
 31
0.0
  0
LINE
  8
SIZE
  6
CONTINUOUS
 62
    30
 10
1.98384491114706
 20
374.68769811185541
 30
0.0
 11
13.98384491114706
 21
374.68769811185541
 31
0.0
  0
LINE
  8
SIZE
  6
CONTINUOUS
 62
    30
 10
-32.032310177705817
 20
374.68769811185541
 30
0.0
 11
-229.58508408987049
 21
374.68769811185541
 31
0.0
  0
LINE
  8
SIZE
  6
CONTINUOUS
 62
    30
 10
-10.01615508885294
 20
374.68769811185541
 30
0.0
 11
-20.032310177705821
 21
374.68769811185541
 31
0.0
  0
CIRCLE
  8
SIZE
  6
CONTINUOUS
 62
    30
 10
-10.01615508885294
 20
374.68769811185541
 30
0.0
 40
6.0
  0
LINE
  8
SIZE
  6
CONTINUOUS
 62
    30
 10
-10.01615508885294
 20
374.68769811185541
 30
0.0
 11
1.98384491114706
 21
374.68769811185541
 31
0.0
  0
CIRCLE
  8
SIZE
  6
CONTINUOUS
 62
    30
 10
-20.032310177705821
 20
374.68769811185541
 30
0.0
 40
6.0
  0
LINE
  8
SIZE
  6
CONTINUOUS
 62
    30
 10
-20.032310177705821
 20
374.68769811185541
 30
0.0
 11
-32.032310177705817
 21
374.68769811185541
 31
0.0
  0
TEXT
  8
SIZE
  6
CONTINUOUS
 62
    30
 10
-204.58508408987049
 20
399.68769811185541
 30
0.0
 40
64.0
  1
10
 41
0.9
 72
     1
 11
-163.44222694701341
 21
399.68769811185541
 31
0.0
  0
POINT
  8
DEFPOINTS
  6
CONTINUOUS
 62
    30
 10
-20.032310177705821
 20
293.37318255250398
 30
0.0
  0
POINT
  8
DEFPOINTS
  6
CONTINUOUS
 62
    30
 10
-10.01615508885294
 20
303.38933764135709
 30
0.0
  0
POINT
  8
DEFPOINTS
  6
CONTINUOUS
 62
    30
 10
-10.01615508885294
 20
374.68769811185541
 30
0.0
  0
LINE
  8
SIZE
  6
CONTINUOUS
 62
    30
 10
18.499999999999719
 20
309.99999804575418
 30
0.0
 11
352.13545641544181
 21
309.99999804575401
 31
0.0
  0
LINE
  8
SIZE
  6
CONTINUOUS
 62
    30
 10
18.497576736671991
 20
-309.99999999999989
 30
0.0
 11
352.13545641544158
 21
-309.99999999999989
 31
0.0
  0
LINE
  8
SIZE
  6
CONTINUOUS
 62
    30
 10
332.13545641544181
 20
297.99999804575401
 30
0.0
 11
332.13545641544158
 21
-297.99999999999989
 31
0.0
  0
CIRCLE
  8
SIZE
  6
CONTINUOUS
 62
    30
 10
332.13545641544181
 20
309.99999804575401
 30
0.0
 40
6.0
  0
LINE
  8
SIZE
  6
CONTINUOUS
 62
    30
 10
332.13545641544181
 20
309.99999804575401
 30
0.0
 11
332.13545641544181
 21
297.99999804575401
 31
0.0
  0
CIRCLE
  8
SIZE
  6
CONTINUOUS
 62
    30
 10
332.13545641544158
 20
-309.99999999999989
 30
0.0
 40
6.0
  0
LINE
  8
SIZE
  6
CONTINUOUS
 62
    30
 10
332.13545641544158
 20
-309.99999999999989
 30
0.0
 11
332.13545641544158
 21
-297.99999999999989
 31
0.0
  0
TEXT
  8
SIZE
  6
CONTINUOUS
 62
    30
 10
307.13545641544181
 20
-80.859766315695964
 30
0.0
 40
64.0
  1
620
 50
90.0
 41
0.9
 72
     1
 11
307.13545641544181
 21
-6.8026234585531142
 31
0.0
  0
POINT
  8
DEFPOINTS
  6
CONTINUOUS
 62
    30
 10
-1.500000000000284
 20
309.99999804575418
 30
0.0
  0
POINT
  8
DEFPOINTS
  6
CONTINUOUS
 62
    30
 10
-1.5024232633280119
 20
-309.99999999999989
 30
0.0
  0
POINT
  8
DEFPOINTS
  6
CONTINUOUS
 62
    30
 10
332.13545641544158
 20
-309.99999999999989
 30
0.0
  0
LINE
  8
SIZE
  6
CONTINUOUS
 62
    30
 10
35.030481073345022
 20
280.45234248788381
 30
0.0
 11
224.8038463732851
 21
280.45234248788358
 31
0.0
  0
LINE
  8
SIZE
  6
CONTINUOUS
 62
    30
 10
35.030481073345022
 20
-280.45234248788358
 30
0.0
 11
224.80384637328501
 21
-280.45234248788381
 31
0.0
  0
LINE
  8
SIZE
  6
CONTINUOUS
 62
    30
 10
204.8038463732851
 20
268.45234248788358
 30
0.0
 11
204.80384637328501
 21
-268.45234248788381
 31
0.0
  0
CIRCLE
  8
SIZE
  6
CONTINUOUS
 62
    30
 10
204.8038463732851
 20
280.45234248788358
 30
0.0
 40
6.0
  0
LINE
  8
SIZE
  6
CONTINUOUS
 62
    30
 10
204.8038463732851
 20
280.45234248788358
 30
0.0
 11
204.8038463732851
 21
268.45234248788358
 31
0.0
  0
CIRCLE
  8
SIZE
  6
CONTINUOUS
 62
    30
 10
204.80384637328501
 20
-280.45234248788381
 30
0.0
 40
6.0
  0
LINE
  8
SIZE
  6
CONTINUOUS
 62
    30
 10
204.80384637328501
 20
-280.45234248788381
 30
0.0
 11
204.80384637328501
 21
-268.45234248788381
 31
0.0
  0
TEXT
  8
SIZE
  6
CONTINUOUS
 62
    30
 10
179.80384637328501
 20
-74.057142857142793
 30
0.0
 40
64.0
  1
560
 50
90.0
 41
0.9
 72
     1
 11
179.80384637328501
 21
0.0000000000000568
 31
0.0
  0
POINT
  8
DEFPOINTS
  6
CONTINUOUS
 62
    30
 10
15.030481073345021
 20
280.45234248788381
 30
0.0
  0
POINT
  8
DEFPOINTS
  6
CONTINUOUS
 62
    30
 10
15.030481073345021
 20
-280.45234248788358
 30
0.0
  0
POINT
  8
DEFPOINTS
  6
CONTINUOUS
 62
    30
 10
204.80384637328501
 20
-280.45234248788381
 30
0.0
  0
CIRCLE
  8
FIX
  6
CONTINUOUS
 62
    11
 10
-0.0000000000000568
 20
-280.45234248788358
 30
0.0
 40
7.0
  0
CIRCLE
  8
FIX
  6
CONTINUOUS
 62
    11
 10
-0.0000000000000568
 20
280.45234248788381
 30
0.0
 40
7.0
  0
LINE
  8
SIZE
  6
CONTINUOUS
 62
    30
 10
-0.0000000000000568
 20
328.4975767366721
 30
0.0
 11
-0.0000000000000568
 21
529.59874507452014
 31
0.0
  0
LINE
  8
SIZE
  6
CONTINUOUS
 62
    30
 10
-84.452730188701651
 20
313.45581583198719
 30
0.0
 11
-84.452730188701651
 21
529.59874507452014
 31
0.0
  0
LINE
  8
SIZE
  6
CONTINUOUS
 62
    30
 10
-72.452730188701651
 20
509.59874507452008
 30
0.0
 11
-12.00000000000006
 21
509.59874507452008
 31
0.0
  0
LINE
  8
SIZE
  6
CONTINUOUS
 62
    30
 10
-0.0000000000000568
 20
509.59874507452008
 30
0.0
 11
178.57142857142861
 21
509.59874507452008
 31
0.0
  0
CIRCLE
  8
SIZE
  6
CONTINUOUS
 62
    30
 10
-84.452730188701651
 20
509.59874507452008
 30
0.0
 40
6.0
  0
LINE
  8
SIZE
  6
CONTINUOUS
 62
    30
 10
-84.452730188701651
 20
509.59874507452008
 30
0.0
 11
-72.452730188701651
 21
509.59874507452008
 31
0.0
  0
CIRCLE
  8
SIZE
  6
CONTINUOUS
 62
    30
 10
-0.0000000000000568
 20
509.59874507452008
 30
0.0
 40
6.0
  0
LINE
  8
SIZE
  6
CONTINUOUS
 62
    30
 10
-0.0000000000000568
 20
509.59874507452008
 30
0.0
 11
-12.00000000000006
 21
509.59874507452008
 31
0.0
  0
TEXT
  8
SIZE
  6
CONTINUOUS
 62
    30
 10
57.571428571428498
 20
534.59874507452014
 30
0.0
 40
64.0
  1
84
 41
0.9
 72
     1
 11
105.5714285714285
 21
534.59874507452014
 31
0.0
  0
POINT
  8
DEFPOINTS
  6
CONTINUOUS
 62
    30
 10
-0.0000000000000568
 20
308.4975767366721
 30
0.0
  0
POINT
  8
DEFPOINTS
  6
CONTINUOUS
 62
    30
 10
-84.452730188701651
 20
293.45581583198719
 30
0.0
  0
POINT
  8
DEFPOINTS
  6
CONTINUOUS
 62
    30
 10
-84.452730188701651
 20
509.59874507452008
 30
0.0
  0
LINE
  8
SIZE
  6
CONTINUOUS
 62
    30
 10
-0.0000000000000568
 20
328.4975767366721
 30
0.0
 11
-0.0000000000000568
 21
609.77985092565723
 31
0.0
  0
LINE
  8
SIZE
  6
CONTINUOUS
 62
    30
 10
-295.07515983527207
 20
-28.558718654095969
 30
0.0
 11
-295.07515983527202
 21
609.77985092565723
 31
0.0
  0
LINE
  8
SIZE
  6
CONTINUOUS
 62
    30
 10
-12.00000000000006
 20
589.77985092565723
 30
0.0
 11
-283.07515983527202
 21
589.77985092565723
 31
0.0
  0
CIRCLE
  8
SIZE
  6
CONTINUOUS
 62
    30
 10
-0.0000000000000568
 20
589.77985092565723
 30
0.0
 40
6.0
  0
LINE
  8
SIZE
  6
CONTINUOUS
 62
    30
 10
-0.0000000000000568
 20
589.77985092565723
 30
0.0
 11
-12.00000000000006
 21
589.77985092565723
 31
0.0
  0
CIRCLE
  8
SIZE
  6
CONTINUOUS
 62
    30
 10
-295.07515983527202
 20
589.77985092565723
 30
0.0
 40
6.0
  0
LINE
  8
SIZE
  6
CONTINUOUS
 62
    30
 10
-295.07515983527202
 20
589.77985092565723
 30
0.0
 11
-283.07515983527202
 21
589.77985092565723
 31
0.0
  0
TEXT
  8
SIZE
  6
CONTINUOUS
 62
    30
 10
-221.59472277477889
 20
614.77985092565723
 30
0.0
 40
64.0
  1
295
 41
0.9
 72
     1
 11
-147.53757991763601
 21
614.77985092565723
 31
0.0
  0
POINT
  8
DEFPOINTS
  6
CONTINUOUS
 62
    30
 10
-0.0000000000000568
 20
308.4975767366721
 30
0.0
  0
POINT
  8
DEFPOINTS
  6
CONTINUOUS
 62
    30
 10
-295.07515983527207
 20
-48.558718654095969
 30
0.0
  0
POINT
  8
DEFPOINTS
  6
CONTINUOUS
 62
    30
 10
-295.07515983527202
 20
589.77985092565723
 30
0.0
  0
TEXT
  8
NOTE
  6
CONTINUOUS
 62
     4
 10
-356.65133123951989
 20
-393.39475877791119
 30
0.0
 40
64.0
  1
EL
 41
0.9
 72
     2
 11
-271.62275981094848
 21
-393.39475877791119
 31
0.0
  0
LINE
  8
SIZE
  6
CONTINUOUS
 62
    30
 10
-325.19224555735059
 20
65.305331179321513
 30
0.0
 11
-366.97315554879691
 21
65.305331179321513
 31
0.0
  0
LINE
  8
SIZE
  6
CONTINUOUS
 62
    30
 10
-325.19224555735059
 20
-65.305331179321513
 30
0.0
 11
-366.97315554879691
 21
-65.305331179321513
 31
0.0
  0
LINE
  8
SIZE
  6
CONTINUOUS
 62
    30
 10
-346.97315554879708
 20
53.305331179321513
 30
0.0
 11
-346.97315554879708
 21
-53.305331179321513
 31
0.0
  0
CIRCLE
  8
SIZE
  6
CONTINUOUS
 62
    30
 10
-346.97315554879708
 20
65.305331179321513
 30
0.0
 40
6.0
  0
LINE
  8
SIZE
  6
CONTINUOUS
 62
    30
 10
-346.97315554879708
 20
65.305331179321513
 30
0.0
 11
-346.97315554879708
 21
53.305331179321513
 31
0.0
  0
CIRCLE
  8
SIZE
  6
CONTINUOUS
 62
    30
 10
-346.97315554879708
 20
-65.305331179321513
 30
0.0
 40
6.0
  0
LINE
  8
SIZE
  6
CONTINUOUS
 62
    30
 10
-346.97315554879708
 20
-65.305331179321513
 30
0.0
 11
-346.97315554879708
 21
-53.305331179321513
 31
0.0
  0
TEXT
  8
SIZE
  6
CONTINUOUS
 62
    30
 10
-382.63982221546382
 20
-96.548571428571421
 30
0.0
 40
64.0
  1
φ131
 50
90.0
 41
0.9
 72
     1
 11
-382.63982221546382
 21
0.0
 31
0.0
  0
POINT
  8
DEFPOINTS
  6
CONTINUOUS
 62
    30
 10
-305.19224555735059
 20
65.305331179321513
 30
0.0
  0
POINT
  8
DEFPOINTS
  6
CONTINUOUS
 62
    30
 10
-305.19224555735059
 20
-65.305331179321513
 30
0.0
  0
POINT
  8
DEFPOINTS
  6
CONTINUOUS
 62
    30
 10
-346.97315554879708
 20
-65.305331179321513
 30
0.0
  0
LINE
  8
DETAIL
  6
CONTINUOUS
 62
     4
 10
-112.96436070379529
 20
-265.22683984454079
 30
0.0
 11
-107.91229474904409
 21
-261.6127937907608
 31
0.0
  0
LINE
  8
DETAIL
  6
CONTINUOUS
 62
     4
 10
-107.91229474904409
 20
-261.6127937907608
 30
0.0
 11
-110.48048065745409
 21
-267.26868633127481
 31
0.0
  0
LINE
  8
DETAIL
  6
CONTINUOUS
 62
     4
 10
-107.91229474904409
 20
-261.6127937907608
 30
0.0
 11
-115.53254661220549
 21
-270.88273238505491
 31
0.0
  0
LINE
  8
NOTE
  6
CONTINUOUS
 62
     4
 10
-115.53254661220549
 20
-270.88273238505491
 30
0.0
 11
-237.27354534018289
 21
-418.97909493076497
 31
0.0
  0
LINE
  8
NOTE
  6
CONTINUOUS
 62
     4
 10
-237.27354534018289
 20
-418.97909493076497
 30
0.0
 11
-372.44103675184789
 21
-419.08367665520751
 31
0.0
  0
LINE
  8
DETAIL
  6
CONTINUOUS
 62
     4
 10
1.94663285062046
 20
-286.35109827490191
 30
0.0
 11
-0.0000000000002842
 21
-280.45234248788353
 31
0.0
  0
LINE
  8
DETAIL
  6
CONTINUOUS
 62
     4
 10
-0.0000000000002842
 20
-280.45234248788353
 30
0.0
 11
4.6352176254299016
 21
-284.58749143984397
 31
0.0
  0
LINE
  8
DETAIL
  6
CONTINUOUS
 62
     4
 10
-0.0000000000002842
 20
-280.45234248788353
 30
0.0
 11
6.5818504760506471
 21
-290.48624722686242
 31
0.0
  0
LINE
  8
NOTE
  6
CONTINUOUS
 62
     4
 10
6.5818504760506471
 20
-290.48624722686242
 30
0.0
 11
103.877734768713
 21
-438.81195563357352
 31
0.0
  0
LINE
  8
NOTE
  6
CONTINUOUS
 62
     4
 10
103.877734768713
 20
-438.81195563357352
 30
0.0
 11
394.01203122688611
 21
-438.38012172871282
 31
0.0
  0
LINE
  8
NOTE
  6
CONTINUOUS
 62
     4
 10
18.546847567183651
 20
-280.45234248788353
 30
0.0
 11
-24.853765971884119
 21
-280.45234248788353
 31
0.0
  0
LINE
  8
NOTE
  6
CONTINUOUS
 62
     4
 10
18.546847567183651
 20
280.45234248788381
 30
0.0
 11
-24.853765971884119
 21
280.45234248788381
 31
0.0
  0
LINE
  8
OUTLINE
  6
CONTINUOUS
 62
     3
 10
-294.71080283791088
 20
-50.101087785951279
 30
0.0
 11
-294.71911845819437
 21
-50.082644268525137
 31
0.0
  0
LINE
  8
OUTLINE
  6
CONTINUOUS
 62
     3
 10
-294.71911845819437
 20
-50.082644268525137
 30
0.0
 11
-294.72743461586288
 21
-50.064221735555009
 31
0.0
  0
LINE
  8
OUTLINE
  6
CONTINUOUS
 62
     3
 10
-294.72743461586288
 20
-50.064221735555009
 30
0.0
 11
-294.72743461586288
 21
-50.064221735555009
 31
0.0
  0
LINE
  8
OUTLINE
  6
CONTINUOUS
 62
     3
 10
-294.72743461586288
 20
-50.064221735555009
 30
0.0
 11
-294.73575666641199
 21
-50.045821292691187
 31
0.0
  0
LINE
  8
OUTLINE
  6
CONTINUOUS
 62
     3
 10
-294.73575666641199
 20
-50.045821292691187
 30
0.0
 11
-294.74410923778532
 21
-50.027364530362718
 31
0.0
  0
LINE
  8
OUTLINE
  6
CONTINUOUS
 62
     3
 10
-294.74410923778532
 20
-50.027364530362718
 30
0.0
 11
-294.74410923778532
 21
-50.027364530362718
 31
0.0
  0
LINE
  8
OUTLINE
  6
CONTINUOUS
 62
     3
 10
-294.74410923778532
 20
-50.027364530362718
 30
0.0
 11
-294.75248911486392
 21
-50.008829911274397
 31
0.0
  0
LINE
  8
OUTLINE
  6
CONTINUOUS
 62
     3
 10
-294.75248911486392
 20
-50.008829911274397
 30
0.0
 11
-294.76076243783638
 21
-49.990502902454473
 31
0.0
  0
LINE
  8
OUTLINE
  6
CONTINUOUS
 62
     3
 10
-294.76076243783638
 20
-49.990502902454473
 30
0.0
 11
-294.76076243783638
 21
-49.990502902454473
 31
0.0
  0
LINE
  8
OUTLINE
  6
CONTINUOUS
 62
     3
 10
-294.76076243783638
 20
-49.990502902454473
 30
0.0
 11
-294.76888851229938
 21
-49.972458596494278
 31
0.0
  0
LINE
  8
OUTLINE
  6
CONTINUOUS
 62
     3
 10
-294.76888851229938
 20
-49.972458596494278
 30
0.0
 11
-294.77732995017448
 21
-49.953623583910883
 31
0.0
  0
LINE
  8
OUTLINE
  6
CONTINUOUS
 62
     3
 10
-294.77732995017448
 20
-49.953623583910883
 30
0.0
 11
-294.77732995017448
 21
-49.953623583910883
 31
0.0
  0
LINE
  8
OUTLINE
  6
CONTINUOUS
 62
     3
 10
-294.77732995017448
 20
-49.953623583910883
 30
0.0
 11
-294.78620454481239
 21
-49.933709080695913
 31
0.0
  0
LINE
  8
OUTLINE
  6
CONTINUOUS
 62
     3
 10
-294.78620454481239
 20
-49.933709080695913
 30
0.0
 11
-294.79374750895772
 21
-49.916713306811687
 31
0.0
  0
LINE
  8
OUTLINE
  6
CONTINUOUS
 62
     3
 10
-294.79374750895772
 20
-49.916713306811687
 30
0.0
 11
-294.79374750895772
 21
-49.916713306811687
 31
0.0
  0
LINE
  8
OUTLINE
  6
CONTINUOUS
 62
     3
 10
-294.79374750895772
 20
-49.916713306811687
 30
0.0
 11
-294.79847036358512
 21
-49.906016619148261
 31
0.0
  0
LINE
  8
OUTLINE
  6
CONTINUOUS
 62
     3
 10
-294.79847036358512
 20
-49.906016619148261
 30
0.0
 11
-294.80187244319438
 21
-49.898240918333563
 31
0.0
  0
LINE
  8
OUTLINE
  6
CONTINUOUS
 62
     3
 10
-294.80187244319438
 20
-49.898240918333563
 30
0.0
 11
-294.80187244319438
 21
-49.898240918333563
 31
0.0
  0
LINE
  8
OUTLINE
  6
CONTINUOUS
 62
     3
 10
-294.80187244319438
 20
-49.898240918333563
 30
0.0
 11
-294.80572393360308
 21
-49.889389144151828
 31
0.0
  0
LINE
  8
OUTLINE
  6
CONTINUOUS
 62
     3
 10
-294.80572393360308
 20
-49.889389144151828
 30
0.0
 11
-294.80989061237068
 21
-49.879746849273658
 31
0.0
  0
LINE
  8
OUTLINE
  6
CONTINUOUS
 62
     3
 10
-294.80989061237068
 20
-49.879746849273658
 30
0.0
 11
-294.80989061237068
 21
-49.879746849273658
 31
0.0
  0
LINE
  8
OUTLINE
  6
CONTINUOUS
 62
     3
 10
-294.80989061237068
 20
-49.879746849273658
 30
0.0
 11
-294.81388972615707
 21
-49.870383358925487
 31
0.0
  0
LINE
  8
OUTLINE
  6
CONTINUOUS
 62
     3
 10
-294.81388972615707
 20
-49.870383358925487
 30
0.0
 11
-294.81774880627597
 21
-49.861220475669541
 31
0.0
  0
LINE
  8
OUTLINE
  6
CONTINUOUS
 62
     3
 10
-294.81774880627597
 20
-49.861220475669541
 30
0.0
 11
-294.81774880627597
 21
-49.861220475669541
 31
0.0
  0
LINE
  8
OUTLINE
  6
CONTINUOUS
 62
     3
 10
-294.81774880627597
 20
-49.861220475669541
 30
0.0
 11
-294.82158877261429
 21
-49.851969990843664
 31
0.0
  0
LINE
  8
OUTLINE
  6
CONTINUOUS
 62
     3
 10
-294.82158877261429
 20
-49.851969990843664
 30
0.0
 11
-294.82539381469888
 21
-49.842651173557947
 31
0.0
  0
LINE
  8
OUTLINE
  6
CONTINUOUS
 62
     3
 10
-294.82539381469888
 20
-49.842651173557947
 30
0.0
 11
-294.82539381469888
 21
-49.842651173557947
 31
0.0
  0
LINE
  8
OUTLINE
  6
CONTINUOUS
 62
     3
 10
-294.82539381469888
 20
-49.842651173557947
 30
0.0
 11
-294.82912309866242
 21
-49.833339565259912
 31
0.0
  0
LINE
  8
OUTLINE
  6
CONTINUOUS
 62
     3
 10
-294.82912309866242
 20
-49.833339565259912
 30
0.0
 11
-294.83277242742872
 21
-49.824028318976332
 31
0.0
  0
LINE
  8
OUTLINE
  6
CONTINUOUS
 62
     3
 10
-294.83277242742872
 20
-49.824028318976332
 30
0.0
 11
-294.83277242742872
 21
-49.824028318976332
 31
0.0
  0
LINE
  8
OUTLINE
  6
CONTINUOUS
 62
     3
 10
-294.83277242742872
 20
-49.824028318976332
 30
0.0
 11
-294.83634740423179
 21
-49.814696118521788
 31
0.0
  0
LINE
  8
OUTLINE
  6
CONTINUOUS
 62
     3
 10
-294.83634740423179
 20
-49.814696118521788
 30
0.0
 11
-294.83985619676457
 21
-49.805346159280191
 31
0.0
  0
LINE
  8
OUTLINE
  6
CONTINUOUS
 62
     3
 10
-294.83985619676457
 20
-49.805346159280191
 30
0.0
 11
-294.83985619676457
 21
-49.805346159280191
 31
0.0
  0
LINE
  8
OUTLINE
  6
CONTINUOUS
 62
     3
 10
-294.83985619676457
 20
-49.805346159280191
 30
0.0
 11
-294.84330827143322
 21
-49.795986285722343
 31
0.0
  0
LINE
  8
OUTLINE
  6
CONTINUOUS
 62
     3
 10
-294.84330827143322
 20
-49.795986285722343
 30
0.0
 11
-294.84671572504772
 21
-49.786618427097039
 31
0.0
  0
LINE
  8
OUTLINE
  6
CONTINUOUS
 62
     3
 10
-294.84671572504772
 20
-49.786618427097039
 30
0.0
 11
-294.84671572504772
 21
-49.786618427097039
 31
0.0
  0
LINE
  8
OUTLINE
  6
CONTINUOUS
 62
     3
 10
-294.84671572504772
 20
-49.786618427097039
 30
0.0
 11
-294.85009113581549
 21
-49.777243430091353
 31
0.0
  0
LINE
  8
OUTLINE
  6
CONTINUOUS
 62
     3
 10
-294.85009113581549
 20
-49.777243430091353
 30
0.0
 11
-294.85344637712973
 21
-49.767863726372582
 31
0.0
  0
LINE
  8
OUTLINE
  6
CONTINUOUS
 62
     3
 10
-294.85344637712973
 20
-49.767863726372582
 30
0.0
 11
-294.85344637712973
 21
-49.767863726372582
 31
0.0
  0
LINE
  8
OUTLINE
  6
CONTINUOUS
 62
     3
 10
-294.85344637712973
 20
-49.767863726372582
 30
0.0
 11
-294.85679319339289
 21
-49.758482037678561
 31
0.0
  0
LINE
  8
OUTLINE
  6
CONTINUOUS
 62
     3
 10
-294.85679319339289
 20
-49.758482037678561
 30
0.0
 11
-294.86014351786213
 21
-49.749100661053212
 31
0.0
  0
LINE
  8
OUTLINE
  6
CONTINUOUS
 62
     3
 10
-294.86014351786213
 20
-49.749100661053212
 30
0.0
 11
-294.86014351786213
 21
-49.749100661053212
 31
0.0
  0
LINE
  8
OUTLINE
  6
CONTINUOUS
 62
     3
 10
-294.86014351786213
 20
-49.749100661053212
 30
0.0
 11
-294.86350931835727
 21
-49.739721815816381
 31
0.0
  0
LINE
  8
OUTLINE
  6
CONTINUOUS
 62
     3
 10
-294.86350931835727
 20
-49.739721815816381
 30
0.0
 11
-294.86690251209569
 21
-49.730347835084387
 31
0.0
  0
LINE
  8
OUTLINE
  6
CONTINUOUS
 62
     3
 10
-294.86690251209569
 20
-49.730347835084387
 30
0.0
 11
-294.86690251209569
 21
-49.730347835084387
 31
0.0
  0
LINE
  8
OUTLINE
  6
CONTINUOUS
 62
     3
 10
-294.86690251209569
 20
-49.730347835084387
 30
0.0
 11
-294.87033107657362
 21
-49.720980351716953
 31
0.0
  0
LINE
  8
OUTLINE
  6
CONTINUOUS
 62
     3
 10
-294.87033107657362
 20
-49.720980351716953
 30
0.0
 11
-294.87378728101038
 21
-49.711618083751382
 31
0.0
  0
LINE
  8
OUTLINE
  6
CONTINUOUS
 62
     3
 10
-294.87378728101038
 20
-49.711618083751382
 30
0.0
 11
-294.87378728101038
 21
-49.711618083751382
 31
0.0
  0
LINE
  8
OUTLINE
  6
CONTINUOUS
 62
     3
 10
-294.87378728101038
 20
-49.711618083751382
 30
0.0
 11
-294.87725946664762
 21
-49.702259022562032
 31
0.0
  0
LINE
  8
OUTLINE
  6
CONTINUOUS
 62
     3
 10
-294.87725946664762
 20
-49.702259022562032
 30
0.0
 11
-294.88073597109462
 21
-49.692901167693833
 31
0.0
  0
LINE
  8
OUTLINE
  6
CONTINUOUS
 62
     3
 10
-294.88073597109462
 20
-49.692901167693833
 30
0.0
 11
-294.88073597109462
 21
-49.692901167693833
 31
0.0
  0
LINE
  8
OUTLINE
  6
CONTINUOUS
 62
     3
 10
-294.88073597109462
 20
-49.692901167693833
 30
0.0
 11
-294.88420513129518
 21
-49.683542520186563
 31
0.0
  0
LINE
  8
OUTLINE
  6
CONTINUOUS
 62
     3
 10
-294.88420513129518
 20
-49.683542520186563
 30
0.0
 11
-294.88765528516609
 21
-49.674181078891188
 31
0.0
  0
LINE
  8
OUTLINE
  6
CONTINUOUS
 62
     3
 10
-294.88765528516609
 20
-49.674181078891188
 30
0.0
 11
-294.88765528516609
 21
-49.674181078891188
 31
0.0
  0
LINE
  8
OUTLINE
  6
CONTINUOUS
 62
     3
 10
-294.88765528516609
 20
-49.674181078891188
 30
0.0
 11
-294.89107477080319
 21
-49.664814842257272
 31
0.0
  0
LINE
  8
OUTLINE
  6
CONTINUOUS
 62
     3
 10
-294.89107477080319
 20
-49.664814842257272
 30
0.0
 11
-294.89445192604097
 21
-49.655441809322213
 31
0.0
  0
LINE
  8
OUTLINE
  6
CONTINUOUS
 62
     3
 10
-294.89445192604097
 20
-49.655441809322213
 30
0.0
 11
-294.89445192604097
 21
-49.655441809322213
 31
0.0
  0
LINE
  8
OUTLINE
  6
CONTINUOUS
 62
     3
 10
-294.89445192604097
 20
-49.655441809322213
 30
0.0
 11
-294.89777508866638
 21
-49.646059979229392
 31
0.0
  0
LINE
  8
OUTLINE
  6
CONTINUOUS
 62
     3
 10
-294.89777508866638
 20
-49.646059979229392
 30
0.0
 11
-294.90103259653631
 21
-49.636667350966093
 31
0.0
  0
LINE
  8
OUTLINE
  6
CONTINUOUS
 62
     3
 10
-294.90103259653631
 20
-49.636667350966093
 30
0.0
 11
-294.90103259653631
 21
-49.636667350966093
 31
0.0
  0
LINE
  8
OUTLINE
  6
CONTINUOUS
 62
     3
 10
-294.90103259653631
 20
-49.636667350966093
 30
0.0
 11
-294.90421555341908
 21
-49.627262402673693
 31
0.0
  0
LINE
  8
OUTLINE
  6
CONTINUOUS
 62
     3
 10
-294.90421555341908
 20
-49.627262402673693
 30
0.0
 11
-294.9073261266617
 21
-49.617845529270816
 31
0.0
  0
LINE
  8
OUTLINE
  6
CONTINUOUS
 62
     3
 10
-294.9073261266617
 20
-49.617845529270816
 30
0.0
 11
-294.9073261266617
 21
-49.617845529270816
 31
0.0
  0
LINE
  8
OUTLINE
  6
CONTINUOUS
 62
     3
 10
-294.9073261266617
 20
-49.617845529270816
 30
0.0
 11
-294.91036924950549
 21
-49.608417604866588
 31
0.0
  0
LINE
  8
OUTLINE
  6
CONTINUOUS
 62
     3
 10
-294.91036924950549
 20
-49.608417604866588
 30
0.0
 11
-294.91334985519802
 21
-49.598979503559413
 31
0.0
  0
LINE
  8
OUTLINE
  6
CONTINUOUS
 62
     3
 10
-294.91334985519802
 20
-49.598979503559413
 30
0.0
 11
-294.91334985519802
 21
-49.598979503559413
 31
0.0
  0
LINE
  8
OUTLINE
  6
CONTINUOUS
 62
     3
 10
-294.91334985519802
 20
-49.598979503559413
 30
0.0
 11
-294.91627287698748
 21
-49.589532099445421
 31
0.0
  0
LINE
  8
OUTLINE
  6
CONTINUOUS
 62
     3
 10
-294.91627287698748
 20
-49.589532099445421
 30
0.0
 11
-294.91914324812058
 21
-49.580076266623848
 31
0.0
  0
LINE
  8
OUTLINE
  6
CONTINUOUS
 62
     3
 10
-294.91914324812058
 20
-49.580076266623848
 30
0.0
 11
-294.91914324812058
 21
-49.580076266623848
 31
0.0
  0
LINE
  8
OUTLINE
  6
CONTINUOUS
 62
     3
 10
-294.91914324812058
 20
-49.580076266623848
 30
0.0
 11
-294.92196590184318
 21
-49.57061287919413
 31
0.0
  0
LINE
  8
OUTLINE
  6
CONTINUOUS
 62
     3
 10
-294.92196590184318
 20
-49.57061287919413
 30
0.0
 11
-294.92474577140229
 21
-49.561142811255479
 31
0.0
  0
LINE
  8
OUTLINE
  6
CONTINUOUS
 62
     3
 10
-294.92474577140229
 20
-49.561142811255479
 30
0.0
 11
-294.92474577140229
 21
-49.561142811255479
 31
0.0
  0
LINE
  8
OUTLINE
  6
CONTINUOUS
 62
     3
 10
-294.92474577140229
 20
-49.561142811255479
 30
0.0
 11
-294.92748779004512
 21
-49.551666936906663
 31
0.0
  0
LINE
  8
OUTLINE
  6
CONTINUOUS
 62
     3
 10
-294.92748779004512
 20
-49.551666936906663
 30
0.0
 11
-294.93019689101811
 21
-49.542186130246762
 31
0.0
  0
LINE
  8
OUTLINE
  6
CONTINUOUS
 62
     3
 10
-294.93019689101811
 20
-49.542186130246762
 30
0.0
 11
-294.93019689101811
 21
-49.542186130246762
 31
0.0
  0
LINE
  8
OUTLINE
  6
CONTINUOUS
 62
     3
 10
-294.93019689101811
 20
-49.542186130246762
 30
0.0
 11
-294.93287832311557
 21
-49.532701270827772
 31
0.0
  0
LINE
  8
OUTLINE
  6
CONTINUOUS
 62
     3
 10
-294.93287832311557
 20
-49.532701270827772
 30
0.0
 11
-294.93553859732162
 21
-49.523213260014188
 31
0.0
  0
LINE
  8
OUTLINE
  6
CONTINUOUS
 62
     3
 10
-294.93553859732162
 20
-49.523213260014188
 30
0.0
 11
-294.93553859732162
 21
-49.523213260014188
 31
0.0
  0
LINE
  8
OUTLINE
  6
CONTINUOUS
 62
     3
 10
-294.93553859732162
 20
-49.523213260014188
 30
0.0
 11
-294.93818454016707
 21
-49.513723004623607
 31
0.0
  0
LINE
  8
OUTLINE
  6
CONTINUOUS
 62
     3
 10
-294.93818454016707
 20
-49.513723004623607
 30
0.0
 11
-294.94082297818443
 21
-49.504231411474109
 31
0.0
  0
LINE
  8
OUTLINE
  6
CONTINUOUS
 62
     3
 10
-294.94082297818443
 20
-49.504231411474109
 30
0.0
 11
-294.94082297818443
 21
-49.504231411474109
 31
0.0
  0
LINE
  8
OUTLINE
  6
CONTINUOUS
 62
     3
 10
-294.94082297818443
 20
-49.504231411474109
 30
0.0
 11
-294.94346073790467
 21
-49.494739387382822
 31
0.0
  0
LINE
  8
OUTLINE
  6
CONTINUOUS
 62
     3
 10
-294.94346073790467
 20
-49.494739387382822
 30
0.0
 11
-294.94610464585941
 21
-49.485247839167933
 31
0.0
  0
LINE
  8
OUTLINE
  6
CONTINUOUS
 62
     3
 10
-294.94610464585941
 20
-49.485247839167933
 30
0.0
 11
-294.94610464585941
 21
-49.485247839167933
 31
0.0
  0
LINE
  8
OUTLINE
  6
CONTINUOUS
 62
     3
 10
-294.94610464585941
 20
-49.485247839167933
 30
0.0
 11
-294.94876152857972
 21
-49.475757673646569
 31
0.0
  0
LINE
  8
OUTLINE
  6
CONTINUOUS
 62
     3
 10
-294.94876152857972
 20
-49.475757673646569
 30
0.0
 11
-294.95143821259722
 21
-49.466269797636357
 31
0.0
  0
LINE
  8
OUTLINE
  6
CONTINUOUS
 62
     3
 10
-294.95143821259722
 20
-49.466269797636357
 30
0.0
 11
-294.95143821259722
 21
-49.466269797636357
 31
0.0
  0
LINE
  8
OUTLINE
  6
CONTINUOUS
 62
     3
 10
-294.95143821259722
 20
-49.466269797636357
 30
0.0
 11
-294.95414152444317
 21
-49.456785117955228
 31
0.0
  0
LINE
  8
OUTLINE
  6
CONTINUOUS
 62
     3
 10
-294.95414152444317
 20
-49.456785117955228
 30
0.0
 11
-294.95687829065002
 21
-49.44730454142092
 31
0.0
  0
LINE
  8
OUTLINE
  6
CONTINUOUS
 62
     3
 10
-294.95687829065002
 20
-49.44730454142092
 30
0.0
 11
-294.95687829065002
 21
-49.44730454142092
 31
0.0
  0
LINE
  8
OUTLINE
  6
CONTINUOUS
 62
     3
 10
-294.95687829065002
 20
-49.44730454142092
 30
0.0
 11
-294.95965130965902
 21
-49.437828473854609
 31
0.0
  0
LINE
  8
OUTLINE
  6
CONTINUOUS
 62
     3
 10
-294.95965130965902
 20
-49.437828473854609
 30
0.0
 11
-294.96244726755589
 21
-49.428355317092333
 31
0.0
  0
LINE
  8
OUTLINE
  6
CONTINUOUS
 62
     3
 10
-294.96244726755589
 20
-49.428355317092333
 30
0.0
 11
-294.96244726755589
 21
-49.428355317092333
 31
0.0
  0
LINE
  8
OUTLINE
  6
CONTINUOUS
 62
     3
 10
-294.96244726755589
 20
-49.428355317092333
 30
0.0
 11
-294.96524882233768
 21
-49.418882971973908
 31
0.0
  0
LINE
  8
OUTLINE
  6
CONTINUOUS
 62
     3
 10
-294.96524882233768
 20
-49.418882971973908
 30
0.0
 11
-294.96803863200017
 21
-49.409409339339561
 31
0.0
  0
LINE
  8
OUTLINE
  6
CONTINUOUS
 62
     3
 10
-294.96803863200017
 20
-49.409409339339561
 30
0.0
 11
-294.96803863200017
 21
-49.409409339339561
 31
0.0
  0
LINE
  8
OUTLINE
  6
CONTINUOUS
 62
     3
 10
-294.96803863200017
 20
-49.409409339339561
 30
0.0
 11
-294.97079935454047
 21
-49.399932320028768
 31
0.0
  0
LINE
  8
OUTLINE
  6
CONTINUOUS
 62
     3
 10
-294.97079935454047
 20
-49.399932320028768
 30
0.0
 11
-294.97351364795509
 21
-49.39044981488172
 31
0.0
  0
LINE
  8
OUTLINE
  6
CONTINUOUS
 62
     3
 10
-294.97351364795509
 20
-49.39044981488172
 30
0.0
 11
-294.97351364795509
 21
-49.39044981488172
 31
0.0
  0
LINE
  8
OUTLINE
  6
CONTINUOUS
 62
     3
 10
-294.97351364795509
 20
-49.39044981488172
 30
0.0
 11
-294.97616417024011
 21
-49.380959724737693
 31
0.0
  0
LINE
  8
OUTLINE
  6
CONTINUOUS
 62
     3
 10
-294.97616417024011
 20
-49.380959724737693
 30
0.0
 11
-294.9787335793917
 21
-49.371459950437099
 31
0.0
  0
LINE
  8
OUTLINE
  6
CONTINUOUS
 62
     3
 10
-294.9787335793917
 20
-49.371459950437099
 30
0.0
 11
-294.9787335793917
 21
-49.371459950437099
 31
0.0
  0
LINE
  8
OUTLINE
  6
CONTINUOUS
 62
     3
 10
-294.9787335793917
 20
-49.371459950437099
 30
0.0
 11
-294.98120453340658
 21
-49.361948392819222
 31
0.0
  0
LINE
  8
OUTLINE
  6
CONTINUOUS
 62
     3
 10
-294.98120453340658
 20
-49.361948392819222
 30
0.0
 11
-294.98355969028171
 21
-49.352422952724339
 31
0.0
  0
LINE
  8
OUTLINE
  6
CONTINUOUS
 62
     3
 10
-294.98355969028171
 20
-49.352422952724339
 30
0.0
 11
-294.98355969028171
 21
-49.352422952724339
 31
0.0
  0
LINE
  8
OUTLINE
  6
CONTINUOUS
 62
     3
 10
-294.98355969028171
 20
-49.352422952724339
 30
0.0
 11
-294.98578749003741
 21
-49.342882223936783
 31
0.0
  0
LINE
  8
OUTLINE
  6
CONTINUOUS
 62
     3
 10
-294.98578749003741
 20
-49.342882223936783
 30
0.0
 11
-294.98789950079089
 21
-49.333327572018959
 31
0.0
  0
LINE
  8
OUTLINE
  6
CONTINUOUS
 62
     3
 10
-294.98789950079089
 20
-49.333327572018959
 30
0.0
 11
-294.98789950079089
 21
-49.333327572018959
 31
0.0
  0
LINE
  8
OUTLINE
  6
CONTINUOUS
 62
     3
 10
-294.98789950079089
 20
-49.333327572018959
 30
0.0
 11
-294.98991307268318
 21
-49.323761055477632
 31
0.0
  0
LINE
  8
OUTLINE
  6
CONTINUOUS
 62
     3
 10
-294.98991307268318
 20
-49.323761055477632
 30
0.0
 11
-294.99184555585617
 21
-49.314184732820017
 31
0.0
  0
LINE
  8
OUTLINE
  6
CONTINUOUS
 62
     3
 10
-294.99184555585617
 20
-49.314184732820017
 30
0.0
 11
-294.99184555585617
 21
-49.314184732820017
 31
0.0
  0
LINE
  8
OUTLINE
  6
CONTINUOUS
 62
     3
 10
-294.99184555585617
 20
-49.314184732820017
 30
0.0
 11
-294.99371430045193
 21
-49.304600662553128
 31
0.0
  0
LINE
  8
OUTLINE
  6
CONTINUOUS
 62
     3
 10
-294.99371430045193
 20
-49.304600662553128
 30
0.0
 11
-294.99553665661131
 21
-49.295010903184163
 31
0.0
  0
LINE
  8
OUTLINE
  6
CONTINUOUS
 62
     3
 10
-294.99553665661131
 20
-49.295010903184163
 30
0.0
 11
-294.99553665661131
 21
-49.295010903184163
 31
0.0
  0
LINE
  8
OUTLINE
  6
CONTINUOUS
 62
     3
 10
-294.99553665661131
 20
-49.295010903184163
 30
0.0
 11
-294.99732997447558
 21
-49.28541751321967
 31
0.0
  0
LINE
  8
OUTLINE
  6
CONTINUOUS
 62
     3
 10
-294.99732997447558
 20
-49.28541751321967
 30
0.0
 11
-294.99911160418628
 21
-49.275822551166748
 31
0.0
  0
LINE
  8
OUTLINE
  6
CONTINUOUS
 62
     3
 10
-294.99911160418628
 20
-49.275822551166748
 30
0.0
 11
-294.99911160418628
 21
-49.275822551166748
 31
0.0
  0
LINE
  8
OUTLINE
  6
CONTINUOUS
 62
     3
 10
-294.99911160418628
 20
-49.275822551166748
 30
0.0
 11
-295.00089889588497
 21
-49.266228075532297
 31
0.0
  0
LINE
  8
OUTLINE
  6
CONTINUOUS
 62
     3
 10
-295.00089889588497
 20
-49.266228075532297
 30
0.0
 11
-295.00270919971388
 21
-49.256636144823858
 31
0.0
  0
LINE
  8
OUTLINE
  6
CONTINUOUS
 62
     3
 10
-295.00270919971388
 20
-49.256636144823858
 30
0.0
 11
-295.00270919971388
 21
-49.256636144823858
 31
0.0
  0
LINE
  8
OUTLINE
  6
CONTINUOUS
 62
     3
 10
-295.00270919971388
 20
-49.256636144823858
 30
0.0
 11
-295.00455582958648
 21
-49.247048357204278
 31
0.0
  0
LINE
  8
OUTLINE
  6
CONTINUOUS
 62
     3
 10
-295.00455582958648
 20
-49.247048357204278
 30
0.0
 11
-295.00643595450981
 21
-49.237464469462509
 31
0.0
  0
LINE
  8
OUTLINE
  6
CONTINUOUS
 62
     3
 10
-295.00643595450981
 20
-49.237464469462509
 30
0.0
 11
-295.00643595450981
 21
-49.237464469462509
 31
0.0
  0
LINE
  8
OUTLINE
  6
CONTINUOUS
 62
     3
 10
-295.00643595450981
 20
-49.237464469462509
 30
0.0
 11
-295.00834270726278
 21
-49.227883778043349
 31
0.0
  0
LINE
  8
OUTLINE
  6
CONTINUOUS
 62
     3
 10
-295.00834270726278
 20
-49.227883778043349
 30
0.0
 11
-295.01026922062613
 21
-49.218305579392279
 31
0.0
  0
LINE
  8
OUTLINE
  6
CONTINUOUS
 62
     3
 10
-295.01026922062613
 20
-49.218305579392279
 30
0.0
 11
-295.01026922062613
 21
-49.218305579392279
 31
0.0
  0
LINE
  8
OUTLINE
  6
CONTINUOUS
 62
     3
 10
-295.01026922062613
 20
-49.218305579392279
 30
0.0
 11
-295.01220862737898
 21
-49.208729169953983
 31
0.0
  0
LINE
  8
OUTLINE
  6
CONTINUOUS
 62
     3
 10
-295.01220862737898
 20
-49.208729169953983
 30
0.0
 11
-295.01415406030128
 21
-49.199153846174063
 31
0.0
  0
LINE
  8
OUTLINE
  6
CONTINUOUS
 62
     3
 10
-295.01415406030128
 20
-49.199153846174063
 30
0.0
 11
-295.01415406030128
 21
-49.199153846174063
 31
0.0
  0
LINE
  8
OUTLINE
  6
CONTINUOUS
 62
     3
 10
-295.01415406030128
 20
-49.199153846174063
 30
0.0
 11
-295.01609865217227
 21
-49.189578904496841
 31
0.0
  0
LINE
  8
OUTLINE
  6
CONTINUOUS
 62
     3
 10
-295.01609865217227
 20
-49.189578904496841
 30
0.0
 11
-295.01803553577179
 21
-49.180003641367819
 31
0.0
  0
LINE
  8
OUTLINE
  6
CONTINUOUS
 62
     3
 10
-295.01803553577179
 20
-49.180003641367819
 30
0.0
 11
-295.01803553577179
 21
-49.180003641367819
 31
0.0
  0
LINE
  8
OUTLINE
  6
CONTINUOUS
 62
     3
 10
-295.01803553577179
 20
-49.180003641367819
 30
0.0
 11
-295.01995784387969
 21
-49.170427353232242
 31
0.0
  0
LINE
  8
OUTLINE
  6
CONTINUOUS
 62
     3
 10
-295.01995784387969
 20
-49.170427353232242
 30
0.0
 11
-295.02185870927531
 21
-49.160849336535023
 31
0.0
  0
LINE
  8
OUTLINE
  6
CONTINUOUS
 62
     3
 10
-295.02185870927531
 20
-49.160849336535023
 30
0.0
 11
-295.02185870927531
 21
-49.160849336535023
 31
0.0
  0
LINE
  8
OUTLINE
  6
CONTINUOUS
 62
     3
 10
-295.02185870927531
 20
-49.160849336535023
 30
0.0
 11
-295.02373156519587
 21
-49.151268928762931
 31
0.0
  0
LINE
  8
OUTLINE
  6
CONTINUOUS
 62
     3
 10
-295.02373156519587
 20
-49.151268928762931
 30
0.0
 11
-295.02557104670791
 21
-49.14168563157034
 31
0.0
  0
LINE
  8
OUTLINE
  6
CONTINUOUS
 62
     3
 10
-295.02557104670791
 20
-49.14168563157034
 30
0.0
 11
-295.02557104670791
 21
-49.14168563157034
 31
0.0
  0
LINE
  8
OUTLINE
  6
CONTINUOUS
 62
     3
 10
-295.02557104670791
 20
-49.14168563157034
 30
0.0
 11
-295.02737208933439
 21
-49.132098987652448
 31
0.0
  0
LINE
  8
OUTLINE
  6
CONTINUOUS
 62
     3
 10
-295.02737208933439
 20
-49.132098987652448
 30
0.0
 11
-295.02912962859978
 21
-49.122508539705052
 31
0.0
  0
LINE
  8
OUTLINE
  6
CONTINUOUS
 62
     3
 10
-295.02912962859978
 20
-49.122508539705052
 30
0.0
 11
-295.02912962859978
 21
-49.122508539705052
 31
0.0
  0
LINE
  8
OUTLINE
  6
CONTINUOUS
 62
     3
 10
-295.02912962859978
 20
-49.122508539705052
 30
0.0
 11
-295.03083860002778
 21
-49.112913830423913
 31
0.0
  0
LINE
  8
OUTLINE
  6
CONTINUOUS
 62
     3
 10
-295.03083860002778
 20
-49.112913830423913
 30
0.0
 11
-295.03249393914189
 21
-49.103314402505589
 31
0.0
  0
LINE
  8
OUTLINE
  6
CONTINUOUS
 62
     3
 10
-295.03249393914189
 20
-49.103314402505589
 30
0.0
 11
-295.03249393914189
 21
-49.103314402505589
 31
0.0
  0
LINE
  8
OUTLINE
  6
CONTINUOUS
 62
     3
 10
-295.03249393914189
 20
-49.103314402505589
 30
0.0
 11
-295.03409058146559
 21
-49.093709798645882
 31
0.0
  0
LINE
  8
OUTLINE
  6
CONTINUOUS
 62
     3
 10
-295.03409058146559
 20
-49.093709798645882
 30
0.0
 11
-295.03562346252318
 21
-49.084099561537698
 31
0.0
  0
LINE
  8
OUTLINE
  6
CONTINUOUS
 62
     3
 10
-295.03562346252318
 20
-49.084099561537698
 30
0.0
 11
-295.03562346252318
 21
-49.084099561537698
 31
0.0
  0
LINE
  8
OUTLINE
  6
CONTINUOUS
 62
     3
 10
-295.03562346252318
 20
-49.084099561537698
 30
0.0
 11
-295.03708751783842
 21
-49.07448323387581
 31
0.0
  0
LINE
  8
OUTLINE
  6
CONTINUOUS
 62
     3
 10
-295.03708751783842
 20
-49.07448323387581
 30
0.0
 11
-295.03847768293463
 21
-49.064860358367298
 31
0.0
  0
LINE
  8
OUTLINE
  6
CONTINUOUS
 62
     3
 10
-295.03847768293463
 20
-49.064860358367298
 30
0.0
 11
-295.03847768293463
 21
-49.064860358367298
 31
0.0
  0
LINE
  8
OUTLINE
  6
CONTINUOUS
 62
     3
 10
-295.03847768293463
 20
-49.064860358367298
 30
0.0
 11
-295.03979172773302
 21
-49.055230773886713
 31
0.0
  0
LINE
  8
OUTLINE
  6
CONTINUOUS
 62
     3
 10
-295.03979172773302
 20
-49.055230773886713
 30
0.0
 11
-295.04103875974829
 21
-49.045595503965899
 31
0.0
  0
LINE
  8
OUTLINE
  6
CONTINUOUS
 62
     3
 10
-295.04103875974829
 20
-49.045595503965899
 30
0.0
 11
-295.04103875974829
 21
-49.045595503965899
 31
0.0
  0
LINE
  8
OUTLINE
  6
CONTINUOUS
 62
     3
 10
-295.04103875974829
 20
-49.045595503965899
 30
0.0
 11
-295.04223072089172
 21
-49.035955868343187
 31
0.0
  0
LINE
  8
OUTLINE
  6
CONTINUOUS
 62
     3
 10
-295.04223072089172
 20
-49.035955868343187
 30
0.0
 11
-295.04337955306721
 21
-49.026313186924142
 31
0.0
  0
LINE
  8
OUTLINE
  6
CONTINUOUS
 62
     3
 10
-295.04337955306721
 20
-49.026313186924142
 30
0.0
 11
-295.04337955306721
 21
-49.026313186924142
 31
0.0
  0
LINE
  8
OUTLINE
  6
CONTINUOUS
 62
     3
 10
-295.04337955306721
 20
-49.026313186924142
 30
0.0
 11
-295.04449719818388
 21
-49.016668779499923
 31
0.0
  0
LINE
  8
OUTLINE
  6
CONTINUOUS
 62
     3
 10
-295.04449719818388
 20
-49.016668779499923
 30
0.0
 11
-295.04559559817812
 21
-49.007023965239107
 31
0.0
  0
LINE
  8
OUTLINE
  6
CONTINUOUS
 62
     3
 10
-295.04559559817812
 20
-49.007023965239107
 30
0.0
 11
-295.04559559817812
 21
-49.007023965239107
 31
0.0
  0
LINE
  8
OUTLINE
  6
CONTINUOUS
 62
     3
 10
-295.04559559817812
 20
-49.007023965239107
 30
0.0
 11
-295.04668669496772
 21
-48.997380063735193
 31
0.0
  0
LINE
  8
OUTLINE
  6
CONTINUOUS
 62
     3
 10
-295.04668669496772
 20
-48.997380063735193
 30
0.0
 11
-295.04778243036628
 21
-48.987738396906991
 31
0.0
  0
LINE
  8
OUTLINE
  6
CONTINUOUS
 62
     3
 10
-295.04778243036628
 20
-48.987738396906991
 30
0.0
 11
-295.04778243036628
 21
-48.987738396906991
 31
0.0
  0
LINE
  8
OUTLINE
  6
CONTINUOUS
 62
     3
 10
-295.04778243036628
 20
-48.987738396906991
 30
0.0
 11
-295.04889474625912
 21
-48.97810028508502
 31
0.0
  0
LINE
  8
OUTLINE
  6
CONTINUOUS
 62
     3
 10
-295.04889474625912
 20
-48.97810028508502
 30
0.0
 11
-295.05003558491887
 21
-48.968467039924292
 31
0.0
  0
LINE
  8
OUTLINE
  6
CONTINUOUS
 62
     3
 10
-295.05003558491887
 20
-48.968467039924292
 30
0.0
 11
-295.05003558491887
 21
-48.968467039924292
 31
0.0
  0
LINE
  8
OUTLINE
  6
CONTINUOUS
 62
     3
 10
-295.05003558491887
 20
-48.968467039924292
 30
0.0
 11
-295.05121284191227
 21
-48.958839359771162
 31
0.0
  0
LINE
  8
OUTLINE
  6
CONTINUOUS
 62
     3
 10
-295.05121284191227
 20
-48.958839359771162
 30
0.0
 11
-295.05241822559378
 21
-48.949215498414503
 31
0.0
  0
LINE
  8
OUTLINE
  6
CONTINUOUS
 62
     3
 10
-295.05241822559378
 20
-48.949215498414503
 30
0.0
 11
-295.05241822559378
 21
-48.949215498414503
 31
0.0
  0
LINE
  8
OUTLINE
  6
CONTINUOUS
 62
     3
 10
-295.05241822559378
 20
-48.949215498414503
 30
0.0
 11
-295.05363939886598
 21
-48.939593068293959
 31
0.0
  0
LINE
  8
OUTLINE
  6
CONTINUOUS
 62
     3
 10
-295.05363939886598
 20
-48.939593068293959
 30
0.0
 11
-295.05486403004198
 21
-48.929969561008527
 31
0.0
  0
LINE
  8
OUTLINE
  6
CONTINUOUS
 62
     3
 10
-295.05486403004198
 20
-48.929969561008527
 30
0.0
 11
-295.05486403004198
 21
-48.929969561008527
 31
0.0
  0
LINE
  8
OUTLINE
  6
CONTINUOUS
 62
     3
 10
-295.05486403004198
 20
-48.929969561008527
 30
0.0
 11
-295.05607978373928
 21
-48.920342550692851
 31
0.0
  0
LINE
  8
OUTLINE
  6
CONTINUOUS
 62
     3
 10
-295.05607978373928
 20
-48.920342550692851
 30
0.0
 11
-295.05727430438691
 21
-48.91071006246483
 31
0.0
  0
LINE
  8
OUTLINE
  6
CONTINUOUS
 62
     3
 10
-295.05727430438691
 20
-48.91071006246483
 30
0.0
 11
-295.05727430438691
 21
-48.91071006246483
 31
0.0
  0
LINE
  8
OUTLINE
  6
CONTINUOUS
 62
     3
 10
-295.05727430438691
 20
-48.91071006246483
 30
0.0
 11
-295.05843525020288
 21
-48.901069813414608
 31
0.0
  0
LINE
  8
OUTLINE
  6
CONTINUOUS
 62
     3
 10
-295.05843525020288
 20
-48.901069813414608
 30
0.0
 11
-295.05955035475108
 21
-48.891417837541269
 31
0.0
  0
LINE
  8
OUTLINE
  6
CONTINUOUS
 62
     3
 10
-295.05955035475108
 20
-48.891417837541269
 30
0.0
 11
-295.05955035475108
 21
-48.891417837541269
 31
0.0
  0
LINE
  8
OUTLINE
  6
CONTINUOUS
 62
     3
 10
-295.05955035475108
 20
-48.891417837541269
 30
0.0
 11
-295.06060730013348
 21
-48.88175131841632
 31
0.0
  0
LINE
  8
OUTLINE
  6
CONTINUOUS
 62
     3
 10
-295.06060730013348
 20
-48.88175131841632
 30
0.0
 11
-295.06159348725868
 21
-48.872073720995957
 31
0.0
  0
LINE
  8
OUTLINE
  6
CONTINUOUS
 62
     3
 10
-295.06159348725868
 20
-48.872073720995957
 30
0.0
 11
-295.06159348725868
 21
-48.872073720995957
 31
0.0
  0
LINE
  8
OUTLINE
  6
CONTINUOUS
 62
     3
 10
-295.06159348725868
 20
-48.872073720995957
 30
0.0
 11
-295.06249971481873
 21
-48.862384860991092
 31
0.0
  0
LINE
  8
OUTLINE
  6
CONTINUOUS
 62
     3
 10
-295.06249971481873
 20
-48.862384860991092
 30
0.0
 11
-295.06333065382597
 21
-48.852663675747642
 31
0.0
  0
LINE
  8
OUTLINE
  6
CONTINUOUS
 62
     3
 10
-295.06333065382597
 20
-48.852663675747642
 30
0.0
 11
-295.06333065382597
 21
-48.852663675747642
 31
0.0
  0
LINE
  8
OUTLINE
  6
CONTINUOUS
 62
     3
 10
-295.06333065382597
 20
-48.852663675747642
 30
0.0
 11
-295.06409346424817
 21
-48.842905755119091
 31
0.0
  0
LINE
  8
OUTLINE
  6
CONTINUOUS
 62
     3
 10
-295.06409346424817
 20
-48.842905755119091
 30
0.0
 11
-295.06479138954421
 21
-48.833194177357477
 31
0.0
  0
LINE
  8
OUTLINE
  6
CONTINUOUS
 62
     3
 10
-295.06479138954421
 20
-48.833194177357477
 30
0.0
 11
-295.06479138954421
 21
-48.833194177357477
 31
0.0
  0
LINE
  8
OUTLINE
  6
CONTINUOUS
 62
     3
 10
-295.06479138954421
 20
-48.833194177357477
 30
0.0
 11
-295.06543034819708
 21
-48.823552265027558
 31
0.0
  0
LINE
  8
OUTLINE
  6
CONTINUOUS
 62
     3
 10
-295.06543034819708
 20
-48.823552265027558
 30
0.0
 11
-295.06603087529692
 21
-48.813676829547553
 31
0.0
  0
LINE
  8
OUTLINE
  6
CONTINUOUS
 62
     3
 10
-295.06603087529692
 20
-48.813676829547553
 30
0.0
 11
-295.06603087529692
 21
-48.813676829547553
 31
0.0
  0
LINE
  8
OUTLINE
  6
CONTINUOUS
 62
     3
 10
-295.06603087529692
 20
-48.813676829547553
 30
0.0
 11
-295.06660352260491
 21
-48.803487693596253
 31
0.0
  0
LINE
  8
OUTLINE
  6
CONTINUOUS
 62
     3
 10
-295.06660352260491
 20
-48.803487693596253
 30
0.0
 11
-295.06710429196801
 21
-48.794123236039241
 31
0.0
  0
LINE
  8
OUTLINE
  6
CONTINUOUS
 62
     3
 10
-295.06710429196801
 20
-48.794123236039241
 30
0.0
 11
-295.06710429196801
 21
-48.794123236039241
 31
0.0
  0
LINE
  8
OUTLINE
  6
CONTINUOUS
 62
     3
 10
-295.06710429196801
 20
-48.794123236039241
 30
0.0
 11
-295.06752644351741
 21
-48.785889546388198
 31
0.0
  0
LINE
  8
OUTLINE
  6
CONTINUOUS
 62
     3
 10
-295.06752644351741
 20
-48.785889546388198
 30
0.0
 11
-295.06806682044243
 21
-48.774545000555179
 31
0.0
  0
LINE
  8
OUTLINE
  6
CONTINUOUS
 62
     3
 10
-295.06806682044243
 20
-48.774545000555179
 30
0.0
 11
-295.06806682044243
 21
-48.774545000555179
 31
0.0
  0
LINE
  8
OUTLINE
  6
CONTINUOUS
 62
     3
 10
-295.06806682044243
 20
-48.774545000555179
 30
0.0
 11
-295.06888869882692
 21
-48.756503424073003
 31
0.0
  0
LINE
  8
OUTLINE
  6
CONTINUOUS
 62
     3
 10
-295.06888869882692
 20
-48.756503424073003
 30
0.0
 11
-295.06981750328538
 21
-48.735348154560427
 31
0.0
  0
LINE
  8
OUTLINE
  6
CONTINUOUS
 62
     3
 10
-295.06981750328538
 20
-48.735348154560427
 30
0.0
 11
-295.06981750328538
 21
-48.735348154560427
 31
0.0
  0
LINE
  8
OUTLINE
  6
CONTINUOUS
 62
     3
 10
-295.06981750328538
 20
-48.735348154560427
 30
0.0
 11
-295.07065075409469
 21
-48.715319332957961
 31
0.0
  0
LINE
  8
OUTLINE
  6
CONTINUOUS
 62
     3
 10
-295.07065075409469
 20
-48.715319332957961
 30
0.0
 11
-295.07141220565029
 21
-48.696114801410147
 31
0.0
  0
LINE
  8
OUTLINE
  6
CONTINUOUS
 62
     3
 10
-295.07141220565029
 20
-48.696114801410147
 30
0.0
 11
-295.07141220565029
 21
-48.696114801410147
 31
0.0
  0
LINE
  8
OUTLINE
  6
CONTINUOUS
 62
     3
 10
-295.07141220565029
 20
-48.696114801410147
 30
0.0
 11
-295.07216677257952
 21
-48.676600940950443
 31
0.0
  0
LINE
  8
OUTLINE
  6
CONTINUOUS
 62
     3
 10
-295.07216677257952
 20
-48.676600940950443
 30
0.0
 11
-295.07291777631042
 21
-48.656860586966218
 31
0.0
  0
LINE
  8
OUTLINE
  6
CONTINUOUS
 62
     3
 10
-295.07291777631042
 20
-48.656860586966218
 30
0.0
 11
-295.07291777631042
 21
-48.656860586966218
 31
0.0
  0
LINE
  8
OUTLINE
  6
CONTINUOUS
 62
     3
 10
-295.07291777631042
 20
-48.656860586966218
 30
0.0
 11
-295.07365817463977
 21
-48.637199808778348
 31
0.0
  0
LINE
  8
OUTLINE
  6
CONTINUOUS
 62
     3
 10
-295.07365817463977
 20
-48.637199808778348
 30
0.0
 11
-295.07440106403868
 21
-48.617601157090121
 31
0.0
  0
LINE
  8
OUTLINE
  6
CONTINUOUS
 62
     3
 10
-295.07440106403868
 20
-48.617601157090121
 30
0.0
 11
-295.07440106403868
 21
-48.617601157090121
 31
0.0
  0
LINE
  8
OUTLINE
  6
CONTINUOUS
 62
     3
 10
-295.07440106403868
 20
-48.617601157090121
 30
0.0
 11
-295.07515983527202
 21
-48.597985707979717
 31
0.0
  0
LINE
  8
OUTLINE
  6
CONTINUOUS
 62
     3
 10
-295.07515983527202
 20
-48.597985707979717
 30
0.0
 11
-295.07592891760942
 21
-48.578352157643621
 31
0.0
  0
LINE
  8
OUTLINE
  6
CONTINUOUS
 62
     3
 10
-294.71080283791088
 20
-47.055616576699087
 30
0.0
 11
-294.71911845819437
 21
-47.074060094124832
 31
0.0
  0
LINE
  8
OUTLINE
  6
CONTINUOUS
 62
     3
 10
-294.71911845819437
 20
-47.074060094124832
 30
0.0
 11
-294.72743461586288
 21
-47.092482627093318
 31
0.0
  0
LINE
  8
OUTLINE
  6
CONTINUOUS
 62
     3
 10
-294.72743461586288
 20
-47.092482627093318
 30
0.0
 11
-294.72743461586288
 21
-47.092482627093318
 31
0.0
  0
LINE
  8
OUTLINE
  6
CONTINUOUS
 62
     3
 10
-294.72743461586288
 20
-47.092482627093318
 30
0.0
 11
-294.73575666641199
 21
-47.110883069952308
 31
0.0
  0
LINE
  8
OUTLINE
  6
CONTINUOUS
 62
     3
 10
-294.73575666641199
 20
-47.110883069952308
 30
0.0
 11
-294.74410923778532
 21
-47.129339832271107
 31
0.0
  0
LINE
  8
OUTLINE
  6
CONTINUOUS
 62
     3
 10
-294.74410923778532
 20
-47.129339832271107
 30
0.0
 11
-294.74410923778532
 21
-47.129339832271107
 31
0.0
  0
LINE
  8
OUTLINE
  6
CONTINUOUS
 62
     3
 10
-294.74410923778532
 20
-47.129339832271107
 30
0.0
 11
-294.75248911486392
 21
-47.147874451343171
 31
0.0
  0
LINE
  8
OUTLINE
  6
CONTINUOUS
 62
     3
 10
-294.75248911486392
 20
-47.147874451343171
 30
0.0
 11
-294.76076243783638
 21
-47.16620146013986
 31
0.0
  0
LINE
  8
OUTLINE
  6
CONTINUOUS
 62
     3
 10
-294.76076243783638
 20
-47.16620146013986
 30
0.0
 11
-294.76076243783638
 21
-47.16620146013986
 31
0.0
  0
LINE
  8
OUTLINE
  6
CONTINUOUS
 62
     3
 10
-294.76076243783638
 20
-47.16620146013986
 30
0.0
 11
-294.76888851229938
 21
-47.184245766069182
 31
0.0
  0
LINE
  8
OUTLINE
  6
CONTINUOUS
 62
     3
 10
-294.76888851229938
 20
-47.184245766069182
 30
0.0
 11
-294.77732995017448
 21
-47.203080778607102
 31
0.0
  0
LINE
  8
OUTLINE
  6
CONTINUOUS
 62
     3
 10
-294.77732995017448
 20
-47.203080778607102
 30
0.0
 11
-294.77732995017448
 21
-47.203080778607102
 31
0.0
  0
LINE
  8
OUTLINE
  6
CONTINUOUS
 62
     3
 10
-294.77732995017448
 20
-47.203080778607102
 30
0.0
 11
-294.78620454481239
 21
-47.222995281758763
 31
0.0
  0
LINE
  8
OUTLINE
  6
CONTINUOUS
 62
     3
 10
-294.78620454481239
 20
-47.222995281758763
 30
0.0
 11
-294.79374750895772
 21
-47.239991055579942
 31
0.0
  0
LINE
  8
OUTLINE
  6
CONTINUOUS
 62
     3
 10
-294.79374750895772
 20
-47.239991055579942
 30
0.0
 11
-294.79374750895772
 21
-47.239991055579942
 31
0.0
  0
LINE
  8
OUTLINE
  6
CONTINUOUS
 62
     3
 10
-294.79374750895772
 20
-47.239991055579942
 30
0.0
 11
-294.79847036358512
 21
-47.25068774319783
 31
0.0
  0
LINE
  8
OUTLINE
  6
CONTINUOUS
 62
     3
 10
-294.79847036358512
 20
-47.25068774319783
 30
0.0
 11
-294.80187244319438
 21
-47.258463443975018
 31
0.0
  0
LINE
  8
OUTLINE
  6
CONTINUOUS
 62
     3
 10
-294.80187244319438
 20
-47.258463443975018
 30
0.0
 11
-294.80187244319438
 21
-47.258463443975018
 31
0.0
  0
LINE
  8
OUTLINE
  6
CONTINUOUS
 62
     3
 10
-294.80187244319438
 20
-47.258463443975018
 30
0.0
 11
-294.80572393360308
 21
-47.267315218115193
 31
0.0
  0
LINE
  8
OUTLINE
  6
CONTINUOUS
 62
     3
 10
-294.80572393360308
 20
-47.267315218115193
 30
0.0
 11
-294.80989061237068
 21
-47.276957512950283
 31
0.0
  0
LINE
  8
OUTLINE
  6
CONTINUOUS
 62
     3
 10
-294.80989061237068
 20
-47.276957512950283
 30
0.0
 11
-294.80989061237068
 21
-47.276957512950283
 31
0.0
  0
LINE
  8
OUTLINE
  6
CONTINUOUS
 62
     3
 10
-294.80989061237068
 20
-47.276957512950283
 30
0.0
 11
-294.81388972615707
 21
-47.286321003259388
 31
0.0
  0
LINE
  8
OUTLINE
  6
CONTINUOUS
 62
     3
 10
-294.81388972615707
 20
-47.286321003259388
 30
0.0
 11
-294.81774880627597
 21
-47.295483886482323
 31
0.0
  0
LINE
  8
OUTLINE
  6
CONTINUOUS
 62
     3
 10
-294.81774880627597
 20
-47.295483886482323
 30
0.0
 11
-294.81774880627597
 21
-47.295483886482323
 31
0.0
  0
LINE
  8
OUTLINE
  6
CONTINUOUS
 62
     3
 10
-294.81774880627597
 20
-47.295483886482323
 30
0.0
 11
-294.82158877261429
 21
-47.304734371281093
 31
0.0
  0
LINE
  8
OUTLINE
  6
CONTINUOUS
 62
     3
 10
-294.82158877261429
 20
-47.304734371281093
 30
0.0
 11
-294.82539381469888
 21
-47.314053188547923
 31
0.0
  0
LINE
  8
OUTLINE
  6
CONTINUOUS
 62
     3
 10
-294.82539381469888
 20
-47.314053188547923
 30
0.0
 11
-294.82539381469888
 21
-47.314053188547923
 31
0.0
  0
LINE
  8
OUTLINE
  6
CONTINUOUS
 62
     3
 10
-294.82539381469888
 20
-47.314053188547923
 30
0.0
 11
-294.82912309866242
 21
-47.323364796837318
 31
0.0
  0
LINE
  8
OUTLINE
  6
CONTINUOUS
 62
     3
 10
-294.82912309866242
 20
-47.323364796837318
 30
0.0
 11
-294.83277242742872
 21
-47.332676043124017
 31
0.0
  0
LINE
  8
OUTLINE
  6
CONTINUOUS
 62
     3
 10
-294.83277242742872
 20
-47.332676043124017
 30
0.0
 11
-294.83277242742872
 21
-47.332676043124017
 31
0.0
  0
LINE
  8
OUTLINE
  6
CONTINUOUS
 62
     3
 10
-294.83277242742872
 20
-47.332676043124017
 30
0.0
 11
-294.83634740423179
 21
-47.342008243594762
 31
0.0
  0
LINE
  8
OUTLINE
  6
CONTINUOUS
 62
     3
 10
-294.83634740423179
 20
-47.342008243594762
 30
0.0
 11
-294.83985619676457
 21
-47.351358202863992
 31
0.0
  0
LINE
  8
OUTLINE
  6
CONTINUOUS
 62
     3
 10
-294.83985619676457
 20
-47.351358202863992
 30
0.0
 11
-294.83985619676457
 21
-47.351358202863992
 31
0.0
  0
LINE
  8
OUTLINE
  6
CONTINUOUS
 62
     3
 10
-294.83985619676457
 20
-47.351358202863992
 30
0.0
 11
-294.84330827143322
 21
-47.360718076458738
 31
0.0
  0
LINE
  8
OUTLINE
  6
CONTINUOUS
 62
     3
 10
-294.84330827143322
 20
-47.360718076458738
 30
0.0
 11
-294.84671572504772
 21
-47.370085935128323
 31
0.0
  0
LINE
  8
OUTLINE
  6
CONTINUOUS
 62
     3
 10
-294.84671572504772
 20
-47.370085935128323
 30
0.0
 11
-294.84671572504772
 21
-47.370085935128323
 31
0.0
  0
LINE
  8
OUTLINE
  6
CONTINUOUS
 62
     3
 10
-294.84671572504772
 20
-47.370085935128323
 30
0.0
 11
-294.85009113581549
 21
-47.379460932182887
 31
0.0
  0
LINE
  8
OUTLINE
  6
CONTINUOUS
 62
     3
 10
-294.85009113581549
 20
-47.379460932182887
 30
0.0
 11
-294.85344637712973
 21
-47.388840635953727
 31
0.0
  0
LINE
  8
OUTLINE
  6
CONTINUOUS
 62
     3
 10
-294.85344637712973
 20
-47.388840635953727
 30
0.0
 11
-294.85344637712973
 21
-47.388840635953727
 31
0.0
  0
LINE
  8
OUTLINE
  6
CONTINUOUS
 62
     3
 10
-294.85344637712973
 20
-47.388840635953727
 30
0.0
 11
-294.85679319339289
 21
-47.398222324700733
 31
0.0
  0
LINE
  8
OUTLINE
  6
CONTINUOUS
 62
     3
 10
-294.85679319339289
 20
-47.398222324700733
 30
0.0
 11
-294.86014351786213
 21
-47.407603701377582
 31
0.0
  0
LINE
  8
OUTLINE
  6
CONTINUOUS
 62
     3
 10
-294.86014351786213
 20
-47.407603701377582
 30
0.0
 11
-294.86014351786213
 21
-47.407603701377582
 31
0.0
  0
LINE
  8
OUTLINE
  6
CONTINUOUS
 62
     3
 10
-294.86014351786213
 20
-47.407603701377582
 30
0.0
 11
-294.86350931835727
 21
-47.416982546662148
 31
0.0
  0
LINE
  8
OUTLINE
  6
CONTINUOUS
 62
     3
 10
-294.86350931835727
 20
-47.416982546662148
 30
0.0
 11
-294.86690251209569
 21
-47.426356527436383
 31
0.0
  0
LINE
  8
OUTLINE
  6
CONTINUOUS
 62
     3
 10
-294.86690251209569
 20
-47.426356527436383
 30
0.0
 11
-294.86690251209569
 21
-47.426356527436383
 31
0.0
  0
LINE
  8
OUTLINE
  6
CONTINUOUS
 62
     3
 10
-294.86690251209569
 20
-47.426356527436383
 30
0.0
 11
-294.87033107657362
 21
-47.435724010838904
 31
0.0
  0
LINE
  8
OUTLINE
  6
CONTINUOUS
 62
     3
 10
-294.87033107657362
 20
-47.435724010838904
 30
0.0
 11
-294.87378728101038
 21
-47.445086278832832
 31
0.0
  0
LINE
  8
OUTLINE
  6
CONTINUOUS
 62
     3
 10
-294.87378728101038
 20
-47.445086278832832
 30
0.0
 11
-294.87378728101038
 21
-47.445086278832832
 31
0.0
  0
LINE
  8
OUTLINE
  6
CONTINUOUS
 62
     3
 10
-294.87378728101038
 20
-47.445086278832832
 30
0.0
 11
-294.87725946664762
 21
-47.454445340043947
 31
0.0
  0
LINE
  8
OUTLINE
  6
CONTINUOUS
 62
     3
 10
-294.87725946664762
 20
-47.454445340043947
 30
0.0
 11
-294.88073597109462
 21
-47.463803194928573
 31
0.0
  0
LINE
  8
OUTLINE
  6
CONTINUOUS
 62
     3
 10
-294.88073597109462
 20
-47.463803194928573
 30
0.0
 11
-294.88073597109462
 21
-47.463803194928573
 31
0.0
  0
LINE
  8
OUTLINE
  6
CONTINUOUS
 62
     3
 10
-294.88073597109462
 20
-47.463803194928573
 30
0.0
 11
-294.88420513129518
 21
-47.47316184244761
 31
0.0
  0
LINE
  8
OUTLINE
  6
CONTINUOUS
 62
     3
 10
-294.88420513129518
 20
-47.47316184244761
 30
0.0
 11
-294.88765528516609
 21
-47.482523283750993
 31
0.0
  0
LINE
  8
OUTLINE
  6
CONTINUOUS
 62
     3
 10
-294.88765528516609
 20
-47.482523283750993
 30
0.0
 11
-294.88765528516609
 21
-47.482523283750993
 31
0.0
  0
LINE
  8
OUTLINE
  6
CONTINUOUS
 62
     3
 10
-294.88765528516609
 20
-47.482523283750993
 30
0.0
 11
-294.89107477080319
 21
-47.49188952038952
 31
0.0
  0
LINE
  8
OUTLINE
  6
CONTINUOUS
 62
     3
 10
-294.89107477080319
 20
-47.49188952038952
 30
0.0
 11
-294.89445192604097
 21
-47.501262553327187
 31
0.0
  0
LINE
  8
OUTLINE
  6
CONTINUOUS
 62
     3
 10
-294.89445192604097
 20
-47.501262553327187
 30
0.0
 11
-294.89445192604097
 21
-47.501262553327187
 31
0.0
  0
LINE
  8
OUTLINE
  6
CONTINUOUS
 62
     3
 10
-294.89445192604097
 20
-47.501262553327187
 30
0.0
 11
-294.89777508866638
 21
-47.510644383420811
 31
0.0
  0
LINE
  8
OUTLINE
  6
CONTINUOUS
 62
     3
 10
-294.89777508866638
 20
-47.510644383420811
 30
0.0
 11
-294.90103259653631
 21
-47.520037011684167
 31
0.0
  0
LINE
  8
OUTLINE
  6
CONTINUOUS
 62
     3
 10
-294.90103259653631
 20
-47.520037011684167
 30
0.0
 11
-294.90103259653631
 21
-47.520037011684167
 31
0.0
  0
LINE
  8
OUTLINE
  6
CONTINUOUS
 62
     3
 10
-294.90103259653631
 20
-47.520037011684167
 30
0.0
 11
-294.90421555341908
 21
-47.529441959976403
 31
0.0
  0
LINE
  8
OUTLINE
  6
CONTINUOUS
 62
     3
 10
-294.90421555341908
 20
-47.529441959976403
 30
0.0
 11
-294.9073261266617
 21
-47.538858833379493
 31
0.0
  0
LINE
  8
OUTLINE
  6
CONTINUOUS
 62
     3
 10
-294.9073261266617
 20
-47.538858833379493
 30
0.0
 11
-294.9073261266617
 21
-47.538858833379493
 31
0.0
  0
LINE
  8
OUTLINE
  6
CONTINUOUS
 62
     3
 10
-294.9073261266617
 20
-47.538858833379493
 30
0.0
 11
-294.91036924950549
 21
-47.548286757783558
 31
0.0
  0
LINE
  8
OUTLINE
  6
CONTINUOUS
 62
     3
 10
-294.91036924950549
 20
-47.548286757783558
 30
0.0
 11
-294.91334985519802
 21
-47.557724859090911
 31
0.0
  0
LINE
  8
OUTLINE
  6
CONTINUOUS
 62
     3
 10
-294.91334985519802
 20
-47.557724859090911
 30
0.0
 11
-294.91334985519802
 21
-47.557724859090911
 31
0.0
  0
LINE
  8
OUTLINE
  6
CONTINUOUS
 62
     3
 10
-294.91334985519802
 20
-47.557724859090911
 30
0.0
 11
-294.91627287698748
 21
-47.567172263205009
 31
0.0
  0
LINE
  8
OUTLINE
  6
CONTINUOUS
 62
     3
 10
-294.91627287698748
 20
-47.567172263205009
 30
0.0
 11
-294.91914324812058
 21
-47.576628096026809
 31
0.0
  0
LINE
  8
OUTLINE
  6
CONTINUOUS
 62
     3
 10
-294.91914324812058
 20
-47.576628096026809
 30
0.0
 11
-294.91914324812058
 21
-47.576628096026809
 31
0.0
  0
LINE
  8
OUTLINE
  6
CONTINUOUS
 62
     3
 10
-294.91914324812058
 20
-47.576628096026809
 30
0.0
 11
-294.92196590184318
 21
-47.586091483456357
 31
0.0
  0
LINE
  8
OUTLINE
  6
CONTINUOUS
 62
     3
 10
-294.92196590184318
 20
-47.586091483456357
 30
0.0
 11
-294.92474577140229
 21
-47.595561551394951
 31
0.0
  0
LINE
  8
OUTLINE
  6
CONTINUOUS
 62
     3
 10
-294.92474577140229
 20
-47.595561551394951
 30
0.0
 11
-294.92474577140229
 21
-47.595561551394951
 31
0.0
  0
LINE
  8
OUTLINE
  6
CONTINUOUS
 62
     3
 10
-294.92474577140229
 20
-47.595561551394951
 30
0.0
 11
-294.92748779004512
 21
-47.60503742574366
 31
0.0
  0
LINE
  8
OUTLINE
  6
CONTINUOUS
 62
     3
 10
-294.92748779004512
 20
-47.60503742574366
 30
0.0
 11
-294.93019689101811
 21
-47.614518232403547
 31
0.0
  0
LINE
  8
OUTLINE
  6
CONTINUOUS
 62
     3
 10
-294.93019689101811
 20
-47.614518232403547
 30
0.0
 11
-294.93019689101811
 21
-47.614518232403547
 31
0.0
  0
LINE
  8
OUTLINE
  6
CONTINUOUS
 62
     3
 10
-294.93019689101811
 20
-47.614518232403547
 30
0.0
 11
-294.93287832311557
 21
-47.624003091822537
 31
0.0
  0
LINE
  8
OUTLINE
  6
CONTINUOUS
 62
     3
 10
-294.93287832311557
 20
-47.624003091822537
 30
0.0
 11
-294.93553859732162
 21
-47.633491102636128
 31
0.0
  0
LINE
  8
OUTLINE
  6
CONTINUOUS
 62
     3
 10
-294.93553859732162
 20
-47.633491102636128
 30
0.0
 11
-294.93553859732162
 21
-47.633491102636128
 31
0.0
  0
LINE
  8
OUTLINE
  6
CONTINUOUS
 62
     3
 10
-294.93553859732162
 20
-47.633491102636128
 30
0.0
 11
-294.93818454016707
 21
-47.642981358026418
 31
0.0
  0
LINE
  8
OUTLINE
  6
CONTINUOUS
 62
     3
 10
-294.93818454016707
 20
-47.642981358026418
 30
0.0
 11
-294.94082297818443
 21
-47.652472951176087
 31
0.0
  0
LINE
  8
OUTLINE
  6
CONTINUOUS
 62
     3
 10
-294.94082297818443
 20
-47.652472951176087
 30
0.0
 11
-294.94082297818443
 21
-47.652472951176087
 31
0.0
  0
LINE
  8
OUTLINE
  6
CONTINUOUS
 62
     3
 10
-294.94082297818443
 20
-47.652472951176087
 30
0.0
 11
-294.94346073790467
 21
-47.661964975267381
 31
0.0
  0
LINE
  8
OUTLINE
  6
CONTINUOUS
 62
     3
 10
-294.94346073790467
 20
-47.661964975267381
 30
0.0
 11
-294.94610464585941
 21
-47.671456523482618
 31
0.0
  0
LINE
  8
OUTLINE
  6
CONTINUOUS
 62
     3
 10
-294.94610464585941
 20
-47.671456523482618
 30
0.0
 11
-294.94610464585941
 21
-47.671456523482618
 31
0.0
  0
LINE
  8
OUTLINE
  6
CONTINUOUS
 62
     3
 10
-294.94610464585941
 20
-47.671456523482618
 30
0.0
 11
-294.94876152857972
 21
-47.680946689004031
 31
0.0
  0
LINE
  8
OUTLINE
  6
CONTINUOUS
 62
     3
 10
-294.94876152857972
 20
-47.680946689004031
 30
0.0
 11
-294.95143821259722
 21
-47.690434565014073
 31
0.0
  0
LINE
  8
OUTLINE
  6
CONTINUOUS
 62
     3
 10
-294.95143821259722
 20
-47.690434565014073
 30
0.0
 11
-294.95143821259722
 21
-47.690434565014073
 31
0.0
  0
LINE
  8
OUTLINE
  6
CONTINUOUS
 62
     3
 10
-294.95143821259722
 20
-47.690434565014073
 30
0.0
 11
-294.95414152444317
 21
-47.699919244695081
 31
0.0
  0
LINE
  8
OUTLINE
  6
CONTINUOUS
 62
     3
 10
-294.95414152444317
 20
-47.699919244695081
 30
0.0
 11
-294.95687829065002
 21
-47.709399821229397
 31
0.0
  0
LINE
  8
OUTLINE
  6
CONTINUOUS
 62
     3
 10
-294.95687829065002
 20
-47.709399821229397
 30
0.0
 11
-294.95687829065002
 21
-47.709399821229397
 31
0.0
  0
LINE
  8
OUTLINE
  6
CONTINUOUS
 62
     3
 10
-294.95687829065002
 20
-47.709399821229397
 30
0.0
 11
-294.95965130965902
 21
-47.718875888795822
 31
0.0
  0
LINE
  8
OUTLINE
  6
CONTINUOUS
 62
     3
 10
-294.95965130965902
 20
-47.718875888795822
 30
0.0
 11
-294.96244726755589
 21
-47.728349045558097
 31
0.0
  0
LINE
  8
OUTLINE
  6
CONTINUOUS
 62
     3
 10
-294.96244726755589
 20
-47.728349045558097
 30
0.0
 11
-294.96244726755589
 21
-47.728349045558097
 31
0.0
  0
LINE
  8
OUTLINE
  6
CONTINUOUS
 62
     3
 10
-294.96244726755589
 20
-47.728349045558097
 30
0.0
 11
-294.96524882233768
 21
-47.737821390676288
 31
0.0
  0
LINE
  8
OUTLINE
  6
CONTINUOUS
 62
     3
 10
-294.96524882233768
 20
-47.737821390676288
 30
0.0
 11
-294.96803863200017
 21
-47.747295023310642
 31
0.0
  0
LINE
  8
OUTLINE
  6
CONTINUOUS
 62
     3
 10
-294.96803863200017
 20
-47.747295023310642
 30
0.0
 11
-294.96803863200017
 21
-47.747295023310642
 31
0.0
  0
LINE
  8
OUTLINE
  6
CONTINUOUS
 62
     3
 10
-294.96803863200017
 20
-47.747295023310642
 30
0.0
 11
-294.97079935454047
 21
-47.756772042621549
 31
0.0
  0
LINE
  8
OUTLINE
  6
CONTINUOUS
 62
     3
 10
-294.97079935454047
 20
-47.756772042621549
 30
0.0
 11
-294.97351364795509
 21
-47.766254547768987
 31
0.0
  0
LINE
  8
OUTLINE
  6
CONTINUOUS
 62
     3
 10
-294.97351364795509
 20
-47.766254547768987
 30
0.0
 11
-294.97351364795509
 21
-47.766254547768987
 31
0.0
  0
LINE
  8
OUTLINE
  6
CONTINUOUS
 62
     3
 10
-294.97351364795509
 20
-47.766254547768987
 30
0.0
 11
-294.97616417024011
 21
-47.775744637912851
 31
0.0
  0
LINE
  8
OUTLINE
  6
CONTINUOUS
 62
     3
 10
-294.97616417024011
 20
-47.775744637912851
 30
0.0
 11
-294.9787335793917
 21
-47.785244412213501
 31
0.0
  0
LINE
  8
OUTLINE
  6
CONTINUOUS
 62
     3
 10
-294.9787335793917
 20
-47.785244412213501
 30
0.0
 11
-294.9787335793917
 21
-47.785244412213501
 31
0.0
  0
LINE
  8
OUTLINE
  6
CONTINUOUS
 62
     3
 10
-294.9787335793917
 20
-47.785244412213501
 30
0.0
 11
-294.98120453340658
 21
-47.794755969831101
 31
0.0
  0
LINE
  8
OUTLINE
  6
CONTINUOUS
 62
     3
 10
-294.98120453340658
 20
-47.794755969831101
 30
0.0
 11
-294.98355969028171
 21
-47.80428140992592
 31
0.0
  0
LINE
  8
OUTLINE
  6
CONTINUOUS
 62
     3
 10
-294.98355969028171
 20
-47.80428140992592
 30
0.0
 11
-294.98355969028171
 21
-47.80428140992592
 31
0.0
  0
LINE
  8
OUTLINE
  6
CONTINUOUS
 62
     3
 10
-294.98355969028171
 20
-47.80428140992592
 30
0.0
 11
-294.98578749003741
 21
-47.813822138713533
 31
0.0
  0
LINE
  8
OUTLINE
  6
CONTINUOUS
 62
     3
 10
-294.98578749003741
 20
-47.813822138713533
 30
0.0
 11
-294.98789950079089
 21
-47.823376790631642
 31
0.0
  0
LINE
  8
OUTLINE
  6
CONTINUOUS
 62
     3
 10
-294.98789950079089
 20
-47.823376790631642
 30
0.0
 11
-294.98789950079089
 21
-47.823376790631642
 31
0.0
  0
LINE
  8
OUTLINE
  6
CONTINUOUS
 62
     3
 10
-294.98789950079089
 20
-47.823376790631642
 30
0.0
 11
-294.98991307268318
 21
-47.832943307172677
 31
0.0
  0
LINE
  8
OUTLINE
  6
CONTINUOUS
 62
     3
 10
-294.98991307268318
 20
-47.832943307172677
 30
0.0
 11
-294.99184555585617
 21
-47.842519629830292
 31
0.0
  0
LINE
  8
OUTLINE
  6
CONTINUOUS
 62
     3
 10
-294.99184555585617
 20
-47.842519629830292
 30
0.0
 11
-294.99184555585617
 21
-47.842519629830292
 31
0.0
  0
LINE
  8
OUTLINE
  6
CONTINUOUS
 62
     3
 10
-294.99184555585617
 20
-47.842519629830292
 30
0.0
 11
-294.99371430045193
 21
-47.852103700097132
 31
0.0
  0
LINE
  8
OUTLINE
  6
CONTINUOUS
 62
     3
 10
-294.99371430045193
 20
-47.852103700097132
 30
0.0
 11
-294.99553665661131
 21
-47.86169345946638
 31
0.0
  0
LINE
  8
OUTLINE
  6
CONTINUOUS
 62
     3
 10
-294.99553665661131
 20
-47.86169345946638
 30
0.0
 11
-294.99553665661131
 21
-47.86169345946638
 31
0.0
  0
LINE
  8
OUTLINE
  6
CONTINUOUS
 62
     3
 10
-294.99553665661131
 20
-47.86169345946638
 30
0.0
 11
-294.99732997447558
 21
-47.871286849430817
 31
0.0
  0
LINE
  8
OUTLINE
  6
CONTINUOUS
 62
     3
 10
-294.99732997447558
 20
-47.871286849430817
 30
0.0
 11
-294.99911160418628
 21
-47.880881811483732
 31
0.0
  0
LINE
  8
OUTLINE
  6
CONTINUOUS
 62
     3
 10
-294.99911160418628
 20
-47.880881811483732
 30
0.0
 11
-294.99911160418628
 21
-47.880881811483732
 31
0.0
  0
LINE
  8
OUTLINE
  6
CONTINUOUS
 62
     3
 10
-294.99911160418628
 20
-47.880881811483732
 30
0.0
 11
-295.00089889588497
 21
-47.890476287117913
 31
0.0
  0
LINE
  8
OUTLINE
  6
CONTINUOUS
 62
     3
 10
-295.00089889588497
 20
-47.890476287117913
 30
0.0
 11
-295.00270919971388
 21
-47.900068217826458
 31
0.0
  0
LINE
  8
OUTLINE
  6
CONTINUOUS
 62
     3
 10
-295.00270919971388
 20
-47.900068217826458
 30
0.0
 11
-295.00270919971388
 21
-47.900068217826458
 31
0.0
  0
LINE
  8
OUTLINE
  6
CONTINUOUS
 62
     3
 10
-295.00270919971388
 20
-47.900068217826458
 30
0.0
 11
-295.00455582958648
 21
-47.909656005446038
 31
0.0
  0
LINE
  8
OUTLINE
  6
CONTINUOUS
 62
     3
 10
-295.00455582958648
 20
-47.909656005446038
 30
0.0
 11
-295.00643595450981
 21
-47.919239893187978
 31
0.0
  0
LINE
  8
OUTLINE
  6
CONTINUOUS
 62
     3
 10
-295.00643595450981
 20
-47.919239893187978
 30
0.0
 11
-295.00643595450981
 21
-47.919239893187978
 31
0.0
  0
LINE
  8
OUTLINE
  6
CONTINUOUS
 62
     3
 10
-295.00643595450981
 20
-47.919239893187978
 30
0.0
 11
-295.00834270726278
 21
-47.928820584606967
 31
0.0
  0
LINE
  8
OUTLINE
  6
CONTINUOUS
 62
     3
 10
-295.00834270726278
 20
-47.928820584606967
 30
0.0
 11
-295.01026922062613
 21
-47.938398783258151
 31
0.0
  0
LINE
  8
OUTLINE
  6
CONTINUOUS
 62
     3
 10
-295.01026922062613
 20
-47.938398783258151
 30
0.0
 11
-295.01026922062613
 21
-47.938398783258151
 31
0.0
  0
LINE
  8
OUTLINE
  6
CONTINUOUS
 62
     3
 10
-295.01026922062613
 20
-47.938398783258151
 30
0.0
 11
-295.01220862737898
 21
-47.94797519269639
 31
0.0
  0
LINE
  8
OUTLINE
  6
CONTINUOUS
 62
     3
 10
-295.01220862737898
 20
-47.94797519269639
 30
0.0
 11
-295.01415406030128
 21
-47.957550516476601
 31
0.0
  0
LINE
  8
OUTLINE
  6
CONTINUOUS
 62
     3
 10
-295.01415406030128
 20
-47.957550516476601
 30
0.0
 11
-295.01415406030128
 21
-47.957550516476601
 31
0.0
  0
LINE
  8
OUTLINE
  6
CONTINUOUS
 62
     3
 10
-295.01415406030128
 20
-47.957550516476601
 30
0.0
 11
-295.01609865217227
 21
-47.967125458153589
 31
0.0
  0
LINE
  8
OUTLINE
  6
CONTINUOUS
 62
     3
 10
-295.01609865217227
 20
-47.967125458153589
 30
0.0
 11
-295.01803553577179
 21
-47.976700721282441
 31
0.0
  0
LINE
  8
OUTLINE
  6
CONTINUOUS
 62
     3
 10
-295.01803553577179
 20
-47.976700721282441
 30
0.0
 11
-295.01803553577179
 21
-47.976700721282441
 31
0.0
  0
LINE
  8
OUTLINE
  6
CONTINUOUS
 62
     3
 10
-295.01803553577179
 20
-47.976700721282441
 30
0.0
 11
-295.01995784387969
 21
-47.986277009417961
 31
0.0
  0
LINE
  8
OUTLINE
  6
CONTINUOUS
 62
     3
 10
-295.01995784387969
 20
-47.986277009417961
 30
0.0
 11
-295.02185870927531
 21
-47.99585502611518
 31
0.0
  0
LINE
  8
OUTLINE
  6
CONTINUOUS
 62
     3
 10
-295.02185870927531
 20
-47.99585502611518
 30
0.0
 11
-295.02185870927531
 21
-47.99585502611518
 31
0.0
  0
LINE
  8
OUTLINE
  6
CONTINUOUS
 62
     3
 10
-295.02185870927531
 20
-47.99585502611518
 30
0.0
 11
-295.02373156519587
 21
-48.005435433887207
 31
0.0
  0
LINE
  8
OUTLINE
  6
CONTINUOUS
 62
     3
 10
-295.02373156519587
 20
-48.005435433887207
 30
0.0
 11
-295.02557104670791
 21
-48.015018731080147
 31
0.0
  0
LINE
  8
OUTLINE
  6
CONTINUOUS
 62
     3
 10
-295.02557104670791
 20
-48.015018731080147
 30
0.0
 11
-295.02557104670791
 21
-48.015018731080147
 31
0.0
  0
LINE
  8
OUTLINE
  6
CONTINUOUS
 62
     3
 10
-295.02557104670791
 20
-48.015018731080147
 30
0.0
 11
-295.02737208933439
 21
-48.024605374997918
 31
0.0
  0
LINE
  8
OUTLINE
  6
CONTINUOUS
 62
     3
 10
-295.02737208933439
 20
-48.024605374997918
 30
0.0
 11
-295.02912962859978
 21
-48.034195822945208
 31
0.0
  0
LINE
  8
OUTLINE
  6
CONTINUOUS
 62
     3
 10
-295.02912962859978
 20
-48.034195822945208
 30
0.0
 11
-295.02912962859978
 21
-48.034195822945208
 31
0.0
  0
LINE
  8
OUTLINE
  6
CONTINUOUS
 62
     3
 10
-295.02912962859978
 20
-48.034195822945208
 30
0.0
 11
-295.03083860002778
 21
-48.043790532226353
 31
0.0
  0
LINE
  8
OUTLINE
  6
CONTINUOUS
 62
     3
 10
-295.03083860002778
 20
-48.043790532226353
 30
0.0
 11
-295.03249393914189
 21
-48.053389960144777
 31
0.0
  0
LINE
  8
OUTLINE
  6
CONTINUOUS
 62
     3
 10
-295.03249393914189
 20
-48.053389960144777
 30
0.0
 11
-295.03249393914189
 21
-48.053389960144777
 31
0.0
  0
LINE
  8
OUTLINE
  6
CONTINUOUS
 62
     3
 10
-295.03249393914189
 20
-48.053389960144777
 30
0.0
 11
-295.03409058146559
 21
-48.062994564004441
 31
0.0
  0
LINE
  8
OUTLINE
  6
CONTINUOUS
 62
     3
 10
-295.03409058146559
 20
-48.062994564004441
 30
0.0
 11
-295.03562346252318
 21
-48.072604801112668
 31
0.0
  0
LINE
  8
OUTLINE
  6
CONTINUOUS
 62
     3
 10
-295.03562346252318
 20
-48.072604801112668
 30
0.0
 11
-295.03562346252318
 21
-48.072604801112668
 31
0.0
  0
LINE
  8
OUTLINE
  6
CONTINUOUS
 62
     3
 10
-295.03562346252318
 20
-48.072604801112668
 30
0.0
 11
-295.03708751783842
 21
-48.082221128774513
 31
0.0
  0
LINE
  8
OUTLINE
  6
CONTINUOUS
 62
     3
 10
-295.03708751783842
 20
-48.082221128774513
 30
0.0
 11
-295.03847768293463
 21
-48.091844004282962
 31
0.0
  0
LINE
  8
OUTLINE
  6
CONTINUOUS
 62
     3
 10
-295.03847768293463
 20
-48.091844004282962
 30
0.0
 11
-295.03847768293463
 21
-48.091844004282962
 31
0.0
  0
LINE
  8
OUTLINE
  6
CONTINUOUS
 62
     3
 10
-295.03847768293463
 20
-48.091844004282962
 30
0.0
 11
-295.03979172773302
 21
-48.101473588763668
 31
0.0
  0
LINE
  8
OUTLINE
  6
CONTINUOUS
 62
     3
 10
-295.03979172773302
 20
-48.101473588763668
 30
0.0
 11
-295.04103875974829
 21
-48.111108858684638
 31
0.0
  0
LINE
  8
OUTLINE
  6
CONTINUOUS
 62
     3
 10
-295.04103875974829
 20
-48.111108858684638
 30
0.0
 11
-295.04103875974829
 21
-48.111108858684638
 31
0.0
  0
LINE
  8
OUTLINE
  6
CONTINUOUS
 62
     3
 10
-295.04103875974829
 20
-48.111108858684638
 30
0.0
 11
-295.04223072089172
 21
-48.120748494307179
 31
0.0
  0
LINE
  8
OUTLINE
  6
CONTINUOUS
 62
     3
 10
-295.04223072089172
 20
-48.120748494307179
 30
0.0
 11
-295.04337955306721
 21
-48.130391175726167
 31
0.0
  0
LINE
  8
OUTLINE
  6
CONTINUOUS
 62
     3
 10
-295.04337955306721
 20
-48.130391175726167
 30
0.0
 11
-295.04337955306721
 21
-48.130391175726167
 31
0.0
  0
LINE
  8
OUTLINE
  6
CONTINUOUS
 62
     3
 10
-295.04337955306721
 20
-48.130391175726167
 30
0.0
 11
-295.04449719818388
 21
-48.140035583150393
 31
0.0
  0
LINE
  8
OUTLINE
  6
CONTINUOUS
 62
     3
 10
-295.04449719818388
 20
-48.140035583150393
 30
0.0
 11
-295.04559559817812
 21
-48.14968039741143
 31
0.0
  0
LINE
  8
OUTLINE
  6
CONTINUOUS
 62
     3
 10
-295.04559559817812
 20
-48.14968039741143
 30
0.0
 11
-295.04559559817812
 21
-48.14968039741143
 31
0.0
  0
LINE
  8
OUTLINE
  6
CONTINUOUS
 62
     3
 10
-295.04559559817812
 20
-48.14968039741143
 30
0.0
 11
-295.04668669496772
 21
-48.159324298915237
 31
0.0
  0
LINE
  8
OUTLINE
  6
CONTINUOUS
 62
     3
 10
-295.04668669496772
 20
-48.159324298915237
 30
0.0
 11
-295.04778243036628
 21
-48.168965965743439
 31
0.0
  0
LINE
  8
OUTLINE
  6
CONTINUOUS
 62
     3
 10
-295.04778243036628
 20
-48.168965965743439
 30
0.0
 11
-295.04778243036628
 21
-48.168965965743439
 31
0.0
  0
LINE
  8
OUTLINE
  6
CONTINUOUS
 62
     3
 10
-295.04778243036628
 20
-48.168965965743439
 30
0.0
 11
-295.04889474625912
 21
-48.178604077565183
 31
0.0
  0
LINE
  8
OUTLINE
  6
CONTINUOUS
 62
     3
 10
-295.04889474625912
 20
-48.178604077565183
 30
0.0
 11
-295.05003558491887
 21
-48.188237322725968
 31
0.0
  0
LINE
  8
OUTLINE
  6
CONTINUOUS
 62
     3
 10
-295.05003558491887
 20
-48.188237322725968
 30
0.0
 11
-295.05003558491887
 21
-48.188237322725968
 31
0.0
  0
LINE
  8
OUTLINE
  6
CONTINUOUS
 62
     3
 10
-295.05003558491887
 20
-48.188237322725968
 30
0.0
 11
-295.05121284191227
 21
-48.197865002879148
 31
0.0
  0
LINE
  8
OUTLINE
  6
CONTINUOUS
 62
     3
 10
-295.05121284191227
 20
-48.197865002879148
 30
0.0
 11
-295.05241822559378
 21
-48.20748886423587
 31
0.0
  0
LINE
  8
OUTLINE
  6
CONTINUOUS
 62
     3
 10
-295.05241822559378
 20
-48.20748886423587
 30
0.0
 11
-295.05241822559378
 21
-48.20748886423587
 31
0.0
  0
LINE
  8
OUTLINE
  6
CONTINUOUS
 62
     3
 10
-295.05241822559378
 20
-48.20748886423587
 30
0.0
 11
-295.05363939886598
 21
-48.2171112943563
 31
0.0
  0
LINE
  8
OUTLINE
  6
CONTINUOUS
 62
     3
 10
-295.05363939886598
 20
-48.2171112943563
 30
0.0
 11
-295.05486403004198
 21
-48.226734801641733
 31
0.0
  0
LINE
  8
OUTLINE
  6
CONTINUOUS
 62
     3
 10
-295.05486403004198
 20
-48.226734801641733
 30
0.0
 11
-295.05486403004198
 21
-48.226734801641733
 31
0.0
  0
LINE
  8
OUTLINE
  6
CONTINUOUS
 62
     3
 10
-295.05486403004198
 20
-48.226734801641733
 30
0.0
 11
-295.05607978373928
 21
-48.236361811957352
 31
0.0
  0
LINE
  8
OUTLINE
  6
CONTINUOUS
 62
     3
 10
-295.05607978373928
 20
-48.236361811957352
 30
0.0
 11
-295.05727430438691
 21
-48.245994300185536
 31
0.0
  0
LINE
  8
OUTLINE
  6
CONTINUOUS
 62
     3
 10
-295.05727430438691
 20
-48.245994300185536
 30
0.0
 11
-295.05727430438691
 21
-48.245994300185536
 31
0.0
  0
LINE
  8
OUTLINE
  6
CONTINUOUS
 62
     3
 10
-295.05727430438691
 20
-48.245994300185536
 30
0.0
 11
-295.05843525020288
 21
-48.255634549235651
 31
0.0
  0
LINE
  8
OUTLINE
  6
CONTINUOUS
 62
     3
 10
-295.05843525020288
 20
-48.255634549235651
 30
0.0
 11
-295.05955035475108
 21
-48.265286525109047
 31
0.0
  0
LINE
  8
OUTLINE
  6
CONTINUOUS
 62
     3
 10
-295.05955035475108
 20
-48.265286525109047
 30
0.0
 11
-295.05955035475108
 21
-48.265286525109047
 31
0.0
  0
LINE
  8
OUTLINE
  6
CONTINUOUS
 62
     3
 10
-295.05955035475108
 20
-48.265286525109047
 30
0.0
 11
-295.06060730013348
 21
-48.274953044233882
 31
0.0
  0
LINE
  8
OUTLINE
  6
CONTINUOUS
 62
     3
 10
-295.06060730013348
 20
-48.274953044233882
 30
0.0
 11
-295.06159348725868
 21
-48.284630641654303
 31
0.0
  0
LINE
  8
OUTLINE
  6
CONTINUOUS
 62
     3
 10
-295.06159348725868
 20
-48.284630641654303
 30
0.0
 11
-295.06159348725868
 21
-48.284630641654303
 31
0.0
  0
LINE
  8
OUTLINE
  6
CONTINUOUS
 62
     3
 10
-295.06159348725868
 20
-48.284630641654303
 30
0.0
 11
-295.06249971481873
 21
-48.294319501659118
 31
0.0
  0
LINE
  8
OUTLINE
  6
CONTINUOUS
 62
     3
 10
-295.06249971481873
 20
-48.294319501659118
 30
0.0
 11
-295.06333065382597
 21
-48.304040686902738
 31
0.0
  0
LINE
  8
OUTLINE
  6
CONTINUOUS
 62
     3
 10
-295.06333065382597
 20
-48.304040686902738
 30
0.0
 11
-295.06333065382597
 21
-48.304040686902738
 31
0.0
  0
LINE
  8
OUTLINE
  6
CONTINUOUS
 62
     3
 10
-295.06333065382597
 20
-48.304040686902738
 30
0.0
 11
-295.06409346424817
 21
-48.313798607531233
 31
0.0
  0
LINE
  8
OUTLINE
  6
CONTINUOUS
 62
     3
 10
-295.06409346424817
 20
-48.313798607531233
 30
0.0
 11
-295.06479138954421
 21
-48.323510185292953
 31
0.0
  0
LINE
  8
OUTLINE
  6
CONTINUOUS
 62
     3
 10
-295.06479138954421
 20
-48.323510185292953
 30
0.0
 11
-295.06479138954421
 21
-48.323510185292953
 31
0.0
  0
LINE
  8
OUTLINE
  6
CONTINUOUS
 62
     3
 10
-295.06479138954421
 20
-48.323510185292953
 30
0.0
 11
-295.06543034819708
 21
-48.333152097622992
 31
0.0
  0
LINE
  8
OUTLINE
  6
CONTINUOUS
 62
     3
 10
-295.06543034819708
 20
-48.333152097622992
 30
0.0
 11
-295.06603087529692
 21
-48.343027533102997
 31
0.0
  0
LINE
  8
OUTLINE
  6
CONTINUOUS
 62
     3
 10
-295.06603087529692
 20
-48.343027533102997
 30
0.0
 11
-295.06603087529692
 21
-48.343027533102997
 31
0.0
  0
LINE
  8
OUTLINE
  6
CONTINUOUS
 62
     3
 10
-295.06603087529692
 20
-48.343027533102997
 30
0.0
 11
-295.06660352260491
 21
-48.353216669054007
 31
0.0
  0
LINE
  8
OUTLINE
  6
CONTINUOUS
 62
     3
 10
-295.06660352260491
 20
-48.353216669054007
 30
0.0
 11
-295.06710429196801
 21
-48.362581126610962
 31
0.0
  0
LINE
  8
OUTLINE
  6
CONTINUOUS
 62
     3
 10
-295.06710429196801
 20
-48.362581126610962
 30
0.0
 11
-295.06710429196801
 21
-48.362581126610962
 31
0.0
  0
LINE
  8
OUTLINE
  6
CONTINUOUS
 62
     3
 10
-295.06710429196801
 20
-48.362581126610962
 30
0.0
 11
-295.06752644351741
 21
-48.370814816261941
 31
0.0
  0
LINE
  8
OUTLINE
  6
CONTINUOUS
 62
     3
 10
-295.06752644351741
 20
-48.370814816261941
 30
0.0
 11
-295.06806682044243
 21
-48.382159362095251
 31
0.0
  0
LINE
  8
OUTLINE
  6
CONTINUOUS
 62
     3
 10
-295.06806682044243
 20
-48.382159362095251
 30
0.0
 11
-295.06806682044243
 21
-48.382159362095251
 31
0.0
  0
LINE
  8
OUTLINE
  6
CONTINUOUS
 62
     3
 10
-295.06806682044243
 20
-48.382159362095251
 30
0.0
 11
-295.06888869882692
 21
-48.400200938576518
 31
0.0
  0
LINE
  8
OUTLINE
  6
CONTINUOUS
 62
     3
 10
-295.06888869882692
 20
-48.400200938576518
 30
0.0
 11
-295.06981750328538
 21
-48.421356208083857
 31
0.0
  0
LINE
  8
OUTLINE
  6
CONTINUOUS
 62
     3
 10
-295.06981750328538
 20
-48.421356208083857
 30
0.0
 11
-295.06981750328538
 21
-48.421356208083857
 31
0.0
  0
LINE
  8
OUTLINE
  6
CONTINUOUS
 62
     3
 10
-295.06981750328538
 20
-48.421356208083857
 30
0.0
 11
-295.07065075409469
 21
-48.441385029671487
 31
0.0
  0
LINE
  8
OUTLINE
  6
CONTINUOUS
 62
     3
 10
-295.07065075409469
 20
-48.441385029671487
 30
0.0
 11
-295.07141220565029
 21
-48.460589561190368
 31
0.0
  0
LINE
  8
OUTLINE
  6
CONTINUOUS
 62
     3
 10
-295.07141220565029
 20
-48.460589561190368
 30
0.0
 11
-295.07141220565029
 21
-48.460589561190368
 31
0.0
  0
LINE
  8
OUTLINE
  6
CONTINUOUS
 62
     3
 10
-295.07141220565029
 20
-48.460589561190368
 30
0.0
 11
-295.07216677257952
 21
-48.480103421602053
 31
0.0
  0
LINE
  8
OUTLINE
  6
CONTINUOUS
 62
     3
 10
-295.07216677257952
 20
-48.480103421602053
 30
0.0
 11
-295.07291777631042
 21
-48.499843775516467
 31
0.0
  0
LINE
  8
OUTLINE
  6
CONTINUOUS
 62
     3
 10
-295.07291777631042
 20
-48.499843775516467
 30
0.0
 11
-295.07291777631042
 21
-48.499843775516467
 31
0.0
  0
LINE
  8
OUTLINE
  6
CONTINUOUS
 62
     3
 10
-295.07291777631042
 20
-48.499843775516467
 30
0.0
 11
-295.07365817463977
 21
-48.519504553607931
 31
0.0
  0
LINE
  8
OUTLINE
  6
CONTINUOUS
 62
     3
 10
-295.07365817463977
 20
-48.519504553607931
 30
0.0
 11
-295.07440106403868
 21
-48.539103205162689
 31
0.0
  0
LINE
  8
OUTLINE
  6
CONTINUOUS
 62
     3
 10
-295.07440106403868
 20
-48.539103205162689
 30
0.0
 11
-295.07440106403868
 21
-48.539103205162689
 31
0.0
  0
LINE
  8
OUTLINE
  6
CONTINUOUS
 62
     3
 10
-295.07440106403868
 20
-48.539103205162689
 30
0.0
 11
-295.07515983527202
 21
-48.558718654095912
 31
0.0
  0
LINE
  8
OUTLINE
  6
CONTINUOUS
 62
     3
 10
-295.07515983527202
 20
-48.558718654095912
 30
0.0
 11
-295.07592891760942
 21
-48.578352204230377
 31
0.0
  0
ARC
  8
OUTLINE
  6
CONTINUOUS
 62
     3
 10
-1.502423263328126
 20
308.4975767366721
 30
0.0
 40
1.5024232633279551
 50
0.0
 51
180.0
  0
ARC
  8
OUTLINE
  6
CONTINUOUS
 62
     3
 10
-6.4103392568661661
 20
303.38933764135709
 30
0.0
 40
3.605815831987059
 50
90.0
 51
180.0
  0
ARC
  8
OUTLINE
  6
CONTINUOUS
 62
     3
 10
-16.42649434571905
 20
293.37318255250398
 30
0.0
 40
3.6058158319870022
 50
90.0
 51
180.0
  0
ARC
  8
OUTLINE
  6
CONTINUOUS
 62
     3
 10
-82.449499170931119
 20
293.45581583198719
 30
0.0
 40
2.0032310177706449
 50
0.0
 51
180.0
  0
ARC
  8
OUTLINE
  6
CONTINUOUS
 62
     3
 10
-1.502423263328126
 20
-308.49757673667222
 30
0.0
 40
1.5024232633279551
 50
180.0
 51
0.0
  0
ARC
  8
OUTLINE
  6
CONTINUOUS
 62
     3
 10
-82.449499170931119
 20
-293.45581583198702
 30
0.0
 40
2.0032310177707018
 50
180.0
 51
0.0
  0
ARC
  8
OUTLINE
  6
CONTINUOUS
 62
     3
 10
-16.42649434571905
 20
-293.37318255250398
 30
0.0
 40
3.6058158319871718
 50
180.0
 51
270.0
  0
ARC
  8
OUTLINE
  6
CONTINUOUS
 62
     3
 10
-6.4103392568661661
 20
-303.3893376413568
 30
0.0
 40
3.6058158319871718
 50
180.0
 51
270.0
  0
ARC
  8
OUTLINE
  6
CONTINUOUS
 62
     3
 10
-288.54289176090492
 20
-48.578352180936967
 30
0.0
 40
6.5330371567043866
 50
133.89739816710099
 51
226.10260183289901
  0
ARC
  8
OUTLINE
  6
CONTINUOUS
 62
     3
 10
-285.15993537964488
 20
-57.893376413570373
 30
0.0
 40
7.4119547657512017
 50
180.0
 51
270.0
  0
ARC
  8
OUTLINE
  6
CONTINUOUS
 62
     3
 10
-285.15993537964488
 20
57.893376413570252
 30
0.0
 40
7.4119547657512124
 50
90.0
 51
180.0
  0
LINE
  8
OUTLINE
  6
CONTINUOUS
 62
     3
 10
-6.4103392568661661
 20
306.99515347334409
 30
0.0
 11
-3.0048465266560811
 21
306.99515347334409
 31
0.0
  0
LINE
  8
OUTLINE
  6
CONTINUOUS
 62
     3
 10
-16.42649434571905
 20
296.97899838449109
 30
0.0
 11
-13.221324717286111
 21
296.97899838449109
 31
0.0
  0
LINE
  8
OUTLINE
  6
CONTINUOUS
 62
     3
 10
-158.25525040387751
 20
261.32961628886301
 30
0.0
 11
-20.032310177706279
 21
261.32961628886301
 31
0.0
  0
LINE
  8
OUTLINE
  6
CONTINUOUS
 62
     3
 10
-266.42972536348992
 20
94.652665589660785
 30
0.0
 11
-270.43618739903098
 21
94.652665589660785
 31
0.0
  0
LINE
  8
OUTLINE
  6
CONTINUOUS
 62
     3
 10
-285.15993537964488
 20
65.305331179321513
 30
0.0
 11
-270.43618739903098
 21
65.305331179321513
 31
0.0
  0
LINE
  8
OUTLINE
  6
CONTINUOUS
 62
     3
 10
-293.07269789983889
 20
-43.870759289176021
 30
0.0
 11
-292.57189014539608
 21
-43.870759289176021
 31
0.0
  0
LINE
  8
OUTLINE
  6
CONTINUOUS
 62
     3
 10
-293.07269789983889
 20
-53.285945072697977
 30
0.0
 11
-292.57189014539608
 21
-53.285945072697977
 31
0.0
  0
LINE
  8
OUTLINE
  6
CONTINUOUS
 62
     3
 10
-285.15993537964488
 20
-65.305331179321513
 30
0.0
 11
-270.43618739903098
 21
-65.305331179321513
 31
0.0
  0
LINE
  8
OUTLINE
  6
CONTINUOUS
 62
     3
 10
-0.0000000000000568
 20
-308.49757673667222
 30
0.0
 11
-0.0000000000000568
 21
308.4975767366721
 31
0.0
  0
LINE
  8
OUTLINE
  6
CONTINUOUS
 62
     3
 10
-3.0048465266560811
 20
-308.49757673667222
 30
0.0
 11
-3.0048465266560811
 21
-306.99515347334398
 31
0.0
  0
LINE
  8
OUTLINE
  6
CONTINUOUS
 62
     3
 10
-10.016155088853401
 20
-303.3893376413568
 30
0.0
 11
-10.016155088853401
 21
-301.7449376818073
 31
0.0
  0
LINE
  8
OUTLINE
  6
CONTINUOUS
 62
     3
 10
-10.016155088853401
 20
303.38933764135709
 30
0.0
 11
-10.016155088853401
 21
301.74493768103099
 31
0.0
  0
LINE
  8
OUTLINE
  6
CONTINUOUS
 62
     3
 10
-20.032310177706279
 20
261.32961628886301
 30
0.0
 11
-20.032310177706279
 21
293.37318255250398
 31
0.0
  0
LINE
  8
OUTLINE
  6
CONTINUOUS
 62
     3
 10
-20.032310177706279
 20
-293.37318255250398
 30
0.0
 11
-20.032310177706279
 21
-261.32961628963938
 31
0.0
  0
LINE
  8
OUTLINE
  6
CONTINUOUS
 62
     3
 10
-20.533117932148741
 20
-291.97092084006442
 30
0.0
 11
-20.533117932148741
 21
-271.58034322716071
 31
0.0
  0
LINE
  8
OUTLINE
  6
CONTINUOUS
 62
     3
 10
-270.43618739903098
 20
-94.652665589660671
 30
0.0
 11
-266.42972536348992
 21
-94.652665589660671
 31
0.0
  0
LINE
  8
OUTLINE
  6
CONTINUOUS
 62
     3
 10
-266.42972536348992
 20
-95.153473344103361
 30
0.0
 11
-269.43457189014538
 21
-95.153473344103361
 31
0.0
  0
LINE
  8
OUTLINE
  6
CONTINUOUS
 62
     3
 10
-80.446268153160474
 20
261.32961628886301
 30
0.0
 11
-80.446268153160474
 21
293.45581583198719
 31
0.0
  0
LINE
  8
OUTLINE
  6
CONTINUOUS
 62
     3
 10
-80.446268153160474
 20
-293.45581583198702
 30
0.0
 11
-80.446268153160474
 21
-261.32961628963938
 31
0.0
  0
LINE
  8
OUTLINE
  6
CONTINUOUS
 62
     3
 10
-84.452730188701537
 20
261.32961628886301
 30
0.0
 11
-84.452730188701537
 21
293.45581583198719
 31
0.0
  0
LINE
  8
OUTLINE
  6
CONTINUOUS
 62
     3
 10
-84.452730188701537
 20
-293.45581583198702
 30
0.0
 11
-84.452730188701537
 21
-261.32961628963938
 31
0.0
  0
LINE
  8
OUTLINE
  6
CONTINUOUS
 62
     3
 10
-20.032310177706279
 20
-261.32961628963938
 30
0.0
 11
-158.25525040387751
 21
-261.32961628963938
 31
0.0
  0
LINE
  8
OUTLINE
  6
CONTINUOUS
 62
     3
 10
-20.032310177706279
 20
-291.97092084006442
 30
0.0
 11
-20.533117932148741
 21
-291.97092084006442
 31
0.0
  0
LINE
  8
OUTLINE
  6
CONTINUOUS
 62
     3
 10
-13.221324717286111
 20
-296.97899838449109
 30
0.0
 11
-16.42649434571905
 21
-296.97899838449109
 31
0.0
  0
LINE
  8
OUTLINE
  6
CONTINUOUS
 62
     3
 10
-3.0048465266560811
 20
-306.99515347334398
 30
0.0
 11
-6.4103392568661661
 21
-306.99515347334398
 31
0.0
  0
LINE
  8
OUTLINE
  6
CONTINUOUS
 62
     3
 10
-266.42972536348992
 20
180.58921678300831
 30
0.0
 11
-266.42972536348992
 21
94.652665589660785
 31
0.0
  0
LINE
  8
OUTLINE
  6
CONTINUOUS
 62
     3
 10
-269.43457189014538
 20
-95.153473344103361
 30
0.0
 11
-269.43457189014538
 21
-94.652665589660671
 31
0.0
  0
LINE
  8
OUTLINE
  6
CONTINUOUS
 62
     3
 10
-270.43618739903098
 20
-94.652650945886705
 30
0.0
 11
-270.43618739903098
 21
-65.305331179321513
 31
0.0
  0
LINE
  8
OUTLINE
  6
CONTINUOUS
 62
     3
 10
-292.57189014539608
 20
-57.893376413570373
 30
0.0
 11
-292.57189014539608
 21
57.893376413570252
 31
0.0
  0
LINE
  8
OUTLINE
  6
CONTINUOUS
 62
     3
 10
-293.07269789983889
 20
-43.870759289176021
 30
0.0
 11
-293.07269789983889
 21
-53.285945072697977
 31
0.0
  0
ARC
  8
OUTLINE
  6
CONTINUOUS
 62
     3
 10
-39.463651050081069
 20
275.94507269789977
 30
0.0
 40
19.431340872374811
 50
311.2088887662984
 51
0.0
  0
ARC
  8
OUTLINE
  6
CONTINUOUS
 62
     3
 10
-44.471728594507397
 20
295.97738287560588
 30
0.0
 40
39.46365105008087
 50
204.25613166239751
 51
241.41289870579681
  0
ARC
  8
OUTLINE
  6
CONTINUOUS
 62
     3
 10
-39.463651050081069
 20
-275.94507269789972
 30
0.0
 40
19.43134087237479
 50
0.0
 51
48.791111233701592
  0
ARC
  8
OUTLINE
  6
CONTINUOUS
 62
     3
 10
-44.471728594507397
 20
-295.97738287560583
 30
0.0
 40
39.46365105008077
 50
118.58710129420319
 51
155.74386833760249
  0
LINE
  8
DETAIL
  6
CONTINUOUS
 62
     5
 10
-294.71080283791088
 20
-50.101087785951279
 30
0.0
 11
-294.71911845819483
 21
-50.082644268525137
 31
0.0
  0
LINE
  8
DETAIL
  6
CONTINUOUS
 62
     5
 10
-294.71911845819483
 20
-50.082644268525137
 30
0.0
 11
-294.72743461586288
 21
-50.064221735555009
 31
0.0
  0
LINE
  8
DETAIL
  6
CONTINUOUS
 62
     5
 10
-294.72743461586288
 20
-50.064221735555009
 30
0.0
 11
-294.72743461586288
 21
-50.064221735555009
 31
0.0
  0
LINE
  8
DETAIL
  6
CONTINUOUS
 62
     5
 10
-294.72743461586288
 20
-50.064221735555009
 30
0.0
 11
-294.73575666641233
 21
-50.045821292691187
 31
0.0
  0
LINE
  8
DETAIL
  6
CONTINUOUS
 62
     5
 10
-294.73575666641233
 20
-50.045821292691187
 30
0.0
 11
-294.74410923778538
 21
-50.027364530362718
 31
0.0
  0
LINE
  8
DETAIL
  6
CONTINUOUS
 62
     5
 10
-294.74410923778538
 20
-50.027364530362718
 30
0.0
 11
-294.74410923778538
 21
-50.027364530362718
 31
0.0
  0
LINE
  8
DETAIL
  6
CONTINUOUS
 62
     5
 10
-294.74410923778538
 20
-50.027364530362718
 30
0.0
 11
-294.75248911486409
 21
-50.008829911274397
 31
0.0
  0
LINE
  8
DETAIL
  6
CONTINUOUS
 62
     5
 10
-294.75248911486409
 20
-50.008829911274397
 30
0.0
 11
-294.76076243783638
 21
-49.990502902454473
 31
0.0
  0
LINE
  8
DETAIL
  6
CONTINUOUS
 62
     5
 10
-294.76076243783638
 20
-49.990502902454473
 30
0.0
 11
-294.76076243783638
 21
-49.990502902454473
 31
0.0
  0
LINE
  8
DETAIL
  6
CONTINUOUS
 62
     5
 10
-294.76076243783638
 20
-49.990502902454473
 30
0.0
 11
-294.76888851229938
 21
-49.972458596494278
 31
0.0
  0
LINE
  8
DETAIL
  6
CONTINUOUS
 62
     5
 10
-294.76888851229938
 20
-49.972458596494278
 30
0.0
 11
-294.77732995017448
 21
-49.953623583910883
 31
0.0
  0
LINE
  8
DETAIL
  6
CONTINUOUS
 62
     5
 10
-294.77732995017448
 20
-49.953623583910883
 30
0.0
 11
-294.77732995017448
 21
-49.953623583910883
 31
0.0
  0
LINE
  8
DETAIL
  6
CONTINUOUS
 62
     5
 10
-294.77732995017448
 20
-49.953623583910883
 30
0.0
 11
-294.78620454481268
 21
-49.933709080695913
 31
0.0
  0
LINE
  8
DETAIL
  6
CONTINUOUS
 62
     5
 10
-294.78620454481268
 20
-49.933709080695913
 30
0.0
 11
-294.79374750895772
 21
-49.916713306811687
 31
0.0
  0
LINE
  8
DETAIL
  6
CONTINUOUS
 62
     5
 10
-294.79374750895772
 20
-49.916713306811687
 30
0.0
 11
-294.79374750895772
 21
-49.916713306811687
 31
0.0
  0
LINE
  8
DETAIL
  6
CONTINUOUS
 62
     5
 10
-294.79374750895772
 20
-49.916713306811687
 30
0.0
 11
-294.79847036358518
 21
-49.906016619148261
 31
0.0
  0
LINE
  8
DETAIL
  6
CONTINUOUS
 62
     5
 10
-294.79847036358518
 20
-49.906016619148261
 30
0.0
 11
-294.80187244319438
 21
-49.898240918333563
 31
0.0
  0
LINE
  8
DETAIL
  6
CONTINUOUS
 62
     5
 10
-294.80187244319438
 20
-49.898240918333563
 30
0.0
 11
-294.80187244319438
 21
-49.898240918333563
 31
0.0
  0
LINE
  8
DETAIL
  6
CONTINUOUS
 62
     5
 10
-294.80187244319438
 20
-49.898240918333563
 30
0.0
 11
-294.80572393360308
 21
-49.889389144151828
 31
0.0
  0
LINE
  8
DETAIL
  6
CONTINUOUS
 62
     5
 10
-294.80572393360308
 20
-49.889389144151828
 30
0.0
 11
-294.80989061237091
 21
-49.879746849273658
 31
0.0
  0
LINE
  8
DETAIL
  6
CONTINUOUS
 62
     5
 10
-294.80989061237091
 20
-49.879746849273658
 30
0.0
 11
-294.80989061237091
 21
-49.879746849273658
 31
0.0
  0
LINE
  8
DETAIL
  6
CONTINUOUS
 62
     5
 10
-294.80989061237091
 20
-49.879746849273658
 30
0.0
 11
-294.81388972615707
 21
-49.870383358925487
 31
0.0
  0
LINE
  8
DETAIL
  6
CONTINUOUS
 62
     5
 10
-294.81388972615707
 20
-49.870383358925487
 30
0.0
 11
-294.81774880627609
 21
-49.861220475669541
 31
0.0
  0
LINE
  8
DETAIL
  6
CONTINUOUS
 62
     5
 10
-294.81774880627609
 20
-49.861220475669541
 30
0.0
 11
-294.81774880627609
 21
-49.861220475669541
 31
0.0
  0
LINE
  8
DETAIL
  6
CONTINUOUS
 62
     5
 10
-294.81774880627609
 20
-49.861220475669541
 30
0.0
 11
-294.82158877261458
 21
-49.851969990843664
 31
0.0
  0
LINE
  8
DETAIL
  6
CONTINUOUS
 62
     5
 10
-294.82158877261458
 20
-49.851969990843664
 30
0.0
 11
-294.82539381469888
 21
-49.842651173557947
 31
0.0
  0
LINE
  8
DETAIL
  6
CONTINUOUS
 62
     5
 10
-294.82539381469888
 20
-49.842651173557947
 30
0.0
 11
-294.82539381469888
 21
-49.842651173557947
 31
0.0
  0
LINE
  8
DETAIL
  6
CONTINUOUS
 62
     5
 10
-294.82539381469888
 20
-49.842651173557947
 30
0.0
 11
-294.82912309866248
 21
-49.833339565259912
 31
0.0
  0
LINE
  8
DETAIL
  6
CONTINUOUS
 62
     5
 10
-294.82912309866248
 20
-49.833339565259912
 30
0.0
 11
-294.83277242742878
 21
-49.824028318976332
 31
0.0
  0
LINE
  8
DETAIL
  6
CONTINUOUS
 62
     5
 10
-294.83277242742878
 20
-49.824028318976332
 30
0.0
 11
-294.83277242742878
 21
-49.824028318976332
 31
0.0
  0
LINE
  8
DETAIL
  6
CONTINUOUS
 62
     5
 10
-294.83277242742878
 20
-49.824028318976332
 30
0.0
 11
-294.83634740423207
 21
-49.814696118521788
 31
0.0
  0
LINE
  8
DETAIL
  6
CONTINUOUS
 62
     5
 10
-294.83634740423207
 20
-49.814696118521788
 30
0.0
 11
-294.83985619676457
 21
-49.805346159280191
 31
0.0
  0
LINE
  8
DETAIL
  6
CONTINUOUS
 62
     5
 10
-294.83985619676457
 20
-49.805346159280191
 30
0.0
 11
-294.83985619676457
 21
-49.805346159280191
 31
0.0
  0
LINE
  8
DETAIL
  6
CONTINUOUS
 62
     5
 10
-294.83985619676457
 20
-49.805346159280191
 30
0.0
 11
-294.84330827143322
 21
-49.795986285722343
 31
0.0
  0
LINE
  8
DETAIL
  6
CONTINUOUS
 62
     5
 10
-294.84330827143322
 20
-49.795986285722343
 30
0.0
 11
-294.84671572504777
 21
-49.786618427097039
 31
0.0
  0
LINE
  8
DETAIL
  6
CONTINUOUS
 62
     5
 10
-294.84671572504777
 20
-49.786618427097039
 30
0.0
 11
-294.84671572504777
 21
-49.786618427097039
 31
0.0
  0
LINE
  8
DETAIL
  6
CONTINUOUS
 62
     5
 10
-294.84671572504777
 20
-49.786618427097039
 30
0.0
 11
-294.85009113581577
 21
-49.777243430091353
 31
0.0
  0
LINE
  8
DETAIL
  6
CONTINUOUS
 62
     5
 10
-294.85009113581577
 20
-49.777243430091353
 30
0.0
 11
-294.85344637712979
 21
-49.767863726372582
 31
0.0
  0
LINE
  8
DETAIL
  6
CONTINUOUS
 62
     5
 10
-294.85344637712979
 20
-49.767863726372582
 30
0.0
 11
-294.85344637712979
 21
-49.767863726372582
 31
0.0
  0
LINE
  8
DETAIL
  6
CONTINUOUS
 62
     5
 10
-294.85344637712979
 20
-49.767863726372582
 30
0.0
 11
-294.85679319339289
 21
-49.758482037678561
 31
0.0
  0
LINE
  8
DETAIL
  6
CONTINUOUS
 62
     5
 10
-294.85679319339289
 20
-49.758482037678561
 30
0.0
 11
-294.86014351786213
 21
-49.749100661053212
 31
0.0
  0
LINE
  8
DETAIL
  6
CONTINUOUS
 62
     5
 10
-294.86014351786213
 20
-49.749100661053212
 30
0.0
 11
-294.86014351786213
 21
-49.749100661053212
 31
0.0
  0
LINE
  8
DETAIL
  6
CONTINUOUS
 62
     5
 10
-294.86014351786213
 20
-49.749100661053212
 30
0.0
 11
-294.86350931835739
 21
-49.739721815816381
 31
0.0
  0
LINE
  8
DETAIL
  6
CONTINUOUS
 62
     5
 10
-294.86350931835739
 20
-49.739721815816381
 30
0.0
 11
-294.86690251209569
 21
-49.730347835084387
 31
0.0
  0
LINE
  8
DETAIL
  6
CONTINUOUS
 62
     5
 10
-294.86690251209569
 20
-49.730347835084387
 30
0.0
 11
-294.86690251209569
 21
-49.730347835084387
 31
0.0
  0
LINE
  8
DETAIL
  6
CONTINUOUS
 62
     5
 10
-294.86690251209569
 20
-49.730347835084387
 30
0.0
 11
-294.87033107657362
 21
-49.720980351716953
 31
0.0
  0
LINE
  8
DETAIL
  6
CONTINUOUS
 62
     5
 10
-294.87033107657362
 20
-49.720980351716953
 30
0.0
 11
-294.87378728101072
 21
-49.711618083751382
 31
0.0
  0
LINE
  8
DETAIL
  6
CONTINUOUS
 62
     5
 10
-294.87378728101072
 20
-49.711618083751382
 30
0.0
 11
-294.87378728101072
 21
-49.711618083751382
 31
0.0
  0
LINE
  8
DETAIL
  6
CONTINUOUS
 62
     5
 10
-294.87378728101072
 20
-49.711618083751382
 30
0.0
 11
-294.87725946664767
 21
-49.702259022562032
 31
0.0
  0
LINE
  8
DETAIL
  6
CONTINUOUS
 62
     5
 10
-294.87725946664767
 20
-49.702259022562032
 30
0.0
 11
-294.88073597109468
 21
-49.692901167693833
 31
0.0
  0
LINE
  8
DETAIL
  6
CONTINUOUS
 62
     5
 10
-294.88073597109468
 20
-49.692901167693833
 30
0.0
 11
-294.88073597109468
 21
-49.692901167693833
 31
0.0
  0
LINE
  8
DETAIL
  6
CONTINUOUS
 62
     5
 10
-294.88073597109468
 20
-49.692901167693833
 30
0.0
 11
-294.88420513129529
 21
-49.683542520186563
 31
0.0
  0
LINE
  8
DETAIL
  6
CONTINUOUS
 62
     5
 10
-294.88420513129529
 20
-49.683542520186563
 30
0.0
 11
-294.88765528516637
 21
-49.674181078891188
 31
0.0
  0
LINE
  8
DETAIL
  6
CONTINUOUS
 62
     5
 10
-294.88765528516637
 20
-49.674181078891188
 30
0.0
 11
-294.88765528516637
 21
-49.674181078891188
 31
0.0
  0
LINE
  8
DETAIL
  6
CONTINUOUS
 62
     5
 10
-294.88765528516637
 20
-49.674181078891188
 30
0.0
 11
-294.89107477080341
 21
-49.664814842257272
 31
0.0
  0
LINE
  8
DETAIL
  6
CONTINUOUS
 62
     5
 10
-294.89107477080341
 20
-49.664814842257272
 30
0.0
 11
-294.89445192604109
 21
-49.655441809322213
 31
0.0
  0
LINE
  8
DETAIL
  6
CONTINUOUS
 62
     5
 10
-294.89445192604109
 20
-49.655441809322213
 30
0.0
 11
-294.89445192604109
 21
-49.655441809322213
 31
0.0
  0
LINE
  8
DETAIL
  6
CONTINUOUS
 62
     5
 10
-294.89445192604109
 20
-49.655441809322213
 30
0.0
 11
-294.89777508866638
 21
-49.646059979229392
 31
0.0
  0
LINE
  8
DETAIL
  6
CONTINUOUS
 62
     5
 10
-294.89777508866638
 20
-49.646059979229392
 30
0.0
 11
-294.90103259653642
 21
-49.636667350966093
 31
0.0
  0
LINE
  8
DETAIL
  6
CONTINUOUS
 62
     5
 10
-294.90103259653642
 20
-49.636667350966093
 30
0.0
 11
-294.90103259653642
 21
-49.636667350966093
 31
0.0
  0
LINE
  8
DETAIL
  6
CONTINUOUS
 62
     5
 10
-294.90103259653642
 20
-49.636667350966093
 30
0.0
 11
-294.90421555341919
 21
-49.627262402673693
 31
0.0
  0
LINE
  8
DETAIL
  6
CONTINUOUS
 62
     5
 10
-294.90421555341919
 20
-49.627262402673693
 30
0.0
 11
-294.9073261266617
 21
-49.617845529270816
 31
0.0
  0
LINE
  8
DETAIL
  6
CONTINUOUS
 62
     5
 10
-294.9073261266617
 20
-49.617845529270816
 30
0.0
 11
-294.9073261266617
 21
-49.617845529270816
 31
0.0
  0
LINE
  8
DETAIL
  6
CONTINUOUS
 62
     5
 10
-294.9073261266617
 20
-49.617845529270816
 30
0.0
 11
-294.91036924950572
 21
-49.608417604866588
 31
0.0
  0
LINE
  8
DETAIL
  6
CONTINUOUS
 62
     5
 10
-294.91036924950572
 20
-49.608417604866588
 30
0.0
 11
-294.91334985519808
 21
-49.598979503559413
 31
0.0
  0
LINE
  8
DETAIL
  6
CONTINUOUS
 62
     5
 10
-294.91334985519808
 20
-49.598979503559413
 30
0.0
 11
-294.91334985519808
 21
-49.598979503559413
 31
0.0
  0
LINE
  8
DETAIL
  6
CONTINUOUS
 62
     5
 10
-294.91334985519808
 20
-49.598979503559413
 30
0.0
 11
-294.91627287698748
 21
-49.589532099445421
 31
0.0
  0
LINE
  8
DETAIL
  6
CONTINUOUS
 62
     5
 10
-294.91627287698748
 20
-49.589532099445421
 30
0.0
 11
-294.91914324812058
 21
-49.580076266623848
 31
0.0
  0
LINE
  8
DETAIL
  6
CONTINUOUS
 62
     5
 10
-294.91914324812058
 20
-49.580076266623848
 30
0.0
 11
-294.91914324812058
 21
-49.580076266623848
 31
0.0
  0
LINE
  8
DETAIL
  6
CONTINUOUS
 62
     5
 10
-294.91914324812058
 20
-49.580076266623848
 30
0.0
 11
-294.92196590184318
 21
-49.57061287919413
 31
0.0
  0
LINE
  8
DETAIL
  6
CONTINUOUS
 62
     5
 10
-294.92196590184318
 20
-49.57061287919413
 30
0.0
 11
-294.92474577140229
 21
-49.561142811255479
 31
0.0
  0
LINE
  8
DETAIL
  6
CONTINUOUS
 62
     5
 10
-294.92474577140229
 20
-49.561142811255479
 30
0.0
 11
-294.92474577140229
 21
-49.561142811255479
 31
0.0
  0
LINE
  8
DETAIL
  6
CONTINUOUS
 62
     5
 10
-294.92474577140229
 20
-49.561142811255479
 30
0.0
 11
-294.92748779004518
 21
-49.551666936906663
 31
0.0
  0
LINE
  8
DETAIL
  6
CONTINUOUS
 62
     5
 10
-294.92748779004518
 20
-49.551666936906663
 30
0.0
 11
-294.93019689101811
 21
-49.542186130246762
 31
0.0
  0
LINE
  8
DETAIL
  6
CONTINUOUS
 62
     5
 10
-294.93019689101811
 20
-49.542186130246762
 30
0.0
 11
-294.93019689101811
 21
-49.542186130246762
 31
0.0
  0
LINE
  8
DETAIL
  6
CONTINUOUS
 62
     5
 10
-294.93019689101811
 20
-49.542186130246762
 30
0.0
 11
-294.93287832311569
 21
-49.532701270827772
 31
0.0
  0
LINE
  8
DETAIL
  6
CONTINUOUS
 62
     5
 10
-294.93287832311569
 20
-49.532701270827772
 30
0.0
 11
-294.93553859732168
 21
-49.523213260014188
 31
0.0
  0
LINE
  8
DETAIL
  6
CONTINUOUS
 62
     5
 10
-294.93553859732168
 20
-49.523213260014188
 30
0.0
 11
-294.93553859732168
 21
-49.523213260014188
 31
0.0
  0
LINE
  8
DETAIL
  6
CONTINUOUS
 62
     5
 10
-294.93553859732168
 20
-49.523213260014188
 30
0.0
 11
-294.93818454016707
 21
-49.513723004623607
 31
0.0
  0
LINE
  8
DETAIL
  6
CONTINUOUS
 62
     5
 10
-294.93818454016707
 20
-49.513723004623607
 30
0.0
 11
-294.94082297818449
 21
-49.504231411474109
 31
0.0
  0
LINE
  8
DETAIL
  6
CONTINUOUS
 62
     5
 10
-294.94082297818449
 20
-49.504231411474109
 30
0.0
 11
-294.94082297818449
 21
-49.504231411474109
 31
0.0
  0
LINE
  8
DETAIL
  6
CONTINUOUS
 62
     5
 10
-294.94082297818449
 20
-49.504231411474109
 30
0.0
 11
-294.94346073790479
 21
-49.494739387382822
 31
0.0
  0
LINE
  8
DETAIL
  6
CONTINUOUS
 62
     5
 10
-294.94346073790479
 20
-49.494739387382822
 30
0.0
 11
-294.94610464585952
 21
-49.485247839167933
 31
0.0
  0
LINE
  8
DETAIL
  6
CONTINUOUS
 62
     5
 10
-294.94610464585952
 20
-49.485247839167933
 30
0.0
 11
-294.94610464585952
 21
-49.485247839167933
 31
0.0
  0
LINE
  8
DETAIL
  6
CONTINUOUS
 62
     5
 10
-294.94610464585952
 20
-49.485247839167933
 30
0.0
 11
-294.94876152857972
 21
-49.475757673646569
 31
0.0
  0
LINE
  8
DETAIL
  6
CONTINUOUS
 62
     5
 10
-294.94876152857972
 20
-49.475757673646569
 30
0.0
 11
-294.95143821259722
 21
-49.466269797636357
 31
0.0
  0
LINE
  8
DETAIL
  6
CONTINUOUS
 62
     5
 10
-294.95143821259722
 20
-49.466269797636357
 30
0.0
 11
-294.95143821259722
 21
-49.466269797636357
 31
0.0
  0
LINE
  8
DETAIL
  6
CONTINUOUS
 62
     5
 10
-294.95143821259722
 20
-49.466269797636357
 30
0.0
 11
-294.95414152444317
 21
-49.456785117955228
 31
0.0
  0
LINE
  8
DETAIL
  6
CONTINUOUS
 62
     5
 10
-294.95414152444317
 20
-49.456785117955228
 30
0.0
 11
-294.95687829065002
 21
-49.44730454142092
 31
0.0
  0
LINE
  8
DETAIL
  6
CONTINUOUS
 62
     5
 10
-294.95687829065002
 20
-49.44730454142092
 30
0.0
 11
-294.95687829065002
 21
-49.44730454142092
 31
0.0
  0
LINE
  8
DETAIL
  6
CONTINUOUS
 62
     5
 10
-294.95687829065002
 20
-49.44730454142092
 30
0.0
 11
-294.95965130965902
 21
-49.437828473854609
 31
0.0
  0
LINE
  8
DETAIL
  6
CONTINUOUS
 62
     5
 10
-294.95965130965902
 20
-49.437828473854609
 30
0.0
 11
-294.96244726755612
 21
-49.428355317092333
 31
0.0
  0
LINE
  8
DETAIL
  6
CONTINUOUS
 62
     5
 10
-294.96244726755612
 20
-49.428355317092333
 30
0.0
 11
-294.96244726755612
 21
-49.428355317092333
 31
0.0
  0
LINE
  8
DETAIL
  6
CONTINUOUS
 62
     5
 10
-294.96244726755612
 20
-49.428355317092333
 30
0.0
 11
-294.96524882233768
 21
-49.418882971973908
 31
0.0
  0
LINE
  8
DETAIL
  6
CONTINUOUS
 62
     5
 10
-294.96524882233768
 20
-49.418882971973908
 30
0.0
 11
-294.96803863200063
 21
-49.409409339339561
 31
0.0
  0
LINE
  8
DETAIL
  6
CONTINUOUS
 62
     5
 10
-294.96803863200063
 20
-49.409409339339561
 30
0.0
 11
-294.96803863200063
 21
-49.409409339339561
 31
0.0
  0
LINE
  8
DETAIL
  6
CONTINUOUS
 62
     5
 10
-294.96803863200063
 20
-49.409409339339561
 30
0.0
 11
-294.97079935454047
 21
-49.399932320028768
 31
0.0
  0
LINE
  8
DETAIL
  6
CONTINUOUS
 62
     5
 10
-294.97079935454047
 20
-49.399932320028768
 30
0.0
 11
-294.97351364795509
 21
-49.39044981488172
 31
0.0
  0
LINE
  8
DETAIL
  6
CONTINUOUS
 62
     5
 10
-294.97351364795509
 20
-49.39044981488172
 30
0.0
 11
-294.97351364795509
 21
-49.39044981488172
 31
0.0
  0
LINE
  8
DETAIL
  6
CONTINUOUS
 62
     5
 10
-294.97351364795509
 20
-49.39044981488172
 30
0.0
 11
-294.97616417024028
 21
-49.380959724737693
 31
0.0
  0
LINE
  8
DETAIL
  6
CONTINUOUS
 62
     5
 10
-294.97616417024028
 20
-49.380959724737693
 30
0.0
 11
-294.97873357939193
 21
-49.371459950437099
 31
0.0
  0
LINE
  8
DETAIL
  6
CONTINUOUS
 62
     5
 10
-294.97873357939193
 20
-49.371459950437099
 30
0.0
 11
-294.97873357939193
 21
-49.371459950437099
 31
0.0
  0
LINE
  8
DETAIL
  6
CONTINUOUS
 62
     5
 10
-294.97873357939193
 20
-49.371459950437099
 30
0.0
 11
-294.98120453340692
 21
-49.361948392819222
 31
0.0
  0
LINE
  8
DETAIL
  6
CONTINUOUS
 62
     5
 10
-294.98120453340692
 20
-49.361948392819222
 30
0.0
 11
-294.98355969028171
 21
-49.352422952724339
 31
0.0
  0
LINE
  8
DETAIL
  6
CONTINUOUS
 62
     5
 10
-294.98355969028171
 20
-49.352422952724339
 30
0.0
 11
-294.98355969028171
 21
-49.352422952724339
 31
0.0
  0
LINE
  8
DETAIL
  6
CONTINUOUS
 62
     5
 10
-294.98355969028171
 20
-49.352422952724339
 30
0.0
 11
-294.98578749003758
 21
-49.342882223936783
 31
0.0
  0
LINE
  8
DETAIL
  6
CONTINUOUS
 62
     5
 10
-294.98578749003758
 20
-49.342882223936783
 30
0.0
 11
-294.98789950079117
 21
-49.333327572018959
 31
0.0
  0
LINE
  8
DETAIL
  6
CONTINUOUS
 62
     5
 10
-294.98789950079117
 20
-49.333327572018959
 30
0.0
 11
-294.98789950079117
 21
-49.333327572018959
 31
0.0
  0
LINE
  8
DETAIL
  6
CONTINUOUS
 62
     5
 10
-294.98789950079117
 20
-49.333327572018959
 30
0.0
 11
-294.98991307268318
 21
-49.323761055477632
 31
0.0
  0
LINE
  8
DETAIL
  6
CONTINUOUS
 62
     5
 10
-294.98991307268318
 20
-49.323761055477632
 30
0.0
 11
-294.99184555585617
 21
-49.314184732820017
 31
0.0
  0
LINE
  8
DETAIL
  6
CONTINUOUS
 62
     5
 10
-294.99184555585617
 20
-49.314184732820017
 30
0.0
 11
-294.99184555585617
 21
-49.314184732820017
 31
0.0
  0
LINE
  8
DETAIL
  6
CONTINUOUS
 62
     5
 10
-294.99184555585617
 20
-49.314184732820017
 30
0.0
 11
-294.99371430045198
 21
-49.304600662553128
 31
0.0
  0
LINE
  8
DETAIL
  6
CONTINUOUS
 62
     5
 10
-294.99371430045198
 20
-49.304600662553128
 30
0.0
 11
-294.99553665661131
 21
-49.295010903184163
 31
0.0
  0
LINE
  8
DETAIL
  6
CONTINUOUS
 62
     5
 10
-294.99553665661131
 20
-49.295010903184163
 30
0.0
 11
-294.99553665661131
 21
-49.295010903184163
 31
0.0
  0
LINE
  8
DETAIL
  6
CONTINUOUS
 62
     5
 10
-294.99553665661131
 20
-49.295010903184163
 30
0.0
 11
-294.99732997447558
 21
-49.28541751321967
 31
0.0
  0
LINE
  8
DETAIL
  6
CONTINUOUS
 62
     5
 10
-294.99732997447558
 20
-49.28541751321967
 30
0.0
 11
-294.99911160418628
 21
-49.275822551166748
 31
0.0
  0
LINE
  8
DETAIL
  6
CONTINUOUS
 62
     5
 10
-294.99911160418628
 20
-49.275822551166748
 30
0.0
 11
-294.99911160418628
 21
-49.275822551166748
 31
0.0
  0
LINE
  8
DETAIL
  6
CONTINUOUS
 62
     5
 10
-294.99911160418628
 20
-49.275822551166748
 30
0.0
 11
-295.00089889588497
 21
-49.266228075532297
 31
0.0
  0
LINE
  8
DETAIL
  6
CONTINUOUS
 62
     5
 10
-295.00089889588497
 20
-49.266228075532297
 30
0.0
 11
-295.00270919971388
 21
-49.256636144823858
 31
0.0
  0
LINE
  8
DETAIL
  6
CONTINUOUS
 62
     5
 10
-295.00270919971388
 20
-49.256636144823858
 30
0.0
 11
-295.00270919971388
 21
-49.256636144823858
 31
0.0
  0
LINE
  8
DETAIL
  6
CONTINUOUS
 62
     5
 10
-295.00270919971388
 20
-49.256636144823858
 30
0.0
 11
-295.00455582958648
 21
-49.247048357204278
 31
0.0
  0
LINE
  8
DETAIL
  6
CONTINUOUS
 62
     5
 10
-295.00455582958648
 20
-49.247048357204278
 30
0.0
 11
-295.00643595450993
 21
-49.237464469462509
 31
0.0
  0
LINE
  8
DETAIL
  6
CONTINUOUS
 62
     5
 10
-295.00643595450993
 20
-49.237464469462509
 30
0.0
 11
-295.00643595450993
 21
-49.237464469462509
 31
0.0
  0
LINE
  8
DETAIL
  6
CONTINUOUS
 62
     5
 10
-295.00643595450993
 20
-49.237464469462509
 30
0.0
 11
-295.00834270726278
 21
-49.227883778043349
 31
0.0
  0
LINE
  8
DETAIL
  6
CONTINUOUS
 62
     5
 10
-295.00834270726278
 20
-49.227883778043349
 30
0.0
 11
-295.01026922062618
 21
-49.218305579392279
 31
0.0
  0
LINE
  8
DETAIL
  6
CONTINUOUS
 62
     5
 10
-295.01026922062618
 20
-49.218305579392279
 30
0.0
 11
-295.01026922062618
 21
-49.218305579392279
 31
0.0
  0
LINE
  8
DETAIL
  6
CONTINUOUS
 62
     5
 10
-295.01026922062618
 20
-49.218305579392279
 30
0.0
 11
-295.01220862737898
 21
-49.208729169953983
 31
0.0
  0
LINE
  8
DETAIL
  6
CONTINUOUS
 62
     5
 10
-295.01220862737898
 20
-49.208729169953983
 30
0.0
 11
-295.01415406030168
 21
-49.199153846174063
 31
0.0
  0
LINE
  8
DETAIL
  6
CONTINUOUS
 62
     5
 10
-295.01415406030168
 20
-49.199153846174063
 30
0.0
 11
-295.01415406030168
 21
-49.199153846174063
 31
0.0
  0
LINE
  8
DETAIL
  6
CONTINUOUS
 62
     5
 10
-295.01415406030168
 20
-49.199153846174063
 30
0.0
 11
-295.01609865217239
 21
-49.189578904496841
 31
0.0
  0
LINE
  8
DETAIL
  6
CONTINUOUS
 62
     5
 10
-295.01609865217239
 20
-49.189578904496841
 30
0.0
 11
-295.01803553577179
 21
-49.180003641367819
 31
0.0
  0
LINE
  8
DETAIL
  6
CONTINUOUS
 62
     5
 10
-295.01803553577179
 20
-49.180003641367819
 30
0.0
 11
-295.01803553577179
 21
-49.180003641367819
 31
0.0
  0
LINE
  8
DETAIL
  6
CONTINUOUS
 62
     5
 10
-295.01803553577179
 20
-49.180003641367819
 30
0.0
 11
-295.01995784387992
 21
-49.170427353232242
 31
0.0
  0
LINE
  8
DETAIL
  6
CONTINUOUS
 62
     5
 10
-295.01995784387992
 20
-49.170427353232242
 30
0.0
 11
-295.02185870927531
 21
-49.160849336535023
 31
0.0
  0
LINE
  8
DETAIL
  6
CONTINUOUS
 62
     5
 10
-295.02185870927531
 20
-49.160849336535023
 30
0.0
 11
-295.02185870927531
 21
-49.160849336535023
 31
0.0
  0
LINE
  8
DETAIL
  6
CONTINUOUS
 62
     5
 10
-295.02185870927531
 20
-49.160849336535023
 30
0.0
 11
-295.02373156519599
 21
-49.151268928762931
 31
0.0
  0
LINE
  8
DETAIL
  6
CONTINUOUS
 62
     5
 10
-295.02373156519599
 20
-49.151268928762931
 30
0.0
 11
-295.02557104670802
 21
-49.14168563157034
 31
0.0
  0
LINE
  8
DETAIL
  6
CONTINUOUS
 62
     5
 10
-295.02557104670802
 20
-49.14168563157034
 30
0.0
 11
-295.02557104670802
 21
-49.14168563157034
 31
0.0
  0
LINE
  8
DETAIL
  6
CONTINUOUS
 62
     5
 10
-295.02557104670802
 20
-49.14168563157034
 30
0.0
 11
-295.02737208933468
 21
-49.132098987652448
 31
0.0
  0
LINE
  8
DETAIL
  6
CONTINUOUS
 62
     5
 10
-295.02737208933468
 20
-49.132098987652448
 30
0.0
 11
-295.02912962859989
 21
-49.122508539705052
 31
0.0
  0
LINE
  8
DETAIL
  6
CONTINUOUS
 62
     5
 10
-295.02912962859989
 20
-49.122508539705052
 30
0.0
 11
-295.02912962859989
 21
-49.122508539705052
 31
0.0
  0
LINE
  8
DETAIL
  6
CONTINUOUS
 62
     5
 10
-295.02912962859989
 20
-49.122508539705052
 30
0.0
 11
-295.03083860002778
 21
-49.112913830423913
 31
0.0
  0
LINE
  8
DETAIL
  6
CONTINUOUS
 62
     5
 10
-295.03083860002778
 20
-49.112913830423913
 30
0.0
 11
-295.03249393914211
 21
-49.103314402505589
 31
0.0
  0
LINE
  8
DETAIL
  6
CONTINUOUS
 62
     5
 10
-295.03249393914211
 20
-49.103314402505589
 30
0.0
 11
-295.03249393914211
 21
-49.103314402505589
 31
0.0
  0
LINE
  8
DETAIL
  6
CONTINUOUS
 62
     5
 10
-295.03249393914211
 20
-49.103314402505589
 30
0.0
 11
-295.03409058146588
 21
-49.093709798645882
 31
0.0
  0
LINE
  8
DETAIL
  6
CONTINUOUS
 62
     5
 10
-295.03409058146588
 20
-49.093709798645882
 30
0.0
 11
-295.03562346252352
 21
-49.084099561537698
 31
0.0
  0
LINE
  8
DETAIL
  6
CONTINUOUS
 62
     5
 10
-295.03562346252352
 20
-49.084099561537698
 30
0.0
 11
-295.03562346252352
 21
-49.084099561537698
 31
0.0
  0
LINE
  8
DETAIL
  6
CONTINUOUS
 62
     5
 10
-295.03562346252352
 20
-49.084099561537698
 30
0.0
 11
-295.03708751783859
 21
-49.07448323387581
 31
0.0
  0
LINE
  8
DETAIL
  6
CONTINUOUS
 62
     5
 10
-295.03708751783859
 20
-49.07448323387581
 30
0.0
 11
-295.03847768293463
 21
-49.064860358367298
 31
0.0
  0
LINE
  8
DETAIL
  6
CONTINUOUS
 62
     5
 10
-295.03847768293463
 20
-49.064860358367298
 30
0.0
 11
-295.03847768293463
 21
-49.064860358367298
 31
0.0
  0
LINE
  8
DETAIL
  6
CONTINUOUS
 62
     5
 10
-295.03847768293463
 20
-49.064860358367298
 30
0.0
 11
-295.03979172773307
 21
-49.055230773886713
 31
0.0
  0
LINE
  8
DETAIL
  6
CONTINUOUS
 62
     5
 10
-295.03979172773307
 20
-49.055230773886713
 30
0.0
 11
-295.04103875974852
 21
-49.045595503965899
 31
0.0
  0
LINE
  8
DETAIL
  6
CONTINUOUS
 62
     5
 10
-295.04103875974852
 20
-49.045595503965899
 30
0.0
 11
-295.04103875974852
 21
-49.045595503965899
 31
0.0
  0
LINE
  8
DETAIL
  6
CONTINUOUS
 62
     5
 10
-295.04103875974852
 20
-49.045595503965899
 30
0.0
 11
-295.04223072089178
 21
-49.035955868343187
 31
0.0
  0
LINE
  8
DETAIL
  6
CONTINUOUS
 62
     5
 10
-295.04223072089178
 20
-49.035955868343187
 30
0.0
 11
-295.04337955306721
 21
-49.026313186924142
 31
0.0
  0
LINE
  8
DETAIL
  6
CONTINUOUS
 62
     5
 10
-295.04337955306721
 20
-49.026313186924142
 30
0.0
 11
-295.04337955306721
 21
-49.026313186924142
 31
0.0
  0
LINE
  8
DETAIL
  6
CONTINUOUS
 62
     5
 10
-295.04337955306721
 20
-49.026313186924142
 30
0.0
 11
-295.04449719818388
 21
-49.016668779499923
 31
0.0
  0
LINE
  8
DETAIL
  6
CONTINUOUS
 62
     5
 10
-295.04449719818388
 20
-49.016668779499923
 30
0.0
 11
-295.04559559817818
 21
-49.007023965239107
 31
0.0
  0
LINE
  8
DETAIL
  6
CONTINUOUS
 62
     5
 10
-295.04559559817818
 20
-49.007023965239107
 30
0.0
 11
-295.04559559817818
 21
-49.007023965239107
 31
0.0
  0
LINE
  8
DETAIL
  6
CONTINUOUS
 62
     5
 10
-295.04559559817818
 20
-49.007023965239107
 30
0.0
 11
-295.04668669496772
 21
-48.997380063735193
 31
0.0
  0
LINE
  8
DETAIL
  6
CONTINUOUS
 62
     5
 10
-295.04668669496772
 20
-48.997380063735193
 30
0.0
 11
-295.04778243036662
 21
-48.987738396906991
 31
0.0
  0
LINE
  8
DETAIL
  6
CONTINUOUS
 62
     5
 10
-295.04778243036662
 20
-48.987738396906991
 30
0.0
 11
-295.04778243036662
 21
-48.987738396906991
 31
0.0
  0
LINE
  8
DETAIL
  6
CONTINUOUS
 62
     5
 10
-295.04778243036662
 20
-48.987738396906991
 30
0.0
 11
-295.04889474625912
 21
-48.97810028508502
 31
0.0
  0
LINE
  8
DETAIL
  6
CONTINUOUS
 62
     5
 10
-295.04889474625912
 20
-48.97810028508502
 30
0.0
 11
-295.05003558491887
 21
-48.968467039924292
 31
0.0
  0
LINE
  8
DETAIL
  6
CONTINUOUS
 62
     5
 10
-295.05003558491887
 20
-48.968467039924292
 30
0.0
 11
-295.05003558491887
 21
-48.968467039924292
 31
0.0
  0
LINE
  8
DETAIL
  6
CONTINUOUS
 62
     5
 10
-295.05003558491887
 20
-48.968467039924292
 30
0.0
 11
-295.05121284191239
 21
-48.958839359771162
 31
0.0
  0
LINE
  8
DETAIL
  6
CONTINUOUS
 62
     5
 10
-295.05121284191239
 20
-48.958839359771162
 30
0.0
 11
-295.05241822559401
 21
-48.949215498414503
 31
0.0
  0
LINE
  8
DETAIL
  6
CONTINUOUS
 62
     5
 10
-295.05241822559401
 20
-48.949215498414503
 30
0.0
 11
-295.05241822559401
 21
-48.949215498414503
 31
0.0
  0
LINE
  8
DETAIL
  6
CONTINUOUS
 62
     5
 10
-295.05241822559401
 20
-48.949215498414503
 30
0.0
 11
-295.05363939886598
 21
-48.939593068293959
 31
0.0
  0
LINE
  8
DETAIL
  6
CONTINUOUS
 62
     5
 10
-295.05363939886598
 20
-48.939593068293959
 30
0.0
 11
-295.05486403004198
 21
-48.929969561008527
 31
0.0
  0
LINE
  8
DETAIL
  6
CONTINUOUS
 62
     5
 10
-295.05486403004198
 20
-48.929969561008527
 30
0.0
 11
-295.05486403004198
 21
-48.929969561008527
 31
0.0
  0
LINE
  8
DETAIL
  6
CONTINUOUS
 62
     5
 10
-295.05486403004198
 20
-48.929969561008527
 30
0.0
 11
-295.05607978373928
 21
-48.920342550692851
 31
0.0
  0
LINE
  8
DETAIL
  6
CONTINUOUS
 62
     5
 10
-295.05607978373928
 20
-48.920342550692851
 30
0.0
 11
-295.05727430438708
 21
-48.91071006246483
 31
0.0
  0
LINE
  8
DETAIL
  6
CONTINUOUS
 62
     5
 10
-295.05727430438708
 20
-48.91071006246483
 30
0.0
 11
-295.05727430438708
 21
-48.91071006246483
 31
0.0
  0
LINE
  8
DETAIL
  6
CONTINUOUS
 62
     5
 10
-295.05727430438708
 20
-48.91071006246483
 30
0.0
 11
-295.05843525020288
 21
-48.901069813414608
 31
0.0
  0
LINE
  8
DETAIL
  6
CONTINUOUS
 62
     5
 10
-295.05843525020288
 20
-48.901069813414608
 30
0.0
 11
-295.05955035475131
 21
-48.891417837541269
 31
0.0
  0
LINE
  8
DETAIL
  6
CONTINUOUS
 62
     5
 10
-295.05955035475131
 20
-48.891417837541269
 30
0.0
 11
-295.05955035475131
 21
-48.891417837541269
 31
0.0
  0
LINE
  8
DETAIL
  6
CONTINUOUS
 62
     5
 10
-295.05955035475131
 20
-48.891417837541269
 30
0.0
 11
-295.0606073001336
 21
-48.88175131841632
 31
0.0
  0
LINE
  8
DETAIL
  6
CONTINUOUS
 62
     5
 10
-295.0606073001336
 20
-48.88175131841632
 30
0.0
 11
-295.06159348725879
 21
-48.872073720995957
 31
0.0
  0
LINE
  8
DETAIL
  6
CONTINUOUS
 62
     5
 10
-295.06159348725879
 20
-48.872073720995957
 30
0.0
 11
-295.06159348725879
 21
-48.872073720995957
 31
0.0
  0
LINE
  8
DETAIL
  6
CONTINUOUS
 62
     5
 10
-295.06159348725879
 20
-48.872073720995957
 30
0.0
 11
-295.06249971481878
 21
-48.862384860991092
 31
0.0
  0
LINE
  8
DETAIL
  6
CONTINUOUS
 62
     5
 10
-295.06249971481878
 20
-48.862384860991092
 30
0.0
 11
-295.06333065382597
 21
-48.852663675747642
 31
0.0
  0
LINE
  8
DETAIL
  6
CONTINUOUS
 62
     5
 10
-295.06333065382597
 20
-48.852663675747642
 30
0.0
 11
-295.06333065382597
 21
-48.852663675747642
 31
0.0
  0
LINE
  8
DETAIL
  6
CONTINUOUS
 62
     5
 10
-295.06333065382597
 20
-48.852663675747642
 30
0.0
 11
-295.06409346424817
 21
-48.842905755119091
 31
0.0
  0
LINE
  8
DETAIL
  6
CONTINUOUS
 62
     5
 10
-295.06409346424817
 20
-48.842905755119091
 30
0.0
 11
-295.06479138954421
 21
-48.833194177357477
 31
0.0
  0
LINE
  8
DETAIL
  6
CONTINUOUS
 62
     5
 10
-295.06479138954421
 20
-48.833194177357477
 30
0.0
 11
-295.06479138954421
 21
-48.833194177357477
 31
0.0
  0
LINE
  8
DETAIL
  6
CONTINUOUS
 62
     5
 10
-295.06479138954421
 20
-48.833194177357477
 30
0.0
 11
-295.06543034819731
 21
-48.823552265027558
 31
0.0
  0
LINE
  8
DETAIL
  6
CONTINUOUS
 62
     5
 10
-295.06543034819731
 20
-48.823552265027558
 30
0.0
 11
-295.06603087529697
 21
-48.813676829547553
 31
0.0
  0
LINE
  8
DETAIL
  6
CONTINUOUS
 62
     5
 10
-295.06603087529697
 20
-48.813676829547553
 30
0.0
 11
-295.06603087529697
 21
-48.813676829547553
 31
0.0
  0
LINE
  8
DETAIL
  6
CONTINUOUS
 62
     5
 10
-295.06603087529697
 20
-48.813676829547553
 30
0.0
 11
-295.06660352260491
 21
-48.803487693596253
 31
0.0
  0
LINE
  8
DETAIL
  6
CONTINUOUS
 62
     5
 10
-295.06660352260491
 20
-48.803487693596253
 30
0.0
 11
-295.06710429196801
 21
-48.794123236039241
 31
0.0
  0
LINE
  8
DETAIL
  6
CONTINUOUS
 62
     5
 10
-295.06710429196801
 20
-48.794123236039241
 30
0.0
 11
-295.06710429196801
 21
-48.794123236039241
 31
0.0
  0
LINE
  8
DETAIL
  6
CONTINUOUS
 62
     5
 10
-295.06710429196801
 20
-48.794123236039241
 30
0.0
 11
-295.06752644351758
 21
-48.785889546388198
 31
0.0
  0
LINE
  8
DETAIL
  6
CONTINUOUS
 62
     5
 10
-295.06752644351758
 20
-48.785889546388198
 30
0.0
 11
-295.06806682044248
 21
-48.774545000555179
 31
0.0
  0
LINE
  8
DETAIL
  6
CONTINUOUS
 62
     5
 10
-295.06806682044248
 20
-48.774545000555179
 30
0.0
 11
-295.06806682044248
 21
-48.774545000555179
 31
0.0
  0
LINE
  8
DETAIL
  6
CONTINUOUS
 62
     5
 10
-295.06806682044248
 20
-48.774545000555179
 30
0.0
 11
-295.06888869882692
 21
-48.756503424073003
 31
0.0
  0
LINE
  8
DETAIL
  6
CONTINUOUS
 62
     5
 10
-295.06888869882692
 20
-48.756503424073003
 30
0.0
 11
-295.06981750328572
 21
-48.735348154560427
 31
0.0
  0
LINE
  8
DETAIL
  6
CONTINUOUS
 62
     5
 10
-295.06981750328572
 20
-48.735348154560427
 30
0.0
 11
-295.06981750328572
 21
-48.735348154560427
 31
0.0
  0
LINE
  8
DETAIL
  6
CONTINUOUS
 62
     5
 10
-295.06981750328572
 20
-48.735348154560427
 30
0.0
 11
-295.07065075409491
 21
-48.715319332957961
 31
0.0
  0
LINE
  8
DETAIL
  6
CONTINUOUS
 62
     5
 10
-295.07065075409491
 20
-48.715319332957961
 30
0.0
 11
-295.07141220565052
 21
-48.696114801410147
 31
0.0
  0
LINE
  8
DETAIL
  6
CONTINUOUS
 62
     5
 10
-295.07141220565052
 20
-48.696114801410147
 30
0.0
 11
-295.07141220565052
 21
-48.696114801410147
 31
0.0
  0
LINE
  8
DETAIL
  6
CONTINUOUS
 62
     5
 10
-295.07141220565052
 20
-48.696114801410147
 30
0.0
 11
-295.07216677257969
 21
-48.676600940950443
 31
0.0
  0
LINE
  8
DETAIL
  6
CONTINUOUS
 62
     5
 10
-295.07216677257969
 20
-48.676600940950443
 30
0.0
 11
-295.07291777631042
 21
-48.656860586966218
 31
0.0
  0
LINE
  8
DETAIL
  6
CONTINUOUS
 62
     5
 10
-295.07291777631042
 20
-48.656860586966218
 30
0.0
 11
-295.07291777631042
 21
-48.656860586966218
 31
0.0
  0
LINE
  8
DETAIL
  6
CONTINUOUS
 62
     5
 10
-295.07291777631042
 20
-48.656860586966218
 30
0.0
 11
-295.07365817463989
 21
-48.637199808778348
 31
0.0
  0
LINE
  8
DETAIL
  6
CONTINUOUS
 62
     5
 10
-295.07365817463989
 20
-48.637199808778348
 30
0.0
 11
-295.07440106403868
 21
-48.617601157090121
 31
0.0
  0
LINE
  8
DETAIL
  6
CONTINUOUS
 62
     5
 10
-295.07440106403868
 20
-48.617601157090121
 30
0.0
 11
-295.07440106403868
 21
-48.617601157090121
 31
0.0
  0
LINE
  8
DETAIL
  6
CONTINUOUS
 62
     5
 10
-295.07440106403868
 20
-48.617601157090121
 30
0.0
 11
-295.07515983527207
 21
-48.597985707979717
 31
0.0
  0
LINE
  8
DETAIL
  6
CONTINUOUS
 62
     5
 10
-295.07515983527207
 20
-48.597985707979717
 30
0.0
 11
-295.07592891760942
 21
-48.578352157643621
 31
0.0
  0
LINE
  8
DETAIL
  6
CONTINUOUS
 62
     5
 10
-294.71080283791088
 20
-47.055616576699087
 30
0.0
 11
-294.71911845819483
 21
-47.074060094124832
 31
0.0
  0
LINE
  8
DETAIL
  6
CONTINUOUS
 62
     5
 10
-294.71911845819483
 20
-47.074060094124832
 30
0.0
 11
-294.72743461586288
 21
-47.092482627093318
 31
0.0
  0
LINE
  8
DETAIL
  6
CONTINUOUS
 62
     5
 10
-294.72743461586288
 20
-47.092482627093318
 30
0.0
 11
-294.72743461586288
 21
-47.092482627093318
 31
0.0
  0
LINE
  8
DETAIL
  6
CONTINUOUS
 62
     5
 10
-294.72743461586288
 20
-47.092482627093318
 30
0.0
 11
-294.73575666641233
 21
-47.110883069952308
 31
0.0
  0
LINE
  8
DETAIL
  6
CONTINUOUS
 62
     5
 10
-294.73575666641233
 20
-47.110883069952308
 30
0.0
 11
-294.74410923778538
 21
-47.129339832271107
 31
0.0
  0
LINE
  8
DETAIL
  6
CONTINUOUS
 62
     5
 10
-294.74410923778538
 20
-47.129339832271107
 30
0.0
 11
-294.74410923778538
 21
-47.129339832271107
 31
0.0
  0
LINE
  8
DETAIL
  6
CONTINUOUS
 62
     5
 10
-294.74410923778538
 20
-47.129339832271107
 30
0.0
 11
-294.75248911486409
 21
-47.147874451343171
 31
0.0
  0
LINE
  8
DETAIL
  6
CONTINUOUS
 62
     5
 10
-294.75248911486409
 20
-47.147874451343171
 30
0.0
 11
-294.76076243783638
 21
-47.16620146013986
 31
0.0
  0
LINE
  8
DETAIL
  6
CONTINUOUS
 62
     5
 10
-294.76076243783638
 20
-47.16620146013986
 30
0.0
 11
-294.76076243783638
 21
-47.16620146013986
 31
0.0
  0
LINE
  8
DETAIL
  6
CONTINUOUS
 62
     5
 10
-294.76076243783638
 20
-47.16620146013986
 30
0.0
 11
-294.76888851229938
 21
-47.184245766069182
 31
0.0
  0
LINE
  8
DETAIL
  6
CONTINUOUS
 62
     5
 10
-294.76888851229938
 20
-47.184245766069182
 30
0.0
 11
-294.77732995017448
 21
-47.203080778607102
 31
0.0
  0
LINE
  8
DETAIL
  6
CONTINUOUS
 62
     5
 10
-294.77732995017448
 20
-47.203080778607102
 30
0.0
 11
-294.77732995017448
 21
-47.203080778607102
 31
0.0
  0
LINE
  8
DETAIL
  6
CONTINUOUS
 62
     5
 10
-294.77732995017448
 20
-47.203080778607102
 30
0.0
 11
-294.78620454481268
 21
-47.222995281758763
 31
0.0
  0
LINE
  8
DETAIL
  6
CONTINUOUS
 62
     5
 10
-294.78620454481268
 20
-47.222995281758763
 30
0.0
 11
-294.79374750895772
 21
-47.239991055579942
 31
0.0
  0
LINE
  8
DETAIL
  6
CONTINUOUS
 62
     5
 10
-294.79374750895772
 20
-47.239991055579942
 30
0.0
 11
-294.79374750895772
 21
-47.239991055579942
 31
0.0
  0
LINE
  8
DETAIL
  6
CONTINUOUS
 62
     5
 10
-294.79374750895772
 20
-47.239991055579942
 30
0.0
 11
-294.79847036358518
 21
-47.25068774319783
 31
0.0
  0
LINE
  8
DETAIL
  6
CONTINUOUS
 62
     5
 10
-294.79847036358518
 20
-47.25068774319783
 30
0.0
 11
-294.80187244319438
 21
-47.258463443975018
 31
0.0
  0
LINE
  8
DETAIL
  6
CONTINUOUS
 62
     5
 10
-294.80187244319438
 20
-47.258463443975018
 30
0.0
 11
-294.80187244319438
 21
-47.258463443975018
 31
0.0
  0
LINE
  8
DETAIL
  6
CONTINUOUS
 62
     5
 10
-294.80187244319438
 20
-47.258463443975018
 30
0.0
 11
-294.80572393360308
 21
-47.267315218115193
 31
0.0
  0
LINE
  8
DETAIL
  6
CONTINUOUS
 62
     5
 10
-294.80572393360308
 20
-47.267315218115193
 30
0.0
 11
-294.80989061237091
 21
-47.276957512950283
 31
0.0
  0
LINE
  8
DETAIL
  6
CONTINUOUS
 62
     5
 10
-294.80989061237091
 20
-47.276957512950283
 30
0.0
 11
-294.80989061237091
 21
-47.276957512950283
 31
0.0
  0
LINE
  8
DETAIL
  6
CONTINUOUS
 62
     5
 10
-294.80989061237091
 20
-47.276957512950283
 30
0.0
 11
-294.81388972615707
 21
-47.286321003259388
 31
0.0
  0
LINE
  8
DETAIL
  6
CONTINUOUS
 62
     5
 10
-294.81388972615707
 20
-47.286321003259388
 30
0.0
 11
-294.81774880627609
 21
-47.295483886482323
 31
0.0
  0
LINE
  8
DETAIL
  6
CONTINUOUS
 62
     5
 10
-294.81774880627609
 20
-47.295483886482323
 30
0.0
 11
-294.81774880627609
 21
-47.295483886482323
 31
0.0
  0
LINE
  8
DETAIL
  6
CONTINUOUS
 62
     5
 10
-294.81774880627609
 20
-47.295483886482323
 30
0.0
 11
-294.82158877261458
 21
-47.304734371281093
 31
0.0
  0
LINE
  8
DETAIL
  6
CONTINUOUS
 62
     5
 10
-294.82158877261458
 20
-47.304734371281093
 30
0.0
 11
-294.82539381469888
 21
-47.314053188547923
 31
0.0
  0
LINE
  8
DETAIL
  6
CONTINUOUS
 62
     5
 10
-294.82539381469888
 20
-47.314053188547923
 30
0.0
 11
-294.82539381469888
 21
-47.314053188547923
 31
0.0
  0
LINE
  8
DETAIL
  6
CONTINUOUS
 62
     5
 10
-294.82539381469888
 20
-47.314053188547923
 30
0.0
 11
-294.82912309866248
 21
-47.323364796837318
 31
0.0
  0
LINE
  8
DETAIL
  6
CONTINUOUS
 62
     5
 10
-294.82912309866248
 20
-47.323364796837318
 30
0.0
 11
-294.83277242742878
 21
-47.332676043124017
 31
0.0
  0
LINE
  8
DETAIL
  6
CONTINUOUS
 62
     5
 10
-294.83277242742878
 20
-47.332676043124017
 30
0.0
 11
-294.83277242742878
 21
-47.332676043124017
 31
0.0
  0
LINE
  8
DETAIL
  6
CONTINUOUS
 62
     5
 10
-294.83277242742878
 20
-47.332676043124017
 30
0.0
 11
-294.83634740423207
 21
-47.342008243594762
 31
0.0
  0
LINE
  8
DETAIL
  6
CONTINUOUS
 62
     5
 10
-294.83634740423207
 20
-47.342008243594762
 30
0.0
 11
-294.83985619676457
 21
-47.351358202863992
 31
0.0
  0
LINE
  8
DETAIL
  6
CONTINUOUS
 62
     5
 10
-294.83985619676457
 20
-47.351358202863992
 30
0.0
 11
-294.83985619676457
 21
-47.351358202863992
 31
0.0
  0
LINE
  8
DETAIL
  6
CONTINUOUS
 62
     5
 10
-294.83985619676457
 20
-47.351358202863992
 30
0.0
 11
-294.84330827143322
 21
-47.360718076458738
 31
0.0
  0
LINE
  8
DETAIL
  6
CONTINUOUS
 62
     5
 10
-294.84330827143322
 20
-47.360718076458738
 30
0.0
 11
-294.84671572504777
 21
-47.370085935128323
 31
0.0
  0
LINE
  8
DETAIL
  6
CONTINUOUS
 62
     5
 10
-294.84671572504777
 20
-47.370085935128323
 30
0.0
 11
-294.84671572504777
 21
-47.370085935128323
 31
0.0
  0
LINE
  8
DETAIL
  6
CONTINUOUS
 62
     5
 10
-294.84671572504777
 20
-47.370085935128323
 30
0.0
 11
-294.85009113581577
 21
-47.379460932182887
 31
0.0
  0
LINE
  8
DETAIL
  6
CONTINUOUS
 62
     5
 10
-294.85009113581577
 20
-47.379460932182887
 30
0.0
 11
-294.85344637712979
 21
-47.388840635953727
 31
0.0
  0
LINE
  8
DETAIL
  6
CONTINUOUS
 62
     5
 10
-294.85344637712979
 20
-47.388840635953727
 30
0.0
 11
-294.85344637712979
 21
-47.388840635953727
 31
0.0
  0
LINE
  8
DETAIL
  6
CONTINUOUS
 62
     5
 10
-294.85344637712979
 20
-47.388840635953727
 30
0.0
 11
-294.85679319339289
 21
-47.398222324700733
 31
0.0
  0
LINE
  8
DETAIL
  6
CONTINUOUS
 62
     5
 10
-294.85679319339289
 20
-47.398222324700733
 30
0.0
 11
-294.86014351786213
 21
-47.407603701377582
 31
0.0
  0
LINE
  8
DETAIL
  6
CONTINUOUS
 62
     5
 10
-294.86014351786213
 20
-47.407603701377582
 30
0.0
 11
-294.86014351786213
 21
-47.407603701377582
 31
0.0
  0
LINE
  8
DETAIL
  6
CONTINUOUS
 62
     5
 10
-294.86014351786213
 20
-47.407603701377582
 30
0.0
 11
-294.86350931835739
 21
-47.416982546662148
 31
0.0
  0
LINE
  8
DETAIL
  6
CONTINUOUS
 62
     5
 10
-294.86350931835739
 20
-47.416982546662148
 30
0.0
 11
-294.86690251209569
 21
-47.426356527436383
 31
0.0
  0
LINE
  8
DETAIL
  6
CONTINUOUS
 62
     5
 10
-294.86690251209569
 20
-47.426356527436383
 30
0.0
 11
-294.86690251209569
 21
-47.426356527436383
 31
0.0
  0
LINE
  8
DETAIL
  6
CONTINUOUS
 62
     5
 10
-294.86690251209569
 20
-47.426356527436383
 30
0.0
 11
-294.87033107657362
 21
-47.435724010838904
 31
0.0
  0
LINE
  8
DETAIL
  6
CONTINUOUS
 62
     5
 10
-294.87033107657362
 20
-47.435724010838904
 30
0.0
 11
-294.87378728101072
 21
-47.445086278832832
 31
0.0
  0
LINE
  8
DETAIL
  6
CONTINUOUS
 62
     5
 10
-294.87378728101072
 20
-47.445086278832832
 30
0.0
 11
-294.87378728101072
 21
-47.445086278832832
 31
0.0
  0
LINE
  8
DETAIL
  6
CONTINUOUS
 62
     5
 10
-294.87378728101072
 20
-47.445086278832832
 30
0.0
 11
-294.87725946664767
 21
-47.454445340043947
 31
0.0
  0
LINE
  8
DETAIL
  6
CONTINUOUS
 62
     5
 10
-294.87725946664767
 20
-47.454445340043947
 30
0.0
 11
-294.88073597109468
 21
-47.463803194928573
 31
0.0
  0
LINE
  8
DETAIL
  6
CONTINUOUS
 62
     5
 10
-294.88073597109468
 20
-47.463803194928573
 30
0.0
 11
-294.88073597109468
 21
-47.463803194928573
 31
0.0
  0
LINE
  8
DETAIL
  6
CONTINUOUS
 62
     5
 10
-294.88073597109468
 20
-47.463803194928573
 30
0.0
 11
-294.88420513129529
 21
-47.47316184244761
 31
0.0
  0
LINE
  8
DETAIL
  6
CONTINUOUS
 62
     5
 10
-294.88420513129529
 20
-47.47316184244761
 30
0.0
 11
-294.88765528516637
 21
-47.482523283750993
 31
0.0
  0
LINE
  8
DETAIL
  6
CONTINUOUS
 62
     5
 10
-294.88765528516637
 20
-47.482523283750993
 30
0.0
 11
-294.88765528516637
 21
-47.482523283750993
 31
0.0
  0
LINE
  8
DETAIL
  6
CONTINUOUS
 62
     5
 10
-294.88765528516637
 20
-47.482523283750993
 30
0.0
 11
-294.89107477080341
 21
-47.49188952038952
 31
0.0
  0
LINE
  8
DETAIL
  6
CONTINUOUS
 62
     5
 10
-294.89107477080341
 20
-47.49188952038952
 30
0.0
 11
-294.89445192604109
 21
-47.501262553327187
 31
0.0
  0
LINE
  8
DETAIL
  6
CONTINUOUS
 62
     5
 10
-294.89445192604109
 20
-47.501262553327187
 30
0.0
 11
-294.89445192604109
 21
-47.501262553327187
 31
0.0
  0
LINE
  8
DETAIL
  6
CONTINUOUS
 62
     5
 10
-294.89445192604109
 20
-47.501262553327187
 30
0.0
 11
-294.89777508866638
 21
-47.510644383420811
 31
0.0
  0
LINE
  8
DETAIL
  6
CONTINUOUS
 62
     5
 10
-294.89777508866638
 20
-47.510644383420811
 30
0.0
 11
-294.90103259653642
 21
-47.520037011684167
 31
0.0
  0
LINE
  8
DETAIL
  6
CONTINUOUS
 62
     5
 10
-294.90103259653642
 20
-47.520037011684167
 30
0.0
 11
-294.90103259653642
 21
-47.520037011684167
 31
0.0
  0
LINE
  8
DETAIL
  6
CONTINUOUS
 62
     5
 10
-294.90103259653642
 20
-47.520037011684167
 30
0.0
 11
-294.90421555341919
 21
-47.529441959976403
 31
0.0
  0
LINE
  8
DETAIL
  6
CONTINUOUS
 62
     5
 10
-294.90421555341919
 20
-47.529441959976403
 30
0.0
 11
-294.9073261266617
 21
-47.538858833379493
 31
0.0
  0
LINE
  8
DETAIL
  6
CONTINUOUS
 62
     5
 10
-294.9073261266617
 20
-47.538858833379493
 30
0.0
 11
-294.9073261266617
 21
-47.538858833379493
 31
0.0
  0
LINE
  8
DETAIL
  6
CONTINUOUS
 62
     5
 10
-294.9073261266617
 20
-47.538858833379493
 30
0.0
 11
-294.91036924950572
 21
-47.548286757783558
 31
0.0
  0
LINE
  8
DETAIL
  6
CONTINUOUS
 62
     5
 10
-294.91036924950572
 20
-47.548286757783558
 30
0.0
 11
-294.91334985519808
 21
-47.557724859090911
 31
0.0
  0
LINE
  8
DETAIL
  6
CONTINUOUS
 62
     5
 10
-294.91334985519808
 20
-47.557724859090911
 30
0.0
 11
-294.91334985519808
 21
-47.557724859090911
 31
0.0
  0
LINE
  8
DETAIL
  6
CONTINUOUS
 62
     5
 10
-294.91334985519808
 20
-47.557724859090911
 30
0.0
 11
-294.91627287698748
 21
-47.567172263205009
 31
0.0
  0
LINE
  8
DETAIL
  6
CONTINUOUS
 62
     5
 10
-294.91627287698748
 20
-47.567172263205009
 30
0.0
 11
-294.91914324812058
 21
-47.576628096026809
 31
0.0
  0
LINE
  8
DETAIL
  6
CONTINUOUS
 62
     5
 10
-294.91914324812058
 20
-47.576628096026809
 30
0.0
 11
-294.91914324812058
 21
-47.576628096026809
 31
0.0
  0
LINE
  8
DETAIL
  6
CONTINUOUS
 62
     5
 10
-294.91914324812058
 20
-47.576628096026809
 30
0.0
 11
-294.92196590184318
 21
-47.586091483456357
 31
0.0
  0
LINE
  8
DETAIL
  6
CONTINUOUS
 62
     5
 10
-294.92196590184318
 20
-47.586091483456357
 30
0.0
 11
-294.92474577140229
 21
-47.595561551394951
 31
0.0
  0
LINE
  8
DETAIL
  6
CONTINUOUS
 62
     5
 10
-294.92474577140229
 20
-47.595561551394951
 30
0.0
 11
-294.92474577140229
 21
-47.595561551394951
 31
0.0
  0
LINE
  8
DETAIL
  6
CONTINUOUS
 62
     5
 10
-294.92474577140229
 20
-47.595561551394951
 30
0.0
 11
-294.92748779004518
 21
-47.60503742574366
 31
0.0
  0
LINE
  8
DETAIL
  6
CONTINUOUS
 62
     5
 10
-294.92748779004518
 20
-47.60503742574366
 30
0.0
 11
-294.93019689101811
 21
-47.614518232403547
 31
0.0
  0
LINE
  8
DETAIL
  6
CONTINUOUS
 62
     5
 10
-294.93019689101811
 20
-47.614518232403547
 30
0.0
 11
-294.93019689101811
 21
-47.614518232403547
 31
0.0
  0
LINE
  8
DETAIL
  6
CONTINUOUS
 62
     5
 10
-294.93019689101811
 20
-47.614518232403547
 30
0.0
 11
-294.93287832311569
 21
-47.624003091822537
 31
0.0
  0
LINE
  8
DETAIL
  6
CONTINUOUS
 62
     5
 10
-294.93287832311569
 20
-47.624003091822537
 30
0.0
 11
-294.93553859732168
 21
-47.633491102636128
 31
0.0
  0
LINE
  8
DETAIL
  6
CONTINUOUS
 62
     5
 10
-294.93553859732168
 20
-47.633491102636128
 30
0.0
 11
-294.93553859732168
 21
-47.633491102636128
 31
0.0
  0
LINE
  8
DETAIL
  6
CONTINUOUS
 62
     5
 10
-294.93553859732168
 20
-47.633491102636128
 30
0.0
 11
-294.93818454016707
 21
-47.642981358026418
 31
0.0
  0
LINE
  8
DETAIL
  6
CONTINUOUS
 62
     5
 10
-294.93818454016707
 20
-47.642981358026418
 30
0.0
 11
-294.94082297818449
 21
-47.652472951176087
 31
0.0
  0
LINE
  8
DETAIL
  6
CONTINUOUS
 62
     5
 10
-294.94082297818449
 20
-47.652472951176087
 30
0.0
 11
-294.94082297818449
 21
-47.652472951176087
 31
0.0
  0
LINE
  8
DETAIL
  6
CONTINUOUS
 62
     5
 10
-294.94082297818449
 20
-47.652472951176087
 30
0.0
 11
-294.94346073790479
 21
-47.661964975267381
 31
0.0
  0
LINE
  8
DETAIL
  6
CONTINUOUS
 62
     5
 10
-294.94346073790479
 20
-47.661964975267381
 30
0.0
 11
-294.94610464585952
 21
-47.671456523482618
 31
0.0
  0
LINE
  8
DETAIL
  6
CONTINUOUS
 62
     5
 10
-294.94610464585952
 20
-47.671456523482618
 30
0.0
 11
-294.94610464585952
 21
-47.671456523482618
 31
0.0
  0
LINE
  8
DETAIL
  6
CONTINUOUS
 62
     5
 10
-294.94610464585952
 20
-47.671456523482618
 30
0.0
 11
-294.94876152857972
 21
-47.680946689004031
 31
0.0
  0
LINE
  8
DETAIL
  6
CONTINUOUS
 62
     5
 10
-294.94876152857972
 20
-47.680946689004031
 30
0.0
 11
-294.95143821259722
 21
-47.690434565014073
 31
0.0
  0
LINE
  8
DETAIL
  6
CONTINUOUS
 62
     5
 10
-294.95143821259722
 20
-47.690434565014073
 30
0.0
 11
-294.95143821259722
 21
-47.690434565014073
 31
0.0
  0
LINE
  8
DETAIL
  6
CONTINUOUS
 62
     5
 10
-294.95143821259722
 20
-47.690434565014073
 30
0.0
 11
-294.95414152444317
 21
-47.699919244695081
 31
0.0
  0
LINE
  8
DETAIL
  6
CONTINUOUS
 62
     5
 10
-294.95414152444317
 20
-47.699919244695081
 30
0.0
 11
-294.95687829065002
 21
-47.709399821229397
 31
0.0
  0
LINE
  8
DETAIL
  6
CONTINUOUS
 62
     5
 10
-294.95687829065002
 20
-47.709399821229397
 30
0.0
 11
-294.95687829065002
 21
-47.709399821229397
 31
0.0
  0
LINE
  8
DETAIL
  6
CONTINUOUS
 62
     5
 10
-294.95687829065002
 20
-47.709399821229397
 30
0.0
 11
-294.95965130965902
 21
-47.718875888795822
 31
0.0
  0
LINE
  8
DETAIL
  6
CONTINUOUS
 62
     5
 10
-294.95965130965902
 20
-47.718875888795822
 30
0.0
 11
-294.96244726755612
 21
-47.728349045558097
 31
0.0
  0
LINE
  8
DETAIL
  6
CONTINUOUS
 62
     5
 10
-294.96244726755612
 20
-47.728349045558097
 30
0.0
 11
-294.96244726755612
 21
-47.728349045558097
 31
0.0
  0
LINE
  8
DETAIL
  6
CONTINUOUS
 62
     5
 10
-294.96244726755612
 20
-47.728349045558097
 30
0.0
 11
-294.96524882233768
 21
-47.737821390676288
 31
0.0
  0
LINE
  8
DETAIL
  6
CONTINUOUS
 62
     5
 10
-294.96524882233768
 20
-47.737821390676288
 30
0.0
 11
-294.96803863200063
 21
-47.747295023310642
 31
0.0
  0
LINE
  8
DETAIL
  6
CONTINUOUS
 62
     5
 10
-294.96803863200063
 20
-47.747295023310642
 30
0.0
 11
-294.96803863200063
 21
-47.747295023310642
 31
0.0
  0
LINE
  8
DETAIL
  6
CONTINUOUS
 62
     5
 10
-294.96803863200063
 20
-47.747295023310642
 30
0.0
 11
-294.97079935454047
 21
-47.756772042621549
 31
0.0
  0
LINE
  8
DETAIL
  6
CONTINUOUS
 62
     5
 10
-294.97079935454047
 20
-47.756772042621549
 30
0.0
 11
-294.97351364795509
 21
-47.766254547768987
 31
0.0
  0
LINE
  8
DETAIL
  6
CONTINUOUS
 62
     5
 10
-294.97351364795509
 20
-47.766254547768987
 30
0.0
 11
-294.97351364795509
 21
-47.766254547768987
 31
0.0
  0
LINE
  8
DETAIL
  6
CONTINUOUS
 62
     5
 10
-294.97351364795509
 20
-47.766254547768987
 30
0.0
 11
-294.97616417024028
 21
-47.775744637912851
 31
0.0
  0
LINE
  8
DETAIL
  6
CONTINUOUS
 62
     5
 10
-294.97616417024028
 20
-47.775744637912851
 30
0.0
 11
-294.97873357939193
 21
-47.785244412213501
 31
0.0
  0
LINE
  8
DETAIL
  6
CONTINUOUS
 62
     5
 10
-294.97873357939193
 20
-47.785244412213501
 30
0.0
 11
-294.97873357939193
 21
-47.785244412213501
 31
0.0
  0
LINE
  8
DETAIL
  6
CONTINUOUS
 62
     5
 10
-294.97873357939193
 20
-47.785244412213501
 30
0.0
 11
-294.98120453340692
 21
-47.794755969831101
 31
0.0
  0
LINE
  8
DETAIL
  6
CONTINUOUS
 62
     5
 10
-294.98120453340692
 20
-47.794755969831101
 30
0.0
 11
-294.98355969028171
 21
-47.80428140992592
 31
0.0
  0
LINE
  8
DETAIL
  6
CONTINUOUS
 62
     5
 10
-294.98355969028171
 20
-47.80428140992592
 30
0.0
 11
-294.98355969028171
 21
-47.80428140992592
 31
0.0
  0
LINE
  8
DETAIL
  6
CONTINUOUS
 62
     5
 10
-294.98355969028171
 20
-47.80428140992592
 30
0.0
 11
-294.98578749003758
 21
-47.813822138713533
 31
0.0
  0
LINE
  8
DETAIL
  6
CONTINUOUS
 62
     5
 10
-294.98578749003758
 20
-47.813822138713533
 30
0.0
 11
-294.98789950079117
 21
-47.823376790631642
 31
0.0
  0
LINE
  8
DETAIL
  6
CONTINUOUS
 62
     5
 10
-294.98789950079117
 20
-47.823376790631642
 30
0.0
 11
-294.98789950079117
 21
-47.823376790631642
 31
0.0
  0
LINE
  8
DETAIL
  6
CONTINUOUS
 62
     5
 10
-294.98789950079117
 20
-47.823376790631642
 30
0.0
 11
-294.98991307268318
 21
-47.832943307172677
 31
0.0
  0
LINE
  8
DETAIL
  6
CONTINUOUS
 62
     5
 10
-294.98991307268318
 20
-47.832943307172677
 30
0.0
 11
-294.99184555585617
 21
-47.842519629830292
 31
0.0
  0
LINE
  8
DETAIL
  6
CONTINUOUS
 62
     5
 10
-294.99184555585617
 20
-47.842519629830292
 30
0.0
 11
-294.99184555585617
 21
-47.842519629830292
 31
0.0
  0
LINE
  8
DETAIL
  6
CONTINUOUS
 62
     5
 10
-294.99184555585617
 20
-47.842519629830292
 30
0.0
 11
-294.99371430045198
 21
-47.852103700097132
 31
0.0
  0
LINE
  8
DETAIL
  6
CONTINUOUS
 62
     5
 10
-294.99371430045198
 20
-47.852103700097132
 30
0.0
 11
-294.99553665661131
 21
-47.86169345946638
 31
0.0
  0
LINE
  8
DETAIL
  6
CONTINUOUS
 62
     5
 10
-294.99553665661131
 20
-47.86169345946638
 30
0.0
 11
-294.99553665661131
 21
-47.86169345946638
 31
0.0
  0
LINE
  8
DETAIL
  6
CONTINUOUS
 62
     5
 10
-294.99553665661131
 20
-47.86169345946638
 30
0.0
 11
-294.99732997447558
 21
-47.871286849430817
 31
0.0
  0
LINE
  8
DETAIL
  6
CONTINUOUS
 62
     5
 10
-294.99732997447558
 20
-47.871286849430817
 30
0.0
 11
-294.99911160418628
 21
-47.880881811483732
 31
0.0
  0
LINE
  8
DETAIL
  6
CONTINUOUS
 62
     5
 10
-294.99911160418628
 20
-47.880881811483732
 30
0.0
 11
-294.99911160418628
 21
-47.880881811483732
 31
0.0
  0
LINE
  8
DETAIL
  6
CONTINUOUS
 62
     5
 10
-294.99911160418628
 20
-47.880881811483732
 30
0.0
 11
-295.00089889588497
 21
-47.890476287117913
 31
0.0
  0
LINE
  8
DETAIL
  6
CONTINUOUS
 62
     5
 10
-295.00089889588497
 20
-47.890476287117913
 30
0.0
 11
-295.00270919971388
 21
-47.900068217826458
 31
0.0
  0
LINE
  8
DETAIL
  6
CONTINUOUS
 62
     5
 10
-295.00270919971388
 20
-47.900068217826458
 30
0.0
 11
-295.00270919971388
 21
-47.900068217826458
 31
0.0
  0
LINE
  8
DETAIL
  6
CONTINUOUS
 62
     5
 10
-295.00270919971388
 20
-47.900068217826458
 30
0.0
 11
-295.00455582958648
 21
-47.909656005446038
 31
0.0
  0
LINE
  8
DETAIL
  6
CONTINUOUS
 62
     5
 10
-295.00455582958648
 20
-47.909656005446038
 30
0.0
 11
-295.00643595450993
 21
-47.919239893187978
 31
0.0
  0
LINE
  8
DETAIL
  6
CONTINUOUS
 62
     5
 10
-295.00643595450993
 20
-47.919239893187978
 30
0.0
 11
-295.00643595450993
 21
-47.919239893187978
 31
0.0
  0
LINE
  8
DETAIL
  6
CONTINUOUS
 62
     5
 10
-295.00643595450993
 20
-47.919239893187978
 30
0.0
 11
-295.00834270726278
 21
-47.928820584606967
 31
0.0
  0
LINE
  8
DETAIL
  6
CONTINUOUS
 62
     5
 10
-295.00834270726278
 20
-47.928820584606967
 30
0.0
 11
-295.01026922062618
 21
-47.938398783258151
 31
0.0
  0
LINE
  8
DETAIL
  6
CONTINUOUS
 62
     5
 10
-295.01026922062618
 20
-47.938398783258151
 30
0.0
 11
-295.01026922062618
 21
-47.938398783258151
 31
0.0
  0
LINE
  8
DETAIL
  6
CONTINUOUS
 62
     5
 10
-295.01026922062618
 20
-47.938398783258151
 30
0.0
 11
-295.01220862737898
 21
-47.94797519269639
 31
0.0
  0
LINE
  8
DETAIL
  6
CONTINUOUS
 62
     5
 10
-295.01220862737898
 20
-47.94797519269639
 30
0.0
 11
-295.01415406030168
 21
-47.957550516476601
 31
0.0
  0
LINE
  8
DETAIL
  6
CONTINUOUS
 62
     5
 10
-295.01415406030168
 20
-47.957550516476601
 30
0.0
 11
-295.01415406030168
 21
-47.957550516476601
 31
0.0
  0
LINE
  8
DETAIL
  6
CONTINUOUS
 62
     5
 10
-295.01415406030168
 20
-47.957550516476601
 30
0.0
 11
-295.01609865217239
 21
-47.967125458153589
 31
0.0
  0
LINE
  8
DETAIL
  6
CONTINUOUS
 62
     5
 10
-295.01609865217239
 20
-47.967125458153589
 30
0.0
 11
-295.01803553577179
 21
-47.976700721282441
 31
0.0
  0
LINE
  8
DETAIL
  6
CONTINUOUS
 62
     5
 10
-295.01803553577179
 20
-47.976700721282441
 30
0.0
 11
-295.01803553577179
 21
-47.976700721282441
 31
0.0
  0
LINE
  8
DETAIL
  6
CONTINUOUS
 62
     5
 10
-295.01803553577179
 20
-47.976700721282441
 30
0.0
 11
-295.01995784387992
 21
-47.986277009417961
 31
0.0
  0
LINE
  8
DETAIL
  6
CONTINUOUS
 62
     5
 10
-295.01995784387992
 20
-47.986277009417961
 30
0.0
 11
-295.02185870927531
 21
-47.99585502611518
 31
0.0
  0
LINE
  8
DETAIL
  6
CONTINUOUS
 62
     5
 10
-295.02185870927531
 20
-47.99585502611518
 30
0.0
 11
-295.02185870927531
 21
-47.99585502611518
 31
0.0
  0
LINE
  8
DETAIL
  6
CONTINUOUS
 62
     5
 10
-295.02185870927531
 20
-47.99585502611518
 30
0.0
 11
-295.02373156519599
 21
-48.005435433887207
 31
0.0
  0
LINE
  8
DETAIL
  6
CONTINUOUS
 62
     5
 10
-295.02373156519599
 20
-48.005435433887207
 30
0.0
 11
-295.02557104670802
 21
-48.015018731080147
 31
0.0
  0
LINE
  8
DETAIL
  6
CONTINUOUS
 62
     5
 10
-295.02557104670802
 20
-48.015018731080147
 30
0.0
 11
-295.02557104670802
 21
-48.015018731080147
 31
0.0
  0
LINE
  8
DETAIL
  6
CONTINUOUS
 62
     5
 10
-295.02557104670802
 20
-48.015018731080147
 30
0.0
 11
-295.02737208933468
 21
-48.024605374997918
 31
0.0
  0
LINE
  8
DETAIL
  6
CONTINUOUS
 62
     5
 10
-295.02737208933468
 20
-48.024605374997918
 30
0.0
 11
-295.02912962859989
 21
-48.034195822945208
 31
0.0
  0
LINE
  8
DETAIL
  6
CONTINUOUS
 62
     5
 10
-295.02912962859989
 20
-48.034195822945208
 30
0.0
 11
-295.02912962859989
 21
-48.034195822945208
 31
0.0
  0
LINE
  8
DETAIL
  6
CONTINUOUS
 62
     5
 10
-295.02912962859989
 20
-48.034195822945208
 30
0.0
 11
-295.03083860002778
 21
-48.043790532226353
 31
0.0
  0
LINE
  8
DETAIL
  6
CONTINUOUS
 62
     5
 10
-295.03083860002778
 20
-48.043790532226353
 30
0.0
 11
-295.03249393914211
 21
-48.053389960144777
 31
0.0
  0
LINE
  8
DETAIL
  6
CONTINUOUS
 62
     5
 10
-295.03249393914211
 20
-48.053389960144777
 30
0.0
 11
-295.03249393914211
 21
-48.053389960144777
 31
0.0
  0
LINE
  8
DETAIL
  6
CONTINUOUS
 62
     5
 10
-295.03249393914211
 20
-48.053389960144777
 30
0.0
 11
-295.03409058146588
 21
-48.062994564004441
 31
0.0
  0
LINE
  8
DETAIL
  6
CONTINUOUS
 62
     5
 10
-295.03409058146588
 20
-48.062994564004441
 30
0.0
 11
-295.03562346252352
 21
-48.072604801112668
 31
0.0
  0
LINE
  8
DETAIL
  6
CONTINUOUS
 62
     5
 10
-295.03562346252352
 20
-48.072604801112668
 30
0.0
 11
-295.03562346252352
 21
-48.072604801112668
 31
0.0
  0
LINE
  8
DETAIL
  6
CONTINUOUS
 62
     5
 10
-295.03562346252352
 20
-48.072604801112668
 30
0.0
 11
-295.03708751783859
 21
-48.082221128774513
 31
0.0
  0
LINE
  8
DETAIL
  6
CONTINUOUS
 62
     5
 10
-295.03708751783859
 20
-48.082221128774513
 30
0.0
 11
-295.03847768293463
 21
-48.091844004282962
 31
0.0
  0
LINE
  8
DETAIL
  6
CONTINUOUS
 62
     5
 10
-295.03847768293463
 20
-48.091844004282962
 30
0.0
 11
-295.03847768293463
 21
-48.091844004282962
 31
0.0
  0
LINE
  8
DETAIL
  6
CONTINUOUS
 62
     5
 10
-295.03847768293463
 20
-48.091844004282962
 30
0.0
 11
-295.03979172773307
 21
-48.101473588763668
 31
0.0
  0
LINE
  8
DETAIL
  6
CONTINUOUS
 62
     5
 10
-295.03979172773307
 20
-48.101473588763668
 30
0.0
 11
-295.04103875974852
 21
-48.111108858684638
 31
0.0
  0
LINE
  8
DETAIL
  6
CONTINUOUS
 62
     5
 10
-295.04103875974852
 20
-48.111108858684638
 30
0.0
 11
-295.04103875974852
 21
-48.111108858684638
 31
0.0
  0
LINE
  8
DETAIL
  6
CONTINUOUS
 62
     5
 10
-295.04103875974852
 20
-48.111108858684638
 30
0.0
 11
-295.04223072089178
 21
-48.120748494307179
 31
0.0
  0
LINE
  8
DETAIL
  6
CONTINUOUS
 62
     5
 10
-295.04223072089178
 20
-48.120748494307179
 30
0.0
 11
-295.04337955306721
 21
-48.130391175726167
 31
0.0
  0
LINE
  8
DETAIL
  6
CONTINUOUS
 62
     5
 10
-295.04337955306721
 20
-48.130391175726167
 30
0.0
 11
-295.04337955306721
 21
-48.130391175726167
 31
0.0
  0
LINE
  8
DETAIL
  6
CONTINUOUS
 62
     5
 10
-295.04337955306721
 20
-48.130391175726167
 30
0.0
 11
-295.04449719818388
 21
-48.140035583150393
 31
0.0
  0
LINE
  8
DETAIL
  6
CONTINUOUS
 62
     5
 10
-295.04449719818388
 20
-48.140035583150393
 30
0.0
 11
-295.04559559817818
 21
-48.14968039741143
 31
0.0
  0
LINE
  8
DETAIL
  6
CONTINUOUS
 62
     5
 10
-295.04559559817818
 20
-48.14968039741143
 30
0.0
 11
-295.04559559817818
 21
-48.14968039741143
 31
0.0
  0
LINE
  8
DETAIL
  6
CONTINUOUS
 62
     5
 10
-295.04559559817818
 20
-48.14968039741143
 30
0.0
 11
-295.04668669496772
 21
-48.159324298915237
 31
0.0
  0
LINE
  8
DETAIL
  6
CONTINUOUS
 62
     5
 10
-295.04668669496772
 20
-48.159324298915237
 30
0.0
 11
-295.04778243036662
 21
-48.168965965743439
 31
0.0
  0
LINE
  8
DETAIL
  6
CONTINUOUS
 62
     5
 10
-295.04778243036662
 20
-48.168965965743439
 30
0.0
 11
-295.04778243036662
 21
-48.168965965743439
 31
0.0
  0
LINE
  8
DETAIL
  6
CONTINUOUS
 62
     5
 10
-295.04778243036662
 20
-48.168965965743439
 30
0.0
 11
-295.04889474625912
 21
-48.178604077565183
 31
0.0
  0
LINE
  8
DETAIL
  6
CONTINUOUS
 62
     5
 10
-295.04889474625912
 20
-48.178604077565183
 30
0.0
 11
-295.05003558491887
 21
-48.188237322725968
 31
0.0
  0
LINE
  8
DETAIL
  6
CONTINUOUS
 62
     5
 10
-295.05003558491887
 20
-48.188237322725968
 30
0.0
 11
-295.05003558491887
 21
-48.188237322725968
 31
0.0
  0
LINE
  8
DETAIL
  6
CONTINUOUS
 62
     5
 10
-295.05003558491887
 20
-48.188237322725968
 30
0.0
 11
-295.05121284191239
 21
-48.197865002879148
 31
0.0
  0
LINE
  8
DETAIL
  6
CONTINUOUS
 62
     5
 10
-295.05121284191239
 20
-48.197865002879148
 30
0.0
 11
-295.05241822559401
 21
-48.20748886423587
 31
0.0
  0
LINE
  8
DETAIL
  6
CONTINUOUS
 62
     5
 10
-295.05241822559401
 20
-48.20748886423587
 30
0.0
 11
-295.05241822559401
 21
-48.20748886423587
 31
0.0
  0
LINE
  8
DETAIL
  6
CONTINUOUS
 62
     5
 10
-295.05241822559401
 20
-48.20748886423587
 30
0.0
 11
-295.05363939886598
 21
-48.2171112943563
 31
0.0
  0
LINE
  8
DETAIL
  6
CONTINUOUS
 62
     5
 10
-295.05363939886598
 20
-48.2171112943563
 30
0.0
 11
-295.05486403004198
 21
-48.226734801641733
 31
0.0
  0
LINE
  8
DETAIL
  6
CONTINUOUS
 62
     5
 10
-295.05486403004198
 20
-48.226734801641733
 30
0.0
 11
-295.05486403004198
 21
-48.226734801641733
 31
0.0
  0
LINE
  8
DETAIL
  6
CONTINUOUS
 62
     5
 10
-295.05486403004198
 20
-48.226734801641733
 30
0.0
 11
-295.05607978373928
 21
-48.236361811957352
 31
0.0
  0
LINE
  8
DETAIL
  6
CONTINUOUS
 62
     5
 10
-295.05607978373928
 20
-48.236361811957352
 30
0.0
 11
-295.05727430438708
 21
-48.245994300185536
 31
0.0
  0
LINE
  8
DETAIL
  6
CONTINUOUS
 62
     5
 10
-295.05727430438708
 20
-48.245994300185536
 30
0.0
 11
-295.05727430438708
 21
-48.245994300185536
 31
0.0
  0
LINE
  8
DETAIL
  6
CONTINUOUS
 62
     5
 10
-295.05727430438708
 20
-48.245994300185536
 30
0.0
 11
-295.05843525020288
 21
-48.255634549235651
 31
0.0
  0
LINE
  8
DETAIL
  6
CONTINUOUS
 62
     5
 10
-295.05843525020288
 20
-48.255634549235651
 30
0.0
 11
-295.05955035475131
 21
-48.265286525109047
 31
0.0
  0
LINE
  8
DETAIL
  6
CONTINUOUS
 62
     5
 10
-295.05955035475131
 20
-48.265286525109047
 30
0.0
 11
-295.05955035475131
 21
-48.265286525109047
 31
0.0
  0
LINE
  8
DETAIL
  6
CONTINUOUS
 62
     5
 10
-295.05955035475131
 20
-48.265286525109047
 30
0.0
 11
-295.0606073001336
 21
-48.274953044233882
 31
0.0
  0
LINE
  8
DETAIL
  6
CONTINUOUS
 62
     5
 10
-295.0606073001336
 20
-48.274953044233882
 30
0.0
 11
-295.06159348725879
 21
-48.284630641654303
 31
0.0
  0
LINE
  8
DETAIL
  6
CONTINUOUS
 62
     5
 10
-295.06159348725879
 20
-48.284630641654303
 30
0.0
 11
-295.06159348725879
 21
-48.284630641654303
 31
0.0
  0
LINE
  8
DETAIL
  6
CONTINUOUS
 62
     5
 10
-295.06159348725879
 20
-48.284630641654303
 30
0.0
 11
-295.06249971481878
 21
-48.294319501659118
 31
0.0
  0
LINE
  8
DETAIL
  6
CONTINUOUS
 62
     5
 10
-295.06249971481878
 20
-48.294319501659118
 30
0.0
 11
-295.06333065382597
 21
-48.304040686902738
 31
0.0
  0
LINE
  8
DETAIL
  6
CONTINUOUS
 62
     5
 10
-295.06333065382597
 20
-48.304040686902738
 30
0.0
 11
-295.06333065382597
 21
-48.304040686902738
 31
0.0
  0
LINE
  8
DETAIL
  6
CONTINUOUS
 62
     5
 10
-295.06333065382597
 20
-48.304040686902738
 30
0.0
 11
-295.06409346424817
 21
-48.313798607531233
 31
0.0
  0
LINE
  8
DETAIL
  6
CONTINUOUS
 62
     5
 10
-295.06409346424817
 20
-48.313798607531233
 30
0.0
 11
-295.06479138954421
 21
-48.323510185292953
 31
0.0
  0
LINE
  8
DETAIL
  6
CONTINUOUS
 62
     5
 10
-295.06479138954421
 20
-48.323510185292953
 30
0.0
 11
-295.06479138954421
 21
-48.323510185292953
 31
0.0
  0
LINE
  8
DETAIL
  6
CONTINUOUS
 62
     5
 10
-295.06479138954421
 20
-48.323510185292953
 30
0.0
 11
-295.06543034819731
 21
-48.333152097622992
 31
0.0
  0
LINE
  8
DETAIL
  6
CONTINUOUS
 62
     5
 10
-295.06543034819731
 20
-48.333152097622992
 30
0.0
 11
-295.06603087529697
 21
-48.343027533102997
 31
0.0
  0
LINE
  8
DETAIL
  6
CONTINUOUS
 62
     5
 10
-295.06603087529697
 20
-48.343027533102997
 30
0.0
 11
-295.06603087529697
 21
-48.343027533102997
 31
0.0
  0
LINE
  8
DETAIL
  6
CONTINUOUS
 62
     5
 10
-295.06603087529697
 20
-48.343027533102997
 30
0.0
 11
-295.06660352260491
 21
-48.353216669054007
 31
0.0
  0
LINE
  8
DETAIL
  6
CONTINUOUS
 62
     5
 10
-295.06660352260491
 20
-48.353216669054007
 30
0.0
 11
-295.06710429196801
 21
-48.362581126610962
 31
0.0
  0
LINE
  8
DETAIL
  6
CONTINUOUS
 62
     5
 10
-295.06710429196801
 20
-48.362581126610962
 30
0.0
 11
-295.06710429196801
 21
-48.362581126610962
 31
0.0
  0
LINE
  8
DETAIL
  6
CONTINUOUS
 62
     5
 10
-295.06710429196801
 20
-48.362581126610962
 30
0.0
 11
-295.06752644351758
 21
-48.370814816261941
 31
0.0
  0
LINE
  8
DETAIL
  6
CONTINUOUS
 62
     5
 10
-295.06752644351758
 20
-48.370814816261941
 30
0.0
 11
-295.06806682044248
 21
-48.382159362095251
 31
0.0
  0
LINE
  8
DETAIL
  6
CONTINUOUS
 62
     5
 10
-295.06806682044248
 20
-48.382159362095251
 30
0.0
 11
-295.06806682044248
 21
-48.382159362095251
 31
0.0
  0
LINE
  8
DETAIL
  6
CONTINUOUS
 62
     5
 10
-295.06806682044248
 20
-48.382159362095251
 30
0.0
 11
-295.06888869882692
 21
-48.400200938576518
 31
0.0
  0
LINE
  8
DETAIL
  6
CONTINUOUS
 62
     5
 10
-295.06888869882692
 20
-48.400200938576518
 30
0.0
 11
-295.06981750328572
 21
-48.421356208083857
 31
0.0
  0
LINE
  8
DETAIL
  6
CONTINUOUS
 62
     5
 10
-295.06981750328572
 20
-48.421356208083857
 30
0.0
 11
-295.06981750328572
 21
-48.421356208083857
 31
0.0
  0
LINE
  8
DETAIL
  6
CONTINUOUS
 62
     5
 10
-295.06981750328572
 20
-48.421356208083857
 30
0.0
 11
-295.07065075409491
 21
-48.441385029671487
 31
0.0
  0
LINE
  8
DETAIL
  6
CONTINUOUS
 62
     5
 10
-295.07065075409491
 20
-48.441385029671487
 30
0.0
 11
-295.07141220565052
 21
-48.460589561190368
 31
0.0
  0
LINE
  8
DETAIL
  6
CONTINUOUS
 62
     5
 10
-295.07141220565052
 20
-48.460589561190368
 30
0.0
 11
-295.07141220565052
 21
-48.460589561190368
 31
0.0
  0
LINE
  8
DETAIL
  6
CONTINUOUS
 62
     5
 10
-295.07141220565052
 20
-48.460589561190368
 30
0.0
 11
-295.07216677257969
 21
-48.480103421602053
 31
0.0
  0
LINE
  8
DETAIL
  6
CONTINUOUS
 62
     5
 10
-295.07216677257969
 20
-48.480103421602053
 30
0.0
 11
-295.07291777631042
 21
-48.499843775516467
 31
0.0
  0
LINE
  8
DETAIL
  6
CONTINUOUS
 62
     5
 10
-295.07291777631042
 20
-48.499843775516467
 30
0.0
 11
-295.07291777631042
 21
-48.499843775516467
 31
0.0
  0
LINE
  8
DETAIL
  6
CONTINUOUS
 62
     5
 10
-295.07291777631042
 20
-48.499843775516467
 30
0.0
 11
-295.07365817463989
 21
-48.519504553607931
 31
0.0
  0
LINE
  8
DETAIL
  6
CONTINUOUS
 62
     5
 10
-295.07365817463989
 20
-48.519504553607931
 30
0.0
 11
-295.07440106403868
 21
-48.539103205162689
 31
0.0
  0
LINE
  8
DETAIL
  6
CONTINUOUS
 62
     5
 10
-295.07440106403868
 20
-48.539103205162689
 30
0.0
 11
-295.07440106403868
 21
-48.539103205162689
 31
0.0
  0
LINE
  8
DETAIL
  6
CONTINUOUS
 62
     5
 10
-295.07440106403868
 20
-48.539103205162689
 30
0.0
 11
-295.07515983527207
 21
-48.558718654095912
 31
0.0
  0
LINE
  8
DETAIL
  6
CONTINUOUS
 62
     5
 10
-295.07515983527207
 20
-48.558718654095912
 30
0.0
 11
-295.07592891760942
 21
-48.578352204230377
 31
0.0
  0
ARC
  8
DETAIL
  6
CONTINUOUS
 62
     5
 10
-1.502423263328126
 20
308.4975767366721
 30
0.0
 40
1.5024232633279551
 50
0.0
 51
180.0
  0
ARC
  8
DETAIL
  6
CONTINUOUS
 62
     5
 10
-13.02100161550919
 20
204.13328774527551
 30
0.0
 40
3.0048465266558821
 50
270.0
 51
0.0
  0
ARC
  8
DETAIL
  6
CONTINUOUS
 62
     5
 10
-6.4103392568662798
 20
303.38933764135709
 30
0.0
 40
3.605815831987059
 50
90.0
 51
180.0
  0
ARC
  8
DETAIL
  6
CONTINUOUS
 62
     5
 10
-6.4103392568662798
 20
239.3093233765388
 30
0.0
 40
3.605815831987087
 50
90.0
 51
180.0
  0
ARC
  8
DETAIL
  6
CONTINUOUS
 62
     5
 10
-16.42649434571916
 20
293.37318255250398
 30
0.0
 40
3.6058158319870022
 50
90.0
 51
180.0
  0
ARC
  8
DETAIL
  6
CONTINUOUS
 62
     5
 10
-16.42649434571916
 20
197.52262538663271
 30
0.0
 40
3.605815831987059
 50
90.0
 51
180.0
  0
ARC
  8
DETAIL
  6
CONTINUOUS
 62
     5
 10
-82.449499170931119
 20
293.45581583198719
 30
0.0
 40
2.0032310177706449
 50
0.0
 51
180.0
  0
ARC
  8
DETAIL
  6
CONTINUOUS
 62
     5
 10
-132.57647624868849
 20
-11.21809369951529
 30
0.0
 40
1.0016155088853731
 50
45.000280191587109
 51
48.390877060600452
  0
ARC
  8
DETAIL
  6
CONTINUOUS
 62
     5
 10
-132.57647624868849
 20
11.218093699515411
 30
0.0
 40
1.00161550888535
 50
311.60912293929567
 51
314.99971980800763
  0
ARC
  8
DETAIL
  6
CONTINUOUS
 62
     5
 10
-128.39275016929079
 20
-11.71890145395804
 30
0.0
 40
1.6025848142163861
 50
225.00028019110809
 51
262.29929887540919
  0
ARC
  8
DETAIL
  6
CONTINUOUS
 62
     5
 10
-128.39275016929079
 20
11.71890145395804
 30
0.0
 40
1.60258481421649
 50
97.700701124590736
 51
134.99971980920509
  0
ARC
  8
DETAIL
  6
CONTINUOUS
 62
     5
 10
-94.151857835218323
 20
-21.03392568659126
 30
0.0
 40
2.0032310177707018
 50
0.0000011907964159
 51
90.0
  0
ARC
  8
DETAIL
  6
CONTINUOUS
 62
     5
 10
-135.51857835218121
 20
-13.02100161550891
 30
0.0
 40
3.6058158319870279
 50
329.49355947689889
 51
0.0
  0
ARC
  8
DETAIL
  6
CONTINUOUS
 62
     5
 10
-135.51857835218121
 20
13.021001615508849
 30
0.0
 40
3.6058158319871438
 50
0.0
 51
30.506440523101091
  0
ARC
  8
DETAIL
  6
CONTINUOUS
 62
     5
 10
-119.56679039293201
 20
-20.231494067625931
 30
0.0
 40
5.008077544426456
 50
274.99999999999972
 51
355.00000000000023
  0
ARC
  8
DETAIL
  6
CONTINUOUS
 62
     5
 10
-119.56679039293201
 20
20.23149406684956
 30
0.0
 40
5.0080775444264951
 50
4.9999999999998126
 51
85.000000000000256
  0
ARC
  8
DETAIL
  6
CONTINUOUS
 62
     5
 10
-139.8255250403881
 20
-57.893376413570373
 30
0.0
 40
7.4119547657512017
 50
270.0
 51
0.0
  0
ARC
  8
DETAIL
  6
CONTINUOUS
 62
     5
 10
-139.8255250403881
 20
57.893376413570252
 30
0.0
 40
7.4119547657512319
 50
0.0
 51
90.0
  0
ARC
  8
DETAIL
  6
CONTINUOUS
 62
     5
 10
-1.502423263328126
 20
-308.49757673667222
 30
0.0
 40
1.5024232633279551
 50
180.0
 51
0.0
  0
ARC
  8
DETAIL
  6
CONTINUOUS
 62
     5
 10
-82.449499170931119
 20
-293.45581583198702
 30
0.0
 40
2.0032310177707018
 50
180.0
 51
0.0
  0
ARC
  8
DETAIL
  6
CONTINUOUS
 62
     5
 10
-13.02100161550919
 20
-204.1332877460521
 30
0.0
 40
3.004846526655911
 50
0.0
 51
90.0
  0
ARC
  8
DETAIL
  6
CONTINUOUS
 62
     5
 10
-16.42649434571916
 20
-293.37318255250398
 30
0.0
 40
3.6058158319871718
 50
180.0
 51
270.0
  0
ARC
  8
DETAIL
  6
CONTINUOUS
 62
     5
 10
-16.42649434571916
 20
-197.52262538740911
 30
0.0
 40
3.6058158319871718
 50
180.0
 51
270.0
  0
ARC
  8
DETAIL
  6
CONTINUOUS
 62
     5
 10
-6.4103392568662798
 20
-303.3893376413568
 30
0.0
 40
3.6058158319871718
 50
180.0
 51
270.0
  0
ARC
  8
DETAIL
  6
CONTINUOUS
 62
     5
 10
-6.4103392568662798
 20
-239.30932337731531
 30
0.0
 40
3.6058158319871718
 50
180.0
 51
270.0
  0
ARC
  8
DETAIL
  6
CONTINUOUS
 62
     5
 10
-288.54289176090492
 20
-48.578352180936967
 30
0.0
 40
6.5330371567043866
 50
133.89739816711031
 51
226.10260183288969
  0
ARC
  8
DETAIL
  6
CONTINUOUS
 62
     5
 10
-285.15993537964488
 20
-57.893376413570373
 30
0.0
 40
7.4119547657512017
 50
180.0
 51
270.0
  0
ARC
  8
DETAIL
  6
CONTINUOUS
 62
     5
 10
-285.15993537964488
 20
57.893376413570252
 30
0.0
 40
7.4119547657512124
 50
90.0
 51
180.0
  0
LINE
  8
DETAIL
  6
CONTINUOUS
 62
     5
 10
-6.4103392568662798
 20
306.99515347334409
 30
0.0
 11
-3.004846526656308
 21
306.99515347334409
 31
0.0
  0
LINE
  8
DETAIL
  6
CONTINUOUS
 62
     5
 10
-3.004846526656308
 20
303.82456339745278
 30
0.0
 11
-4.6496850470504683
 21
303.82456339745278
 31
0.0
  0
LINE
  8
DETAIL
  6
CONTINUOUS
 62
     5
 10
-16.42649434571916
 20
296.97899838449109
 30
0.0
 11
-13.221324717286221
 21
296.97899838449109
 31
0.0
  0
LINE
  8
DETAIL
  6
CONTINUOUS
 62
     5
 10
-158.2552504038776
 20
261.32961628886301
 30
0.0
 11
-13.221324717286221
 21
261.32961628886301
 31
0.0
  0
LINE
  8
DETAIL
  6
CONTINUOUS
 62
     5
 10
-13.221324717286221
 20
257.08012157753831
 30
0.0
 11
-158.2552504038776
 21
257.08012157753831
 31
0.0
  0
LINE
  8
DETAIL
  6
CONTINUOUS
 62
     5
 10
-5.5233422635990337
 20
254.24995064824259
 30
0.0
 11
-3.004846526656308
 21
254.24712510435691
 31
0.0
  0
LINE
  8
DETAIL
  6
CONTINUOUS
 62
     5
 10
-3.004846526656308
 20
242.915139208526
 30
0.0
 11
-6.4103392568662798
 21
242.915139208526
 31
0.0
  0
LINE
  8
DETAIL
  6
CONTINUOUS
 62
     5
 10
-13.221324717286221
 20
235.9494849124745
 30
0.0
 11
-16.7804833088382
 21
235.9494849124745
 31
0.0
  0
LINE
  8
DETAIL
  6
CONTINUOUS
 62
     5
 10
-13.221324717286221
 20
233.05806999428941
 30
0.0
 11
-16.7804833088382
 21
233.05806999428941
 31
0.0
  0
LINE
  8
DETAIL
  6
CONTINUOUS
 62
     5
 10
-158.2552504038776
 20
230.16665507610429
 30
0.0
 11
-17.227786752827509
 21
230.16665507610429
 31
0.0
  0
LINE
  8
DETAIL
  6
CONTINUOUS
 62
     5
 10
-13.221324717286221
 20
227.27524015714269
 30
0.0
 11
-16.7804833088382
 21
227.27524015714269
 31
0.0
  0
LINE
  8
DETAIL
  6
CONTINUOUS
 62
     5
 10
-13.221324717286221
 20
224.3838252389576
 30
0.0
 11
-16.7804833088382
 21
224.3838252389576
 31
0.0
  0
LINE
  8
DETAIL
  6
CONTINUOUS
 62
     5
 10
-13.221324717286221
 20
213.1686762323578
 30
0.0
 11
-10.016155088853511
 21
213.1686762323578
 31
0.0
  0
LINE
  8
DETAIL
  6
CONTINUOUS
 62
     5
 10
-13.02100161550919
 20
201.12844121861971
 30
0.0
 11
-16.42649434571916
 21
201.12844121861971
 31
0.0
  0
LINE
  8
DETAIL
  6
CONTINUOUS
 62
     5
 10
-197.81906300484701
 20
95.738626136604523
 30
0.0
 11
-177.28594507269821
 21
95.738626136604523
 31
0.0
  0
LINE
  8
DETAIL
  6
CONTINUOUS
 62
     5
 10
-225.36348949919261
 20
95.738626136604523
 30
0.0
 11
-204.83037156704401
 21
95.738626136604523
 31
0.0
  0
LINE
  8
DETAIL
  6
CONTINUOUS
 62
     5
 10
-266.42972536348998
 20
94.652665589660785
 30
0.0
 11
-270.43618739903098
 21
94.652665589660785
 31
0.0
  0
LINE
  8
DETAIL
  6
CONTINUOUS
 62
     5
 10
-197.81906300484701
 20
81.605500136429157
 30
0.0
 11
-177.28594507269821
 21
81.605500136429157
 31
0.0
  0
LINE
  8
DETAIL
  6
CONTINUOUS
 62
     5
 10
-225.36348949919261
 20
81.605500136429157
 30
0.0
 11
-204.83037156704401
 21
81.605500136429157
 31
0.0
  0
LINE
  8
DETAIL
  6
CONTINUOUS
 62
     5
 10
-177.28594507269821
 20
65.305331179321513
 30
0.0
 11
-139.8255250403881
 21
65.305331179321513
 31
0.0
  0
LINE
  8
DETAIL
  6
CONTINUOUS
 62
     5
 10
-285.15993537964488
 20
65.305331179321513
 30
0.0
 11
-270.43618739903098
 21
65.305331179321513
 31
0.0
  0
LINE
  8
DETAIL
  6
CONTINUOUS
 62
     5
 10
-16.7804833088382
 20
224.3838252389576
 30
0.0
 11
-17.227786752827509
 21
225.15857753167779
 31
0.0
  0
LINE
  8
DETAIL
  6
CONTINUOUS
 62
     5
 10
-228.36833602584849
 20
63.549721702295471
 30
0.0
 11
-225.36348949919261
 21
63.549721702295471
 31
0.0
  0
LINE
  8
DETAIL
  6
CONTINUOUS
 62
     5
 10
-225.36348949919261
 20
62.05286090991973
 30
0.0
 11
-219.4344831694784
 21
62.05286090991973
 31
0.0
  0
LINE
  8
DETAIL
  6
CONTINUOUS
 62
     5
 10
-225.36348949919261
 20
58.294021516123912
 30
0.0
 11
-219.4344831694784
 21
58.294021516123912
 31
0.0
  0
LINE
  8
DETAIL
  6
CONTINUOUS
 62
     5
 10
-215.64781906300519
 20
57.790432526205052
 30
0.0
 11
-218.85298869143821
 21
57.790432526205052
 31
0.0
  0
LINE
  8
DETAIL
  6
CONTINUOUS
 62
     5
 10
-197.81906300484701
 20
55.490888453144009
 30
0.0
 11
-177.28594507269821
 21
55.490888453144009
 31
0.0
  0
LINE
  8
DETAIL
  6
CONTINUOUS
 62
     5
 10
-225.36348949919261
 20
55.490888453144009
 30
0.0
 11
-204.83037156704401
 21
55.490888453144009
 31
0.0
  0
LINE
  8
DETAIL
  6
CONTINUOUS
 62
     5
 10
-197.81906300484701
 20
38.000385587131007
 30
0.0
 11
-204.83037156704401
 21
38.000385587131007
 31
0.0
  0
LINE
  8
DETAIL
  6
CONTINUOUS
 62
     5
 10
-128.60743134087281
 20
26.049655247398281
 30
0.0
 11
-119.13030767459431
 21
25.220514363702421
 31
0.0
  0
LINE
  8
DETAIL
  6
CONTINUOUS
 62
     5
 10
-197.81906300484701
 20
21.37050398504709
 30
0.0
 11
-177.28594507269821
 21
21.37050398504709
 31
0.0
  0
LINE
  8
DETAIL
  6
CONTINUOUS
 62
     5
 10
-225.36348949919261
 20
21.37050398504709
 30
0.0
 11
-204.83037156704401
 21
21.37050398504709
 31
0.0
  0
LINE
  8
DETAIL
  6
CONTINUOUS
 62
     5
 10
-103.03624836169909
 20
10.53135295082097
 30
0.0
 11
-103.6672051696289
 21
10.53135295082097
 31
0.0
  0
LINE
  8
DETAIL
  6
CONTINUOUS
 62
     5
 10
-114.084006462036
 20
8.5137318255249852
 30
0.0
 11
-103.6672051696289
 21
8.5137318255249852
 31
0.0
  0
LINE
  8
DETAIL
  6
CONTINUOUS
 62
     5
 10
-114.084006462036
 20
-8.513731825525042
 30
0.0
 11
-103.6672051696289
 21
-8.513731825525042
 31
0.0
  0
LINE
  8
DETAIL
  6
CONTINUOUS
 62
     5
 10
-103.6672051696289
 20
-13.84378721541367
 30
0.0
 11
-101.6639741518583
 21
-13.84378721541367
 31
0.0
  0
LINE
  8
DETAIL
  6
CONTINUOUS
 62
     5
 10
-101.6639741518583
 20
-13.867168484502431
 30
0.0
 11
-103.6672051696289
 21
-13.867168484502431
 31
0.0
  0
LINE
  8
DETAIL
  6
CONTINUOUS
 62
     5
 10
-101.6639741518583
 20
-14.02261712439412
 30
0.0
 11
-99.159935379644992
 21
-14.02261712439412
 31
0.0
  0
LINE
  8
DETAIL
  6
CONTINUOUS
 62
     5
 10
-98.158319890170731
 20
-19.030694668820669
 30
0.0
 11
-94.151857835218323
 21
-19.030694668820669
 31
0.0
  0
LINE
  8
DETAIL
  6
CONTINUOUS
 62
     5
 10
-197.81906300484701
 20
-21.370503985823628
 30
0.0
 11
-177.28594507269821
 21
-21.370503985823628
 31
0.0
  0
LINE
  8
DETAIL
  6
CONTINUOUS
 62
     5
 10
-225.36348949919261
 20
-21.370503985823628
 30
0.0
 11
-204.83037156704401
 21
-21.370503985823628
 31
0.0
  0
LINE
  8
DETAIL
  6
CONTINUOUS
 62
     5
 10
-92.148626817447564
 20
-23.037156704361848
 30
0.0
 11
-88.756220624247646
 21
-23.037156704361848
 31
0.0
  0
LINE
  8
DETAIL
  6
CONTINUOUS
 62
     5
 10
-128.60743134087281
 20
-26.049655248174759
 30
0.0
 11
-119.13030767459431
 21
-25.220514364478898
 31
0.0
  0
LINE
  8
DETAIL
  6
CONTINUOUS
 62
     5
 10
-293.07269789983889
 20
-43.870759289176021
 30
0.0
 11
-292.57189014539608
 21
-43.870759289176021
 31
0.0
  0
LINE
  8
DETAIL
  6
CONTINUOUS
 62
     5
 10
-293.07269789983889
 20
-53.285945072697977
 30
0.0
 11
-292.57189014539608
 21
-53.285945072697977
 31
0.0
  0
LINE
  8
DETAIL
  6
CONTINUOUS
 62
     5
 10
-197.81906300484701
 20
-55.490888453920377
 30
0.0
 11
-177.28594507269821
 21
-55.490888453920377
 31
0.0
  0
LINE
  8
DETAIL
  6
CONTINUOUS
 62
     5
 10
-225.36348949919261
 20
-55.490888453920377
 30
0.0
 11
-204.83037156704401
 21
-55.490888453920377
 31
0.0
  0
LINE
  8
DETAIL
  6
CONTINUOUS
 62
     5
 10
-215.64781906300519
 20
-57.790432526981419
 30
0.0
 11
-218.85298869143821
 21
-57.790432526981419
 31
0.0
  0
LINE
  8
DETAIL
  6
CONTINUOUS
 62
     5
 10
-225.36348949919261
 20
-58.294021516900273
 30
0.0
 11
-219.4344831694784
 21
-58.294021516900273
 31
0.0
  0
LINE
  8
DETAIL
  6
CONTINUOUS
 62
     5
 10
-225.36348949919261
 20
-62.052860910696211
 30
0.0
 11
-219.4344831694784
 21
-62.052860910696211
 31
0.0
  0
LINE
  8
DETAIL
  6
CONTINUOUS
 62
     5
 10
-177.28594507269821
 20
-65.305331179321513
 30
0.0
 11
-139.8255250403881
 21
-65.305331179321513
 31
0.0
  0
LINE
  8
DETAIL
  6
CONTINUOUS
 62
     5
 10
-285.15993537964488
 20
-65.305331179321513
 30
0.0
 11
-270.43618739903098
 21
-65.305331179321513
 31
0.0
  0
LINE
  8
DETAIL
  6
CONTINUOUS
 62
     5
 10
-197.81906300484701
 20
-81.605500137205524
 30
0.0
 11
-177.28594507269821
 21
-81.605500137205524
 31
0.0
  0
LINE
  8
DETAIL
  6
CONTINUOUS
 62
     5
 10
-225.36348949919261
 20
-81.605500137205524
 30
0.0
 11
-204.83037156704401
 21
-81.605500137205524
 31
0.0
  0
LINE
  8
DETAIL
  6
CONTINUOUS
 62
     5
 10
-0.0000000000001705
 20
-308.49757673667222
 30
0.0
 11
-0.0000000000001705
 21
308.4975767366721
 31
0.0
  0
LINE
  8
DETAIL
  6
CONTINUOUS
 62
     5
 10
-3.004846526656308
 20
-308.49757673667222
 30
0.0
 11
-3.004846526656308
 21
308.4975767366721
 31
0.0
  0
LINE
  8
DETAIL
  6
CONTINUOUS
 62
     5
 10
-3.80613893376443
 20
256.36215952694403
 30
0.0
 11
-3.80613893376443
 21
303.82456339745278
 31
0.0
  0
LINE
  8
DETAIL
  6
CONTINUOUS
 62
     5
 10
-3.80613893376443
 20
-303.82456339822909
 30
0.0
 11
-3.80613893376443
 21
-256.36215952772022
 31
0.0
  0
LINE
  8
DETAIL
  6
CONTINUOUS
 62
     5
 10
-10.016155088853511
 20
239.3093233765388
 30
0.0
 11
-10.016155088853511
 21
247.4334543026637
 31
0.0
  0
LINE
  8
DETAIL
  6
CONTINUOUS
 62
     5
 10
-10.016155088853511
 20
-239.30932337731531
 30
0.0
 11
-10.016155088853511
 21
239.3093233765388
 31
0.0
  0
LINE
  8
DETAIL
  6
CONTINUOUS
 62
     5
 10
-10.016155088853511
 20
-303.3893376413568
 30
0.0
 11
-10.016155088853511
 21
-301.7449376818073
 31
0.0
  0
LINE
  8
DETAIL
  6
CONTINUOUS
 62
     5
 10
-10.016155088853511
 20
-239.30932337731531
 30
0.0
 11
-10.016155088853511
 21
-247.4334543034401
 31
0.0
  0
LINE
  8
DETAIL
  6
CONTINUOUS
 62
     5
 10
-10.016155088853511
 20
303.38933764135709
 30
0.0
 11
-10.016155088853511
 21
301.74493768103099
 31
0.0
  0
LINE
  8
DETAIL
  6
CONTINUOUS
 62
     5
 10
-13.221324717286221
 20
255.35998548619301
 30
0.0
 11
-13.221324717286221
 21
297.01089259575963
 31
0.0
  0
LINE
  8
DETAIL
  6
CONTINUOUS
 62
     5
 10
-13.221324717286221
 20
251.1037368418931
 30
0.0
 11
-13.221324717286221
 21
255.35998548619301
 31
0.0
  0
LINE
  8
DETAIL
  6
CONTINUOUS
 62
     5
 10
-13.221324717286221
 20
213.1686762323578
 30
0.0
 11
-13.221324717286221
 21
251.1037368418931
 31
0.0
  0
LINE
  8
DETAIL
  6
CONTINUOUS
 62
     5
 10
-13.221324717286221
 20
-251.10373684266941
 30
0.0
 11
-13.221324717286221
 21
-213.16867623313411
 31
0.0
  0
LINE
  8
DETAIL
  6
CONTINUOUS
 62
     5
 10
-13.221324717286221
 20
-297.01089259653588
 30
0.0
 11
-13.221324717286221
 21
-255.35998548696961
 31
0.0
  0
LINE
  8
DETAIL
  6
CONTINUOUS
 62
     5
 10
-13.221324717286221
 20
-251.10373684266941
 30
0.0
 11
-13.221324717286221
 21
-255.35998548696961
 31
0.0
  0
LINE
  8
DETAIL
  6
CONTINUOUS
 62
     5
 10
-17.227786752827509
 20
225.15857753167779
 30
0.0
 11
-17.227786752827509
 21
235.1747326205307
 31
0.0
  0
LINE
  8
DETAIL
  6
CONTINUOUS
 62
     5
 10
-17.227786752827509
 20
-266.33769383406582
 30
0.0
 11
-17.227786752827509
 21
-261.32961628963938
 31
0.0
  0
LINE
  8
DETAIL
  6
CONTINUOUS
 62
     5
 10
-20.032310177706389
 20
261.32961628886301
 30
0.0
 11
-20.032310177706389
 21
293.37318255250398
 31
0.0
  0
LINE
  8
DETAIL
  6
CONTINUOUS
 62
     5
 10
-20.032310177706389
 20
-230.1666550768806
 30
0.0
 11
-20.032310177706389
 21
230.16665507610429
 31
0.0
  0
LINE
  8
DETAIL
  6
CONTINUOUS
 62
     5
 10
-20.032310177706389
 20
-293.37318255250398
 30
0.0
 11
-20.032310177706389
 21
-261.32961628963938
 31
0.0
  0
LINE
  8
DETAIL
  6
CONTINUOUS
 62
     5
 10
-20.533117932148741
 20
-291.97092084006442
 30
0.0
 11
-20.533117932148741
 21
-271.58034322716071
 31
0.0
  0
LINE
  8
DETAIL
  6
CONTINUOUS
 62
     5
 10
-99.159939182677988
 20
-18.02908298160321
 30
0.0
 11
-98.158323904397491
 21
-19.030698683047088
 31
0.0
  0
LINE
  8
DETAIL
  6
CONTINUOUS
 62
     5
 10
-270.43618739903098
 20
-94.652665589660671
 30
0.0
 11
-266.42972536348998
 21
-94.652665589660671
 31
0.0
  0
LINE
  8
DETAIL
  6
CONTINUOUS
 62
     5
 10
-266.42972536348998
 20
-95.153473344103361
 30
0.0
 11
-269.43457189014578
 21
-95.153473344103361
 31
0.0
  0
LINE
  8
DETAIL
  6
CONTINUOUS
 62
     5
 10
-197.81906300484701
 20
-95.738626137380777
 30
0.0
 11
-177.28594507269821
 21
-95.738626137380777
 31
0.0
  0
LINE
  8
DETAIL
  6
CONTINUOUS
 62
     5
 10
-225.36348949919261
 20
-95.738626137380777
 30
0.0
 11
-204.83037156704401
 21
-95.738626137380777
 31
0.0
  0
LINE
  8
DETAIL
  6
CONTINUOUS
 62
     5
 10
-131.8682305937314
 20
-10.5098411178821
 30
0.0
 11
-129.52594321706701
 21
-12.852105585502949
 31
0.0
  0
LINE
  8
DETAIL
  6
CONTINUOUS
 62
     5
 10
-80.446268153160588
 20
261.32961628886301
 30
0.0
 11
-80.446268153160588
 21
293.45581583198719
 31
0.0
  0
LINE
  8
DETAIL
  6
CONTINUOUS
 62
     5
 10
-80.446268153160588
 20
-230.1666550768806
 30
0.0
 11
-80.446268153160588
 21
230.16665507610429
 31
0.0
  0
LINE
  8
DETAIL
  6
CONTINUOUS
 62
     5
 10
-80.446268153160588
 20
-293.45581583198702
 30
0.0
 11
-80.446268153160588
 21
-261.32961628963938
 31
0.0
  0
LINE
  8
DETAIL
  6
CONTINUOUS
 62
     5
 10
-84.452730188701651
 20
261.32961628886301
 30
0.0
 11
-84.452730188701651
 21
293.45581583198719
 31
0.0
  0
LINE
  8
DETAIL
  6
CONTINUOUS
 62
     5
 10
-84.452730188701651
 20
-230.1666550768806
 30
0.0
 11
-84.452730188701651
 21
230.16665507610429
 31
0.0
  0
LINE
  8
DETAIL
  6
CONTINUOUS
 62
     5
 10
-84.452730188701651
 20
-293.45581583198702
 30
0.0
 11
-84.452730188701651
 21
-261.32961628963938
 31
0.0
  0
LINE
  8
DETAIL
  6
CONTINUOUS
 62
     5
 10
-131.8682305937314
 20
10.509841117105619
 30
0.0
 11
-129.52594321706701
 21
12.852105584726591
 31
0.0
  0
LINE
  8
DETAIL
  6
CONTINUOUS
 62
     5
 10
-114.084006462036
 20
-15.024232633279439
 30
0.0
 11
-114.57777009530299
 21
-20.66797678518736
 31
0.0
  0
LINE
  8
DETAIL
  6
CONTINUOUS
 62
     5
 10
-92.148626817447564
 20
-15.364936243337009
 30
0.0
 11
-92.148626817447564
 21
-23.037100557989159
 31
0.0
  0
LINE
  8
DETAIL
  6
CONTINUOUS
 62
     5
 10
-98.15831992122861
 20
-19.030694668820669
 30
0.0
 11
-98.158319465454667
 21
-1.128725797230743
 31
0.0
  0
LINE
  8
DETAIL
  6
CONTINUOUS
 62
     5
 10
-99.159935379644992
 20
-18.028901465579569
 30
0.0
 11
-99.159935379644992
 21
0.9627012469200054
 31
0.0
  0
LINE
  8
DETAIL
  6
CONTINUOUS
 62
     5
 10
-101.6639741518583
 20
7.1007375971074111
 30
0.0
 11
-101.6639741518583
 21
-14.02261712439412
 31
0.0
  0
LINE
  8
DETAIL
  6
CONTINUOUS
 62
     5
 10
-103.6672051696289
 20
-13.843856684048999
 30
0.0
 11
-103.6672051696289
 21
10.53069329616409
 31
0.0
  0
LINE
  8
DETAIL
  6
CONTINUOUS
 62
     5
 10
-114.084006462036
 20
-15.024232633279439
 30
0.0
 11
-114.084006462036
 21
15.024232633279549
 31
0.0
  0
LINE
  8
DETAIL
  6
CONTINUOUS
 62
     5
 10
-114.084006462036
 20
15.024232633279549
 30
0.0
 11
-114.57777009530299
 21
20.667976785187481
 31
0.0
  0
LINE
  8
DETAIL
  6
CONTINUOUS
 62
     5
 10
-16.7804833088382
 20
-267.11244612600962
 30
0.0
 11
-17.227786752827509
 21
-266.33769383406582
 31
0.0
  0
LINE
  8
DETAIL
  6
CONTINUOUS
 62
     5
 10
-219.4344831694784
 20
62.05286090991973
 30
0.0
 11
-218.85298869143821
 21
61.045682930082251
 31
0.0
  0
LINE
  8
DETAIL
  6
CONTINUOUS
 62
     5
 10
-16.42649434571916
 20
-201.12844121939611
 30
0.0
 11
-13.02100161550919
 21
-201.12844121939611
 31
0.0
  0
LINE
  8
DETAIL
  6
CONTINUOUS
 62
     5
 10
-13.221324717286221
 20
-213.16867623313411
 30
0.0
 11
-10.016155088853511
 21
-213.16867623313411
 31
0.0
  0
LINE
  8
DETAIL
  6
CONTINUOUS
 62
     5
 10
-16.7804833088382
 20
235.9494849124745
 30
0.0
 11
-17.227786752827509
 21
235.1747326205307
 31
0.0
  0
LINE
  8
DETAIL
  6
CONTINUOUS
 62
     5
 10
-128.60743134087281
 20
-26.049655248174759
 30
0.0
 11
-128.60743134087281
 21
26.049655247398281
 31
0.0
  0
LINE
  8
DETAIL
  6
CONTINUOUS
 62
     5
 10
-131.91276252019421
 20
13.021001615508849
 30
0.0
 11
-131.91276252019421
 21
-13.02100161550891
 31
0.0
  0
LINE
  8
DETAIL
  6
CONTINUOUS
 62
     5
 10
-132.4135702746369
 20
57.893376413570252
 30
0.0
 11
-132.4135702746369
 21
-57.893376413570373
 31
0.0
  0
LINE
  8
DETAIL
  6
CONTINUOUS
 62
     5
 10
-13.221324717286221
 20
-230.1666550768806
 30
0.0
 11
-158.2552504038776
 21
-230.1666550768806
 31
0.0
  0
LINE
  8
DETAIL
  6
CONTINUOUS
 62
     5
 10
-6.4103392568662798
 20
-242.91513920930231
 30
0.0
 11
-3.004846526656308
 21
-242.91513920930231
 31
0.0
  0
LINE
  8
DETAIL
  6
CONTINUOUS
 62
     5
 10
-219.4344831694784
 20
-62.052860910696211
 30
0.0
 11
-218.85298869143821
 21
-61.045682930858852
 31
0.0
  0
LINE
  8
DETAIL
  6
CONTINUOUS
 62
     5
 10
-177.28594507269821
 20
-92.267265234073363
 30
0.0
 11
-177.28594507269821
 21
-95.738612144268643
 31
0.0
  0
LINE
  8
DETAIL
  6
CONTINUOUS
 62
     5
 10
-177.28594507269821
 20
-77.087058652390112
 30
0.0
 11
-177.28594507269821
 21
-81.605501167549562
 31
0.0
  0
LINE
  8
DETAIL
  6
CONTINUOUS
 62
     5
 10
-177.28594507269821
 20
-50.171046187198669
 30
0.0
 11
-177.28594507269821
 21
-55.490806218181383
 31
0.0
  0
LINE
  8
DETAIL
  6
CONTINUOUS
 62
     5
 10
-177.28594507269821
 20
-15.616946741606229
 30
0.0
 11
-177.28594507269821
 21
-35.49365505398805
 31
0.0
  0
LINE
  8
DETAIL
  6
CONTINUOUS
 62
     5
 10
-177.28594507269821
 20
10.462932374121809
 30
0.0
 11
-177.28594507269821
 21
-10.462932374898291
 31
0.0
  0
LINE
  8
DETAIL
  6
CONTINUOUS
 62
     5
 10
-177.28594507269821
 20
35.493655053211633
 30
0.0
 11
-177.28594507269821
 21
15.61694674082986
 31
0.0
  0
LINE
  8
DETAIL
  6
CONTINUOUS
 62
     5
 10
-177.28594507269821
 20
55.490853381848687
 30
0.0
 11
-177.28594507269821
 21
50.171046186422188
 31
0.0
  0
LINE
  8
DETAIL
  6
CONTINUOUS
 62
     5
 10
-177.28594507269821
 20
81.605531028114854
 30
0.0
 11
-177.28594507269821
 21
77.087058652389999
 31
0.0
  0
LINE
  8
DETAIL
  6
CONTINUOUS
 62
     5
 10
-177.28594507269821
 20
95.7386232202727
 30
0.0
 11
-177.28594507269821
 21
92.26726523329711
 31
0.0
  0
LINE
  8
DETAIL
  6
CONTINUOUS
 62
     5
 10
-5.5266249186507252
 20
-254.24712510435671
 30
0.0
 11
-3.004846526656308
 21
-254.2471251043568
 31
0.0
  0
LINE
  8
DETAIL
  6
CONTINUOUS
 62
     5
 10
-158.2552504038776
 20
-257.08012157831467
 30
0.0
 11
-13.221324717286221
 21
-257.08012157831467
 31
0.0
  0
LINE
  8
DETAIL
  6
CONTINUOUS
 62
     5
 10
-13.221324717286221
 20
-261.32961628963938
 30
0.0
 11
-158.2552504038776
 21
-261.32961628963938
 31
0.0
  0
LINE
  8
DETAIL
  6
CONTINUOUS
 62
     5
 10
-13.221324717286221
 20
-264.22103120782452
 30
0.0
 11
-16.7804833088382
 21
-264.22103120782452
 31
0.0
  0
LINE
  8
DETAIL
  6
CONTINUOUS
 62
     5
 10
-13.221324717286221
 20
-267.11244612600962
 30
0.0
 11
-16.7804833088382
 21
-267.11244612600962
 31
0.0
  0
LINE
  8
DETAIL
  6
CONTINUOUS
 62
     5
 10
-197.81906300484701
 20
-58.867070485554393
 30
0.0
 11
-197.81906300484701
 21
-95.738612144268643
 31
0.0
  0
LINE
  8
DETAIL
  6
CONTINUOUS
 62
     5
 10
-197.81906300484701
 20
-37.997016206133942
 30
0.0
 11
-197.81906300484701
 21
-55.490830475911309
 31
0.0
  0
LINE
  8
DETAIL
  6
CONTINUOUS
 62
     5
 10
-197.81906300484701
 20
-11.342058028027219
 30
0.0
 11
-197.81906300484701
 21
-21.37041954963621
 31
0.0
  0
LINE
  8
DETAIL
  6
CONTINUOUS
 62
     5
 10
-197.81906300484701
 20
21.370454510676101
 30
0.0
 11
-197.81906300484701
 21
11.34324119682913
 31
0.0
  0
LINE
  8
DETAIL
  6
CONTINUOUS
 62
     5
 10
-197.81906300484701
 20
55.490853381848687
 30
0.0
 11
-197.81906300484701
 21
38.000385587131007
 31
0.0
  0
LINE
  8
DETAIL
  6
CONTINUOUS
 62
     5
 10
-197.81906300484701
 20
95.738565413081858
 30
0.0
 11
-197.81906300484701
 21
58.8721131203867
 31
0.0
  0
LINE
  8
DETAIL
  6
CONTINUOUS
 62
     5
 10
-204.83037156704401
 20
-58.867070485554393
 30
0.0
 11
-204.83037156704401
 21
-95.738612144268643
 31
0.0
  0
LINE
  8
DETAIL
  6
CONTINUOUS
 62
     5
 10
-204.83037156704401
 20
-37.997016206133942
 30
0.0
 11
-204.83037156704401
 21
-55.490830475911309
 31
0.0
  0
LINE
  8
DETAIL
  6
CONTINUOUS
 62
     5
 10
-204.83037156704401
 20
-11.342058028027219
 30
0.0
 11
-204.83037156704401
 21
-21.37041954963621
 31
0.0
  0
LINE
  8
DETAIL
  6
CONTINUOUS
 62
     5
 10
-204.83037156704401
 20
21.370454510676101
 30
0.0
 11
-204.83037156704401
 21
11.34324119682913
 31
0.0
  0
LINE
  8
DETAIL
  6
CONTINUOUS
 62
     5
 10
-204.83037156704401
 20
55.490853381848687
 30
0.0
 11
-204.83037156704401
 21
38.000385587131007
 31
0.0
  0
LINE
  8
DETAIL
  6
CONTINUOUS
 62
     5
 10
-204.83037156704401
 20
95.738565413081858
 30
0.0
 11
-204.83037156704401
 21
58.8721131203867
 31
0.0
  0
LINE
  8
DETAIL
  6
CONTINUOUS
 62
     5
 10
-215.64781906300519
 20
55.490888453144009
 30
0.0
 11
-215.64781906300519
 21
57.790432526205052
 31
0.0
  0
LINE
  8
DETAIL
  6
CONTINUOUS
 62
     5
 10
-215.64781906300519
 20
-57.790432526981419
 30
0.0
 11
-215.64781906300519
 21
-55.490888453920377
 31
0.0
  0
LINE
  8
DETAIL
  6
CONTINUOUS
 62
     5
 10
-20.032310177706389
 20
-291.97092084006442
 30
0.0
 11
-20.533117932148741
 21
-291.97092084006442
 31
0.0
  0
LINE
  8
DETAIL
  6
CONTINUOUS
 62
     5
 10
-13.221324717286221
 20
-296.97899838449109
 30
0.0
 11
-16.42649434571916
 21
-296.97899838449109
 31
0.0
  0
LINE
  8
DETAIL
  6
CONTINUOUS
 62
     5
 10
-4.6496850470504683
 20
-303.82456339822909
 30
0.0
 11
-3.004846526656308
 21
-303.82456339822909
 31
0.0
  0
LINE
  8
DETAIL
  6
CONTINUOUS
 62
     5
 10
-3.004846526656308
 20
-306.99515347334398
 30
0.0
 11
-6.4103392568662798
 21
-306.99515347334398
 31
0.0
  0
LINE
  8
DETAIL
  6
CONTINUOUS
 62
     5
 10
-218.85298869143821
 20
-55.490888453920377
 30
0.0
 11
-218.85298869143821
 21
-61.045682930858852
 31
0.0
  0
LINE
  8
DETAIL
  6
CONTINUOUS
 62
     5
 10
-218.85298869143821
 20
61.045682930082251
 30
0.0
 11
-218.85298869143821
 21
55.490888453144009
 31
0.0
  0
LINE
  8
DETAIL
  6
CONTINUOUS
 62
     5
 10
-225.36348949919261
 20
-92.267265234073363
 30
0.0
 11
-225.36348949919261
 21
-95.738612144268643
 31
0.0
  0
LINE
  8
DETAIL
  6
CONTINUOUS
 62
     5
 10
-225.36348949919261
 20
-77.087058652390112
 30
0.0
 11
-225.36348949919261
 21
-81.605476051846551
 31
0.0
  0
LINE
  8
DETAIL
  6
CONTINUOUS
 62
     5
 10
-225.36348949919261
 20
-55.490888453920377
 30
0.0
 11
-225.36348949919261
 21
-63.549681758024413
 31
0.0
  0
LINE
  8
DETAIL
  6
CONTINUOUS
 62
     5
 10
-225.36348949919261
 20
-50.171046187198669
 30
0.0
 11
-225.36348949919261
 21
-55.49094240916196
 31
0.0
  0
LINE
  8
DETAIL
  6
CONTINUOUS
 62
     5
 10
-225.36348949919261
 20
-21.370503985823628
 30
0.0
 11
-225.36348949919261
 21
-38.171285688269393
 31
0.0
  0
LINE
  8
DETAIL
  6
CONTINUOUS
 62
     5
 10
-225.36348949919261
 20
-15.616946741606229
 30
0.0
 11
-225.36348949919261
 21
-21.37041954963621
 31
0.0
  0
LINE
  8
DETAIL
  6
CONTINUOUS
 62
     5
 10
-225.36348949919261
 20
11.71411051811498
 30
0.0
 11
-225.36348949919261
 21
-11.714110518891401
 31
0.0
  0
LINE
  8
DETAIL
  6
CONTINUOUS
 62
     5
 10
-225.36348949919261
 20
21.370454154287359
 30
0.0
 11
-225.36348949919261
 21
15.61694674082986
 31
0.0
  0
LINE
  8
DETAIL
  6
CONTINUOUS
 62
     5
 10
-225.36348949919261
 20
38.17128414780035
 30
0.0
 11
-225.36348949919261
 21
21.370454154287359
 31
0.0
  0
LINE
  8
DETAIL
  6
CONTINUOUS
 62
     5
 10
-225.36348949919261
 20
55.490852728081052
 30
0.0
 11
-225.36348949919261
 21
50.171046186422188
 31
0.0
  0
LINE
  8
DETAIL
  6
CONTINUOUS
 62
     5
 10
-225.36348949919261
 20
63.549681757247917
 30
0.0
 11
-225.36348949919261
 21
55.490852728081052
 31
0.0
  0
LINE
  8
DETAIL
  6
CONTINUOUS
 62
     5
 10
-225.36348949919261
 20
81.605531028114854
 30
0.0
 11
-225.36348949919261
 21
77.087058652389999
 31
0.0
  0
LINE
  8
DETAIL
  6
CONTINUOUS
 62
     5
 10
-225.36348949919261
 20
95.738624142690753
 30
0.0
 11
-225.36348949919261
 21
92.26726523329711
 31
0.0
  0
LINE
  8
DETAIL
  6
CONTINUOUS
 62
     5
 10
-228.36833602584849
 20
-180.58921678300831
 30
0.0
 11
-228.36833602584849
 21
180.58921678300831
 31
0.0
  0
LINE
  8
DETAIL
  6
CONTINUOUS
 62
     5
 10
-266.42972536348998
 20
180.58921678300831
 30
0.0
 11
-266.42972536348998
 21
-180.58921678300831
 31
0.0
  0
LINE
  8
DETAIL
  6
CONTINUOUS
 62
     5
 10
-269.43457189014578
 20
-95.153473344103361
 30
0.0
 11
-269.43457189014578
 21
-94.652665589660671
 31
0.0
  0
LINE
  8
DETAIL
  6
CONTINUOUS
 62
     5
 10
-270.43618739903098
 20
-94.652650945886705
 30
0.0
 11
-270.43618739903098
 21
94.652665589660785
 31
0.0
  0
LINE
  8
DETAIL
  6
CONTINUOUS
 62
     5
 10
-292.57189014539608
 20
-57.893376413570373
 30
0.0
 11
-292.57189014539608
 21
57.893376413570252
 31
0.0
  0
LINE
  8
DETAIL
  6
CONTINUOUS
 62
     5
 10
-293.07269789983889
 20
-43.870759289176021
 30
0.0
 11
-293.07269789983889
 21
-53.285945072697977
 31
0.0
  0
ARC
  8
DETAIL
  6
CONTINUOUS
 62
     5
 10
-39.463651050081303
 20
275.94507269789977
 30
0.0
 40
19.431340872374811
 50
311.2088887662984
 51
0.0
  0
ARC
  8
DETAIL
  6
CONTINUOUS
 62
     5
 10
-44.47172859450751
 20
295.97738287560588
 30
0.0
 40
39.46365105008087
 50
204.25613166239751
 51
241.41289870579681
  0
ARC
  8
DETAIL
  6
CONTINUOUS
 62
     5
 10
-39.463651050081303
 20
-275.94507269789972
 30
0.0
 40
19.43134087237479
 50
0.0
 51
48.791111233701592
  0
ARC
  8
DETAIL
  6
CONTINUOUS
 62
     5
 10
-44.47172859450751
 20
-295.97738287560583
 30
0.0
 40
39.46365105008077
 50
118.58710129420319
 51
155.74386833760249
  0
LINE
  8
DETAIL
  6
CONTINUOUS
 62
     5
 10
-228.36833602584849
 20
-63.549721703071953
 30
0.0
 11
-225.36348949919261
 21
-63.549721703071953
 31
0.0
  0
LINE
  8
DETAIL
  6
CONTINUOUS
 62
     5
 10
-228.36833602584849
 20
-85.638126009693053
 30
0.0
 11
-225.36348949919261
 21
-85.638126009693053
 31
0.0
  0
LINE
  8
DETAIL
  6
CONTINUOUS
 62
     5
 10
-177.28594507269821
 20
-81.605500137205524
 30
0.0
 11
-177.28594507269821
 21
-92.267265234073363
 31
0.0
  0
LINE
  8
DETAIL
  6
CONTINUOUS
 62
     5
 10
-177.28594507269821
 20
-55.490888453920377
 30
0.0
 11
-177.28594507269821
 21
-77.087058652390112
 31
0.0
  0
LINE
  8
DETAIL
  6
CONTINUOUS
 62
     5
 10
-177.28594507269821
 20
-35.49365505398805
 30
0.0
 11
-177.28594507269821
 21
-50.171046187198669
 31
0.0
  0
LINE
  8
DETAIL
  6
CONTINUOUS
 62
     5
 10
-177.28594507269821
 20
-10.462932374898291
 30
0.0
 11
-177.28594507269821
 21
-15.616946741606229
 31
0.0
  0
LINE
  8
DETAIL
  6
CONTINUOUS
 62
     5
 10
-177.28594507269821
 20
15.61694674082986
 30
0.0
 11
-177.28594507269821
 21
10.462932374121809
 31
0.0
  0
LINE
  8
DETAIL
  6
CONTINUOUS
 62
     5
 10
-177.28594507269821
 20
50.171046186422188
 30
0.0
 11
-177.28594507269821
 21
35.493655053211633
 31
0.0
  0
LINE
  8
DETAIL
  6
CONTINUOUS
 62
     5
 10
-177.28594507269821
 20
77.087058652389999
 30
0.0
 11
-177.28594507269821
 21
55.490853381848687
 31
0.0
  0
LINE
  8
DETAIL
  6
CONTINUOUS
 62
     5
 10
-177.28594507269821
 20
92.26726523329711
 30
0.0
 11
-177.28594507269821
 21
81.605531028114854
 31
0.0
  0
LINE
  8
DETAIL
  6
CONTINUOUS
 62
     5
 10
-225.36348949919261
 20
-81.605500137205524
 30
0.0
 11
-225.36348949919261
 21
-92.267265234073363
 31
0.0
  0
LINE
  8
DETAIL
  6
CONTINUOUS
 62
     5
 10
-225.36348949919261
 20
-63.549681758024413
 30
0.0
 11
-225.36348949919261
 21
-77.087058652390112
 31
0.0
  0
LINE
  8
DETAIL
  6
CONTINUOUS
 62
     5
 10
-225.36348949919261
 20
-38.171285688269393
 30
0.0
 11
-225.36348949919261
 21
-50.171046187198669
 31
0.0
  0
LINE
  8
DETAIL
  6
CONTINUOUS
 62
     5
 10
-225.36348949919261
 20
-11.714110518891401
 30
0.0
 11
-225.36348949919261
 21
-15.616946741606229
 31
0.0
  0
LINE
  8
DETAIL
  6
CONTINUOUS
 62
     5
 10
-225.36348949919261
 20
15.61694674082986
 30
0.0
 11
-225.36348949919261
 21
11.71411051811498
 31
0.0
  0
LINE
  8
DETAIL
  6
CONTINUOUS
 62
     5
 10
-225.36348949919261
 20
50.171046186422188
 30
0.0
 11
-225.36348949919261
 21
38.17128414780035
 31
0.0
  0
LINE
  8
DETAIL
  6
CONTINUOUS
 62
     5
 10
-225.36348949919261
 20
77.087058652389999
 30
0.0
 11
-225.36348949919261
 21
63.549681757247917
 31
0.0
  0
LINE
  8
DETAIL
  6
CONTINUOUS
 62
     5
 10
-225.36348949919261
 20
92.26726523329711
 30
0.0
 11
-225.36348949919261
 21
81.605531028114854
 31
0.0
  0
LINE
  8
DETAIL
  6
CONTINUOUS
 62
     5
 10
-228.36833602584849
 20
85.638126009693053
 30
0.0
 11
-225.36348949919261
 21
85.638126009693053
 31
0.0
  0
LINE
  8
BASIS
  6
DASHDOT
 62
     6
 10
32.810636871607301
 20
0.0000000000000568
 30
0.0
 11
-328.78938867990888
 21
0.0000000000000568
 31
0.0
  0
LINE
  8
OUTLINE
  6
CONTINUOUS
 62
     3
 10
-3.004846526655967
 20
306.99515347334409
 30
0.0
 11
-3.0048465266560811
 21
308.4975767366721
 31
0.0
  0
LINE
  8
OUTLINE
  6
CONTINUOUS
 62
     3
 10
-266.42972536348992
 20
-94.652665589660671
 30
0.0
 11
-266.42972536348992
 21
-180.58921678300831
 31
0.0
  0
LINE
  8
OUTLINE
  6
CONTINUOUS
 62
     3
 10
-270.43618739903098
 20
65.305331179321513
 30
0.0
 11
-270.43618739903098
 21
94.652665589660785
 31
0.0
  0
ARC
  8
DETAIL
  6
CONTINUOUS
 62
     5
 10
-160.99538029523609
 20
159.67562649126691
 30
0.0
 40
70.544265697290299
 50
87.773917101029724
 51
162.75486226435291
  0
ARC
  8
DETAIL
  6
CONTINUOUS
 62
     5
 10
-161.1308603187137
 20
146.41049092602461
 30
0.0
 40
110.70698388505021
 50
88.511576788077264
 51
162.0172025769314
  0
ARC
  8
DETAIL
  6
CONTINUOUS
 62
     5
 10
-160.99247019612491
 20
152.16162464346809
 30
0.0
 40
109.2023020456991
 50
88.563697231564859
 51
164.91092278909451
  0
ARC
  8
DETAIL
  6
CONTINUOUS
 62
     5
 10
-7.3779677216471669
 20
247.33361148812219
 30
0.0
 40
2.6400759784715691
 50
106.1021153659465
 51
177.83266223427901
  0
ARC
  8
DETAIL
  6
CONTINUOUS
 62
     5
 10
-12.47317632468406
 20
269.21249273941407
 30
0.0
 40
19.82834388937502
 50
282.71124735212248
 51
298.52972484349351
  0
ARC
  8
DETAIL
  6
CONTINUOUS
 62
     5
 10
-7.7285046708282721
 20
247.20112436423599
 30
0.0
 40
5.4977312832713006
 50
105.289275644436
 51
177.57800272926039
  0
ARC
  8
DETAIL
  6
CONTINUOUS
 62
     5
 10
-10.56208854651601
 20
260.10053618050688
 30
0.0
 40
7.7212897351381251
 50
280.32481154333112
 51
331.04223353605909
  0
ARC
  8
DETAIL
  6
CONTINUOUS
 62
     5
 10
-7.6877865020319973
 20
296.74609689275388
 30
0.0
 40
5.5398702100327277
 50
105.60695613185391
 51
177.26032224176751
  0
ARC
  8
DETAIL
  6
CONTINUOUS
 62
     5
 10
-14.414497065265101
 20
322.44214563891529
 30
0.0
 40
21.02298556981588
 50
284.42273081366972
 51
297.67674509206699
  0
ARC
  8
DETAIL
  6
CONTINUOUS
 62
     5
 10
-351.29409582703522
 20
-9.5199657813139993
 30
0.0
 40
327.95233446738371
 50
317.71571063866031
 51
324.45498097518248
  0
ARC
  8
DETAIL
  6
CONTINUOUS
 62
     5
 10
-445.50279424255928
 20
-102.9118435261483
 30
0.0
 40
341.8461184670353
 50
346.7539552170777
 51
3.2182306473248161
  0
ARC
  8
DETAIL
  6
CONTINUOUS
 62
     5
 10
-203.72476248084789
 20
-165.97030396007639
 30
0.0
 40
92.245914067168201
 50
315.89842238529121
 51
350.4717440867575
  0
ARC
  8
DETAIL
  6
CONTINUOUS
 62
     5
 10
599.24451470598819
 20
289.4596359141737
 30
0.0
 40
755.6449279997961
 50
195.1668539588571
 51
205.2054715555509
  0
ARC
  8
DETAIL
  6
CONTINUOUS
 62
     5
 10
433.04324898857561
 20
291.10828243760699
 30
0.0
 40
597.36710925728153
 50
192.62068620130009
 51
199.4942455726557
  0
ARC
  8
DETAIL
  6
CONTINUOUS
 62
     5
 10
-147.9790122884506
 20
161.48287221530441
 30
0.0
 40
2.1111109473396148
 50
107.8762400828036
 51
205.13379348677481
  0
ARC
  8
DETAIL
  6
CONTINUOUS
 62
     5
 10
-149.04086615335149
 20
158.25386957521329
 30
0.0
 40
5.2545137238331829
 50
24.120140605195019
 51
85.482951210471242
  0
ARC
  8
DETAIL
  6
CONTINUOUS
 62
     5
 10
-397.52113971495771
 20
14.62038176927291
 30
0.0
 40
292.23410009879927
 50
10.114617268352641
 51
29.923893909053
  0
ARC
  8
DETAIL
  6
CONTINUOUS
 62
     5
 10
658.11322716125005
 20
294.23873752568272
 30
0.0
 40
801.15818052488294
 50
196.55636700914309
 51
198.21810539792571
  0
ARC
  8
DETAIL
  6
CONTINUOUS
 62
     5
 10
-479.96124831131038
 20
-121.2484638928174
 30
0.0
 40
414.09760140181118
 50
17.346174413276689
 51
23.57835860997832
  0
ARC
  8
DETAIL
  6
CONTINUOUS
 62
     5
 10
-100.2003575527331
 20
38.339476955355792
 30
0.0
 40
6.0568415166909251
 50
94.604824844140609
 51
116.3166033677535
  0
ARC
  8
DETAIL
  6
CONTINUOUS
 62
     5
 10
93.66465632806279
 20
72.046497340919757
 30
0.0
 40
237.6467518371482
 50
138.5494082095141
 51
163.25915902506341
  0
ARC
  8
DETAIL
  6
CONTINUOUS
 62
     5
 10
263.35166860929792
 20
3.683308366428264
 30
0.0
 40
420.65882961535777
 50
163.5631792740418
 51
169.2228688795399
  0
ARC
  8
DETAIL
  6
CONTINUOUS
 62
     5
 10
-145.00471866455911
 20
81.61716634456053
 30
0.0
 40
4.9363493153356481
 50
171.55662441810321
 51
285.84790888943132
  0
ARC
  8
DETAIL
  6
CONTINUOUS
 62
     5
 10
-488.18979762855338
 20
404.62843009930748
 30
0.0
 40
475.53094242874909
 50
316.42918423249461
 51
318.8573655259255
  0
ARC
  8
DETAIL
  6
CONTINUOUS
 62
     5
 10
-1304.986993544964
 20
1225.0674828527181
 30
0.0
 40
1631.747548063571
 50
316.60557846757388
 51
317.05252767543021
  0
ARC
  8
DETAIL
  6
CONTINUOUS
 62
     5
 10
-108.5157413294785
 20
111.9996779966615
 30
0.0
 40
0.5551336733594944
 50
204.29791881954759
 51
317.62308217564419
  0
ARC
  8
DETAIL
  6
CONTINUOUS
 62
     5
 10
-259.26233803784692
 20
83.727661664907657
 30
0.0
 40
156.365985207313
 50
353.67379045030441
 51
10.76090170133171
  0
ARC
  8
DETAIL
  6
CONTINUOUS
 62
     5
 10
-73.150899664661495
 20
55.967782131779423
 30
0.0
 40
32.453447482310573
 50
110.3808791214871
 51
161.0667165620174
  0
ARC
  8
DETAIL
  6
CONTINUOUS
 62
     5
 10
-60.376427554920333
 20
-93.198912292494583
 30
0.0
 40
44.832678577293912
 50
133.54165242776179
 51
167.79506199779681
  0
ARC
  8
DETAIL
  6
CONTINUOUS
 62
     5
 10
-160.99538029523609
 20
-159.6756264912668
 30
0.0
 40
70.544265697290299
 50
197.24513773564709
 51
272.22608289897028
  0
ARC
  8
DETAIL
  6
CONTINUOUS
 62
     5
 10
-161.1308603187137
 20
-146.41049092602441
 30
0.0
 40
110.70698388505021
 50
197.9827974230686
 51
271.48842321192268
  0
ARC
  8
DETAIL
  6
CONTINUOUS
 62
     5
 10
-160.99247019612491
 20
-152.161624643468
 30
0.0
 40
109.2023020456991
 50
195.08907721090549
 51
271.43630276842862
  0
ARC
  8
DETAIL
  6
CONTINUOUS
 62
     5
 10
-7.3779677216471669
 20
-247.3336114881221
 30
0.0
 40
2.6400759784715691
 50
182.16733776572099
 51
253.89788463405361
  0
ARC
  8
DETAIL
  6
CONTINUOUS
 62
     5
 10
-12.47317632468406
 20
-269.21249273941402
 30
0.0
 40
19.82834388937502
 50
61.470275156506453
 51
77.28875264787743
  0
ARC
  8
DETAIL
  6
CONTINUOUS
 62
     5
 10
-7.7285046708282721
 20
-247.20112436423591
 30
0.0
 40
5.4977312832713006
 50
182.42199727073961
 51
254.71072435556411
  0
ARC
  8
DETAIL
  6
CONTINUOUS
 62
     5
 10
-10.56208854651601
 20
-260.10053618050682
 30
0.0
 40
7.7212897351381251
 50
28.957766463940921
 51
79.675188456668849
  0
ARC
  8
DETAIL
  6
CONTINUOUS
 62
     5
 10
-7.6877865020319973
 20
-296.74609689275383
 30
0.0
 40
5.5398702100327277
 50
182.7396777582326
 51
254.39304386814601
  0
ARC
  8
DETAIL
  6
CONTINUOUS
 62
     5
 10
-14.414497065265101
 20
-322.44214563891512
 30
0.0
 40
21.02298556981588
 50
62.323254907932977
 51
75.577269186330312
  0
ARC
  8
DETAIL
  6
CONTINUOUS
 62
     5
 10
-110.26566191748169
 20
113.0005272221898
 30
0.0
 40
0.4450146208721764
 50
35.239474372313701
 51
135.42257078308421
  0
ARC
  8
DETAIL
  6
CONTINUOUS
 62
     5
 10
-106.1438408975653
 20
112.11478707127181
 30
0.0
 40
0.9491234679368671
 50
58.368264669613232
 51
131.8429043768073
  0
ARC
  8
DETAIL
  6
CONTINUOUS
 62
     5
 10
-746.53989125286921
 20
-264.96033347165042
 30
0.0
 40
740.51072273635646
 50
30.580311974265271
 51
30.71396001278233
  0
ARC
  8
DETAIL
  6
CONTINUOUS
 62
     5
 10
-152.40561130886621
 20
162.16081661258721
 30
0.0
 40
67.203447351856454
 50
311.23826480671107
 51
312.76262052662639
  0
ARC
  8
DETAIL
  6
CONTINUOUS
 62
     5
 10
-126.87345986652061
 20
-34.992088254979308
 30
0.0
 40
43.92266650924271
 50
324.17443826161792
 51
344.97326918350228
  0
LINE
  8
DETAIL
  6
CONTINUOUS
 62
     5
 10
-204.83037156704401
 20
58.8721131203867
 30
0.0
 11
-197.81906300484701
 21
58.8721131203867
 31
0.0
  0
LINE
  8
DETAIL
  6
CONTINUOUS
 62
     5
 10
-204.83037156704401
 20
11.34324119682913
 30
0.0
 11
-197.81906300484701
 21
11.34324119682913
 31
0.0
  0
LINE
  8
DETAIL
  6
CONTINUOUS
 62
     5
 10
-197.81906300484701
 20
-38.000385587130893
 30
0.0
 11
-204.83037156704401
 21
-38.000385587130893
 31
0.0
  0
LINE
  8
DETAIL
  6
CONTINUOUS
 62
     5
 10
-204.83037156704401
 20
-58.872113120386587
 30
0.0
 11
-197.81906300484701
 21
-58.872113120386587
 31
0.0
  0
LINE
  8
DETAIL
  6
CONTINUOUS
 62
     5
 10
-204.83037156704401
 20
-11.343241196829011
 30
0.0
 11
-197.81906300484701
 21
-11.343241196829011
 31
0.0
  0
ARC
  8
OUTLINE
  6
CONTINUOUS
 62
     3
 10
-160.99247019612159
 20
152.161624643468
 30
0.0
 40
109.2023020456991
 50
88.563697231571368
 51
164.91092278909451
  0
ARC
  8
OUTLINE
  6
CONTINUOUS
 62
     3
 10
-7.6877865020287004
 20
296.74609689275383
 30
0.0
 40
5.5398702100327277
 50
105.60695613185391
 51
177.26032224176751
  0
ARC
  8
OUTLINE
  6
CONTINUOUS
 62
     3
 10
-160.99247019612159
 20
-152.16162464346809
 30
0.0
 40
109.2023020456991
 50
195.08907721090549
 51
271.43630276842862
  0
ARC
  8
OUTLINE
  6
CONTINUOUS
 62
     3
 10
-7.6877865020287004
 20
-296.74609689275388
 30
0.0
 40
5.5398702100327277
 50
182.7396777582326
 51
254.39304386814601
  0
TEXT
  8
ETC
  6
CONTINUOUS
 62
    61
 10
370.63534389973302
 20
390.9197197343729
 30
0.0
 40
40.0
  1
EWF-50FTA2
 41
0.9
  0
TEXT
  8
ETC
  6
CONTINUOUS
 62
    61
 10
370.63534389973302
 20
324.9197197343729
 30
0.0
 40
40.0
  1
EWF-50FTA2-PR
 41
0.9
  0
ENDSEC
  0
EOF
