  0
SECTION
  2
HEADER
  9
$ACADVER
  1
AC1009
  9
$DWGCODEPAGE
  3
dos932
  9
$INSBASE
 10
0.0
 20
0.0
 30
0.0
  9
$EXTMIN
 10
-446.84141389657998
 20
-438.99534961557401
 30
-0.0015258207003583
  9
$EXTMAX
 10
1244.4488643603961
 20
733.79517420404045
 30
0.0000000349246037
  9
$LIMMIN
 10
-2970.0
 20
-2100.0
  9
$LIMMAX
 10
2970.0
 20
2100.0
  9
$ORTHOMODE
 70
     1
  9
$REGENMODE
 70
     1
  9
$FILLMODE
 70
     1
  9
$QTEXTMODE
 70
     0
  9
$MIRRTEXT
 70
     0
  9
$LTSCALE
 40
20.0
  9
$ATTMODE
 70
     1
  9
$TEXTSIZE
 40
64.0
  9
$TRACEWID
 40
0.05
  9
$TEXTSTYLE
  7
STANDARD
  9
$CLAYER
  8
SIZE
  9
$CELTYPE
  6
CONTINUOUS
  9
$CECOLOR
 62
     7
  9
$DIMSCALE
 40
1.0
  9
$DIMASZ
 40
12.0
  9
$DIMEXO
 40
20.0
  9
$DIMDLI
 40
200.0
  9
$DIMRND
 40
0.0
  9
$DIMDLE
 40
0.0
  9
$DIMEXE
 40
20.0
  9
$DIMTP
 40
0.0
  9
$DIMTM
 40
0.0
  9
$DIMTXT
 40
64.0
  9
$DIMCEN
 40
0.09
  9
$DIMTSZ
 40
0.0
  9
$DIMTOL
 70
     0
  9
$DIMLIM
 70
     0
  9
$DIMTIH
 70
     0
  9
$DIMTOH
 70
     0
  9
$DIMSE1
 70
     0
  9
$DIMSE2
 70
     0
  9
$DIMTAD
 70
     1
  9
$DIMZIN
 70
     8
  9
$DIMBLK
  1

  9
$DIMASO
 70
     1
  9
$DIMSHO
 70
     0
  9
$DIMPOST
  1

  9
$DIMAPOST
  1

  9
$DIMALT
 70
     0
  9
$DIMALTD
 70
     2
  9
$DIMALTF
 40
25.399999999999999
  9
$DIMLFAC
 40
1.0
  9
$DIMTOFL
 70
     1
  9
$DIMTVP
 40
0.0
  9
$DIMTIX
 70
     1
  9
$DIMSOXD
 70
     0
  9
$DIMSAH
 70
     0
  9
$DIMBLK1
  1

  9
$DIMBLK2
  1

  9
$DIMSTYLE
  2
STANDARD
  9
$DIMCLRD
 70
     7
  9
$DIMCLRE
 70
     7
  9
$DIMCLRT
 70
     7
  9
$DIMTFAC
 40
1.0
  9
$DIMGAP
 40
25.0
  9
$LUNITS
 70
     2
  9
$LUPREC
 70
     4
  9
$SKETCHINC
 40
0.1
  9
$FILLETRAD
 40
3.0
  9
$AUNITS
 70
     1
  9
$AUPREC
 70
     3
  9
$MENU
  1
ACAD
  9
$ELEVATION
 40
0.0
  9
$PELEVATION
 40
0.0
  9
$THICKNESS
 40
0.0
  9
$LIMCHECK
 70
     0
  9
$CHAMFERA
 40
0.0
  9
$CHAMFERB
 40
0.0
  9
$SKPOLY
 70
     0
  9
$TDCREATE
 40
2453019.62301037
  9
$TDUPDATE
 40
2458949.448715116
  9
$TDINDWG
 40
1.7136039468
  9
$TDUSRTIMER
 40
1.7136039468
  9
$USRTIMER
 70
     1
  9
$ANGBASE
 50
0.0
  9
$ANGDIR
 70
     0
  9
$PDMODE
 70
     3
  9
$PDSIZE
 40
-2.0
  9
$PLINEWID
 40
0.0
  9
$SPLFRAME
 70
     0
  9
$SPLINETYPE
 70
     6
  9
$SPLINESEGS
 70
     8
  9
$SURFTAB1
 70
     6
  9
$SURFTAB2
 70
     6
  9
$SURFTYPE
 70
     6
  9
$SURFU
 70
     6
  9
$SURFV
 70
     6
  9
$UCSNAME
  2

  9
$UCSORG
 10
0.0
 20
0.0
 30
0.0
  9
$UCSXDIR
 10
1.0
 20
0.0
 30
0.0
  9
$UCSYDIR
 10
0.0
 20
1.0
 30
0.0
  9
$PUCSNAME
  2

  9
$PUCSORG
 10
0.0
 20
0.0
 30
0.0
  9
$PUCSXDIR
 10
1.0
 20
0.0
 30
0.0
  9
$PUCSYDIR
 10
0.0
 20
1.0
 30
0.0
  9
$USERI1
 70
     0
  9
$USERI2
 70
     0
  9
$USERI3
 70
     0
  9
$USERI4
 70
     0
  9
$USERI5
 70
     0
  9
$USERR1
 40
20.0
  9
$USERR2
 40
0.0
  9
$USERR3
 40
0.0
  9
$USERR4
 40
0.0
  9
$USERR5
 40
0.0
  9
$WORLDVIEW
 70
     1
  9
$SHADEDGE
 70
     3
  9
$SHADEDIF
 70
    70
  9
$TILEMODE
 70
     1
  9
$MAXACTVP
 70
    48
  9
$PINSBASE
 10
0.0
 20
0.0
 30
0.0
  9
$PLIMCHECK
 70
     0
  9
$PEXTMIN
 10
-100000000000000000000.0
 20
-100000000000000000000.0
 30
-100000000000000000000.0
  9
$PEXTMAX
 10
100000000000000000000.0
 20
100000000000000000000.0
 30
100000000000000000000.0
  9
$PLIMMIN
 10
0.0
 20
0.0
  9
$PLIMMAX
 10
12.0
 20
9.0
  9
$UNITMODE
 70
     0
  9
$VISRETAIN
 70
     0
  9
$PLINEGEN
 70
     0
  9
$PSLTSCALE
 70
     0
  9
$TREEDEPTH
 70
  3020
  9
$ATTDIA
 70
     0
  9
$ATTREQ
 70
     1
  9
$BLIPMODE
 70
     1
  9
$COORDS
 70
     1
  9
$DRAGMODE
 70
     2
  9
$OSMODE
 70
     0
  9
$HANDLING
 70
     0
  9
$HANDSEED
  5
11D3F
  0
ENDSEC
  0
SECTION
  2
TABLES
  0
TABLE
  2
LTYPE
 70
     2
  0
LTYPE
  2
CONTINUOUS
 70
     0
  3
実線
 72
    65
 73
     0
 40
0.0
  0
LTYPE
  2
DASHDOT
 70
     0
  3
____ _ ____ _ ____ _ ____ _ ____ _ ____ _ ____
 72
    65
 73
     4
 40
5.5
 49
4.0
 49
-0.6
 49
0.3
 49
-0.6
  0
ENDTAB
  0
TABLE
  2
LAYER
 70
    12
  0
LAYER
  2
0
 70
     0
 62
     7
  6
CONTINUOUS
  0
LAYER
  2
BASIS
 70
     0
 62
     6
  6
DASHDOT
  0
LAYER
  2
OUTLINE
 70
     0
 62
     3
  6
CONTINUOUS
  0
LAYER
  2
DETAIL
 70
     0
 62
     5
  6
CONTINUOUS
  0
LAYER
  2
SIZE
 70
     0
 62
    30
  6
CONTINUOUS
  0
LAYER
  2
ARRANGE
 70
     0
 62
     1
  6
CONTINUOUS
  0
LAYER
  2
DEFPOINTS
 70
     0
 62
     7
  6
CONTINUOUS
  0
LAYER
  2
ETC
 70
     0
 62
    61
  6
CONTINUOUS
  0
LAYER
  2
FIX
 70
     0
 62
    11
  6
CONTINUOUS
  0
LAYER
  2
NOTE
 70
     0
 62
     4
  6
CONTINUOUS
  0
LAYER
  2
SERVICESPACE
 70
    64
 62
     2
  6
DASHDOT
  0
LAYER
  2
SYMBOLLINE
 70
    64
 62
    15
  6
CONTINUOUS
  0
ENDTAB
  0
TABLE
  2
STYLE
 70
     1
  0
STYLE
  2
STANDARD
 70
     0
 40
64.0
 41
0.9
 50
0.0
 71
     0
 42
64.0
  3
SIMPLEX.shx
  4
BIGFONT.shx
  0
ENDTAB
  0
TABLE
  2
APPID
 70
    19
  0
APPID
  2
ACAD
 70
     0
  0
APPID
  2
AUTOCAD_POSTSCRIPT_FIGURE
 70
     0
  0
APPID
  2
ACAD_EXEMPT_FROM_CAD_STANDARDS
 70
     0
  0
APPID
  2
ACAD_PSEXT
 70
     0
  0
APPID
  2
ACAUTHENVIRON
 70
     0
  0
APPID
  2
GENIUS_GENOENT_13
 70
     0
  0
APPID
  2
GENIUS_GENCFG_13
 70
     0
  0
APPID
  2
GENIUS_GENCFG0_13
 70
     0
  0
APPID
  2
GENIUS_GENCFG1_13
 70
     0
  0
APPID
  2
GENIUS_GENCFG2_13
 70
     0
  0
APPID
  2
GENIUS_GENCFG3_13
 70
     0
  0
APPID
  2
GENIUS_GENCFG4_13
 70
     0
  0
APPID
  2
GENIUS_GEVCFG0_13
 70
     0
  0
APPID
  2
CONTENTBLOCKICON
 70
     0
  0
APPID
  2
CONTENTBLOCKDESCRIPTION
 70
     0
  0
APPID
  2
ACAD_NAV_VCDISPLAY
 70
     0
  0
APPID
  2
ACAD_MLEADERVER
 70
     0
  0
APPID
  2
ACDBDYNAMICBLOCKTRUENAME
 70
     0
  0
APPID
  2
ACDBDYNAMICBLOCKGUID
 70
     0
  0
ENDTAB
  0
TABLE
  2
DIMSTYLE
 70
     1
  0
DIMSTYLE
  2
STANDARD
 70
     0
  3

  4

  5
_ORIGIN
  6

  7

 40
1.0
 41
12.0
 42
20.0
 43
200.0
 44
20.0
 45
0.0
 46
0.0
 47
0.0
 48
0.0
140
64.0
141
0.09
142
0.0
143
25.399999999999999
144
1.0
145
0.0
146
1.0
147
25.0
 71
     0
 72
     0
 73
     0
 74
     0
 75
     0
 76
     0
 77
     1
 78
     8
170
     0
171
     2
172
     1
173
     0
174
     1
175
     0
176
     7
177
     7
178
     7
  0
ENDTAB
  0
TABLE
  2
VIEW
 70
     1
  0
VIEW
  2
ALL
 70
     0
 40
4282.6198079999986
 10
0.0
 20
41.309904000000003
 41
5940.0
 11
0.0
 21
0.0
 31
1.0
 12
0.0
 22
0.0
 32
0.0
 42
50.0
 43
0.0
 44
0.0
 50
0.0
 71
     0
  0
ENDTAB
  0
TABLE
  2
UCS
 70
     0
  0
ENDTAB
  0
TABLE
  2
VPORT
 70
     1
  0
VPORT
  2
*ACTIVE
 70
     0
 10
0.0
 20
0.0
 11
1.0
 21
1.0
 12
398.80372523190812
 22
147.39991229423319
 13
0.0
 23
0.0
 14
1.0
 24
1.0
 15
0.0
 25
0.0
 16
0.0
 26
0.0
 36
1.0
 17
0.0
 27
0.0
 37
0.0
 40
1180.565930607369
 41
1.747787610619469
 42
50.0
 43
0.0
 44
0.0
 50
0.0
 51
0.0
 71
     0
 72
  1000
 73
     1
 74
     3
 75
     0
 76
     0
 77
     0
 78
     0
  0
ENDTAB
  0
ENDSEC
  0
SECTION
  2
BLOCKS
  0
BLOCK
  8
0
  2
_ORIGIN
 70
     0
 10
0.0
 20
0.0
 30
0.0
  3
_ORIGIN
  1
_ORIGIN
  0
CIRCLE
  8
0
  6
CONTINUOUS
 62
     7
 10
0.0
 20
0.0
 30
0.0
 40
0.5
  0
LINE
  8
0
  6
CONTINUOUS
 62
     7
 10
0.0
 20
0.0
 30
0.0
 11
-1.0
 21
0.0
 31
0.0
  0
ENDBLK
  8
0
  0
ENDSEC
  0
SECTION
  2
ENTITIES
  0
CIRCLE
  8
ARRANGE
  6
CONTINUOUS
 62
     1
 10
0.0
 20
0.0
 30
0.0
 40
40.0
  0
POINT
  8
ARRANGE
  6
CONTINUOUS
 62
     1
 10
0.0
 20
0.0
 30
0.0
  0
TEXT
  8
ETC
  6
CONTINUOUS
 62
    61
 10
327.99056354732778
 20
669.76843081037623
 30
0.0
 40
64.0
  1
EWF-50FTA40A2-Q_4
 41
0.9
  0
TEXT
  8
ETC
  6
CONTINUOUS
 62
    61
 10
329.35540046172991
 20
553.66238449995717
 30
0.0
 40
64.0
  1
産業扇
 41
0.9
  0
TEXT
  8
ETC
  6
CONTINUOUS
 62
    61
 10
413.36176965093728
 20
445.51361161373188
 30
0.0
 40
40.0
  1
EWF-50FTA40A2-Q
 41
0.9
  0
TEXT
  8
NOTE
  6
CONTINUOUS
 62
     4
 10
111.20894172444881
 20
-424.37655265318767
 30
0.0
 40
64.0
  1
4-φ14
 41
0.9
  0
LINE
  8
SIZE
  6
CONTINUOUS
 62
    30
 10
-10.01615508885288
 20
323.38933764135709
 30
0.0
 11
-10.01615508885288
 21
394.6876981118553
 31
0.0
  0
LINE
  8
SIZE
  6
CONTINUOUS
 62
    30
 10
0.0
 20
328.49757673667199
 30
0.0
 11
0.0
 21
394.6876981118553
 31
0.0
  0
LINE
  8
SIZE
  6
CONTINUOUS
 62
    30
 10
-22.01615508885288
 20
374.6876981118553
 30
0.0
 11
-34.016155088852877
 21
374.6876981118553
 31
0.0
  0
LINE
  8
SIZE
  6
CONTINUOUS
 62
    30
 10
12.0
 20
374.6876981118553
 30
0.0
 11
156.28571428571419
 21
374.6876981118553
 31
0.0
  0
LINE
  8
SIZE
  6
CONTINUOUS
 62
    30
 10
-10.01615508885288
 20
374.6876981118553
 30
0.0
 11
0.0
 21
374.6876981118553
 31
0.0
  0
CIRCLE
  8
SIZE
  6
CONTINUOUS
 62
    30
 10
-10.01615508885288
 20
374.6876981118553
 30
0.0
 40
6.0
  0
LINE
  8
SIZE
  6
CONTINUOUS
 62
    30
 10
-10.01615508885288
 20
374.6876981118553
 30
0.0
 11
-22.01615508885288
 21
374.6876981118553
 31
0.0
  0
CIRCLE
  8
SIZE
  6
CONTINUOUS
 62
    30
 10
0.0
 20
374.6876981118553
 30
0.0
 40
6.0
  0
LINE
  8
SIZE
  6
CONTINUOUS
 62
    30
 10
0.0
 20
374.6876981118553
 30
0.0
 11
12.0
 21
374.6876981118553
 31
0.0
  0
TEXT
  8
SIZE
  6
CONTINUOUS
 62
    30
 10
48.999999999999737
 20
399.6876981118553
 30
0.0
 40
64.0
  1
10
 41
0.9
 72
     1
 11
90.142857142856883
 21
399.6876981118553
 31
0.0
  0
POINT
  8
DEFPOINTS
  6
CONTINUOUS
 62
    30
 10
-10.01615508885288
 20
303.38933764135709
 30
0.0
  0
POINT
  8
DEFPOINTS
  6
CONTINUOUS
 62
    30
 10
0.0
 20
308.49757673667199
 30
0.0
  0
POINT
  8
DEFPOINTS
  6
CONTINUOUS
 62
    30
 10
0.0
 20
374.6876981118553
 30
0.0
  0
LINE
  8
SIZE
  6
CONTINUOUS
 62
    30
 10
-20.032310177705771
 20
313.37318255250398
 30
0.0
 11
-20.032310177705771
 21
394.6876981118553
 31
0.0
  0
LINE
  8
SIZE
  6
CONTINUOUS
 62
    30
 10
-10.01615508885288
 20
323.38933764135709
 30
0.0
 11
-10.01615508885288
 21
394.6876981118553
 31
0.0
  0
LINE
  8
SIZE
  6
CONTINUOUS
 62
    30
 10
1.9838449111471159
 20
374.6876981118553
 30
0.0
 11
13.98384491114712
 21
374.6876981118553
 31
0.0
  0
LINE
  8
SIZE
  6
CONTINUOUS
 62
    30
 10
-32.032310177705767
 20
374.6876981118553
 30
0.0
 11
-275.15173902560491
 21
374.6876981118553
 31
0.0
  0
LINE
  8
SIZE
  6
CONTINUOUS
 62
    30
 10
-10.01615508885288
 20
374.6876981118553
 30
0.0
 11
-20.032310177705771
 21
374.6876981118553
 31
0.0
  0
CIRCLE
  8
SIZE
  6
CONTINUOUS
 62
    30
 10
-10.01615508885288
 20
374.6876981118553
 30
0.0
 40
6.0
  0
LINE
  8
SIZE
  6
CONTINUOUS
 62
    30
 10
-10.01615508885288
 20
374.6876981118553
 30
0.0
 11
1.9838449111471159
 21
374.6876981118553
 31
0.0
  0
CIRCLE
  8
SIZE
  6
CONTINUOUS
 62
    30
 10
-20.032310177705771
 20
374.6876981118553
 30
0.0
 40
6.0
  0
LINE
  8
SIZE
  6
CONTINUOUS
 62
    30
 10
-20.032310177705771
 20
374.6876981118553
 30
0.0
 11
-32.032310177705767
 21
374.6876981118553
 31
0.0
  0
TEXT
  8
SIZE
  6
CONTINUOUS
 62
    30
 10
-250.15173902560511
 20
399.6876981118553
 30
0.0
 40
64.0
  1
10
 41
0.9
 72
     1
 11
-209.008881882748
 21
399.6876981118553
 31
0.0
  0
POINT
  8
DEFPOINTS
  6
CONTINUOUS
 62
    30
 10
-20.032310177705771
 20
293.37318255250398
 30
0.0
  0
POINT
  8
DEFPOINTS
  6
CONTINUOUS
 62
    30
 10
-10.01615508885288
 20
303.38933764135709
 30
0.0
  0
POINT
  8
DEFPOINTS
  6
CONTINUOUS
 62
    30
 10
-10.01615508885288
 20
374.6876981118553
 30
0.0
  0
LINE
  8
SIZE
  6
CONTINUOUS
 62
    30
 10
18.5
 20
309.99999804575418
 30
0.0
 11
352.13545641544169
 21
309.99999804575401
 31
0.0
  0
LINE
  8
SIZE
  6
CONTINUOUS
 62
    30
 10
18.497576736672269
 20
-310.0
 30
0.0
 11
352.13545641544169
 21
-310.0
 31
0.0
  0
LINE
  8
SIZE
  6
CONTINUOUS
 62
    30
 10
332.13545641544169
 20
297.99999804575401
 30
0.0
 11
332.13545641544169
 21
-298.0
 31
0.0
  0
CIRCLE
  8
SIZE
  6
CONTINUOUS
 62
    30
 10
332.13545641544169
 20
309.99999804575401
 30
0.0
 40
6.0
  0
LINE
  8
SIZE
  6
CONTINUOUS
 62
    30
 10
332.13545641544169
 20
309.99999804575401
 30
0.0
 11
332.13545641544169
 21
297.99999804575401
 31
0.0
  0
CIRCLE
  8
SIZE
  6
CONTINUOUS
 62
    30
 10
332.13545641544169
 20
-310.0
 30
0.0
 40
6.0
  0
LINE
  8
SIZE
  6
CONTINUOUS
 62
    30
 10
332.13545641544169
 20
-310.0
 30
0.0
 11
332.13545641544169
 21
-298.0
 31
0.0
  0
TEXT
  8
SIZE
  6
CONTINUOUS
 62
    30
 10
307.13545641544169
 20
-80.859766315696021
 30
0.0
 40
64.0
  1
620
 50
90.0
 41
0.9
 72
     1
 11
307.13545641544169
 21
-6.8026234585531711
 31
0.0
  0
POINT
  8
DEFPOINTS
  6
CONTINUOUS
 62
    30
 10
-1.5
 20
309.99999804575418
 30
0.0
  0
POINT
  8
DEFPOINTS
  6
CONTINUOUS
 62
    30
 10
-1.5024232633277279
 20
-310.0
 30
0.0
  0
POINT
  8
DEFPOINTS
  6
CONTINUOUS
 62
    30
 10
332.13545641544169
 20
-310.0
 30
0.0
  0
LINE
  8
SIZE
  6
CONTINUOUS
 62
    30
 10
35.030481073345072
 20
280.4523424878837
 30
0.0
 11
224.8038463732851
 21
280.45234248788358
 31
0.0
  0
LINE
  8
SIZE
  6
CONTINUOUS
 62
    30
 10
35.030481073345072
 20
-280.4523424878837
 30
0.0
 11
224.8038463732851
 21
-280.45234248788381
 31
0.0
  0
LINE
  8
SIZE
  6
CONTINUOUS
 62
    30
 10
204.8038463732851
 20
268.45234248788358
 30
0.0
 11
204.8038463732851
 21
-268.45234248788381
 31
0.0
  0
CIRCLE
  8
SIZE
  6
CONTINUOUS
 62
    30
 10
204.8038463732851
 20
280.45234248788358
 30
0.0
 40
6.0
  0
LINE
  8
SIZE
  6
CONTINUOUS
 62
    30
 10
204.8038463732851
 20
280.45234248788358
 30
0.0
 11
204.8038463732851
 21
268.45234248788358
 31
0.0
  0
CIRCLE
  8
SIZE
  6
CONTINUOUS
 62
    30
 10
204.8038463732851
 20
-280.45234248788381
 30
0.0
 40
6.0
  0
LINE
  8
SIZE
  6
CONTINUOUS
 62
    30
 10
204.8038463732851
 20
-280.45234248788381
 30
0.0
 11
204.8038463732851
 21
-268.45234248788381
 31
0.0
  0
TEXT
  8
SIZE
  6
CONTINUOUS
 62
    30
 10
179.8038463732851
 20
-74.05714285714285
 30
0.0
 40
64.0
  1
560
 50
90.0
 41
0.9
 72
     1
 11
179.8038463732851
 21
0.0
 31
0.0
  0
POINT
  8
DEFPOINTS
  6
CONTINUOUS
 62
    30
 10
15.03048107334507
 20
280.4523424878837
 30
0.0
  0
POINT
  8
DEFPOINTS
  6
CONTINUOUS
 62
    30
 10
15.03048107334507
 20
-280.4523424878837
 30
0.0
  0
POINT
  8
DEFPOINTS
  6
CONTINUOUS
 62
    30
 10
204.8038463732851
 20
-280.45234248788381
 30
0.0
  0
CIRCLE
  8
FIX
  6
CONTINUOUS
 62
    11
 10
0.0
 20
-280.4523424878837
 30
0.0
 40
7.0
  0
CIRCLE
  8
FIX
  6
CONTINUOUS
 62
    11
 10
0.0
 20
280.4523424878837
 30
0.0
 40
7.0
  0
LINE
  8
SIZE
  6
CONTINUOUS
 62
    30
 10
0.0
 20
328.49757673667199
 30
0.0
 11
0.0
 21
529.59874507452014
 31
0.0
  0
LINE
  8
SIZE
  6
CONTINUOUS
 62
    30
 10
-155.25040387722129
 20
250.16665507610421
 30
0.0
 11
-155.25040387722129
 21
529.59874507452014
 31
0.0
  0
LINE
  8
SIZE
  6
CONTINUOUS
 62
    30
 10
-143.25040387722129
 20
509.59874507452002
 30
0.0
 11
-12.0
 21
509.59874507452002
 31
0.0
  0
LINE
  8
SIZE
  6
CONTINUOUS
 62
    30
 10
0.0
 20
509.59874507452002
 30
0.0
 11
199.14285714285691
 21
509.59874507452002
 31
0.0
  0
CIRCLE
  8
SIZE
  6
CONTINUOUS
 62
    30
 10
-155.25040387722129
 20
509.59874507452002
 30
0.0
 40
6.0
  0
LINE
  8
SIZE
  6
CONTINUOUS
 62
    30
 10
-155.25040387722129
 20
509.59874507452002
 30
0.0
 11
-143.25040387722129
 21
509.59874507452002
 31
0.0
  0
CIRCLE
  8
SIZE
  6
CONTINUOUS
 62
    30
 10
0.0
 20
509.59874507452002
 30
0.0
 40
6.0
  0
LINE
  8
SIZE
  6
CONTINUOUS
 62
    30
 10
0.0
 20
509.59874507452002
 30
0.0
 11
-12.0
 21
509.59874507452002
 31
0.0
  0
TEXT
  8
SIZE
  6
CONTINUOUS
 62
    30
 10
36.999999999999872
 20
534.59874507452014
 30
0.0
 40
64.0
  1
155
 41
0.9
 72
     1
 11
105.5714285714284
 21
534.59874507452014
 31
0.0
  0
POINT
  8
DEFPOINTS
  6
CONTINUOUS
 62
    30
 10
0.0
 20
308.49757673667199
 30
0.0
  0
POINT
  8
DEFPOINTS
  6
CONTINUOUS
 62
    30
 10
-155.25040387722129
 20
230.16665507610421
 30
0.0
  0
POINT
  8
DEFPOINTS
  6
CONTINUOUS
 62
    30
 10
-155.25040387722129
 20
509.59874507452002
 30
0.0
  0
LINE
  8
SIZE
  6
CONTINUOUS
 62
    30
 10
0.0
 20
328.49757673667199
 30
0.0
 11
0.0
 21
609.77985092565723
 31
0.0
  0
LINE
  8
SIZE
  6
CONTINUOUS
 62
    30
 10
-295.07515983527168
 20
-28.558718654096079
 30
0.0
 11
-295.07515983527168
 21
609.77985092565723
 31
0.0
  0
LINE
  8
SIZE
  6
CONTINUOUS
 62
    30
 10
-12.0
 20
589.77985092565723
 30
0.0
 11
-283.07515983527168
 21
589.77985092565723
 31
0.0
  0
CIRCLE
  8
SIZE
  6
CONTINUOUS
 62
    30
 10
0.0
 20
589.77985092565723
 30
0.0
 40
6.0
  0
LINE
  8
SIZE
  6
CONTINUOUS
 62
    30
 10
0.0
 20
589.77985092565723
 30
0.0
 11
-12.0
 21
589.77985092565723
 31
0.0
  0
CIRCLE
  8
SIZE
  6
CONTINUOUS
 62
    30
 10
-295.07515983527168
 20
589.77985092565723
 30
0.0
 40
6.0
  0
LINE
  8
SIZE
  6
CONTINUOUS
 62
    30
 10
-295.07515983527168
 20
589.77985092565723
 30
0.0
 11
-283.07515983527168
 21
589.77985092565723
 31
0.0
  0
TEXT
  8
SIZE
  6
CONTINUOUS
 62
    30
 10
-221.59472277477869
 20
614.77985092565723
 30
0.0
 40
64.0
  1
295
 41
0.9
 72
     1
 11
-147.5375799176359
 21
614.77985092565723
 31
0.0
  0
POINT
  8
DEFPOINTS
  6
CONTINUOUS
 62
    30
 10
0.0
 20
308.49757673667199
 30
0.0
  0
POINT
  8
DEFPOINTS
  6
CONTINUOUS
 62
    30
 10
-295.07515983527168
 20
-48.558718654096083
 30
0.0
  0
POINT
  8
DEFPOINTS
  6
CONTINUOUS
 62
    30
 10
-295.07515983527168
 20
589.77985092565723
 30
0.0
  0
TEXT
  8
NOTE
  6
CONTINUOUS
 62
     4
 10
-356.65133123951989
 20
-393.39475877791119
 30
0.0
 40
64.0
  1
EL
 41
0.9
 72
     2
 11
-271.62275981094848
 21
-393.39475877791119
 31
0.0
  0
LINE
  8
SIZE
  6
CONTINUOUS
 62
    30
 10
-305.15993537964448
 20
65.305331179321456
 30
0.0
 11
-366.97315554879691
 21
65.305331179321456
 31
0.0
  0
LINE
  8
SIZE
  6
CONTINUOUS
 62
    30
 10
-305.15993537964403
 20
-65.305331179321456
 30
0.0
 11
-366.97315554879691
 21
-65.305331179321456
 31
0.0
  0
LINE
  8
SIZE
  6
CONTINUOUS
 62
    30
 10
-346.97315554879708
 20
53.305331179321463
 30
0.0
 11
-346.97315554879708
 21
-53.305331179321463
 31
0.0
  0
CIRCLE
  8
SIZE
  6
CONTINUOUS
 62
    30
 10
-346.97315554879708
 20
65.305331179321456
 30
0.0
 40
6.0
  0
LINE
  8
SIZE
  6
CONTINUOUS
 62
    30
 10
-346.97315554879708
 20
65.305331179321456
 30
0.0
 11
-346.97315554879708
 21
53.305331179321463
 31
0.0
  0
CIRCLE
  8
SIZE
  6
CONTINUOUS
 62
    30
 10
-346.97315554879708
 20
-65.305331179321456
 30
0.0
 40
6.0
  0
LINE
  8
SIZE
  6
CONTINUOUS
 62
    30
 10
-346.97315554879708
 20
-65.305331179321456
 30
0.0
 11
-346.97315554879708
 21
-53.305331179321463
 31
0.0
  0
TEXT
  8
SIZE
  6
CONTINUOUS
 62
    30
 10
-382.63982221546388
 20
-96.548571428571421
 30
0.0
 40
64.0
  1
φ131
 50
90.0
 41
0.9
 72
     1
 11
-382.63982221546388
 21
0.0
 31
0.0
  0
POINT
  8
DEFPOINTS
  6
CONTINUOUS
 62
    30
 10
-285.15993537964448
 20
65.305331179321456
 30
0.0
  0
POINT
  8
DEFPOINTS
  6
CONTINUOUS
 62
    30
 10
-285.15993537964403
 20
-65.305331179321456
 30
0.0
  0
POINT
  8
DEFPOINTS
  6
CONTINUOUS
 62
    30
 10
-346.97315554879708
 20
-65.305331179321456
 30
0.0
  0
LINE
  8
NOTE
  6
CONTINUOUS
 62
     4
 10
-112.96436070379509
 20
-265.22683984454079
 30
0.0
 11
-107.91229474904409
 21
-261.61279379076092
 31
0.0
  0
LINE
  8
NOTE
  6
CONTINUOUS
 62
     4
 10
-107.91229474904409
 20
-261.61279379076092
 30
0.0
 11
-110.4804806574539
 21
-267.26868633127481
 31
0.0
  0
LINE
  8
NOTE
  6
CONTINUOUS
 62
     4
 10
-107.91229474904409
 20
-261.61279379076092
 30
0.0
 11
-115.53254661220539
 21
-270.88273238505491
 31
0.0
  0
LINE
  8
NOTE
  6
CONTINUOUS
 62
     4
 10
-115.53254661220539
 20
-270.88273238505491
 30
0.0
 11
-237.27354534018289
 21
-418.97909493076492
 31
0.0
  0
LINE
  8
NOTE
  6
CONTINUOUS
 62
     4
 10
-237.27354534018289
 20
-418.97909493076492
 30
0.0
 11
-372.44103675184812
 21
-419.08367665520763
 31
0.0
  0
LINE
  8
NOTE
  6
CONTINUOUS
 62
     4
 10
1.9466328506205171
 20
-286.35109827490191
 30
0.0
 11
0.0
 21
-280.45234248788358
 31
0.0
  0
LINE
  8
NOTE
  6
CONTINUOUS
 62
     4
 10
0.0
 20
-280.45234248788358
 30
0.0
 11
4.6352176254299593
 21
-284.58749143984397
 31
0.0
  0
LINE
  8
NOTE
  6
CONTINUOUS
 62
     4
 10
0.0
 20
-280.45234248788358
 30
0.0
 11
6.5818504760509313
 21
-290.48624722686247
 31
0.0
  0
LINE
  8
NOTE
  6
CONTINUOUS
 62
     4
 10
6.5818504760509313
 20
-290.48624722686247
 30
0.0
 11
103.8777347687128
 21
-438.81195563357352
 31
0.0
  0
LINE
  8
NOTE
  6
CONTINUOUS
 62
     4
 10
103.8777347687128
 20
-438.81195563357352
 30
0.0
 11
394.01203122688639
 21
-438.38012172871282
 31
0.0
  0
LINE
  8
NOTE
  6
CONTINUOUS
 62
     4
 10
18.546847567183701
 20
-280.45234248788358
 30
0.0
 11
-24.853765971884059
 21
-280.45234248788358
 31
0.0
  0
LINE
  8
NOTE
  6
CONTINUOUS
 62
     4
 10
18.546847567183701
 20
280.4523424878837
 30
0.0
 11
-24.853765971884059
 21
280.4523424878837
 31
0.0
  0
LINE
  8
OUTLINE
  6
CONTINUOUS
 62
     3
 10
-270.43618739903059
 20
-94.652665589660728
 30
0.0
 11
-266.42972536348998
 21
-94.652665589660728
 31
0.0
  0
LINE
  8
OUTLINE
  6
CONTINUOUS
 62
     3
 10
-266.42972536348998
 20
94.652665589660728
 30
0.0
 11
-270.43618739903059
 21
94.652665589660728
 31
0.0
  0
LINE
  8
OUTLINE
  6
CONTINUOUS
 62
     3
 10
-10.016155088852431
 20
-303.38933764135709
 30
0.0
 11
-10.016155088852431
 21
-301.74493768180758
 31
0.0
  0
ARC
  8
OUTLINE
  6
CONTINUOUS
 62
     3
 10
-6.4103392568658819
 20
-303.38933764135709
 30
0.0
 40
3.605815831987456
 50
180.0
 51
270.0
  0
LINE
  8
OUTLINE
  6
CONTINUOUS
 62
     3
 10
-3.0048465266554558
 20
-306.99515347334409
 30
0.0
 11
-6.4103392568658819
 21
-306.99515347334409
 31
0.0
  0
LINE
  8
OUTLINE
  6
CONTINUOUS
 62
     3
 10
-13.22132471728537
 20
-296.97899838449121
 30
0.0
 11
-16.426494345717401
 21
-296.97899838449121
 31
0.0
  0
ARC
  8
OUTLINE
  6
CONTINUOUS
 62
     3
 10
-16.426494345717401
 20
-293.3731825525042
 30
0.0
 40
3.605815831987456
 50
180.0
 51
270.0
  0
LINE
  8
OUTLINE
  6
CONTINUOUS
 62
     3
 10
-155.25040387722041
 20
-261.32961628963949
 30
0.0
 11
-155.25040387722041
 21
-262.42326332794852
 31
0.0
  0
ARC
  8
OUTLINE
  6
CONTINUOUS
 62
     3
 10
-153.2471728594505
 20
-262.42326332794852
 30
0.0
 40
2.003231017770303
 50
180.0
 51
0.0
  0
LINE
  8
OUTLINE
  6
CONTINUOUS
 62
     3
 10
-151.2439418416798
 20
-261.32961628963949
 30
0.0
 11
-151.2439418416798
 21
-262.42326332794852
 31
0.0
  0
LINE
  8
OUTLINE
  6
CONTINUOUS
 62
     3
 10
-285.15993537964403
 20
65.305331179321456
 30
0.0
 11
-270.43618739903059
 21
65.305331179321456
 31
0.0
  0
LINE
  8
OUTLINE
  6
CONTINUOUS
 62
     3
 10
-285.15993537964403
 20
-65.305331179321456
 30
0.0
 11
-270.43618739903059
 21
-65.305331179321456
 31
0.0
  0
ARC
  8
OUTLINE
  6
CONTINUOUS
 62
     3
 10
-285.15993537964403
 20
-57.893376413570422
 30
0.0
 40
7.4119547657510321
 50
180.0
 51
270.0
  0
LINE
  8
OUTLINE
  6
CONTINUOUS
 62
     3
 10
-292.57189014539563
 20
-57.893376413570422
 30
0.0
 11
-292.57189014539563
 21
57.893376413569968
 31
0.0
  0
ARC
  8
OUTLINE
  6
CONTINUOUS
 62
     3
 10
-285.15993537964403
 20
57.893376413569968
 30
0.0
 40
7.4119547657514877
 50
90.0
 51
180.0
  0
LINE
  8
OUTLINE
  6
CONTINUOUS
 62
     3
 10
-151.2439418416798
 20
262.42326332794801
 30
0.0
 11
-151.2439418416798
 21
261.32961628886278
 31
0.0
  0
ARC
  8
OUTLINE
  6
CONTINUOUS
 62
     3
 10
-153.2471728594505
 20
262.42326332794801
 30
0.0
 40
2.003231017771212
 50
0.0
 51
180.0
  0
LINE
  8
OUTLINE
  6
CONTINUOUS
 62
     3
 10
-155.25040387722041
 20
262.42326332794801
 30
0.0
 11
-155.25040387722041
 21
261.32961628886278
 31
0.0
  0
LINE
  8
OUTLINE
  6
CONTINUOUS
 62
     3
 10
0.0
 20
-308.49757673667227
 30
0.0
 11
0.0
 21
308.49757673667182
 31
0.0
  0
ARC
  8
OUTLINE
  6
CONTINUOUS
 62
     3
 10
-1.5024232633272729
 20
-308.49757673667227
 30
0.0
 40
1.502423263327727
 50
180.0
 51
0.0
  0
ARC
  8
OUTLINE
  6
CONTINUOUS
 62
     3
 10
-1.5024232633272729
 20
308.49757673667182
 30
0.0
 40
1.502423263327727
 50
0.0
 51
180.0
  0
LINE
  8
OUTLINE
  6
CONTINUOUS
 62
     3
 10
-10.016155088852431
 20
301.74493768103088
 30
0.0
 11
-10.016155088852431
 21
303.38933764135709
 31
0.0
  0
ARC
  8
OUTLINE
  6
CONTINUOUS
 62
     3
 10
-6.4103392568658819
 20
303.38933764135709
 30
0.0
 40
3.6058158319870008
 50
90.0
 51
180.0
  0
LINE
  8
OUTLINE
  6
CONTINUOUS
 62
     3
 10
-16.426494345717401
 20
296.97899838449052
 30
0.0
 11
-13.22132471728537
 21
296.97899838449052
 31
0.0
  0
ARC
  8
OUTLINE
  6
CONTINUOUS
 62
     3
 10
-16.426494345717401
 20
293.37318255250369
 30
0.0
 40
3.605815831987456
 50
90.0
 51
180.0
  0
LINE
  8
OUTLINE
  6
CONTINUOUS
 62
     3
 10
-3.0048465266554558
 20
306.99515347334409
 30
0.0
 11
-3.0048465266554558
 21
308.49757673667182
 31
0.0
  0
LINE
  8
OUTLINE
  6
CONTINUOUS
 62
     3
 10
-6.4103392568658819
 20
306.99515347334409
 30
0.0
 11
-3.0048465266554558
 21
306.99515347334409
 31
0.0
  0
LINE
  8
OUTLINE
  6
CONTINUOUS
 62
     3
 10
-20.032310177705309
 20
285.96122778707331
 30
0.0
 11
-20.032310177705309
 21
293.37318255250369
 31
0.0
  0
LINE
  8
OUTLINE
  6
CONTINUOUS
 62
     3
 10
-158.25525040387629
 20
261.32961628886278
 30
0.0
 11
-155.25040387722041
 21
261.32961628886278
 31
0.0
  0
LINE
  8
OUTLINE
  6
CONTINUOUS
 62
     3
 10
-151.2439418416798
 20
261.32961628886278
 30
0.0
 11
-46.990898158749587
 21
261.32961628886278
 31
0.0
  0
LINE
  8
OUTLINE
  6
CONTINUOUS
 62
     3
 10
-266.42972536348998
 20
184.8387114935567
 30
0.0
 11
-266.42972536348998
 21
94.652665589660728
 31
0.0
  0
LINE
  8
OUTLINE
  6
CONTINUOUS
 62
     3
 10
-270.43618739903059
 20
-94.652665589660728
 30
0.0
 11
-270.43618739903008
 21
-65.305331179321456
 31
0.0
  0
LINE
  8
OUTLINE
  6
CONTINUOUS
 62
     3
 10
-270.43618739903008
 20
65.305331179321456
 30
0.0
 11
-270.43618739903059
 21
94.652665589660728
 31
0.0
  0
LINE
  8
OUTLINE
  6
CONTINUOUS
 62
     3
 10
-266.42972536348998
 20
-94.652665589660728
 30
0.0
 11
-266.42972536348998
 21
-184.83871149433341
 31
0.0
  0
LINE
  8
OUTLINE
  6
CONTINUOUS
 62
     3
 10
-155.25040387722041
 20
-261.32961628963949
 30
0.0
 11
-158.25525040387629
 21
-261.32961628963949
 31
0.0
  0
LINE
  8
OUTLINE
  6
CONTINUOUS
 62
     3
 10
-46.990898158744592
 20
-261.32961628963949
 30
0.0
 11
-151.2439418416798
 21
-261.32961628963949
 31
0.0
  0
LINE
  8
OUTLINE
  6
CONTINUOUS
 62
     3
 10
-20.032310177705309
 20
-293.3731825525042
 30
0.0
 11
-20.032310177705309
 21
-285.96212428776118
 31
0.0
  0
LINE
  8
OUTLINE
  6
CONTINUOUS
 62
     3
 10
-3.0048465266554558
 20
-308.49757673667227
 30
0.0
 11
-3.0048465266554558
 21
-306.99515347334409
 31
0.0
  0
LINE
  8
DETAIL
  6
CONTINUOUS
 62
     5
 10
-3.004846526655911
 20
-306.99515347334409
 30
0.0
 11
-6.4103392568658819
 21
-306.99515347334409
 31
0.0
  0
LINE
  8
DETAIL
  6
CONTINUOUS
 62
     5
 10
-4.6496850462735893
 20
-303.82456339745272
 30
0.0
 11
-3.004846526655911
 21
-303.82456339745272
 31
0.0
  0
LINE
  8
DETAIL
  6
CONTINUOUS
 62
     5
 10
-13.221324717285819
 20
-296.97899838449121
 30
0.0
 11
-16.426494345718769
 21
-296.97899838449121
 31
0.0
  0
LINE
  8
DETAIL
  6
CONTINUOUS
 62
     5
 10
-20.032310177706218
 20
-291.97092084006482
 30
0.0
 11
-20.533117932148802
 21
-291.97092084006482
 31
0.0
  0
LINE
  8
DETAIL
  6
CONTINUOUS
 62
     5
 10
-13.221324717285819
 20
-267.11244612600967
 30
0.0
 11
-16.780483308061321
 21
-267.11244612600967
 31
0.0
  0
LINE
  8
DETAIL
  6
CONTINUOUS
 62
     5
 10
-13.221324717285819
 20
-264.22103120782481
 30
0.0
 11
-16.780483308061321
 21
-264.22103120782481
 31
0.0
  0
LINE
  8
DETAIL
  6
CONTINUOUS
 62
     5
 10
-13.221324717285819
 20
-261.32961628963949
 30
0.0
 11
-158.2552504038772
 21
-261.32961628963949
 31
0.0
  0
LINE
  8
DETAIL
  6
CONTINUOUS
 62
     5
 10
-158.2552504038772
 20
-257.08012157831467
 30
0.0
 11
-13.221324717285819
 21
-257.08012157831467
 31
0.0
  0
LINE
  8
DETAIL
  6
CONTINUOUS
 62
     5
 10
-4.6496850462735893
 20
-254.24712510435691
 30
0.0
 11
-3.004846526655911
 21
-254.24712510435691
 31
0.0
  0
LINE
  8
DETAIL
  6
CONTINUOUS
 62
     5
 10
-6.4103392568658819
 20
-242.9151392093024
 30
0.0
 11
-3.004846526655911
 21
-242.9151392093024
 31
0.0
  0
LINE
  8
DETAIL
  6
CONTINUOUS
 62
     5
 10
-13.221324717285819
 20
-230.16665507610421
 30
0.0
 11
-158.2552504038772
 21
-230.16665507610421
 31
0.0
  0
LINE
  8
DETAIL
  6
CONTINUOUS
 62
     5
 10
-13.221324717285819
 20
-213.16867623313419
 30
0.0
 11
-10.01615508885334
 21
-213.16867623313419
 31
0.0
  0
LINE
  8
DETAIL
  6
CONTINUOUS
 62
     5
 10
-16.426494345718769
 20
-201.1284412186196
 30
0.0
 11
-13.021001615509251
 21
-201.1284412186196
 31
0.0
  0
LINE
  8
DETAIL
  6
CONTINUOUS
 62
     5
 10
-266.42972536348952
 20
-95.153473344103531
 30
0.0
 11
-269.43457189014538
 21
-95.153473344103531
 31
0.0
  0
LINE
  8
DETAIL
  6
CONTINUOUS
 62
     5
 10
-270.43618739903093
 20
-94.652665589660728
 30
0.0
 11
-266.42972536348952
 21
-94.652665589660728
 31
0.0
  0
LINE
  8
DETAIL
  6
CONTINUOUS
 62
     5
 10
-293.07269789983877
 20
-43.870759289176249
 30
0.0
 11
-293.07269789983877
 21
-53.285945072697807
 31
0.0
  0
LINE
  8
DETAIL
  6
CONTINUOUS
 62
     5
 10
-292.57189014539608
 20
-57.893376413570188
 30
0.0
 11
-292.57189014539608
 21
57.893376413570188
 31
0.0
  0
LINE
  8
DETAIL
  6
CONTINUOUS
 62
     5
 10
-285.15993537964448
 20
-65.305331179321456
 30
0.0
 11
-270.43618739903093
 21
-65.305331179321456
 31
0.0
  0
LINE
  8
DETAIL
  6
CONTINUOUS
 62
     5
 10
-177.2859450726983
 20
-65.305331179321456
 30
0.0
 11
-155.25040387722129
 21
-65.305331179321456
 31
0.0
  0
LINE
  8
DETAIL
  6
CONTINUOUS
 62
     5
 10
-270.43618739903093
 20
-94.652650945886762
 30
0.0
 11
-270.43618739903093
 21
94.652665589660728
 31
0.0
  0
LINE
  8
DETAIL
  6
CONTINUOUS
 62
     5
 10
-269.43457189014538
 20
-95.153473344103531
 30
0.0
 11
-269.43457189014538
 21
-94.652665589660728
 31
0.0
  0
LINE
  8
DETAIL
  6
CONTINUOUS
 62
     5
 10
-266.42972536348952
 20
180.5892167830084
 30
0.0
 11
-266.42972536348952
 21
-180.5892167830084
 31
0.0
  0
LINE
  8
DETAIL
  6
CONTINUOUS
 62
     5
 10
-293.07269789983877
 20
-53.285945072697807
 30
0.0
 11
-292.57189014539608
 21
-53.285945072697807
 31
0.0
  0
LINE
  8
DETAIL
  6
CONTINUOUS
 62
     5
 10
-293.07269789983877
 20
-43.870759289176249
 30
0.0
 11
-292.57189014539608
 21
-43.870759289176249
 31
0.0
  0
LINE
  8
DETAIL
  6
CONTINUOUS
 62
     5
 10
-228.36833602584829
 20
-180.5892167830084
 30
0.0
 11
-228.36833602584829
 21
180.5892167830084
 31
0.0
  0
LINE
  8
DETAIL
  6
CONTINUOUS
 62
     5
 10
-16.780483308061321
 20
235.94948491247439
 30
0.0
 11
-17.227786752827338
 21
235.1747326205307
 31
0.0
  0
LINE
  8
DETAIL
  6
CONTINUOUS
 62
     5
 10
-155.25040387722129
 20
262.42326332794818
 30
0.0
 11
-155.25040387722129
 21
261.32961628886301
 31
0.0
  0
LINE
  8
DETAIL
  6
CONTINUOUS
 62
     5
 10
-155.25040387722129
 20
230.16665507610421
 30
0.0
 11
-155.25040387722129
 21
-230.16665507610421
 31
0.0
  0
LINE
  8
DETAIL
  6
CONTINUOUS
 62
     5
 10
-155.25040387722129
 20
-261.32961628963949
 30
0.0
 11
-155.25040387722129
 21
-262.42326332794852
 31
0.0
  0
LINE
  8
DETAIL
  6
CONTINUOUS
 62
     5
 10
-151.2439418416802
 20
262.42326332794818
 30
0.0
 11
-151.2439418416802
 21
261.32961628886301
 31
0.0
  0
LINE
  8
DETAIL
  6
CONTINUOUS
 62
     5
 10
-151.2439418416802
 20
230.16665507610421
 30
0.0
 11
-151.2439418416802
 21
-230.16665507610421
 31
0.0
  0
LINE
  8
DETAIL
  6
CONTINUOUS
 62
     5
 10
-151.2439418416802
 20
-261.32961628963949
 30
0.0
 11
-151.2439418416802
 21
-262.42326332794852
 31
0.0
  0
LINE
  8
DETAIL
  6
CONTINUOUS
 62
     5
 10
-228.36833602584829
 20
63.549721702295301
 30
0.0
 11
-225.36348949919241
 21
63.549721702295301
 31
0.0
  0
LINE
  8
DETAIL
  6
CONTINUOUS
 62
     5
 10
-285.15993537964448
 20
65.305331179321456
 30
0.0
 11
-270.43618739903093
 21
65.305331179321456
 31
0.0
  0
LINE
  8
DETAIL
  6
CONTINUOUS
 62
     5
 10
-177.2859450726983
 20
65.305331179321456
 30
0.0
 11
-155.25040387722129
 21
65.305331179321456
 31
0.0
  0
LINE
  8
DETAIL
  6
CONTINUOUS
 62
     5
 10
-16.780483308061321
 20
-267.11244612600967
 30
0.0
 11
-17.227786752827338
 21
-266.33769383406587
 31
0.0
  0
LINE
  8
DETAIL
  6
CONTINUOUS
 62
     5
 10
-266.42972536348952
 20
94.652665589660728
 30
0.0
 11
-270.43618739903093
 21
94.652665589660728
 31
0.0
  0
LINE
  8
DETAIL
  6
CONTINUOUS
 62
     5
 10
-20.533117932148802
 20
-291.97092084006482
 30
0.0
 11
-20.533117932148802
 21
-284.25387457534708
 31
0.0
  0
LINE
  8
DETAIL
  6
CONTINUOUS
 62
     5
 10
-20.032310177706218
 20
-293.37318255250398
 30
0.0
 11
-20.032310177706218
 21
-261.32961628963949
 31
0.0
  0
LINE
  8
DETAIL
  6
CONTINUOUS
 62
     5
 10
-20.032310177706218
 20
-230.16665507610421
 30
0.0
 11
-20.032310177706218
 21
230.16665507610421
 31
0.0
  0
LINE
  8
DETAIL
  6
CONTINUOUS
 62
     5
 10
-20.032310177706218
 20
261.32961628886301
 30
0.0
 11
-20.032310177706218
 21
293.37318255250398
 31
0.0
  0
LINE
  8
DETAIL
  6
CONTINUOUS
 62
     5
 10
-17.227786752827338
 20
-266.33769383406587
 30
0.0
 11
-17.227786752827338
 21
-261.32961628963949
 31
0.0
  0
LINE
  8
DETAIL
  6
CONTINUOUS
 62
     5
 10
-17.227786752827338
 20
225.15857753167759
 30
0.0
 11
-17.227786752827338
 21
235.1747326205307
 31
0.0
  0
LINE
  8
DETAIL
  6
CONTINUOUS
 62
     5
 10
-13.221324717285819
 20
-297.01089259653628
 30
0.0
 11
-13.221324717285819
 21
-255.35998548696941
 31
0.0
  0
LINE
  8
DETAIL
  6
CONTINUOUS
 62
     5
 10
-13.221324717285819
 20
-255.35998548696941
 30
0.0
 11
-13.221324717285819
 21
-213.16867623313419
 31
0.0
  0
LINE
  8
DETAIL
  6
CONTINUOUS
 62
     5
 10
-13.221324717285819
 20
213.16867623235771
 30
0.0
 11
-13.221324717285819
 21
251.1037368418929
 31
0.0
  0
LINE
  8
DETAIL
  6
CONTINUOUS
 62
     5
 10
-13.221324717285819
 20
251.1037368418929
 30
0.0
 11
-13.221324717285819
 21
255.35998548619301
 31
0.0
  0
LINE
  8
DETAIL
  6
CONTINUOUS
 62
     5
 10
-13.221324717285819
 20
255.35998548619301
 30
0.0
 11
-13.221324717285819
 21
297.01089259575969
 31
0.0
  0
LINE
  8
DETAIL
  6
CONTINUOUS
 62
     5
 10
-10.01615508885334
 20
303.38933764135709
 30
0.0
 11
-10.01615508885334
 21
301.74493768103088
 31
0.0
  0
LINE
  8
DETAIL
  6
CONTINUOUS
 62
     5
 10
-10.01615508885334
 20
-239.30932337731539
 30
0.0
 11
-10.01615508885334
 21
-247.43345430344019
 31
0.0
  0
LINE
  8
DETAIL
  6
CONTINUOUS
 62
     5
 10
-10.01615508885334
 20
-303.38933764135709
 30
0.0
 11
-10.01615508885334
 21
-301.74493768180741
 31
0.0
  0
LINE
  8
DETAIL
  6
CONTINUOUS
 62
     5
 10
-10.01615508885334
 20
-239.30932337731539
 30
0.0
 11
-10.01615508885334
 21
239.30932337653871
 31
0.0
  0
LINE
  8
DETAIL
  6
CONTINUOUS
 62
     5
 10
-10.01615508885334
 20
239.30932337653871
 30
0.0
 11
-10.01615508885334
 21
247.4334543026637
 31
0.0
  0
LINE
  8
DETAIL
  6
CONTINUOUS
 62
     5
 10
-3.8061389337644869
 20
-303.82456339745272
 30
0.0
 11
-3.8061389337644869
 21
-256.36215952772051
 31
0.0
  0
LINE
  8
DETAIL
  6
CONTINUOUS
 62
     5
 10
-3.8061389337644869
 20
256.36215952694403
 30
0.0
 11
-3.8061389337644869
 21
303.82456339745289
 31
0.0
  0
LINE
  8
DETAIL
  6
CONTINUOUS
 62
     5
 10
-3.004846526655911
 20
-308.49757673667199
 30
0.0
 11
-3.004846526655911
 21
308.49757673667199
 31
0.0
  0
LINE
  8
DETAIL
  6
CONTINUOUS
 62
     5
 10
0.0
 20
-308.49757673667199
 30
0.0
 11
0.0
 21
308.49757673667199
 31
0.0
  0
LINE
  8
DETAIL
  6
CONTINUOUS
 62
     5
 10
-13.021001615509251
 20
201.1284412186196
 30
0.0
 11
-16.426494345718769
 21
201.1284412186196
 31
0.0
  0
LINE
  8
DETAIL
  6
CONTINUOUS
 62
     5
 10
-13.221324717285819
 20
213.16867623235771
 30
0.0
 11
-10.01615508885334
 21
213.16867623235771
 31
0.0
  0
LINE
  8
DETAIL
  6
CONTINUOUS
 62
     5
 10
-13.221324717285819
 20
224.3838252389576
 30
0.0
 11
-16.780483308061321
 21
224.3838252389576
 31
0.0
  0
LINE
  8
DETAIL
  6
CONTINUOUS
 62
     5
 10
-13.221324717285819
 20
227.27524015791909
 30
0.0
 11
-16.780483308061321
 21
227.27524015791909
 31
0.0
  0
LINE
  8
DETAIL
  6
CONTINUOUS
 62
     5
 10
-158.2552504038772
 20
230.16665507610421
 30
0.0
 11
-17.227786752827338
 21
230.16665507610421
 31
0.0
  0
LINE
  8
DETAIL
  6
CONTINUOUS
 62
     5
 10
-13.221324717285819
 20
233.0580699942893
 30
0.0
 11
-16.780483308061321
 21
233.0580699942893
 31
0.0
  0
LINE
  8
DETAIL
  6
CONTINUOUS
 62
     5
 10
-13.221324717285819
 20
235.94948491247439
 30
0.0
 11
-16.780483308061321
 21
235.94948491247439
 31
0.0
  0
LINE
  8
DETAIL
  6
CONTINUOUS
 62
     5
 10
-3.004846526655911
 20
242.91513920852569
 30
0.0
 11
-6.4103392568658819
 21
242.91513920852569
 31
0.0
  0
LINE
  8
DETAIL
  6
CONTINUOUS
 62
     5
 10
-4.6496850462735893
 20
254.24712510435691
 30
0.0
 11
-3.004846526655911
 21
254.24712510435691
 31
0.0
  0
LINE
  8
DETAIL
  6
CONTINUOUS
 62
     5
 10
-13.221324717285819
 20
257.08012157831467
 30
0.0
 11
-158.2552504038772
 21
257.08012157831467
 31
0.0
  0
LINE
  8
DETAIL
  6
CONTINUOUS
 62
     5
 10
-158.2552504038772
 20
261.32961628886301
 30
0.0
 11
-13.221324717285819
 21
261.32961628886301
 31
0.0
  0
LINE
  8
DETAIL
  6
CONTINUOUS
 62
     5
 10
-16.426494345718769
 20
296.97899838449121
 30
0.0
 11
-13.221324717285819
 21
296.97899838449121
 31
0.0
  0
LINE
  8
DETAIL
  6
CONTINUOUS
 62
     5
 10
-6.4103392568658819
 20
306.99515347334409
 30
0.0
 11
-3.004846526655911
 21
306.99515347334409
 31
0.0
  0
LINE
  8
DETAIL
  6
CONTINUOUS
 62
     5
 10
-16.780483308061321
 20
224.3838252389576
 30
0.0
 11
-17.227786752827338
 21
225.15857753167759
 31
0.0
  0
ARC
  8
DETAIL
  6
CONTINUOUS
 62
     5
 10
-285.15993537964448
 20
-57.893376413570188
 30
0.0
 40
7.4119547657511742
 50
180.0
 51
270.0
  0
ARC
  8
DETAIL
  6
CONTINUOUS
 62
     5
 10
-288.54289176090469
 20
-48.578352180937152
 30
0.0
 40
6.5330371567044114
 50
133.89739816710161
 51
226.10260183289839
  0
ARC
  8
DETAIL
  6
CONTINUOUS
 62
     5
 10
-153.24717285945101
 20
-262.42326332794852
 30
0.0
 40
2.0032310177705881
 50
180.0
 51
0.0
  0
ARC
  8
DETAIL
  6
CONTINUOUS
 62
     5
 10
-285.15993537964448
 20
57.893376413570188
 30
0.0
 40
7.4119547657512017
 50
90.0
 51
180.0
  0
ARC
  8
DETAIL
  6
CONTINUOUS
 62
     5
 10
-153.24717285945101
 20
262.42326332794818
 30
0.0
 40
2.0032310177707009
 50
0.0
 51
180.0
  0
ARC
  8
DETAIL
  6
CONTINUOUS
 62
     5
 10
-6.4103392568658819
 20
-239.30932337731539
 30
0.0
 40
3.6058158319871141
 50
180.0
 51
270.0
  0
ARC
  8
DETAIL
  6
CONTINUOUS
 62
     5
 10
-6.4103392568658819
 20
-303.38933764135709
 30
0.0
 40
3.6058158319871141
 50
180.0
 51
270.0
  0
ARC
  8
DETAIL
  6
CONTINUOUS
 62
     5
 10
-16.426494345718769
 20
-197.5226253866324
 30
0.0
 40
3.6058158319872282
 50
180.0
 51
270.0
  0
ARC
  8
DETAIL
  6
CONTINUOUS
 62
     5
 10
-16.426494345718769
 20
-293.37318255250398
 30
0.0
 40
3.6058158319872282
 50
180.0
 51
270.0
  0
ARC
  8
DETAIL
  6
CONTINUOUS
 62
     5
 10
-13.021001615509251
 20
-204.13328774527551
 30
0.0
 40
3.004846526655911
 50
0.0
 51
90.0
  0
ARC
  8
DETAIL
  6
CONTINUOUS
 62
     5
 10
-1.5024232633277279
 20
-308.49757673667199
 30
0.0
 40
1.5024232633279551
 50
180.0
 51
0.0
  0
ARC
  8
DETAIL
  6
CONTINUOUS
 62
     5
 10
-16.426494345718769
 20
197.5226253866324
 30
0.0
 40
3.6058158319871141
 50
90.0
 51
180.0
  0
ARC
  8
DETAIL
  6
CONTINUOUS
 62
     5
 10
-16.426494345718769
 20
293.37318255250398
 30
0.0
 40
3.6058158319870008
 50
90.0
 51
180.0
  0
ARC
  8
DETAIL
  6
CONTINUOUS
 62
     5
 10
-6.4103392568658819
 20
239.30932337653871
 30
0.0
 40
3.6058158319870581
 50
90.0
 51
180.0
  0
ARC
  8
DETAIL
  6
CONTINUOUS
 62
     5
 10
-6.4103392568658819
 20
303.38933764135709
 30
0.0
 40
3.6058158319871141
 50
90.0
 51
180.0
  0
ARC
  8
DETAIL
  6
CONTINUOUS
 62
     5
 10
-13.021001615509251
 20
204.13328774527551
 30
0.0
 40
3.004846526655911
 50
270.0
 51
0.0
  0
ARC
  8
DETAIL
  6
CONTINUOUS
 62
     5
 10
-14.498438072885619
 20
234.38925753841519
 30
0.0
 40
2.742269426056041
 50
162.54690628830369
 51
163.8986461126083
  0
ARC
  8
DETAIL
  6
CONTINUOUS
 62
     5
 10
-1.5024232633277279
 20
308.49757673667199
 30
0.0
 40
1.5024232633279551
 50
0.0
 51
180.0
  0
LINE
  8
DETAIL
  6
CONTINUOUS
 62
     5
 10
-294.710802837134
 20
-47.055616576699087
 30
0.0
 11
-294.71911845741812
 21
-47.074060094124889
 31
0.0
  0
LINE
  8
DETAIL
  6
CONTINUOUS
 62
     5
 10
-294.71911845741812
 20
-47.074060094124889
 30
0.0
 11
-294.72743461508838
 21
-47.092482627093432
 31
0.0
  0
LINE
  8
DETAIL
  6
CONTINUOUS
 62
     5
 10
-294.72743461508838
 20
-47.092482627093432
 30
0.0
 11
-294.72743461508838
 21
-47.092482627093432
 31
0.0
  0
LINE
  8
DETAIL
  6
CONTINUOUS
 62
     5
 10
-294.72743461508838
 20
-47.092482627093432
 30
0.0
 11
-294.73575666564238
 21
-47.110883069952479
 31
0.0
  0
LINE
  8
DETAIL
  6
CONTINUOUS
 62
     5
 10
-294.73575666564238
 20
-47.110883069952479
 30
0.0
 11
-294.74410923702538
 21
-47.129339832271171
 31
0.0
  0
LINE
  8
DETAIL
  6
CONTINUOUS
 62
     5
 10
-294.74410923702538
 20
-47.129339832271171
 30
0.0
 11
-294.74410923702538
 21
-47.129339832271171
 31
0.0
  0
LINE
  8
DETAIL
  6
CONTINUOUS
 62
     5
 10
-294.74410923702538
 20
-47.129339832271171
 30
0.0
 11
-294.75248911412018
 21
-47.147874451343107
 31
0.0
  0
LINE
  8
DETAIL
  6
CONTINUOUS
 62
     5
 10
-294.75248911412018
 20
-47.147874451343107
 30
0.0
 11
-294.76076243711577
 21
-47.166201460139973
 31
0.0
  0
LINE
  8
DETAIL
  6
CONTINUOUS
 62
     5
 10
-294.76076243711577
 20
-47.166201460139973
 30
0.0
 11
-294.76076243711577
 21
-47.166201460139973
 31
0.0
  0
LINE
  8
DETAIL
  6
CONTINUOUS
 62
     5
 10
-294.76076243711577
 20
-47.166201460139973
 30
0.0
 11
-294.76888851160948
 21
-47.184245766069353
 31
0.0
  0
LINE
  8
DETAIL
  6
CONTINUOUS
 62
     5
 10
-294.76888851160948
 20
-47.184245766069353
 30
0.0
 11
-294.77732994953078
 21
-47.203080778607273
 31
0.0
  0
LINE
  8
DETAIL
  6
CONTINUOUS
 62
     5
 10
-294.77732994953078
 20
-47.203080778607273
 30
0.0
 11
-294.77732994953078
 21
-47.203080778607273
 31
0.0
  0
LINE
  8
DETAIL
  6
CONTINUOUS
 62
     5
 10
-294.77732994953078
 20
-47.203080778607273
 30
0.0
 11
-294.78620454423208
 21
-47.222995281758813
 31
0.0
  0
LINE
  8
DETAIL
  6
CONTINUOUS
 62
     5
 10
-294.78620454423208
 20
-47.222995281758813
 30
0.0
 11
-294.79374750843999
 21
-47.239991055580049
 31
0.0
  0
LINE
  8
DETAIL
  6
CONTINUOUS
 62
     5
 10
-294.79374750843999
 20
-47.239991055580049
 30
0.0
 11
-294.79374750843999
 21
-47.239991055580049
 31
0.0
  0
LINE
  8
DETAIL
  6
CONTINUOUS
 62
     5
 10
-294.79374750843999
 20
-47.239991055580049
 30
0.0
 11
-294.79847036311281
 21
-47.250687743198107
 31
0.0
  0
LINE
  8
DETAIL
  6
CONTINUOUS
 62
     5
 10
-294.79847036311281
 20
-47.250687743198107
 30
0.0
 11
-294.80187244275982
 21
-47.258463443975188
 31
0.0
  0
LINE
  8
DETAIL
  6
CONTINUOUS
 62
     5
 10
-294.80187244275982
 20
-47.258463443975188
 30
0.0
 11
-294.80187244275982
 21
-47.258463443975188
 31
0.0
  0
LINE
  8
DETAIL
  6
CONTINUOUS
 62
     5
 10
-294.80187244275982
 20
-47.258463443975188
 30
0.0
 11
-294.80572393320972
 21
-47.2673152181153
 31
0.0
  0
LINE
  8
DETAIL
  6
CONTINUOUS
 62
     5
 10
-294.80572393320972
 20
-47.2673152181153
 30
0.0
 11
-294.80989061202081
 21
-47.276957512950283
 31
0.0
  0
LINE
  8
DETAIL
  6
CONTINUOUS
 62
     5
 10
-294.80989061202081
 20
-47.276957512950283
 30
0.0
 11
-294.80989061202081
 21
-47.276957512950283
 31
0.0
  0
LINE
  8
DETAIL
  6
CONTINUOUS
 62
     5
 10
-294.80989061202081
 20
-47.276957512950283
 30
0.0
 11
-294.81388972584602
 21
-47.286321003259452
 31
0.0
  0
LINE
  8
DETAIL
  6
CONTINUOUS
 62
     5
 10
-294.81388972584602
 20
-47.286321003259452
 30
0.0
 11
-294.81774880599818
 21
-47.295483886482323
 31
0.0
  0
LINE
  8
DETAIL
  6
CONTINUOUS
 62
     5
 10
-294.81774880599818
 20
-47.295483886482323
 30
0.0
 11
-294.81774880599818
 21
-47.295483886482323
 31
0.0
  0
LINE
  8
DETAIL
  6
CONTINUOUS
 62
     5
 10
-294.81774880599818
 20
-47.295483886482323
 30
0.0
 11
-294.82158877236361
 21
-47.304734371281263
 31
0.0
  0
LINE
  8
DETAIL
  6
CONTINUOUS
 62
     5
 10
-294.82158877236361
 20
-47.304734371281263
 30
0.0
 11
-294.82539381446668
 21
-47.314053188547859
 31
0.0
  0
LINE
  8
DETAIL
  6
CONTINUOUS
 62
     5
 10
-294.82539381446668
 20
-47.314053188547859
 30
0.0
 11
-294.82539381446668
 21
-47.314053188547859
 31
0.0
  0
LINE
  8
DETAIL
  6
CONTINUOUS
 62
     5
 10
-294.82539381446668
 20
-47.314053188547859
 30
0.0
 11
-294.82912309843908
 21
-47.323364796837502
 31
0.0
  0
LINE
  8
DETAIL
  6
CONTINUOUS
 62
     5
 10
-294.82912309843908
 20
-47.323364796837502
 30
0.0
 11
-294.83277242720209
 21
-47.332676043124138
 31
0.0
  0
LINE
  8
DETAIL
  6
CONTINUOUS
 62
     5
 10
-294.83277242720209
 20
-47.332676043124138
 30
0.0
 11
-294.83277242720209
 21
-47.332676043124138
 31
0.0
  0
LINE
  8
DETAIL
  6
CONTINUOUS
 62
     5
 10
-294.83277242720209
 20
-47.332676043124138
 30
0.0
 11
-294.83634740398918
 21
-47.342008243594819
 31
0.0
  0
LINE
  8
DETAIL
  6
CONTINUOUS
 62
     5
 10
-294.83634740398918
 20
-47.342008243594819
 30
0.0
 11
-294.83985619649411
 21
-47.351358202864049
 31
0.0
  0
LINE
  8
DETAIL
  6
CONTINUOUS
 62
     5
 10
-294.83985619649411
 20
-47.351358202864049
 30
0.0
 11
-294.83985619649411
 21
-47.351358202864049
 31
0.0
  0
LINE
  8
DETAIL
  6
CONTINUOUS
 62
     5
 10
-294.83985619649411
 20
-47.351358202864049
 30
0.0
 11
-294.84330827112581
 21
-47.360718076458852
 31
0.0
  0
LINE
  8
DETAIL
  6
CONTINUOUS
 62
     5
 10
-294.84330827112581
 20
-47.360718076458852
 30
0.0
 11
-294.84671572469642
 21
-47.370085935128152
 31
0.0
  0
LINE
  8
DETAIL
  6
CONTINUOUS
 62
     5
 10
-294.84671572469642
 20
-47.370085935128152
 30
0.0
 11
-294.84671572469642
 21
-47.370085935128152
 31
0.0
  0
LINE
  8
DETAIL
  6
CONTINUOUS
 62
     5
 10
-294.84671572469642
 20
-47.370085935128152
 30
0.0
 11
-294.85009113541543
 21
-47.379460932182837
 31
0.0
  0
LINE
  8
DETAIL
  6
CONTINUOUS
 62
     5
 10
-294.85009113541543
 20
-47.379460932182837
 30
0.0
 11
-294.85344637667731
 21
-47.388840635953777
 31
0.0
  0
LINE
  8
DETAIL
  6
CONTINUOUS
 62
     5
 10
-294.85344637667731
 20
-47.388840635953777
 30
0.0
 11
-294.85344637667731
 21
-47.388840635953777
 31
0.0
  0
LINE
  8
DETAIL
  6
CONTINUOUS
 62
     5
 10
-294.85344637667731
 20
-47.388840635953777
 30
0.0
 11
-294.85679319288738
 21
-47.398222324700782
 31
0.0
  0
LINE
  8
DETAIL
  6
CONTINUOUS
 62
     5
 10
-294.85679319288738
 20
-47.398222324700782
 30
0.0
 11
-294.860143517305
 21
-47.407603701377639
 31
0.0
  0
LINE
  8
DETAIL
  6
CONTINUOUS
 62
     5
 10
-294.860143517305
 20
-47.407603701377639
 30
0.0
 11
-294.860143517305
 21
-47.407603701377639
 31
0.0
  0
LINE
  8
DETAIL
  6
CONTINUOUS
 62
     5
 10
-294.860143517305
 20
-47.407603701377639
 30
0.0
 11
-294.86350931775269
 21
-47.416982546662211
 31
0.0
  0
LINE
  8
DETAIL
  6
CONTINUOUS
 62
     5
 10
-294.86350931775269
 20
-47.416982546662211
 30
0.0
 11
-294.86690251144847
 21
-47.42635652743661
 31
0.0
  0
LINE
  8
DETAIL
  6
CONTINUOUS
 62
     5
 10
-294.86690251144847
 20
-47.42635652743661
 30
0.0
 11
-294.86690251144847
 21
-47.42635652743661
 31
0.0
  0
LINE
  8
DETAIL
  6
CONTINUOUS
 62
     5
 10
-294.86690251144847
 20
-47.42635652743661
 30
0.0
 11
-294.87033107589087
 21
-47.435724010839067
 31
0.0
  0
LINE
  8
DETAIL
  6
CONTINUOUS
 62
     5
 10
-294.87033107589087
 20
-47.435724010839067
 30
0.0
 11
-294.87378728029989
 21
-47.445086278832832
 31
0.0
  0
LINE
  8
DETAIL
  6
CONTINUOUS
 62
     5
 10
-294.87378728029989
 20
-47.445086278832832
 30
0.0
 11
-294.87378728029989
 21
-47.445086278832832
 31
0.0
  0
LINE
  8
DETAIL
  6
CONTINUOUS
 62
     5
 10
-294.87378728029989
 20
-47.445086278832832
 30
0.0
 11
-294.87725946591547
 21
-47.454445340044003
 31
0.0
  0
LINE
  8
DETAIL
  6
CONTINUOUS
 62
     5
 10
-294.87725946591547
 20
-47.454445340044003
 30
0.0
 11
-294.880735970346
 21
-47.463803194928687
 31
0.0
  0
LINE
  8
DETAIL
  6
CONTINUOUS
 62
     5
 10
-294.880735970346
 20
-47.463803194928687
 30
0.0
 11
-294.880735970346
 21
-47.463803194928687
 31
0.0
  0
LINE
  8
DETAIL
  6
CONTINUOUS
 62
     5
 10
-294.880735970346
 20
-47.463803194928687
 30
0.0
 11
-294.88420513053461
 21
-47.47316184244778
 31
0.0
  0
LINE
  8
DETAIL
  6
CONTINUOUS
 62
     5
 10
-294.88420513053461
 20
-47.47316184244778
 30
0.0
 11
-294.88765528439808
 21
-47.482523283751107
 31
0.0
  0
LINE
  8
DETAIL
  6
CONTINUOUS
 62
     5
 10
-294.88765528439808
 20
-47.482523283751107
 30
0.0
 11
-294.88765528439808
 21
-47.482523283751107
 31
0.0
  0
LINE
  8
DETAIL
  6
CONTINUOUS
 62
     5
 10
-294.88765528439808
 20
-47.482523283751107
 30
0.0
 11
-294.89107477003017
 21
-47.491889520389577
 31
0.0
  0
LINE
  8
DETAIL
  6
CONTINUOUS
 62
     5
 10
-294.89107477003017
 20
-47.491889520389577
 30
0.0
 11
-294.89445192526551
 21
-47.501262553327251
 31
0.0
  0
LINE
  8
DETAIL
  6
CONTINUOUS
 62
     5
 10
-294.89445192526551
 20
-47.501262553327251
 30
0.0
 11
-294.89445192526551
 21
-47.501262553327251
 31
0.0
  0
LINE
  8
DETAIL
  6
CONTINUOUS
 62
     5
 10
-294.89445192526551
 20
-47.501262553327251
 30
0.0
 11
-294.89777508788973
 21
-47.510644383420868
 31
0.0
  0
LINE
  8
DETAIL
  6
CONTINUOUS
 62
     5
 10
-294.89777508788973
 20
-47.510644383420868
 30
0.0
 11
-294.90103259575972
 21
-47.520037011684281
 31
0.0
  0
LINE
  8
DETAIL
  6
CONTINUOUS
 62
     5
 10
-294.90103259575972
 20
-47.520037011684281
 30
0.0
 11
-294.90103259575972
 21
-47.520037011684281
 31
0.0
  0
LINE
  8
DETAIL
  6
CONTINUOUS
 62
     5
 10
-294.90103259575972
 20
-47.520037011684281
 30
0.0
 11
-294.90421555264282
 21
-47.529441959976573
 31
0.0
  0
LINE
  8
DETAIL
  6
CONTINUOUS
 62
     5
 10
-294.90421555264282
 20
-47.529441959976573
 30
0.0
 11
-294.90732612588488
 21
-47.538858833379663
 31
0.0
  0
LINE
  8
DETAIL
  6
CONTINUOUS
 62
     5
 10
-294.90732612588488
 20
-47.538858833379663
 30
0.0
 11
-294.90732612588488
 21
-47.538858833379663
 31
0.0
  0
LINE
  8
DETAIL
  6
CONTINUOUS
 62
     5
 10
-294.90732612588488
 20
-47.538858833379663
 30
0.0
 11
-294.91036924872878
 21
-47.548286757783899
 31
0.0
  0
LINE
  8
DETAIL
  6
CONTINUOUS
 62
     5
 10
-294.91036924872878
 20
-47.548286757783899
 30
0.0
 11
-294.91334985442148
 21
-47.557724859090968
 31
0.0
  0
LINE
  8
DETAIL
  6
CONTINUOUS
 62
     5
 10
-294.91334985442148
 20
-47.557724859090968
 30
0.0
 11
-294.91334985442148
 21
-47.557724859090968
 31
0.0
  0
LINE
  8
DETAIL
  6
CONTINUOUS
 62
     5
 10
-294.91334985442148
 20
-47.557724859090968
 30
0.0
 11
-294.91627287621122
 21
-47.567172263205293
 31
0.0
  0
LINE
  8
DETAIL
  6
CONTINUOUS
 62
     5
 10
-294.91627287621122
 20
-47.567172263205293
 30
0.0
 11
-294.91914324734398
 21
-47.57662809602698
 31
0.0
  0
LINE
  8
DETAIL
  6
CONTINUOUS
 62
     5
 10
-294.91914324734398
 20
-47.57662809602698
 30
0.0
 11
-294.91914324734398
 21
-47.57662809602698
 31
0.0
  0
LINE
  8
DETAIL
  6
CONTINUOUS
 62
     5
 10
-294.91914324734398
 20
-47.57662809602698
 30
0.0
 11
-294.92196590106641
 21
-47.586091483456357
 31
0.0
  0
LINE
  8
DETAIL
  6
CONTINUOUS
 62
     5
 10
-294.92196590106641
 20
-47.586091483456357
 30
0.0
 11
-294.92474577062598
 21
-47.595561551395122
 31
0.0
  0
LINE
  8
DETAIL
  6
CONTINUOUS
 62
     5
 10
-294.92474577062598
 20
-47.595561551395122
 30
0.0
 11
-294.92474577062598
 21
-47.595561551395122
 31
0.0
  0
LINE
  8
DETAIL
  6
CONTINUOUS
 62
     5
 10
-294.92474577062598
 20
-47.595561551395122
 30
0.0
 11
-294.92748778926853
 21
-47.605037425743603
 31
0.0
  0
LINE
  8
DETAIL
  6
CONTINUOUS
 62
     5
 10
-294.92748778926853
 20
-47.605037425743603
 30
0.0
 11
-294.93019689024078
 21
-47.614518232403732
 31
0.0
  0
LINE
  8
DETAIL
  6
CONTINUOUS
 62
     5
 10
-294.93019689024078
 20
-47.614518232403732
 30
0.0
 11
-294.93019689024078
 21
-47.614518232403732
 31
0.0
  0
LINE
  8
DETAIL
  6
CONTINUOUS
 62
     5
 10
-294.93019689024078
 20
-47.614518232403732
 30
0.0
 11
-294.93287832233892
 21
-47.624003091822708
 31
0.0
  0
LINE
  8
DETAIL
  6
CONTINUOUS
 62
     5
 10
-294.93287832233892
 20
-47.624003091822708
 30
0.0
 11
-294.93553859654497
 21
-47.633491102636299
 31
0.0
  0
LINE
  8
DETAIL
  6
CONTINUOUS
 62
     5
 10
-294.93553859654497
 20
-47.633491102636299
 30
0.0
 11
-294.93553859654497
 21
-47.633491102636299
 31
0.0
  0
LINE
  8
DETAIL
  6
CONTINUOUS
 62
     5
 10
-294.93553859654497
 20
-47.633491102636299
 30
0.0
 11
-294.93818453939048
 21
-47.642981358026653
 31
0.0
  0
LINE
  8
DETAIL
  6
CONTINUOUS
 62
     5
 10
-294.93818453939048
 20
-47.642981358026653
 30
0.0
 11
-294.94082297740812
 21
-47.652472951176378
 31
0.0
  0
LINE
  8
DETAIL
  6
CONTINUOUS
 62
     5
 10
-294.94082297740812
 20
-47.652472951176378
 30
0.0
 11
-294.94082297740812
 21
-47.652472951176378
 31
0.0
  0
LINE
  8
DETAIL
  6
CONTINUOUS
 62
     5
 10
-294.94082297740812
 20
-47.652472951176378
 30
0.0
 11
-294.94346073712808
 21
-47.661964975267438
 31
0.0
  0
LINE
  8
DETAIL
  6
CONTINUOUS
 62
     5
 10
-294.94346073712808
 20
-47.661964975267438
 30
0.0
 11
-294.94610464508293
 21
-47.671456523482682
 31
0.0
  0
LINE
  8
DETAIL
  6
CONTINUOUS
 62
     5
 10
-294.94610464508293
 20
-47.671456523482682
 30
0.0
 11
-294.94610464508293
 21
-47.671456523482682
 31
0.0
  0
LINE
  8
DETAIL
  6
CONTINUOUS
 62
     5
 10
-294.94610464508293
 20
-47.671456523482682
 30
0.0
 11
-294.94876152780307
 21
-47.680946689004031
 31
0.0
  0
LINE
  8
DETAIL
  6
CONTINUOUS
 62
     5
 10
-294.94876152780307
 20
-47.680946689004031
 30
0.0
 11
-294.95143821182052
 21
-47.690434565014129
 31
0.0
  0
LINE
  8
DETAIL
  6
CONTINUOUS
 62
     5
 10
-294.95143821182052
 20
-47.690434565014129
 30
0.0
 11
-294.95143821182052
 21
-47.690434565014129
 31
0.0
  0
LINE
  8
DETAIL
  6
CONTINUOUS
 62
     5
 10
-294.95143821182052
 20
-47.690434565014129
 30
0.0
 11
-294.95414152366669
 21
-47.699919244695138
 31
0.0
  0
LINE
  8
DETAIL
  6
CONTINUOUS
 62
     5
 10
-294.95414152366669
 20
-47.699919244695138
 30
0.0
 11
-294.9568782898732
 21
-47.709399821229447
 31
0.0
  0
LINE
  8
DETAIL
  6
CONTINUOUS
 62
     5
 10
-294.9568782898732
 20
-47.709399821229447
 30
0.0
 11
-294.9568782898732
 21
-47.709399821229447
 31
0.0
  0
LINE
  8
DETAIL
  6
CONTINUOUS
 62
     5
 10
-294.9568782898732
 20
-47.709399821229447
 30
0.0
 11
-294.95965130888231
 21
-47.718875888795758
 31
0.0
  0
LINE
  8
DETAIL
  6
CONTINUOUS
 62
     5
 10
-294.95965130888231
 20
-47.718875888795758
 30
0.0
 11
-294.96244726677969
 21
-47.728349045558161
 31
0.0
  0
LINE
  8
DETAIL
  6
CONTINUOUS
 62
     5
 10
-294.96244726677969
 20
-47.728349045558161
 30
0.0
 11
-294.96244726677969
 21
-47.728349045558161
 31
0.0
  0
LINE
  8
DETAIL
  6
CONTINUOUS
 62
     5
 10
-294.96244726677969
 20
-47.728349045558161
 30
0.0
 11
-294.96524882156058
 21
-47.737821390676338
 31
0.0
  0
LINE
  8
DETAIL
  6
CONTINUOUS
 62
     5
 10
-294.96524882156058
 20
-47.737821390676338
 30
0.0
 11
-294.96803863122392
 21
-47.747295023310699
 31
0.0
  0
LINE
  8
DETAIL
  6
CONTINUOUS
 62
     5
 10
-294.96803863122392
 20
-47.747295023310699
 30
0.0
 11
-294.96803863122392
 21
-47.747295023310699
 31
0.0
  0
LINE
  8
DETAIL
  6
CONTINUOUS
 62
     5
 10
-294.96803863122392
 20
-47.747295023310699
 30
0.0
 11
-294.97079935376411
 21
-47.756772042621378
 31
0.0
  0
LINE
  8
DETAIL
  6
CONTINUOUS
 62
     5
 10
-294.97079935376411
 20
-47.756772042621378
 30
0.0
 11
-294.97351364717861
 21
-47.766254547768767
 31
0.0
  0
LINE
  8
DETAIL
  6
CONTINUOUS
 62
     5
 10
-294.97351364717861
 20
-47.766254547768767
 30
0.0
 11
-294.97351364717861
 21
-47.766254547768767
 31
0.0
  0
LINE
  8
DETAIL
  6
CONTINUOUS
 62
     5
 10
-294.97351364717861
 20
-47.766254547768767
 30
0.0
 11
-294.97616416946357
 21
-47.775744637912787
 31
0.0
  0
LINE
  8
DETAIL
  6
CONTINUOUS
 62
     5
 10
-294.97616416946357
 20
-47.775744637912787
 30
0.0
 11
-294.97873357861488
 21
-47.785244412213387
 31
0.0
  0
LINE
  8
DETAIL
  6
CONTINUOUS
 62
     5
 10
-294.97873357861488
 20
-47.785244412213387
 30
0.0
 11
-294.97873357861488
 21
-47.785244412213387
 31
0.0
  0
LINE
  8
DETAIL
  6
CONTINUOUS
 62
     5
 10
-294.97873357861488
 20
-47.785244412213387
 30
0.0
 11
-294.98120453263022
 21
-47.794755969831158
 31
0.0
  0
LINE
  8
DETAIL
  6
CONTINUOUS
 62
     5
 10
-294.98120453263022
 20
-47.794755969831158
 30
0.0
 11
-294.983559689505
 21
-47.804281409926027
 31
0.0
  0
LINE
  8
DETAIL
  6
CONTINUOUS
 62
     5
 10
-294.983559689505
 20
-47.804281409926027
 30
0.0
 11
-294.983559689505
 21
-47.804281409926027
 31
0.0
  0
LINE
  8
DETAIL
  6
CONTINUOUS
 62
     5
 10
-294.983559689505
 20
-47.804281409926027
 30
0.0
 11
-294.98578748926047
 21
-47.813822138713483
 31
0.0
  0
LINE
  8
DETAIL
  6
CONTINUOUS
 62
     5
 10
-294.98578748926047
 20
-47.813822138713483
 30
0.0
 11
-294.98789950001452
 21
-47.823376790630618
 31
0.0
  0
LINE
  8
DETAIL
  6
CONTINUOUS
 62
     5
 10
-294.98789950001452
 20
-47.823376790630618
 30
0.0
 11
-294.98789950001452
 21
-47.823376790630618
 31
0.0
  0
LINE
  8
DETAIL
  6
CONTINUOUS
 62
     5
 10
-294.98789950001452
 20
-47.823376790630618
 30
0.0
 11
-294.98991307190681
 21
-47.832943307169216
 31
0.0
  0
LINE
  8
DETAIL
  6
CONTINUOUS
 62
     5
 10
-294.98991307190681
 20
-47.832943307169216
 30
0.0
 11
-294.99184555508009
 21
-47.842519629821943
 31
0.0
  0
LINE
  8
DETAIL
  6
CONTINUOUS
 62
     5
 10
-294.99184555508009
 20
-47.842519629821943
 30
0.0
 11
-294.99184555508009
 21
-47.842519629821943
 31
0.0
  0
LINE
  8
DETAIL
  6
CONTINUOUS
 62
     5
 10
-294.99184555508009
 20
-47.842519629821943
 30
0.0
 11
-294.9937142996755
 21
-47.852103700080988
 31
0.0
  0
LINE
  8
DETAIL
  6
CONTINUOUS
 62
     5
 10
-294.9937142996755
 20
-47.852103700080988
 30
0.0
 11
-294.99553665583471
 21
-47.861693459438577
 31
0.0
  0
LINE
  8
DETAIL
  6
CONTINUOUS
 62
     5
 10
-294.99553665583471
 20
-47.861693459438577
 30
0.0
 11
-294.99553665583471
 21
-47.861693459438577
 31
0.0
  0
LINE
  8
DETAIL
  6
CONTINUOUS
 62
     5
 10
-294.99553665583471
 20
-47.861693459438577
 30
0.0
 11
-294.99732997369892
 21
-47.871286849386713
 31
0.0
  0
LINE
  8
DETAIL
  6
CONTINUOUS
 62
     5
 10
-294.99732997369892
 20
-47.871286849386713
 30
0.0
 11
-294.9991116034098
 21
-47.880881811417566
 31
0.0
  0
LINE
  8
DETAIL
  6
CONTINUOUS
 62
     5
 10
-294.9991116034098
 20
-47.880881811417566
 30
0.0
 11
-294.9991116034098
 21
-47.880881811417566
 31
0.0
  0
LINE
  8
DETAIL
  6
CONTINUOUS
 62
     5
 10
-294.9991116034098
 20
-47.880881811417566
 30
0.0
 11
-295.00089889510849
 21
-47.890476287023603
 31
0.0
  0
LINE
  8
DETAIL
  6
CONTINUOUS
 62
     5
 10
-295.00089889510849
 20
-47.890476287023603
 30
0.0
 11
-295.00270919893728
 21
-47.900068217697253
 31
0.0
  0
LINE
  8
DETAIL
  6
CONTINUOUS
 62
     5
 10
-295.00270919893728
 20
-47.900068217697253
 30
0.0
 11
-295.00270919893728
 21
-47.900068217697253
 31
0.0
  0
LINE
  8
DETAIL
  6
CONTINUOUS
 62
     5
 10
-295.00270919893728
 20
-47.900068217697253
 30
0.0
 11
-295.00455582880983
 21
-47.909656005274428
 31
0.0
  0
LINE
  8
DETAIL
  6
CONTINUOUS
 62
     5
 10
-295.00455582880983
 20
-47.909656005274428
 30
0.0
 11
-295.00643595373322
 21
-47.91923989296879
 31
0.0
  0
LINE
  8
DETAIL
  6
CONTINUOUS
 62
     5
 10
-295.00643595373322
 20
-47.91923989296879
 30
0.0
 11
-295.00643595373322
 21
-47.91923989296879
 31
0.0
  0
LINE
  8
DETAIL
  6
CONTINUOUS
 62
     5
 10
-295.00643595373322
 20
-47.91923989296879
 30
0.0
 11
-295.00834270648647
 21
-47.92882058433679
 31
0.0
  0
LINE
  8
DETAIL
  6
CONTINUOUS
 62
     5
 10
-295.00834270648647
 20
-47.92882058433679
 30
0.0
 11
-295.01026921984982
 21
-47.938398782936247
 31
0.0
  0
LINE
  8
DETAIL
  6
CONTINUOUS
 62
     5
 10
-295.01026921984982
 20
-47.938398782936247
 30
0.0
 11
-295.01026921984982
 21
-47.938398782936247
 31
0.0
  0
LINE
  8
DETAIL
  6
CONTINUOUS
 62
     5
 10
-295.01026921984982
 20
-47.938398782936247
 30
0.0
 11
-295.01220862660278
 21
-47.947975192324293
 31
0.0
  0
LINE
  8
DETAIL
  6
CONTINUOUS
 62
     5
 10
-295.01220862660278
 20
-47.947975192324293
 30
0.0
 11
-295.01415405952508
 21
-47.957550516058518
 31
0.0
  0
LINE
  8
DETAIL
  6
CONTINUOUS
 62
     5
 10
-295.01415405952508
 20
-47.957550516058518
 30
0.0
 11
-295.01415405952508
 21
-47.957550516058518
 31
0.0
  0
LINE
  8
DETAIL
  6
CONTINUOUS
 62
     5
 10
-295.01415405952508
 20
-47.957550516058518
 30
0.0
 11
-295.01609865139608
 21
-47.967125457695367
 31
0.0
  0
LINE
  8
DETAIL
  6
CONTINUOUS
 62
     5
 10
-295.01609865139608
 20
-47.967125457695367
 30
0.0
 11
-295.01803553499519
 21
-47.976700720792913
 31
0.0
  0
LINE
  8
DETAIL
  6
CONTINUOUS
 62
     5
 10
-295.01803553499519
 20
-47.976700720792913
 30
0.0
 11
-295.01803553499519
 21
-47.976700720792913
 31
0.0
  0
LINE
  8
DETAIL
  6
CONTINUOUS
 62
     5
 10
-295.01803553499519
 20
-47.976700720792913
 30
0.0
 11
-295.01995784310287
 21
-47.986277008907791
 31
0.0
  0
LINE
  8
DETAIL
  6
CONTINUOUS
 62
     5
 10
-295.01995784310287
 20
-47.986277008907791
 30
0.0
 11
-295.02185870849883
 21
-47.995855025597621
 31
0.0
  0
LINE
  8
DETAIL
  6
CONTINUOUS
 62
     5
 10
-295.02185870849883
 20
-47.995855025597621
 30
0.0
 11
-295.02185870849883
 21
-47.995855025597621
 31
0.0
  0
LINE
  8
DETAIL
  6
CONTINUOUS
 62
     5
 10
-295.02185870849883
 20
-47.995855025597621
 30
0.0
 11
-295.02373156441968
 21
-48.005435433377222
 31
0.0
  0
LINE
  8
DETAIL
  6
CONTINUOUS
 62
     5
 10
-295.02373156441968
 20
-48.005435433377222
 30
0.0
 11
-295.02557104593222
 21
-48.015018730590548
 31
0.0
  0
LINE
  8
DETAIL
  6
CONTINUOUS
 62
     5
 10
-295.02557104593222
 20
-48.015018730590548
 30
0.0
 11
-295.02557104593222
 21
-48.015018730590548
 31
0.0
  0
LINE
  8
DETAIL
  6
CONTINUOUS
 62
     5
 10
-295.02557104593222
 20
-48.015018730590548
 30
0.0
 11
-295.02737208856121
 21
-48.02460537453976
 31
0.0
  0
LINE
  8
DETAIL
  6
CONTINUOUS
 62
     5
 10
-295.02737208856121
 20
-48.02460537453976
 30
0.0
 11
-295.02912962783148
 21
-48.034195822526947
 31
0.0
  0
LINE
  8
DETAIL
  6
CONTINUOUS
 62
     5
 10
-295.02912962783148
 20
-48.034195822526947
 30
0.0
 11
-295.02912962783148
 21
-48.034195822526947
 31
0.0
  0
LINE
  8
DETAIL
  6
CONTINUOUS
 62
     5
 10
-295.02912962783148
 20
-48.034195822526947
 30
0.0
 11
-295.0308385992671
 21
-48.043790531854263
 31
0.0
  0
LINE
  8
DETAIL
  6
CONTINUOUS
 62
     5
 10
-295.0308385992671
 20
-48.043790531854263
 30
0.0
 11
-295.03249393839269
 21
-48.05338995982288
 31
0.0
  0
LINE
  8
DETAIL
  6
CONTINUOUS
 62
     5
 10
-295.03249393839269
 20
-48.05338995982288
 30
0.0
 11
-295.03249393839269
 21
-48.05338995982288
 31
0.0
  0
LINE
  8
DETAIL
  6
CONTINUOUS
 62
     5
 10
-295.03249393839269
 20
-48.05338995982288
 30
0.0
 11
-295.03409058073339
 21
-48.062994563734037
 31
0.0
  0
LINE
  8
DETAIL
  6
CONTINUOUS
 62
     5
 10
-295.03409058073339
 20
-48.062994563734037
 30
0.0
 11
-295.03562346181292
 21
-48.072604800893259
 31
0.0
  0
LINE
  8
DETAIL
  6
CONTINUOUS
 62
     5
 10
-295.03562346181292
 20
-48.072604800893259
 30
0.0
 11
-295.03562346181292
 21
-48.072604800893259
 31
0.0
  0
LINE
  8
DETAIL
  6
CONTINUOUS
 62
     5
 10
-295.03562346181292
 20
-48.072604800893259
 30
0.0
 11
-295.03708751715612
 21
-48.082221128602669
 31
0.0
  0
LINE
  8
DETAIL
  6
CONTINUOUS
 62
     5
 10
-295.03708751715612
 20
-48.082221128602669
 30
0.0
 11
-295.03847768228752
 21
-48.091844004153472
 31
0.0
  0
LINE
  8
DETAIL
  6
CONTINUOUS
 62
     5
 10
-295.03847768228752
 20
-48.091844004153472
 30
0.0
 11
-295.03847768228752
 21
-48.091844004153472
 31
0.0
  0
LINE
  8
DETAIL
  6
CONTINUOUS
 62
     5
 10
-295.03847768228752
 20
-48.091844004153472
 30
0.0
 11
-295.03979172712798
 21
-48.101473588669478
 31
0.0
  0
LINE
  8
DETAIL
  6
CONTINUOUS
 62
     5
 10
-295.03979172712798
 20
-48.101473588669478
 30
0.0
 11
-295.041038759191
 21
-48.111108858618543
 31
0.0
  0
LINE
  8
DETAIL
  6
CONTINUOUS
 62
     5
 10
-295.041038759191
 20
-48.111108858618543
 30
0.0
 11
-295.041038759191
 21
-48.111108858618543
 31
0.0
  0
LINE
  8
DETAIL
  6
CONTINUOUS
 62
     5
 10
-295.041038759191
 20
-48.111108858618543
 30
0.0
 11
-295.04223072038519
 21
-48.120748494262671
 31
0.0
  0
LINE
  8
DETAIL
  6
CONTINUOUS
 62
     5
 10
-295.04223072038519
 20
-48.120748494262671
 30
0.0
 11
-295.04337955261241
 21
-48.130391175698151
 31
0.0
  0
LINE
  8
DETAIL
  6
CONTINUOUS
 62
     5
 10
-295.04337955261241
 20
-48.130391175698151
 30
0.0
 11
-295.04337955261241
 21
-48.130391175698151
 31
0.0
  0
LINE
  8
DETAIL
  6
CONTINUOUS
 62
     5
 10
-295.04337955261241
 20
-48.130391175698151
 30
0.0
 11
-295.04449719777892
 21
-48.140035583134022
 31
0.0
  0
LINE
  8
DETAIL
  6
CONTINUOUS
 62
     5
 10
-295.04449719777892
 20
-48.140035583134022
 30
0.0
 11
-295.04559559781961
 21
-48.149680397403017
 31
0.0
  0
LINE
  8
DETAIL
  6
CONTINUOUS
 62
     5
 10
-295.04559559781961
 20
-48.149680397403017
 30
0.0
 11
-295.04559559781961
 21
-48.149680397403017
 31
0.0
  0
LINE
  8
DETAIL
  6
CONTINUOUS
 62
     5
 10
-295.04559559781961
 20
-48.149680397403017
 30
0.0
 11
-295.046686694649
 21
-48.15932429891177
 31
0.0
  0
LINE
  8
DETAIL
  6
CONTINUOUS
 62
     5
 10
-295.046686694649
 20
-48.15932429891177
 30
0.0
 11
-295.04778243007968
 21
-48.168965965742473
 31
0.0
  0
LINE
  8
DETAIL
  6
CONTINUOUS
 62
     5
 10
-295.04778243007968
 20
-48.168965965742473
 30
0.0
 11
-295.04778243007968
 21
-48.168965965742473
 31
0.0
  0
LINE
  8
DETAIL
  6
CONTINUOUS
 62
     5
 10
-295.04778243007968
 20
-48.168965965742473
 30
0.0
 11
-295.04889474599253
 21
-48.178604077565069
 31
0.0
  0
LINE
  8
DETAIL
  6
CONTINUOUS
 62
     5
 10
-295.04889474599253
 20
-48.178604077565069
 30
0.0
 11
-295.05003558465978
 21
-48.188237322726081
 31
0.0
  0
LINE
  8
DETAIL
  6
CONTINUOUS
 62
     5
 10
-295.05003558465978
 20
-48.188237322726081
 30
0.0
 11
-295.05003558465978
 21
-48.188237322726081
 31
0.0
  0
LINE
  8
DETAIL
  6
CONTINUOUS
 62
     5
 10
-295.05003558465978
 20
-48.188237322726081
 30
0.0
 11
-295.05121284164568
 21
-48.197865002879333
 31
0.0
  0
LINE
  8
DETAIL
  6
CONTINUOUS
 62
     5
 10
-295.05121284164568
 20
-48.197865002879333
 30
0.0
 11
-295.05241822530661
 21
-48.207488864235977
 31
0.0
  0
LINE
  8
DETAIL
  6
CONTINUOUS
 62
     5
 10
-295.05241822530661
 20
-48.207488864235977
 30
0.0
 11
-295.05241822530661
 21
-48.207488864235977
 31
0.0
  0
LINE
  8
DETAIL
  6
CONTINUOUS
 62
     5
 10
-295.05241822530661
 20
-48.207488864235977
 30
0.0
 11
-295.0536393985476
 21
-48.2171112943563
 31
0.0
  0
LINE
  8
DETAIL
  6
CONTINUOUS
 62
     5
 10
-295.0536393985476
 20
-48.2171112943563
 30
0.0
 11
-295.05486402968381
 21
-48.226734801641669
 31
0.0
  0
LINE
  8
DETAIL
  6
CONTINUOUS
 62
     5
 10
-295.05486402968381
 20
-48.226734801641669
 30
0.0
 11
-295.05486402968381
 21
-48.226734801641669
 31
0.0
  0
LINE
  8
DETAIL
  6
CONTINUOUS
 62
     5
 10
-295.05486402968381
 20
-48.226734801641669
 30
0.0
 11
-295.05607978333461
 21
-48.236361811957288
 31
0.0
  0
LINE
  8
DETAIL
  6
CONTINUOUS
 62
     5
 10
-295.05607978333461
 20
-48.236361811957288
 30
0.0
 11
-295.05727430393199
 21
-48.245994300185657
 31
0.0
  0
LINE
  8
DETAIL
  6
CONTINUOUS
 62
     5
 10
-295.05727430393199
 20
-48.245994300185657
 30
0.0
 11
-295.05727430393199
 21
-48.245994300185657
 31
0.0
  0
LINE
  8
DETAIL
  6
CONTINUOUS
 62
     5
 10
-295.05727430393199
 20
-48.245994300185657
 30
0.0
 11
-295.05843524969669
 21
-48.255634549235538
 31
0.0
  0
LINE
  8
DETAIL
  6
CONTINUOUS
 62
     5
 10
-295.05843524969669
 20
-48.255634549235538
 30
0.0
 11
-295.05955035419402
 21
-48.265286525109097
 31
0.0
  0
LINE
  8
DETAIL
  6
CONTINUOUS
 62
     5
 10
-295.05955035419402
 20
-48.265286525109097
 30
0.0
 11
-295.05955035419402
 21
-48.265286525109097
 31
0.0
  0
LINE
  8
DETAIL
  6
CONTINUOUS
 62
     5
 10
-295.05955035419402
 20
-48.265286525109097
 30
0.0
 11
-295.06060729952878
 21
-48.274953044234053
 31
0.0
  0
LINE
  8
DETAIL
  6
CONTINUOUS
 62
     5
 10
-295.06060729952878
 20
-48.274953044234053
 30
0.0
 11
-295.06159348661191
 21
-48.284630641654303
 31
0.0
  0
LINE
  8
DETAIL
  6
CONTINUOUS
 62
     5
 10
-295.06159348661191
 20
-48.284630641654303
 30
0.0
 11
-295.06159348661191
 21
-48.284630641654303
 31
0.0
  0
LINE
  8
DETAIL
  6
CONTINUOUS
 62
     5
 10
-295.06159348661191
 20
-48.284630641654303
 30
0.0
 11
-295.06249971413632
 21
-48.294319501659402
 31
0.0
  0
LINE
  8
DETAIL
  6
CONTINUOUS
 62
     5
 10
-295.06249971413632
 20
-48.294319501659402
 30
0.0
 11
-295.06333065311583
 21
-48.304040686902908
 31
0.0
  0
LINE
  8
DETAIL
  6
CONTINUOUS
 62
     5
 10
-295.06333065311583
 20
-48.304040686902908
 30
0.0
 11
-295.06333065311583
 21
-48.304040686902908
 31
0.0
  0
LINE
  8
DETAIL
  6
CONTINUOUS
 62
     5
 10
-295.06333065311583
 20
-48.304040686902908
 30
0.0
 11
-295.0640934635162
 21
-48.313798607531233
 31
0.0
  0
LINE
  8
DETAIL
  6
CONTINUOUS
 62
     5
 10
-295.0640934635162
 20
-48.313798607531233
 30
0.0
 11
-295.06479138879558
 21
-48.323510185292889
 31
0.0
  0
LINE
  8
DETAIL
  6
CONTINUOUS
 62
     5
 10
-295.06479138879558
 20
-48.323510185292889
 30
0.0
 11
-295.06479138879558
 21
-48.323510185292889
 31
0.0
  0
LINE
  8
DETAIL
  6
CONTINUOUS
 62
     5
 10
-295.06479138879558
 20
-48.323510185292889
 30
0.0
 11
-295.06543034743657
 21
-48.333152097623042
 31
0.0
  0
LINE
  8
DETAIL
  6
CONTINUOUS
 62
     5
 10
-295.06543034743657
 20
-48.333152097623042
 30
0.0
 11
-295.06603087452868
 21
-48.343027533103168
 31
0.0
  0
LINE
  8
DETAIL
  6
CONTINUOUS
 62
     5
 10
-295.06603087452868
 20
-48.343027533103168
 30
0.0
 11
-295.06603087452868
 21
-48.343027533103168
 31
0.0
  0
LINE
  8
DETAIL
  6
CONTINUOUS
 62
     5
 10
-295.06603087452868
 20
-48.343027533103168
 30
0.0
 11
-295.06660352183189
 21
-48.353216669054063
 31
0.0
  0
LINE
  8
DETAIL
  6
CONTINUOUS
 62
     5
 10
-295.06660352183189
 20
-48.353216669054063
 30
0.0
 11
-295.06710429119221
 21
-48.362581126611083
 31
0.0
  0
LINE
  8
DETAIL
  6
CONTINUOUS
 62
     5
 10
-295.06710429119221
 20
-48.362581126611083
 30
0.0
 11
-295.06710429119221
 21
-48.362581126611083
 31
0.0
  0
LINE
  8
DETAIL
  6
CONTINUOUS
 62
     5
 10
-295.06710429119221
 20
-48.362581126611083
 30
0.0
 11
-295.06752644274093
 21
-48.370814816262047
 31
0.0
  0
LINE
  8
DETAIL
  6
CONTINUOUS
 62
     5
 10
-295.06752644274093
 20
-48.370814816262047
 30
0.0
 11
-295.06806681966549
 21
-48.382159362095308
 31
0.0
  0
LINE
  8
DETAIL
  6
CONTINUOUS
 62
     5
 10
-295.06806681966549
 20
-48.382159362095308
 30
0.0
 11
-295.06806681966549
 21
-48.382159362095308
 31
0.0
  0
LINE
  8
DETAIL
  6
CONTINUOUS
 62
     5
 10
-295.06806681966549
 20
-48.382159362095308
 30
0.0
 11
-295.06888869805118
 21
-48.400200938576518
 31
0.0
  0
LINE
  8
DETAIL
  6
CONTINUOUS
 62
     5
 10
-295.06888869805118
 20
-48.400200938576518
 30
0.0
 11
-295.06981750251538
 21
-48.421356208083807
 31
0.0
  0
LINE
  8
DETAIL
  6
CONTINUOUS
 62
     5
 10
-295.06981750251538
 20
-48.421356208083807
 30
0.0
 11
-295.06981750251538
 21
-48.421356208083807
 31
0.0
  0
LINE
  8
DETAIL
  6
CONTINUOUS
 62
     5
 10
-295.06981750251538
 20
-48.421356208083807
 30
0.0
 11
-295.07065075333873
 21
-48.441385029671437
 31
0.0
  0
LINE
  8
DETAIL
  6
CONTINUOUS
 62
     5
 10
-295.07065075333873
 20
-48.441385029671437
 30
0.0
 11
-295.07141220492349
 21
-48.460589561190552
 31
0.0
  0
LINE
  8
DETAIL
  6
CONTINUOUS
 62
     5
 10
-295.07141220492349
 20
-48.460589561190552
 30
0.0
 11
-295.07141220492349
 21
-48.460589561190552
 31
0.0
  0
LINE
  8
DETAIL
  6
CONTINUOUS
 62
     5
 10
-295.07141220492349
 20
-48.460589561190552
 30
0.0
 11
-295.07216677190041
 21
-48.480103421602053
 31
0.0
  0
LINE
  8
DETAIL
  6
CONTINUOUS
 62
     5
 10
-295.07216677190041
 20
-48.480103421602053
 30
0.0
 11
-295.07291777570163
 21
-48.49984377551641
 31
0.0
  0
LINE
  8
DETAIL
  6
CONTINUOUS
 62
     5
 10
-295.07291777570163
 20
-48.49984377551641
 30
0.0
 11
-295.07291777570163
 21
-48.49984377551641
 31
0.0
  0
LINE
  8
DETAIL
  6
CONTINUOUS
 62
     5
 10
-295.07291777570163
 20
-48.49984377551641
 30
0.0
 11
-295.07365817412762
 21
-48.519504553607931
 31
0.0
  0
LINE
  8
DETAIL
  6
CONTINUOUS
 62
     5
 10
-295.07365817412762
 20
-48.519504553607931
 30
0.0
 11
-295.07440106365988
 21
-48.539103205162753
 31
0.0
  0
LINE
  8
DETAIL
  6
CONTINUOUS
 62
     5
 10
-295.07440106365988
 20
-48.539103205162753
 30
0.0
 11
-295.07440106365988
 21
-48.539103205162753
 31
0.0
  0
LINE
  8
DETAIL
  6
CONTINUOUS
 62
     5
 10
-295.07440106365988
 20
-48.539103205162753
 30
0.0
 11
-295.07515983506983
 21
-48.558718654096083
 31
0.0
  0
LINE
  8
DETAIL
  6
CONTINUOUS
 62
     5
 10
-295.07515983506983
 20
-48.558718654096083
 30
0.0
 11
-295.07592891760942
 21
-48.578352204230441
 31
0.0
  0
LINE
  8
DETAIL
  6
CONTINUOUS
 62
     5
 10
-294.710802837134
 20
-50.101087785951449
 30
0.0
 11
-294.71911845741812
 21
-50.082644268525428
 31
0.0
  0
LINE
  8
DETAIL
  6
CONTINUOUS
 62
     5
 10
-294.71911845741812
 20
-50.082644268525428
 30
0.0
 11
-294.72743461508838
 21
-50.064221735555073
 31
0.0
  0
LINE
  8
DETAIL
  6
CONTINUOUS
 62
     5
 10
-294.72743461508838
 20
-50.064221735555073
 30
0.0
 11
-294.72743461508838
 21
-50.064221735555073
 31
0.0
  0
LINE
  8
DETAIL
  6
CONTINUOUS
 62
     5
 10
-294.72743461508838
 20
-50.064221735555073
 30
0.0
 11
-294.73575666564238
 21
-50.045821292691237
 31
0.0
  0
LINE
  8
DETAIL
  6
CONTINUOUS
 62
     5
 10
-294.73575666564238
 20
-50.045821292691237
 30
0.0
 11
-294.74410923702538
 21
-50.027364530363002
 31
0.0
  0
LINE
  8
DETAIL
  6
CONTINUOUS
 62
     5
 10
-294.74410923702538
 20
-50.027364530363002
 30
0.0
 11
-294.74410923702538
 21
-50.027364530363002
 31
0.0
  0
LINE
  8
DETAIL
  6
CONTINUOUS
 62
     5
 10
-294.74410923702538
 20
-50.027364530363002
 30
0.0
 11
-294.75248911412018
 21
-50.008829911274688
 31
0.0
  0
LINE
  8
DETAIL
  6
CONTINUOUS
 62
     5
 10
-294.75248911412018
 20
-50.008829911274688
 30
0.0
 11
-294.76076243711577
 21
-49.990502902454637
 31
0.0
  0
LINE
  8
DETAIL
  6
CONTINUOUS
 62
     5
 10
-294.76076243711577
 20
-49.990502902454637
 30
0.0
 11
-294.76076243711577
 21
-49.990502902454637
 31
0.0
  0
LINE
  8
DETAIL
  6
CONTINUOUS
 62
     5
 10
-294.76076243711577
 20
-49.990502902454637
 30
0.0
 11
-294.76888851160948
 21
-49.972458596494327
 31
0.0
  0
LINE
  8
DETAIL
  6
CONTINUOUS
 62
     5
 10
-294.76888851160948
 20
-49.972458596494327
 30
0.0
 11
-294.77732994953078
 21
-49.953623583910939
 31
0.0
  0
LINE
  8
DETAIL
  6
CONTINUOUS
 62
     5
 10
-294.77732994953078
 20
-49.953623583910939
 30
0.0
 11
-294.77732994953078
 21
-49.953623583910939
 31
0.0
  0
LINE
  8
DETAIL
  6
CONTINUOUS
 62
     5
 10
-294.77732994953078
 20
-49.953623583910939
 30
0.0
 11
-294.78620454423208
 21
-49.933709080695962
 31
0.0
  0
LINE
  8
DETAIL
  6
CONTINUOUS
 62
     5
 10
-294.78620454423208
 20
-49.933709080695962
 30
0.0
 11
-294.79374750843999
 21
-49.916713306811737
 31
0.0
  0
LINE
  8
DETAIL
  6
CONTINUOUS
 62
     5
 10
-294.79374750843999
 20
-49.916713306811737
 30
0.0
 11
-294.79374750843999
 21
-49.916713306811737
 31
0.0
  0
LINE
  8
DETAIL
  6
CONTINUOUS
 62
     5
 10
-294.79374750843999
 20
-49.916713306811737
 30
0.0
 11
-294.79847036311281
 21
-49.906016619148197
 31
0.0
  0
LINE
  8
DETAIL
  6
CONTINUOUS
 62
     5
 10
-294.79847036311281
 20
-49.906016619148197
 30
0.0
 11
-294.80187244275982
 21
-49.898240918333393
 31
0.0
  0
LINE
  8
DETAIL
  6
CONTINUOUS
 62
     5
 10
-294.80187244275982
 20
-49.898240918333393
 30
0.0
 11
-294.80187244275982
 21
-49.898240918333393
 31
0.0
  0
LINE
  8
DETAIL
  6
CONTINUOUS
 62
     5
 10
-294.80187244275982
 20
-49.898240918333393
 30
0.0
 11
-294.80572393320972
 21
-49.889389144151892
 31
0.0
  0
LINE
  8
DETAIL
  6
CONTINUOUS
 62
     5
 10
-294.80572393320972
 20
-49.889389144151892
 30
0.0
 11
-294.80989061202081
 21
-49.879746849273722
 31
0.0
  0
LINE
  8
DETAIL
  6
CONTINUOUS
 62
     5
 10
-294.80989061202081
 20
-49.879746849273722
 30
0.0
 11
-294.80989061202081
 21
-49.879746849273722
 31
0.0
  0
LINE
  8
DETAIL
  6
CONTINUOUS
 62
     5
 10
-294.80989061202081
 20
-49.879746849273722
 30
0.0
 11
-294.81388972584602
 21
-49.870383358925658
 31
0.0
  0
LINE
  8
DETAIL
  6
CONTINUOUS
 62
     5
 10
-294.81388972584602
 20
-49.870383358925658
 30
0.0
 11
-294.81774880599818
 21
-49.86122047566937
 31
0.0
  0
LINE
  8
DETAIL
  6
CONTINUOUS
 62
     5
 10
-294.81774880599818
 20
-49.86122047566937
 30
0.0
 11
-294.81774880599818
 21
-49.86122047566937
 31
0.0
  0
LINE
  8
DETAIL
  6
CONTINUOUS
 62
     5
 10
-294.81774880599818
 20
-49.86122047566937
 30
0.0
 11
-294.82158877236361
 21
-49.8519699908436
 31
0.0
  0
LINE
  8
DETAIL
  6
CONTINUOUS
 62
     5
 10
-294.82158877236361
 20
-49.8519699908436
 30
0.0
 11
-294.82539381446668
 21
-49.842651173557897
 31
0.0
  0
LINE
  8
DETAIL
  6
CONTINUOUS
 62
     5
 10
-294.82539381446668
 20
-49.842651173557897
 30
0.0
 11
-294.82539381446668
 21
-49.842651173557897
 31
0.0
  0
LINE
  8
DETAIL
  6
CONTINUOUS
 62
     5
 10
-294.82539381446668
 20
-49.842651173557897
 30
0.0
 11
-294.82912309843908
 21
-49.833339565259848
 31
0.0
  0
LINE
  8
DETAIL
  6
CONTINUOUS
 62
     5
 10
-294.82912309843908
 20
-49.833339565259848
 30
0.0
 11
-294.83277242720209
 21
-49.824028318976389
 31
0.0
  0
LINE
  8
DETAIL
  6
CONTINUOUS
 62
     5
 10
-294.83277242720209
 20
-49.824028318976389
 30
0.0
 11
-294.83277242720209
 21
-49.824028318976389
 31
0.0
  0
LINE
  8
DETAIL
  6
CONTINUOUS
 62
     5
 10
-294.83277242720209
 20
-49.824028318976389
 30
0.0
 11
-294.83634740398918
 21
-49.814696118521617
 31
0.0
  0
LINE
  8
DETAIL
  6
CONTINUOUS
 62
     5
 10
-294.83634740398918
 20
-49.814696118521617
 30
0.0
 11
-294.83985619649411
 21
-49.805346159280127
 31
0.0
  0
LINE
  8
DETAIL
  6
CONTINUOUS
 62
     5
 10
-294.83985619649411
 20
-49.805346159280127
 30
0.0
 11
-294.83985619649411
 21
-49.805346159280127
 31
0.0
  0
LINE
  8
DETAIL
  6
CONTINUOUS
 62
     5
 10
-294.83985619649411
 20
-49.805346159280127
 30
0.0
 11
-294.84330827112581
 21
-49.795986285722172
 31
0.0
  0
LINE
  8
DETAIL
  6
CONTINUOUS
 62
     5
 10
-294.84330827112581
 20
-49.795986285722172
 30
0.0
 11
-294.84671572469642
 21
-49.786618427096762
 31
0.0
  0
LINE
  8
DETAIL
  6
CONTINUOUS
 62
     5
 10
-294.84671572469642
 20
-49.786618427096762
 30
0.0
 11
-294.84671572469642
 21
-49.786618427096762
 31
0.0
  0
LINE
  8
DETAIL
  6
CONTINUOUS
 62
     5
 10
-294.84671572469642
 20
-49.786618427096762
 30
0.0
 11
-294.85009113541543
 21
-49.777243430091403
 31
0.0
  0
LINE
  8
DETAIL
  6
CONTINUOUS
 62
     5
 10
-294.85009113541543
 20
-49.777243430091403
 30
0.0
 11
-294.85344637667731
 21
-49.767863726372752
 31
0.0
  0
LINE
  8
DETAIL
  6
CONTINUOUS
 62
     5
 10
-294.85344637667731
 20
-49.767863726372752
 30
0.0
 11
-294.85344637667731
 21
-49.767863726372752
 31
0.0
  0
LINE
  8
DETAIL
  6
CONTINUOUS
 62
     5
 10
-294.85344637667731
 20
-49.767863726372752
 30
0.0
 11
-294.85679319288738
 21
-49.758482037678498
 31
0.0
  0
LINE
  8
DETAIL
  6
CONTINUOUS
 62
     5
 10
-294.85679319288738
 20
-49.758482037678498
 30
0.0
 11
-294.860143517305
 21
-49.749100661053262
 31
0.0
  0
LINE
  8
DETAIL
  6
CONTINUOUS
 62
     5
 10
-294.860143517305
 20
-49.749100661053262
 30
0.0
 11
-294.860143517305
 21
-49.749100661053262
 31
0.0
  0
LINE
  8
DETAIL
  6
CONTINUOUS
 62
     5
 10
-294.860143517305
 20
-49.749100661053262
 30
0.0
 11
-294.86350931775269
 21
-49.739721815816438
 31
0.0
  0
LINE
  8
DETAIL
  6
CONTINUOUS
 62
     5
 10
-294.86350931775269
 20
-49.739721815816438
 30
0.0
 11
-294.86690251144847
 21
-49.730347835084331
 31
0.0
  0
LINE
  8
DETAIL
  6
CONTINUOUS
 62
     5
 10
-294.86690251144847
 20
-49.730347835084331
 30
0.0
 11
-294.86690251144847
 21
-49.730347835084331
 31
0.0
  0
LINE
  8
DETAIL
  6
CONTINUOUS
 62
     5
 10
-294.86690251144847
 20
-49.730347835084331
 30
0.0
 11
-294.87033107589087
 21
-49.720980351716889
 31
0.0
  0
LINE
  8
DETAIL
  6
CONTINUOUS
 62
     5
 10
-294.87033107589087
 20
-49.720980351716889
 30
0.0
 11
-294.87378728029989
 21
-49.711618083751318
 31
0.0
  0
LINE
  8
DETAIL
  6
CONTINUOUS
 62
     5
 10
-294.87378728029989
 20
-49.711618083751318
 30
0.0
 11
-294.87378728029989
 21
-49.711618083751318
 31
0.0
  0
LINE
  8
DETAIL
  6
CONTINUOUS
 62
     5
 10
-294.87378728029989
 20
-49.711618083751318
 30
0.0
 11
-294.87725946591547
 21
-49.702259022561982
 31
0.0
  0
LINE
  8
DETAIL
  6
CONTINUOUS
 62
     5
 10
-294.87725946591547
 20
-49.702259022561982
 30
0.0
 11
-294.880735970346
 21
-49.69290116769389
 31
0.0
  0
LINE
  8
DETAIL
  6
CONTINUOUS
 62
     5
 10
-294.880735970346
 20
-49.69290116769389
 30
0.0
 11
-294.880735970346
 21
-49.69290116769389
 31
0.0
  0
LINE
  8
DETAIL
  6
CONTINUOUS
 62
     5
 10
-294.880735970346
 20
-49.69290116769389
 30
0.0
 11
-294.88420513053461
 21
-49.68354252018662
 31
0.0
  0
LINE
  8
DETAIL
  6
CONTINUOUS
 62
     5
 10
-294.88420513053461
 20
-49.68354252018662
 30
0.0
 11
-294.88765528439808
 21
-49.674181078891252
 31
0.0
  0
LINE
  8
DETAIL
  6
CONTINUOUS
 62
     5
 10
-294.88765528439808
 20
-49.674181078891252
 30
0.0
 11
-294.88765528439808
 21
-49.674181078891252
 31
0.0
  0
LINE
  8
DETAIL
  6
CONTINUOUS
 62
     5
 10
-294.88765528439808
 20
-49.674181078891252
 30
0.0
 11
-294.89107477003017
 21
-49.664814842257563
 31
0.0
  0
LINE
  8
DETAIL
  6
CONTINUOUS
 62
     5
 10
-294.89107477003017
 20
-49.664814842257563
 30
0.0
 11
-294.89445192526551
 21
-49.655441809322163
 31
0.0
  0
LINE
  8
DETAIL
  6
CONTINUOUS
 62
     5
 10
-294.89445192526551
 20
-49.655441809322163
 30
0.0
 11
-294.89445192526551
 21
-49.655441809322163
 31
0.0
  0
LINE
  8
DETAIL
  6
CONTINUOUS
 62
     5
 10
-294.89445192526551
 20
-49.655441809322163
 30
0.0
 11
-294.89777508788973
 21
-49.646059979229221
 31
0.0
  0
LINE
  8
DETAIL
  6
CONTINUOUS
 62
     5
 10
-294.89777508788973
 20
-49.646059979229221
 30
0.0
 11
-294.90103259575972
 21
-49.636667350966043
 31
0.0
  0
LINE
  8
DETAIL
  6
CONTINUOUS
 62
     5
 10
-294.90103259575972
 20
-49.636667350966043
 30
0.0
 11
-294.90103259575972
 21
-49.636667350966043
 31
0.0
  0
LINE
  8
DETAIL
  6
CONTINUOUS
 62
     5
 10
-294.90103259575972
 20
-49.636667350966043
 30
0.0
 11
-294.90421555264282
 21
-49.62726240267375
 31
0.0
  0
LINE
  8
DETAIL
  6
CONTINUOUS
 62
     5
 10
-294.90421555264282
 20
-49.62726240267375
 30
0.0
 11
-294.90732612588488
 21
-49.61784552927088
 31
0.0
  0
LINE
  8
DETAIL
  6
CONTINUOUS
 62
     5
 10
-294.90732612588488
 20
-49.61784552927088
 30
0.0
 11
-294.90732612588488
 21
-49.61784552927088
 31
0.0
  0
LINE
  8
DETAIL
  6
CONTINUOUS
 62
     5
 10
-294.90732612588488
 20
-49.61784552927088
 30
0.0
 11
-294.91036924872878
 21
-49.608417604866638
 31
0.0
  0
LINE
  8
DETAIL
  6
CONTINUOUS
 62
     5
 10
-294.91036924872878
 20
-49.608417604866638
 30
0.0
 11
-294.91334985442148
 21
-49.598979503559583
 31
0.0
  0
LINE
  8
DETAIL
  6
CONTINUOUS
 62
     5
 10
-294.91334985442148
 20
-49.598979503559583
 30
0.0
 11
-294.91334985442148
 21
-49.598979503559583
 31
0.0
  0
LINE
  8
DETAIL
  6
CONTINUOUS
 62
     5
 10
-294.91334985442148
 20
-49.598979503559583
 30
0.0
 11
-294.91627287621122
 21
-49.589532099445478
 31
0.0
  0
LINE
  8
DETAIL
  6
CONTINUOUS
 62
     5
 10
-294.91627287621122
 20
-49.589532099445478
 30
0.0
 11
-294.91914324734398
 21
-49.580076266623792
 31
0.0
  0
LINE
  8
DETAIL
  6
CONTINUOUS
 62
     5
 10
-294.91914324734398
 20
-49.580076266623792
 30
0.0
 11
-294.91914324734398
 21
-49.580076266623792
 31
0.0
  0
LINE
  8
DETAIL
  6
CONTINUOUS
 62
     5
 10
-294.91914324734398
 20
-49.580076266623792
 30
0.0
 11
-294.92196590106641
 21
-49.570612879194186
 31
0.0
  0
LINE
  8
DETAIL
  6
CONTINUOUS
 62
     5
 10
-294.92196590106641
 20
-49.570612879194186
 30
0.0
 11
-294.92474577062598
 21
-49.56114281125565
 31
0.0
  0
LINE
  8
DETAIL
  6
CONTINUOUS
 62
     5
 10
-294.92474577062598
 20
-49.56114281125565
 30
0.0
 11
-294.92474577062598
 21
-49.56114281125565
 31
0.0
  0
LINE
  8
DETAIL
  6
CONTINUOUS
 62
     5
 10
-294.92474577062598
 20
-49.56114281125565
 30
0.0
 11
-294.92748778926853
 21
-49.551666936906713
 31
0.0
  0
LINE
  8
DETAIL
  6
CONTINUOUS
 62
     5
 10
-294.92748778926853
 20
-49.551666936906713
 30
0.0
 11
-294.93019689024078
 21
-49.542186130246819
 31
0.0
  0
LINE
  8
DETAIL
  6
CONTINUOUS
 62
     5
 10
-294.93019689024078
 20
-49.542186130246819
 30
0.0
 11
-294.93019689024078
 21
-49.542186130246819
 31
0.0
  0
LINE
  8
DETAIL
  6
CONTINUOUS
 62
     5
 10
-294.93019689024078
 20
-49.542186130246819
 30
0.0
 11
-294.93287832233892
 21
-49.532701270827829
 31
0.0
  0
LINE
  8
DETAIL
  6
CONTINUOUS
 62
     5
 10
-294.93287832233892
 20
-49.532701270827829
 30
0.0
 11
-294.93553859654497
 21
-49.523213260014238
 31
0.0
  0
LINE
  8
DETAIL
  6
CONTINUOUS
 62
     5
 10
-294.93553859654497
 20
-49.523213260014238
 30
0.0
 11
-294.93553859654497
 21
-49.523213260014238
 31
0.0
  0
LINE
  8
DETAIL
  6
CONTINUOUS
 62
     5
 10
-294.93553859654497
 20
-49.523213260014238
 30
0.0
 11
-294.93818453939048
 21
-49.513723004623671
 31
0.0
  0
LINE
  8
DETAIL
  6
CONTINUOUS
 62
     5
 10
-294.93818453939048
 20
-49.513723004623671
 30
0.0
 11
-294.94082297740812
 21
-49.504231411474173
 31
0.0
  0
LINE
  8
DETAIL
  6
CONTINUOUS
 62
     5
 10
-294.94082297740812
 20
-49.504231411474173
 30
0.0
 11
-294.94082297740812
 21
-49.504231411474173
 31
0.0
  0
LINE
  8
DETAIL
  6
CONTINUOUS
 62
     5
 10
-294.94082297740812
 20
-49.504231411474173
 30
0.0
 11
-294.94346073712808
 21
-49.494739387382879
 31
0.0
  0
LINE
  8
DETAIL
  6
CONTINUOUS
 62
     5
 10
-294.94346073712808
 20
-49.494739387382879
 30
0.0
 11
-294.94610464508293
 21
-49.485247839167869
 31
0.0
  0
LINE
  8
DETAIL
  6
CONTINUOUS
 62
     5
 10
-294.94610464508293
 20
-49.485247839167869
 30
0.0
 11
-294.94610464508293
 21
-49.485247839167869
 31
0.0
  0
LINE
  8
DETAIL
  6
CONTINUOUS
 62
     5
 10
-294.94610464508293
 20
-49.485247839167869
 30
0.0
 11
-294.94876152780307
 21
-49.475757673646513
 31
0.0
  0
LINE
  8
DETAIL
  6
CONTINUOUS
 62
     5
 10
-294.94876152780307
 20
-49.475757673646513
 30
0.0
 11
-294.95143821182052
 21
-49.466269797636407
 31
0.0
  0
LINE
  8
DETAIL
  6
CONTINUOUS
 62
     5
 10
-294.95143821182052
 20
-49.466269797636407
 30
0.0
 11
-294.95143821182052
 21
-49.466269797636407
 31
0.0
  0
LINE
  8
DETAIL
  6
CONTINUOUS
 62
     5
 10
-294.95143821182052
 20
-49.466269797636407
 30
0.0
 11
-294.95414152366669
 21
-49.456785117955413
 31
0.0
  0
LINE
  8
DETAIL
  6
CONTINUOUS
 62
     5
 10
-294.95414152366669
 20
-49.456785117955413
 30
0.0
 11
-294.9568782898732
 21
-49.447304541420863
 31
0.0
  0
LINE
  8
DETAIL
  6
CONTINUOUS
 62
     5
 10
-294.9568782898732
 20
-49.447304541420863
 30
0.0
 11
-294.9568782898732
 21
-49.447304541420863
 31
0.0
  0
LINE
  8
DETAIL
  6
CONTINUOUS
 62
     5
 10
-294.9568782898732
 20
-49.447304541420863
 30
0.0
 11
-294.95965130888231
 21
-49.437828473854552
 31
0.0
  0
LINE
  8
DETAIL
  6
CONTINUOUS
 62
     5
 10
-294.95965130888231
 20
-49.437828473854552
 30
0.0
 11
-294.96244726677969
 21
-49.428355317092382
 31
0.0
  0
LINE
  8
DETAIL
  6
CONTINUOUS
 62
     5
 10
-294.96244726677969
 20
-49.428355317092382
 30
0.0
 11
-294.96244726677969
 21
-49.428355317092382
 31
0.0
  0
LINE
  8
DETAIL
  6
CONTINUOUS
 62
     5
 10
-294.96244726677969
 20
-49.428355317092382
 30
0.0
 11
-294.96524882156058
 21
-49.418882971973972
 31
0.0
  0
LINE
  8
DETAIL
  6
CONTINUOUS
 62
     5
 10
-294.96524882156058
 20
-49.418882971973972
 30
0.0
 11
-294.96803863122392
 21
-49.40940933933939
 31
0.0
  0
LINE
  8
DETAIL
  6
CONTINUOUS
 62
     5
 10
-294.96803863122392
 20
-49.40940933933939
 30
0.0
 11
-294.96803863122392
 21
-49.40940933933939
 31
0.0
  0
LINE
  8
DETAIL
  6
CONTINUOUS
 62
     5
 10
-294.96803863122392
 20
-49.40940933933939
 30
0.0
 11
-294.97079935376411
 21
-49.399932320028711
 31
0.0
  0
LINE
  8
DETAIL
  6
CONTINUOUS
 62
     5
 10
-294.97079935376411
 20
-49.399932320028711
 30
0.0
 11
-294.97351364717861
 21
-49.390449814881777
 31
0.0
  0
LINE
  8
DETAIL
  6
CONTINUOUS
 62
     5
 10
-294.97351364717861
 20
-49.390449814881777
 30
0.0
 11
-294.97351364717861
 21
-49.390449814881777
 31
0.0
  0
LINE
  8
DETAIL
  6
CONTINUOUS
 62
     5
 10
-294.97351364717861
 20
-49.390449814881777
 30
0.0
 11
-294.97616416946357
 21
-49.38095972473775
 31
0.0
  0
LINE
  8
DETAIL
  6
CONTINUOUS
 62
     5
 10
-294.97616416946357
 20
-49.38095972473775
 30
0.0
 11
-294.97873357861488
 21
-49.371459950436929
 31
0.0
  0
LINE
  8
DETAIL
  6
CONTINUOUS
 62
     5
 10
-294.97873357861488
 20
-49.371459950436929
 30
0.0
 11
-294.97873357861488
 21
-49.371459950436929
 31
0.0
  0
LINE
  8
DETAIL
  6
CONTINUOUS
 62
     5
 10
-294.97873357861488
 20
-49.371459950436929
 30
0.0
 11
-294.98120453263022
 21
-49.361948392819393
 31
0.0
  0
LINE
  8
DETAIL
  6
CONTINUOUS
 62
     5
 10
-294.98120453263022
 20
-49.361948392819393
 30
0.0
 11
-294.983559689505
 21
-49.35242295272451
 31
0.0
  0
LINE
  8
DETAIL
  6
CONTINUOUS
 62
     5
 10
-294.983559689505
 20
-49.35242295272451
 30
0.0
 11
-294.983559689505
 21
-49.35242295272451
 31
0.0
  0
LINE
  8
DETAIL
  6
CONTINUOUS
 62
     5
 10
-294.983559689505
 20
-49.35242295272451
 30
0.0
 11
-294.98578748926047
 21
-49.34288222393684
 31
0.0
  0
LINE
  8
DETAIL
  6
CONTINUOUS
 62
     5
 10
-294.98578748926047
 20
-49.34288222393684
 30
0.0
 11
-294.98789950001452
 21
-49.333327572019023
 31
0.0
  0
LINE
  8
DETAIL
  6
CONTINUOUS
 62
     5
 10
-294.98789950001452
 20
-49.333327572019023
 30
0.0
 11
-294.98789950001452
 21
-49.333327572019023
 31
0.0
  0
LINE
  8
DETAIL
  6
CONTINUOUS
 62
     5
 10
-294.98789950001452
 20
-49.333327572019023
 30
0.0
 11
-294.98991307190681
 21
-49.323761055477689
 31
0.0
  0
LINE
  8
DETAIL
  6
CONTINUOUS
 62
     5
 10
-294.98991307190681
 20
-49.323761055477689
 30
0.0
 11
-294.99184555508009
 21
-49.314184732820188
 31
0.0
  0
LINE
  8
DETAIL
  6
CONTINUOUS
 62
     5
 10
-294.99184555508009
 20
-49.314184732820188
 30
0.0
 11
-294.99184555508009
 21
-49.314184732820188
 31
0.0
  0
LINE
  8
DETAIL
  6
CONTINUOUS
 62
     5
 10
-294.99184555508009
 20
-49.314184732820188
 30
0.0
 11
-294.9937142996755
 21
-49.304600662553412
 31
0.0
  0
LINE
  8
DETAIL
  6
CONTINUOUS
 62
     5
 10
-294.9937142996755
 20
-49.304600662553412
 30
0.0
 11
-294.99553665583471
 21
-49.29501090318422
 31
0.0
  0
LINE
  8
DETAIL
  6
CONTINUOUS
 62
     5
 10
-294.99553665583471
 20
-49.29501090318422
 30
0.0
 11
-294.99553665583471
 21
-49.29501090318422
 31
0.0
  0
LINE
  8
DETAIL
  6
CONTINUOUS
 62
     5
 10
-294.99553665583471
 20
-49.29501090318422
 30
0.0
 11
-294.99732997369892
 21
-49.2854175132195
 31
0.0
  0
LINE
  8
DETAIL
  6
CONTINUOUS
 62
     5
 10
-294.99732997369892
 20
-49.2854175132195
 30
0.0
 11
-294.9991116034098
 21
-49.275822551166812
 31
0.0
  0
LINE
  8
DETAIL
  6
CONTINUOUS
 62
     5
 10
-294.9991116034098
 20
-49.275822551166812
 30
0.0
 11
-294.9991116034098
 21
-49.275822551166812
 31
0.0
  0
LINE
  8
DETAIL
  6
CONTINUOUS
 62
     5
 10
-294.9991116034098
 20
-49.275822551166812
 30
0.0
 11
-295.00089889510849
 21
-49.266228075532347
 31
0.0
  0
LINE
  8
DETAIL
  6
CONTINUOUS
 62
     5
 10
-295.00089889510849
 20
-49.266228075532347
 30
0.0
 11
-295.00270919893728
 21
-49.256636144823908
 31
0.0
  0
LINE
  8
DETAIL
  6
CONTINUOUS
 62
     5
 10
-295.00270919893728
 20
-49.256636144823908
 30
0.0
 11
-295.00270919893728
 21
-49.256636144823908
 31
0.0
  0
LINE
  8
DETAIL
  6
CONTINUOUS
 62
     5
 10
-295.00270919893728
 20
-49.256636144823908
 30
0.0
 11
-295.00455582880983
 21
-49.247048357204221
 31
0.0
  0
LINE
  8
DETAIL
  6
CONTINUOUS
 62
     5
 10
-295.00455582880983
 20
-49.247048357204221
 30
0.0
 11
-295.00643595373322
 21
-49.237464469462573
 31
0.0
  0
LINE
  8
DETAIL
  6
CONTINUOUS
 62
     5
 10
-295.00643595373322
 20
-49.237464469462573
 30
0.0
 11
-295.00643595373322
 21
-49.237464469462573
 31
0.0
  0
LINE
  8
DETAIL
  6
CONTINUOUS
 62
     5
 10
-295.00643595373322
 20
-49.237464469462573
 30
0.0
 11
-295.00834270648647
 21
-49.227883778043413
 31
0.0
  0
LINE
  8
DETAIL
  6
CONTINUOUS
 62
     5
 10
-295.00834270648647
 20
-49.227883778043413
 30
0.0
 11
-295.01026921984982
 21
-49.218305579392343
 31
0.0
  0
LINE
  8
DETAIL
  6
CONTINUOUS
 62
     5
 10
-295.01026921984982
 20
-49.218305579392343
 30
0.0
 11
-295.01026921984982
 21
-49.218305579392343
 31
0.0
  0
LINE
  8
DETAIL
  6
CONTINUOUS
 62
     5
 10
-295.01026921984982
 20
-49.218305579392343
 30
0.0
 11
-295.01220862660278
 21
-49.20872916995404
 31
0.0
  0
LINE
  8
DETAIL
  6
CONTINUOUS
 62
     5
 10
-295.01220862660278
 20
-49.20872916995404
 30
0.0
 11
-295.01415405952508
 21
-49.199153846173893
 31
0.0
  0
LINE
  8
DETAIL
  6
CONTINUOUS
 62
     5
 10
-295.01415405952508
 20
-49.199153846173893
 30
0.0
 11
-295.01415405952508
 21
-49.199153846173893
 31
0.0
  0
LINE
  8
DETAIL
  6
CONTINUOUS
 62
     5
 10
-295.01415405952508
 20
-49.199153846173893
 30
0.0
 11
-295.01609865139608
 21
-49.189578904496777
 31
0.0
  0
LINE
  8
DETAIL
  6
CONTINUOUS
 62
     5
 10
-295.01609865139608
 20
-49.189578904496777
 30
0.0
 11
-295.01803553499519
 21
-49.180003641367882
 31
0.0
  0
LINE
  8
DETAIL
  6
CONTINUOUS
 62
     5
 10
-295.01803553499519
 20
-49.180003641367882
 30
0.0
 11
-295.01803553499519
 21
-49.180003641367882
 31
0.0
  0
LINE
  8
DETAIL
  6
CONTINUOUS
 62
     5
 10
-295.01803553499519
 20
-49.180003641367882
 30
0.0
 11
-295.01995784310287
 21
-49.170427353232299
 31
0.0
  0
LINE
  8
DETAIL
  6
CONTINUOUS
 62
     5
 10
-295.01995784310287
 20
-49.170427353232299
 30
0.0
 11
-295.02185870849883
 21
-49.160849336534973
 31
0.0
  0
LINE
  8
DETAIL
  6
CONTINUOUS
 62
     5
 10
-295.02185870849883
 20
-49.160849336534973
 30
0.0
 11
-295.02185870849883
 21
-49.160849336534973
 31
0.0
  0
LINE
  8
DETAIL
  6
CONTINUOUS
 62
     5
 10
-295.02185870849883
 20
-49.160849336534973
 30
0.0
 11
-295.02373156441968
 21
-49.151268928762867
 31
0.0
  0
LINE
  8
DETAIL
  6
CONTINUOUS
 62
     5
 10
-295.02373156441968
 20
-49.151268928762867
 30
0.0
 11
-295.02557104593222
 21
-49.141685631569317
 31
0.0
  0
LINE
  8
DETAIL
  6
CONTINUOUS
 62
     5
 10
-295.02557104593222
 20
-49.141685631569317
 30
0.0
 11
-295.02557104593222
 21
-49.141685631569317
 31
0.0
  0
LINE
  8
DETAIL
  6
CONTINUOUS
 62
     5
 10
-295.02557104593222
 20
-49.141685631569317
 30
0.0
 11
-295.02737208856121
 21
-49.132098987648988
 31
0.0
  0
LINE
  8
DETAIL
  6
CONTINUOUS
 62
     5
 10
-295.02737208856121
 20
-49.132098987648988
 30
0.0
 11
-295.02912962783148
 21
-49.12250853969681
 31
0.0
  0
LINE
  8
DETAIL
  6
CONTINUOUS
 62
     5
 10
-295.02912962783148
 20
-49.12250853969681
 30
0.0
 11
-295.02912962783148
 21
-49.12250853969681
 31
0.0
  0
LINE
  8
DETAIL
  6
CONTINUOUS
 62
     5
 10
-295.02912962783148
 20
-49.12250853969681
 30
0.0
 11
-295.0308385992671
 21
-49.112913830407713
 31
0.0
  0
LINE
  8
DETAIL
  6
CONTINUOUS
 62
     5
 10
-295.0308385992671
 20
-49.112913830407713
 30
0.0
 11
-295.03249393839269
 21
-49.103314402477743
 31
0.0
  0
LINE
  8
DETAIL
  6
CONTINUOUS
 62
     5
 10
-295.03249393839269
 20
-49.103314402477743
 30
0.0
 11
-295.03249393839269
 21
-49.103314402477743
 31
0.0
  0
LINE
  8
DETAIL
  6
CONTINUOUS
 62
     5
 10
-295.03249393839269
 20
-49.103314402477743
 30
0.0
 11
-295.03409058073339
 21
-49.093709798601587
 31
0.0
  0
LINE
  8
DETAIL
  6
CONTINUOUS
 62
     5
 10
-295.03409058073339
 20
-49.093709798601587
 30
0.0
 11
-295.03562346181292
 21
-49.084099561471483
 31
0.0
  0
LINE
  8
DETAIL
  6
CONTINUOUS
 62
     5
 10
-295.03562346181292
 20
-49.084099561471483
 30
0.0
 11
-295.03562346181292
 21
-49.084099561471483
 31
0.0
  0
LINE
  8
DETAIL
  6
CONTINUOUS
 62
     5
 10
-295.03562346181292
 20
-49.084099561471483
 30
0.0
 11
-295.03708751715612
 21
-49.074483233781621
 31
0.0
  0
LINE
  8
DETAIL
  6
CONTINUOUS
 62
     5
 10
-295.03708751715612
 20
-49.074483233781621
 30
0.0
 11
-295.03847768228752
 21
-49.064860358237873
 31
0.0
  0
LINE
  8
DETAIL
  6
CONTINUOUS
 62
     5
 10
-295.03847768228752
 20
-49.064860358237873
 30
0.0
 11
-295.03847768228752
 21
-49.064860358237873
 31
0.0
  0
LINE
  8
DETAIL
  6
CONTINUOUS
 62
     5
 10
-295.03847768228752
 20
-49.064860358237873
 30
0.0
 11
-295.03979172712798
 21
-49.055230773715039
 31
0.0
  0
LINE
  8
DETAIL
  6
CONTINUOUS
 62
     5
 10
-295.03979172712798
 20
-49.055230773715039
 30
0.0
 11
-295.041038759191
 21
-49.045595503746434
 31
0.0
  0
LINE
  8
DETAIL
  6
CONTINUOUS
 62
     5
 10
-295.041038759191
 20
-49.045595503746434
 30
0.0
 11
-295.041038759191
 21
-49.045595503746434
 31
0.0
  0
LINE
  8
DETAIL
  6
CONTINUOUS
 62
     5
 10
-295.041038759191
 20
-49.045595503746434
 30
0.0
 11
-295.04223072038519
 21
-49.035955868072961
 31
0.0
  0
LINE
  8
DETAIL
  6
CONTINUOUS
 62
     5
 10
-295.04223072038519
 20
-49.035955868072961
 30
0.0
 11
-295.04337955261241
 21
-49.026313186602238
 31
0.0
  0
LINE
  8
DETAIL
  6
CONTINUOUS
 62
     5
 10
-295.04337955261241
 20
-49.026313186602238
 30
0.0
 11
-295.04337955261241
 21
-49.026313186602238
 31
0.0
  0
LINE
  8
DETAIL
  6
CONTINUOUS
 62
     5
 10
-295.04337955261241
 20
-49.026313186602238
 30
0.0
 11
-295.04449719777892
 21
-49.01666877912794
 31
0.0
  0
LINE
  8
DETAIL
  6
CONTINUOUS
 62
     5
 10
-295.04449719777892
 20
-49.01666877912794
 30
0.0
 11
-295.04559559781961
 21
-49.007023964820966
 31
0.0
  0
LINE
  8
DETAIL
  6
CONTINUOUS
 62
     5
 10
-295.04559559781961
 20
-49.007023964820966
 30
0.0
 11
-295.04559559781961
 21
-49.007023964820966
 31
0.0
  0
LINE
  8
DETAIL
  6
CONTINUOUS
 62
     5
 10
-295.04559559781961
 20
-49.007023964820966
 30
0.0
 11
-295.046686694649
 21
-48.997380063277213
 31
0.0
  0
LINE
  8
DETAIL
  6
CONTINUOUS
 62
     5
 10
-295.046686694649
 20
-48.997380063277213
 30
0.0
 11
-295.04778243007968
 21
-48.987738396417399
 31
0.0
  0
LINE
  8
DETAIL
  6
CONTINUOUS
 62
     5
 10
-295.04778243007968
 20
-48.987738396417399
 30
0.0
 11
-295.04778243007968
 21
-48.987738396417399
 31
0.0
  0
LINE
  8
DETAIL
  6
CONTINUOUS
 62
     5
 10
-295.04778243007968
 20
-48.987738396417399
 30
0.0
 11
-295.04889474599253
 21
-48.978100284574793
 31
0.0
  0
LINE
  8
DETAIL
  6
CONTINUOUS
 62
     5
 10
-295.04889474599253
 20
-48.978100284574793
 30
0.0
 11
-295.05003558465978
 21
-48.968467039406733
 31
0.0
  0
LINE
  8
DETAIL
  6
CONTINUOUS
 62
     5
 10
-295.05003558465978
 20
-48.968467039406733
 30
0.0
 11
-295.05003558465978
 21
-48.968467039406733
 31
0.0
  0
LINE
  8
DETAIL
  6
CONTINUOUS
 62
     5
 10
-295.05003558465978
 20
-48.968467039406733
 30
0.0
 11
-295.05121284164568
 21
-48.958839359260757
 31
0.0
  0
LINE
  8
DETAIL
  6
CONTINUOUS
 62
     5
 10
-295.05121284164568
 20
-48.958839359260757
 30
0.0
 11
-295.05241822530661
 21
-48.949215497924797
 31
0.0
  0
LINE
  8
DETAIL
  6
CONTINUOUS
 62
     5
 10
-295.05241822530661
 20
-48.949215497924797
 30
0.0
 11
-295.05241822530661
 21
-48.949215497924797
 31
0.0
  0
LINE
  8
DETAIL
  6
CONTINUOUS
 62
     5
 10
-295.05241822530661
 20
-48.949215497924797
 30
0.0
 11
-295.0536393985476
 21
-48.939593067835858
 31
0.0
  0
LINE
  8
DETAIL
  6
CONTINUOUS
 62
     5
 10
-295.0536393985476
 20
-48.939593067835858
 30
0.0
 11
-295.05486402968381
 21
-48.929969560590507
 31
0.0
  0
LINE
  8
DETAIL
  6
CONTINUOUS
 62
     5
 10
-295.05486402968381
 20
-48.929969560590507
 30
0.0
 11
-295.05486402968381
 21
-48.929969560590507
 31
0.0
  0
LINE
  8
DETAIL
  6
CONTINUOUS
 62
     5
 10
-295.05486402968381
 20
-48.929969560590507
 30
0.0
 11
-295.05607978333461
 21
-48.920342550321038
 31
0.0
  0
LINE
  8
DETAIL
  6
CONTINUOUS
 62
     5
 10
-295.05607978333461
 20
-48.920342550321038
 30
0.0
 11
-295.05727430393199
 21
-48.910710062142932
 31
0.0
  0
LINE
  8
DETAIL
  6
CONTINUOUS
 62
     5
 10
-295.05727430393199
 20
-48.910710062142932
 30
0.0
 11
-295.05727430393199
 21
-48.910710062142932
 31
0.0
  0
LINE
  8
DETAIL
  6
CONTINUOUS
 62
     5
 10
-295.05727430393199
 20
-48.910710062142932
 30
0.0
 11
-295.05843524969669
 21
-48.901069813144431
 31
0.0
  0
LINE
  8
DETAIL
  6
CONTINUOUS
 62
     5
 10
-295.05843524969669
 20
-48.901069813144431
 30
0.0
 11
-295.05955035419402
 21
-48.891417837321796
 31
0.0
  0
LINE
  8
DETAIL
  6
CONTINUOUS
 62
     5
 10
-295.05955035419402
 20
-48.891417837321796
 30
0.0
 11
-295.05955035419402
 21
-48.891417837321796
 31
0.0
  0
LINE
  8
DETAIL
  6
CONTINUOUS
 62
     5
 10
-295.05955035419402
 20
-48.891417837321796
 30
0.0
 11
-295.06060729952878
 21
-48.881751318244604
 31
0.0
  0
LINE
  8
DETAIL
  6
CONTINUOUS
 62
     5
 10
-295.06060729952878
 20
-48.881751318244604
 30
0.0
 11
-295.06159348661191
 21
-48.872073720866638
 31
0.0
  0
LINE
  8
DETAIL
  6
CONTINUOUS
 62
     5
 10
-295.06159348661191
 20
-48.872073720866638
 30
0.0
 11
-295.06159348661191
 21
-48.872073720866638
 31
0.0
  0
LINE
  8
DETAIL
  6
CONTINUOUS
 62
     5
 10
-295.06159348661191
 20
-48.872073720866638
 30
0.0
 11
-295.06249971413632
 21
-48.862384860896782
 31
0.0
  0
LINE
  8
DETAIL
  6
CONTINUOUS
 62
     5
 10
-295.06249971413632
 20
-48.862384860896782
 30
0.0
 11
-295.06333065311583
 21
-48.852663675680787
 31
0.0
  0
LINE
  8
DETAIL
  6
CONTINUOUS
 62
     5
 10
-295.06333065311583
 20
-48.852663675680787
 30
0.0
 11
-295.06333065311583
 21
-48.852663675680787
 31
0.0
  0
LINE
  8
DETAIL
  6
CONTINUOUS
 62
     5
 10
-295.06333065311583
 20
-48.852663675680787
 30
0.0
 11
-295.0640934635162
 21
-48.842905755072252
 31
0.0
  0
LINE
  8
DETAIL
  6
CONTINUOUS
 62
     5
 10
-295.0640934635162
 20
-48.842905755072252
 30
0.0
 11
-295.06479138879558
 21
-48.833194177324003
 31
0.0
  0
LINE
  8
DETAIL
  6
CONTINUOUS
 62
     5
 10
-295.06479138879558
 20
-48.833194177324003
 30
0.0
 11
-295.06479138879558
 21
-48.833194177324003
 31
0.0
  0
LINE
  8
DETAIL
  6
CONTINUOUS
 62
     5
 10
-295.06479138879558
 20
-48.833194177324003
 30
0.0
 11
-295.06543034743657
 21
-48.823552265000899
 31
0.0
  0
LINE
  8
DETAIL
  6
CONTINUOUS
 62
     5
 10
-295.06543034743657
 20
-48.823552265000899
 30
0.0
 11
-295.06603087452868
 21
-48.813676829520553
 31
0.0
  0
LINE
  8
DETAIL
  6
CONTINUOUS
 62
     5
 10
-295.06603087452868
 20
-48.813676829520553
 30
0.0
 11
-295.06603087452868
 21
-48.813676829520553
 31
0.0
  0
LINE
  8
DETAIL
  6
CONTINUOUS
 62
     5
 10
-295.06603087452868
 20
-48.813676829520553
 30
0.0
 11
-295.06660352183189
 21
-48.80348769356192
 31
0.0
  0
LINE
  8
DETAIL
  6
CONTINUOUS
 62
     5
 10
-295.06660352183189
 20
-48.80348769356192
 30
0.0
 11
-295.06710429119221
 21
-48.794123235994221
 31
0.0
  0
LINE
  8
DETAIL
  6
CONTINUOUS
 62
     5
 10
-295.06710429119221
 20
-48.794123235994221
 30
0.0
 11
-295.06710429119221
 21
-48.794123235994221
 31
0.0
  0
LINE
  8
DETAIL
  6
CONTINUOUS
 62
     5
 10
-295.06710429119221
 20
-48.794123235994221
 30
0.0
 11
-295.06752644274093
 21
-48.785889546330743
 31
0.0
  0
LINE
  8
DETAIL
  6
CONTINUOUS
 62
     5
 10
-295.06752644274093
 20
-48.785889546330743
 30
0.0
 11
-295.06806681966549
 21
-48.774545000469061
 31
0.0
  0
LINE
  8
DETAIL
  6
CONTINUOUS
 62
     5
 10
-295.06806681966549
 20
-48.774545000469061
 30
0.0
 11
-295.06806681966549
 21
-48.774545000469061
 31
0.0
  0
LINE
  8
DETAIL
  6
CONTINUOUS
 62
     5
 10
-295.06806681966549
 20
-48.774545000469061
 30
0.0
 11
-295.06888869805118
 21
-48.756503423928962
 31
0.0
  0
LINE
  8
DETAIL
  6
CONTINUOUS
 62
     5
 10
-295.06888869805118
 20
-48.756503423928962
 30
0.0
 11
-295.06981750251538
 21
-48.735348154342319
 31
0.0
  0
LINE
  8
DETAIL
  6
CONTINUOUS
 62
     5
 10
-295.06981750251538
 20
-48.735348154342319
 30
0.0
 11
-295.06981750251538
 21
-48.735348154342319
 31
0.0
  0
LINE
  8
DETAIL
  6
CONTINUOUS
 62
     5
 10
-295.06981750251538
 20
-48.735348154342319
 30
0.0
 11
-295.07065075333873
 21
-48.715319332666468
 31
0.0
  0
LINE
  8
DETAIL
  6
CONTINUOUS
 62
     5
 10
-295.07065075333873
 20
-48.715319332666468
 30
0.0
 11
-295.07141220492349
 21
-48.696114801056183
 31
0.0
  0
LINE
  8
DETAIL
  6
CONTINUOUS
 62
     5
 10
-295.07141220492349
 20
-48.696114801056183
 30
0.0
 11
-295.07141220492349
 21
-48.696114801056183
 31
0.0
  0
LINE
  8
DETAIL
  6
CONTINUOUS
 62
     5
 10
-295.07141220492349
 20
-48.696114801056183
 30
0.0
 11
-295.07216677190041
 21
-48.676600940552817
 31
0.0
  0
LINE
  8
DETAIL
  6
CONTINUOUS
 62
     5
 10
-295.07216677190041
 20
-48.676600940552817
 30
0.0
 11
-295.07291777570163
 21
-48.65686058655092
 31
0.0
  0
LINE
  8
DETAIL
  6
CONTINUOUS
 62
     5
 10
-295.07291777570163
 20
-48.65686058655092
 30
0.0
 11
-295.07291777570163
 21
-48.65686058655092
 31
0.0
  0
LINE
  8
DETAIL
  6
CONTINUOUS
 62
     5
 10
-295.07291777570163
 20
-48.65686058655092
 30
0.0
 11
-295.07365817412762
 21
-48.637199808380963
 31
0.0
  0
LINE
  8
DETAIL
  6
CONTINUOUS
 62
     5
 10
-295.07365817412762
 20
-48.637199808380963
 30
0.0
 11
-295.07440106365988
 21
-48.617601156766568
 31
0.0
  0
LINE
  8
DETAIL
  6
CONTINUOUS
 62
     5
 10
-295.07440106365988
 20
-48.617601156766568
 30
0.0
 11
-295.07440106365988
 21
-48.617601156766568
 31
0.0
  0
LINE
  8
DETAIL
  6
CONTINUOUS
 62
     5
 10
-295.07440106365988
 20
-48.617601156766568
 30
0.0
 11
-295.07515983506983
 21
-48.597985707798443
 31
0.0
  0
LINE
  8
DETAIL
  6
CONTINUOUS
 62
     5
 10
-295.07515983506983
 20
-48.597985707798443
 30
0.0
 11
-295.07592891760942
 21
-48.578352157643849
 31
0.0
  0
LINE
  8
DETAIL
  6
CONTINUOUS
 62
     5
 10
-16.780483308061321
 20
-264.22103120782481
 30
0.0
 11
-16.808348476250099
 21
-264.12278872537399
 31
0.0
  0
LINE
  8
DETAIL
  6
CONTINUOUS
 62
     5
 10
-16.808348476250099
 20
-264.12278872537399
 30
0.0
 11
-16.835768943568841
 21
-264.02442932104248
 31
0.0
  0
LINE
  8
DETAIL
  6
CONTINUOUS
 62
     5
 10
-16.835768943568841
 20
-264.02442932104248
 30
0.0
 11
-16.835768943568841
 21
-264.02442932104248
 31
0.0
  0
LINE
  8
DETAIL
  6
CONTINUOUS
 62
     5
 10
-16.835768943568841
 20
-264.02442932104248
 30
0.0
 11
-16.862390443481669
 21
-263.92585245388318
 31
0.0
  0
LINE
  8
DETAIL
  6
CONTINUOUS
 62
     5
 10
-16.862390443481669
 20
-263.92585245388318
 30
0.0
 11
-16.8882204467991
 21
-263.82702310668333
 31
0.0
  0
LINE
  8
DETAIL
  6
CONTINUOUS
 62
     5
 10
-16.8882204467991
 20
-263.82702310668333
 30
0.0
 11
-16.8882204467991
 21
-263.82702310668333
 31
0.0
  0
LINE
  8
DETAIL
  6
CONTINUOUS
 62
     5
 10
-16.8882204467991
 20
-263.82702310668333
 30
0.0
 11
-16.91332467295797
 21
-263.72795920113481
 31
0.0
  0
LINE
  8
DETAIL
  6
CONTINUOUS
 62
     5
 10
-16.91332467295797
 20
-263.72795920113481
 30
0.0
 11
-16.93764009856886
 21
-263.62882489080812
 31
0.0
  0
LINE
  8
DETAIL
  6
CONTINUOUS
 62
     5
 10
-16.93764009856886
 20
-263.62882489080812
 30
0.0
 11
-16.93764009856886
 21
-263.62882489080812
 31
0.0
  0
LINE
  8
DETAIL
  6
CONTINUOUS
 62
     5
 10
-16.93764009856886
 20
-263.62882489080812
 30
0.0
 11
-16.961109823025708
 21
-263.5296582744304
 31
0.0
  0
LINE
  8
DETAIL
  6
CONTINUOUS
 62
     5
 10
-16.961109823025708
 20
-263.5296582744304
 30
0.0
 11
-16.983830179693999
 21
-263.42984699947738
 31
0.0
  0
LINE
  8
DETAIL
  6
CONTINUOUS
 62
     5
 10
-16.983830179693999
 20
-263.42984699947738
 30
0.0
 11
-16.983830179693999
 21
-263.42984699947738
 31
0.0
  0
LINE
  8
DETAIL
  6
CONTINUOUS
 62
     5
 10
-16.983830179693999
 20
-263.42984699947738
 30
0.0
 11
-17.00581476216848
 21
-263.32922999389331
 31
0.0
  0
LINE
  8
DETAIL
  6
CONTINUOUS
 62
     5
 10
-17.00581476216848
 20
-263.32922999389331
 30
0.0
 11
-17.02659297099035
 21
-263.2301017587522
 31
0.0
  0
LINE
  8
DETAIL
  6
CONTINUOUS
 62
     5
 10
-17.02659297099035
 20
-263.2301017587522
 30
0.0
 11
-17.02659297099035
 21
-263.2301017587522
 31
0.0
  0
LINE
  8
DETAIL
  6
CONTINUOUS
 62
     5
 10
-17.02659297099035
 20
-263.2301017587522
 30
0.0
 11
-17.045772493861481
 21
-263.13440501923452
 31
0.0
  0
LINE
  8
DETAIL
  6
CONTINUOUS
 62
     5
 10
-17.045772493861481
 20
-263.13440501923452
 30
0.0
 11
-17.063758360170599
 21
-263.04021982381562
 31
0.0
  0
LINE
  8
DETAIL
  6
CONTINUOUS
 62
     5
 10
-17.063758360170599
 20
-263.04021982381562
 30
0.0
 11
-17.063758360170599
 21
-263.04021982381562
 31
0.0
  0
LINE
  8
DETAIL
  6
CONTINUOUS
 62
     5
 10
-17.063758360170599
 20
-263.04021982381562
 30
0.0
 11
-17.081023374483721
 21
-262.94526810005709
 31
0.0
  0
LINE
  8
DETAIL
  6
CONTINUOUS
 62
     5
 10
-17.081023374483721
 20
-262.94526810005709
 30
0.0
 11
-17.097514100376429
 21
-262.84970196856989
 31
0.0
  0
LINE
  8
DETAIL
  6
CONTINUOUS
 62
     5
 10
-17.097514100376429
 20
-262.84970196856989
 30
0.0
 11
-17.097514100376429
 21
-262.84970196856989
 31
0.0
  0
LINE
  8
DETAIL
  6
CONTINUOUS
 62
     5
 10
-17.097514100376429
 20
-262.84970196856989
 30
0.0
 11
-17.113079276206921
 21
-262.75413415510661
 31
0.0
  0
LINE
  8
DETAIL
  6
CONTINUOUS
 62
     5
 10
-17.113079276206921
 20
-262.75413415510661
 30
0.0
 11
-17.12770258045202
 21
-262.65858961293679
 31
0.0
  0
LINE
  8
DETAIL
  6
CONTINUOUS
 62
     5
 10
-17.12770258045202
 20
-262.65858961293679
 30
0.0
 11
-17.12770258045202
 21
-262.65858961293679
 31
0.0
  0
LINE
  8
DETAIL
  6
CONTINUOUS
 62
     5
 10
-17.12770258045202
 20
-262.65858961293679
 30
0.0
 11
-17.141398046745511
 21
-262.56292657642962
 31
0.0
  0
LINE
  8
DETAIL
  6
CONTINUOUS
 62
     5
 10
-17.141398046745511
 20
-262.56292657642962
 30
0.0
 11
-17.154166189243821
 21
-262.46692417683653
 31
0.0
  0
LINE
  8
DETAIL
  6
CONTINUOUS
 62
     5
 10
-17.154166189243821
 20
-262.46692417683653
 30
0.0
 11
-17.154166189243821
 21
-262.46692417683653
 31
0.0
  0
LINE
  8
DETAIL
  6
CONTINUOUS
 62
     5
 10
-17.154166189243821
 20
-262.46692417683653
 30
0.0
 11
-17.165983926682198
 21
-262.37056781586722
 31
0.0
  0
LINE
  8
DETAIL
  6
CONTINUOUS
 62
     5
 10
-17.165983926682198
 20
-262.37056781586722
 30
0.0
 11
-17.176747315596
 21
-262.27474708019031
 31
0.0
  0
LINE
  8
DETAIL
  6
CONTINUOUS
 62
     5
 10
-17.176747315596
 20
-262.27474708019031
 30
0.0
 11
-17.176747315596
 21
-262.27474708019031
 31
0.0
  0
LINE
  8
DETAIL
  6
CONTINUOUS
 62
     5
 10
-17.176747315596
 20
-262.27474708019031
 30
0.0
 11
-17.186374270694159
 21
-262.18020741087872
 31
0.0
  0
LINE
  8
DETAIL
  6
CONTINUOUS
 62
     5
 10
-17.186374270694159
 20
-262.18020741087872
 30
0.0
 11
-17.194951001579739
 21
-262.08621348166071
 31
0.0
  0
LINE
  8
DETAIL
  6
CONTINUOUS
 62
     5
 10
-17.194951001579739
 20
-262.08621348166071
 30
0.0
 11
-17.194951001579739
 21
-262.08621348166071
 31
0.0
  0
LINE
  8
DETAIL
  6
CONTINUOUS
 62
     5
 10
-17.194951001579739
 20
-262.08621348166071
 30
0.0
 11
-17.202575017336589
 21
-261.99189611815268
 31
0.0
  0
LINE
  8
DETAIL
  6
CONTINUOUS
 62
     5
 10
-17.202575017336589
 20
-261.99189611815268
 30
0.0
 11
-17.20922073007705
 21
-261.89733152086478
 31
0.0
  0
LINE
  8
DETAIL
  6
CONTINUOUS
 62
     5
 10
-17.20922073007705
 20
-261.89733152086478
 30
0.0
 11
-17.20922073007705
 21
-261.89733152086478
 31
0.0
  0
LINE
  8
DETAIL
  6
CONTINUOUS
 62
     5
 10
-17.20922073007705
 20
-261.89733152086478
 30
0.0
 11
-17.214849372835939
 21
-261.80276879382001
 31
0.0
  0
LINE
  8
DETAIL
  6
CONTINUOUS
 62
     5
 10
-17.214849372835939
 20
-261.80276879382001
 30
0.0
 11
-17.219492559305309
 21
-261.70820328020091
 31
0.0
  0
LINE
  8
DETAIL
  6
CONTINUOUS
 62
     5
 10
-17.219492559305309
 20
-261.70820328020091
 30
0.0
 11
-17.219492559305309
 21
-261.70820328020091
 31
0.0
  0
LINE
  8
DETAIL
  6
CONTINUOUS
 62
     5
 10
-17.219492559305309
 20
-261.70820328020091
 30
0.0
 11
-17.223159891927931
 21
-261.61358430009727
 31
0.0
  0
LINE
  8
DETAIL
  6
CONTINUOUS
 62
     5
 10
-17.223159891927931
 20
-261.61358430009727
 30
0.0
 11
-17.225702547483252
 21
-261.51893084206739
 31
0.0
  0
LINE
  8
DETAIL
  6
CONTINUOUS
 62
     5
 10
-17.225702547483252
 20
-261.51893084206739
 30
0.0
 11
-17.225702547483252
 21
-261.51893084206739
 31
0.0
  0
LINE
  8
DETAIL
  6
CONTINUOUS
 62
     5
 10
-17.225702547483252
 20
-261.51893084206739
 30
0.0
 11
-17.22707292683117
 21
-261.42427308352808
 31
0.0
  0
LINE
  8
DETAIL
  6
CONTINUOUS
 62
     5
 10
-17.22707292683117
 20
-261.42427308352808
 30
0.0
 11
-17.227786752827338
 21
-261.32961628886301
 31
0.0
  0
LINE
  8
DETAIL
  6
CONTINUOUS
 62
     5
 10
-16.780483308061321
 20
-267.11244612600967
 30
0.0
 11
-16.80789833957078
 21
-267.0641433536714
 31
0.0
  0
LINE
  8
DETAIL
  6
CONTINUOUS
 62
     5
 10
-16.80789833957078
 20
-267.0641433536714
 30
0.0
 11
-16.834958009736511
 21
-267.01564706025601
 31
0.0
  0
LINE
  8
DETAIL
  6
CONTINUOUS
 62
     5
 10
-16.834958009736511
 20
-267.01564706025601
 30
0.0
 11
-16.834958009736511
 21
-267.01564706025601
 31
0.0
  0
LINE
  8
DETAIL
  6
CONTINUOUS
 62
     5
 10
-16.834958009736511
 20
-267.01564706025601
 30
0.0
 11
-16.861377986655949
 21
-266.96679534033967
 31
0.0
  0
LINE
  8
DETAIL
  6
CONTINUOUS
 62
     5
 10
-16.861377986655949
 20
-266.96679534033967
 30
0.0
 11
-16.88715805619313
 21
-266.91755275110791
 31
0.0
  0
LINE
  8
DETAIL
  6
CONTINUOUS
 62
     5
 10
-16.88715805619313
 20
-266.91755275110791
 30
0.0
 11
-16.88715805619313
 21
-266.91755275110791
 31
0.0
  0
LINE
  8
DETAIL
  6
CONTINUOUS
 62
     5
 10
-16.88715805619313
 20
-266.91755275110791
 30
0.0
 11
-16.912334660120909
 21
-266.86794653482087
 31
0.0
  0
LINE
  8
DETAIL
  6
CONTINUOUS
 62
     5
 10
-16.912334660120909
 20
-266.86794653482087
 30
0.0
 11
-16.93680674607322
 21
-266.81812821142648
 31
0.0
  0
LINE
  8
DETAIL
  6
CONTINUOUS
 62
     5
 10
-16.93680674607322
 20
-266.81812821142648
 30
0.0
 11
-16.93680674607322
 21
-266.81812821142648
 31
0.0
  0
LINE
  8
DETAIL
  6
CONTINUOUS
 62
     5
 10
-16.93680674607322
 20
-266.81812821142648
 30
0.0
 11
-16.960505352845761
 21
-266.76812447695397
 31
0.0
  0
LINE
  8
DETAIL
  6
CONTINUOUS
 62
     5
 10
-16.960505352845761
 20
-266.76812447695397
 30
0.0
 11
-16.983627378019261
 21
-266.71733845407289
 31
0.0
  0
LINE
  8
DETAIL
  6
CONTINUOUS
 62
     5
 10
-16.983627378019261
 20
-266.71733845407289
 30
0.0
 11
-16.983627378019261
 21
-266.71733845407289
 31
0.0
  0
LINE
  8
DETAIL
  6
CONTINUOUS
 62
     5
 10
-16.983627378019261
 20
-266.71733845407289
 30
0.0
 11
-17.006204698620419
 21
-266.66560987605072
 31
0.0
  0
LINE
  8
DETAIL
  6
CONTINUOUS
 62
     5
 10
-17.006204698620419
 20
-266.66560987605072
 30
0.0
 11
-17.027343250675131
 21
-266.61514849190922
 31
0.0
  0
LINE
  8
DETAIL
  6
CONTINUOUS
 62
     5
 10
-17.027343250675131
 20
-266.61514849190922
 30
0.0
 11
-17.027343250675131
 21
-266.61514849190922
 31
0.0
  0
LINE
  8
DETAIL
  6
CONTINUOUS
 62
     5
 10
-17.027343250675131
 20
-266.61514849190922
 30
0.0
 11
-17.046297789779601
 21
-266.5678304706546
 31
0.0
  0
LINE
  8
DETAIL
  6
CONTINUOUS
 62
     5
 10
-17.046297789779601
 20
-266.5678304706546
 30
0.0
 11
-17.06384429080526
 21
-266.52182764547842
 31
0.0
  0
LINE
  8
DETAIL
  6
CONTINUOUS
 62
     5
 10
-17.06384429080526
 20
-266.52182764547842
 30
0.0
 11
-17.06384429080526
 21
-266.52182764547842
 31
0.0
  0
LINE
  8
DETAIL
  6
CONTINUOUS
 62
     5
 10
-17.06384429080526
 20
-266.52182764547842
 30
0.0
 11
-17.080888514671638
 21
-266.47496455973311
 31
0.0
  0
LINE
  8
DETAIL
  6
CONTINUOUS
 62
     5
 10
-17.080888514671638
 20
-266.47496455973311
 30
0.0
 11
-17.097334147212219
 21
-266.42738093323078
 31
0.0
  0
LINE
  8
DETAIL
  6
CONTINUOUS
 62
     5
 10
-17.097334147212219
 20
-266.42738093323078
 30
0.0
 11
-17.097334147212219
 21
-266.42738093323078
 31
0.0
  0
LINE
  8
DETAIL
  6
CONTINUOUS
 62
     5
 10
-17.097334147212219
 20
-266.42738093323078
 30
0.0
 11
-17.11289762889237
 21
-266.37966055781447
 31
0.0
  0
LINE
  8
DETAIL
  6
CONTINUOUS
 62
     5
 10
-17.11289762889237
 20
-266.37966055781447
 30
0.0
 11
-17.127548493777791
 21
-266.33184833699102
 31
0.0
  0
LINE
  8
DETAIL
  6
CONTINUOUS
 62
     5
 10
-17.127548493777791
 20
-266.33184833699102
 30
0.0
 11
-17.127548493777791
 21
-266.33184833699102
 31
0.0
  0
LINE
  8
DETAIL
  6
CONTINUOUS
 62
     5
 10
-17.127548493777791
 20
-266.33184833699102
 30
0.0
 11
-17.141316974505571
 21
-266.28381454640453
 31
0.0
  0
LINE
  8
DETAIL
  6
CONTINUOUS
 62
     5
 10
-17.141316974505571
 20
-266.28381454640453
 30
0.0
 11
-17.15422300438831
 21
-266.23526983858511
 31
0.0
  0
LINE
  8
DETAIL
  6
CONTINUOUS
 62
     5
 10
-17.15422300438831
 20
-266.23526983858511
 30
0.0
 11
-17.15422300438831
 21
-266.23526983858511
 31
0.0
  0
LINE
  8
DETAIL
  6
CONTINUOUS
 62
     5
 10
-17.15422300438831
 20
-266.23526983858511
 30
0.0
 11
-17.166230967830419
 21
-266.18617930548271
 31
0.0
  0
LINE
  8
DETAIL
  6
CONTINUOUS
 62
     5
 10
-17.166230967830419
 20
-266.18617930548271
 30
0.0
 11
-17.177093352926931
 21
-266.13768541983791
 31
0.0
  0
LINE
  8
DETAIL
  6
CONTINUOUS
 62
     5
 10
-17.177093352926931
 20
-266.13768541983791
 30
0.0
 11
-17.177093352926931
 21
-266.13768541983791
 31
0.0
  0
LINE
  8
DETAIL
  6
CONTINUOUS
 62
     5
 10
-17.177093352926931
 20
-266.13768541983791
 30
0.0
 11
-17.186614114147229
 21
-266.09075184602648
 31
0.0
  0
LINE
  8
DETAIL
  6
CONTINUOUS
 62
     5
 10
-17.186614114147229
 20
-266.09075184602648
 30
0.0
 11
-17.195014967771389
 21
-266.04444963417183
 31
0.0
  0
LINE
  8
DETAIL
  6
CONTINUOUS
 62
     5
 10
-17.195014967771389
 20
-266.04444963417183
 30
0.0
 11
-17.195014967771389
 21
-266.04444963417183
 31
0.0
  0
LINE
  8
DETAIL
  6
CONTINUOUS
 62
     5
 10
-17.195014967771389
 20
-266.04444963417183
 30
0.0
 11
-17.2025478880314
 21
-265.99767815854079
 31
0.0
  0
LINE
  8
DETAIL
  6
CONTINUOUS
 62
     5
 10
-17.2025478880314
 20
-265.99767815854079
 30
0.0
 11
-17.209168119150949
 21
-265.95054270422719
 31
0.0
  0
LINE
  8
DETAIL
  6
CONTINUOUS
 62
     5
 10
-17.209168119150949
 20
-265.95054270422719
 30
0.0
 11
-17.209168119150949
 21
-265.95054270422719
 31
0.0
  0
LINE
  8
DETAIL
  6
CONTINUOUS
 62
     5
 10
-17.209168119150949
 20
-265.95054270422719
 30
0.0
 11
-17.214786103161259
 21
-265.90336904381593
 31
0.0
  0
LINE
  8
DETAIL
  6
CONTINUOUS
 62
     5
 10
-17.214786103161259
 20
-265.90336904381593
 30
0.0
 11
-17.219429803330971
 21
-265.8561589890287
 31
0.0
  0
LINE
  8
DETAIL
  6
CONTINUOUS
 62
     5
 10
-17.219429803330971
 20
-265.8561589890287
 30
0.0
 11
-17.219429803330971
 21
-265.8561589890287
 31
0.0
  0
LINE
  8
DETAIL
  6
CONTINUOUS
 62
     5
 10
-17.219429803330971
 20
-265.8561589890287
 30
0.0
 11
-17.223113224503319
 21
-265.8088558445279
 31
0.0
  0
LINE
  8
DETAIL
  6
CONTINUOUS
 62
     5
 10
-17.223113224503319
 20
-265.8088558445279
 30
0.0
 11
-17.22567701657772
 21
-265.76149284759998
 31
0.0
  0
LINE
  8
DETAIL
  6
CONTINUOUS
 62
     5
 10
-17.22567701657772
 20
-265.76149284759998
 30
0.0
 11
-17.22567701657772
 21
-265.76149284759998
 31
0.0
  0
LINE
  8
DETAIL
  6
CONTINUOUS
 62
     5
 10
-17.22567701657772
 20
-265.76149284759998
 30
0.0
 11
-17.227062465351079
 21
-265.71411677627862
 31
0.0
  0
LINE
  8
DETAIL
  6
CONTINUOUS
 62
     5
 10
-17.227062465351079
 20
-265.71411677627862
 30
0.0
 11
-17.227786755156561
 21
-265.66673863896528
 31
0.0
  0
LINE
  8
DETAIL
  6
CONTINUOUS
 62
     5
 10
-17.227786755156561
 20
-265.66673863896528
 30
0.0
 11
-17.227062301744809
 21
-265.61935551994043
 31
0.0
  0
LINE
  8
DETAIL
  6
CONTINUOUS
 62
     5
 10
-17.227062301744809
 20
-265.61935551994043
 30
0.0
 11
-17.225676563204161
 21
-265.57197452263682
 31
0.0
  0
LINE
  8
DETAIL
  6
CONTINUOUS
 62
     5
 10
-17.225676563204161
 20
-265.57197452263682
 30
0.0
 11
-17.225676563204161
 21
-265.57197452263682
 31
0.0
  0
LINE
  8
DETAIL
  6
CONTINUOUS
 62
     5
 10
-17.225676563204161
 20
-265.57197452263682
 30
0.0
 11
-17.223112246967499
 21
-265.52460665826919
 31
0.0
  0
LINE
  8
DETAIL
  6
CONTINUOUS
 62
     5
 10
-17.223112246967499
 20
-265.52460665826919
 30
0.0
 11
-17.2194280307117
 21
-265.47729849602842
 31
0.0
  0
LINE
  8
DETAIL
  6
CONTINUOUS
 62
     5
 10
-17.2194280307117
 20
-265.47729849602842
 30
0.0
 11
-17.2194280307117
 21
-265.47729849602842
 31
0.0
  0
LINE
  8
DETAIL
  6
CONTINUOUS
 62
     5
 10
-17.2194280307117
 20
-265.47729849602842
 30
0.0
 11
-17.21478328908097
 21
-265.43008322855781
 31
0.0
  0
LINE
  8
DETAIL
  6
CONTINUOUS
 62
     5
 10
-17.21478328908097
 20
-265.43008322855781
 30
0.0
 11
-17.20916421434276
 21
-265.38290498433679
 31
0.0
  0
LINE
  8
DETAIL
  6
CONTINUOUS
 62
     5
 10
-17.20916421434276
 20
-265.38290498433679
 30
0.0
 11
-17.20916421434276
 21
-265.38290498433679
 31
0.0
  0
LINE
  8
DETAIL
  6
CONTINUOUS
 62
     5
 10
-17.20916421434276
 20
-265.38290498433679
 30
0.0
 11
-17.202542892985552
 21
-265.33576580047429
 31
0.0
  0
LINE
  8
DETAIL
  6
CONTINUOUS
 62
     5
 10
-17.202542892985552
 20
-265.33576580047429
 30
0.0
 11
-17.195008170760051
 21
-265.28898841275873
 31
0.0
  0
LINE
  8
DETAIL
  6
CONTINUOUS
 62
     5
 10
-17.195008170760051
 20
-265.28898841275873
 30
0.0
 11
-17.195008170760051
 21
-265.28898841275873
 31
0.0
  0
LINE
  8
DETAIL
  6
CONTINUOUS
 62
     5
 10
-17.195008170760051
 20
-265.28898841275873
 30
0.0
 11
-17.186604619563241
 21
-265.24267729900998
 31
0.0
  0
LINE
  8
DETAIL
  6
CONTINUOUS
 62
     5
 10
-17.186604619563241
 20
-265.24267729900998
 30
0.0
 11
-17.177082956625782
 21
-265.19574320649082
 31
0.0
  0
LINE
  8
DETAIL
  6
CONTINUOUS
 62
     5
 10
-17.177082956625782
 20
-265.19574320649082
 30
0.0
 11
-17.177082956625782
 21
-265.19574320649082
 31
0.0
  0
LINE
  8
DETAIL
  6
CONTINUOUS
 62
     5
 10
-17.177082956625782
 20
-265.19574320649082
 30
0.0
 11
-17.166223842493309
 21
-265.14726675790962
 31
0.0
  0
LINE
  8
DETAIL
  6
CONTINUOUS
 62
     5
 10
-17.166223842493309
 20
-265.14726675790962
 30
0.0
 11
-17.154221565635449
 21
-265.0982018083198
 31
0.0
  0
LINE
  8
DETAIL
  6
CONTINUOUS
 62
     5
 10
-17.154221565635449
 20
-265.0982018083198
 30
0.0
 11
-17.154221565635449
 21
-265.0982018083198
 31
0.0
  0
LINE
  8
DETAIL
  6
CONTINUOUS
 62
     5
 10
-17.154221565635449
 20
-265.0982018083198
 30
0.0
 11
-17.1413214528975
 21
-265.04967932915201
 31
0.0
  0
LINE
  8
DETAIL
  6
CONTINUOUS
 62
     5
 10
-17.1413214528975
 20
-265.04967932915201
 30
0.0
 11
-17.12755935670339
 21
-265.00166552500991
 31
0.0
  0
LINE
  8
DETAIL
  6
CONTINUOUS
 62
     5
 10
-17.12755935670339
 20
-265.00166552500991
 30
0.0
 11
-17.12755935670339
 21
-265.00166552500991
 31
0.0
  0
LINE
  8
DETAIL
  6
CONTINUOUS
 62
     5
 10
-17.12755935670339
 20
-265.00166552500991
 30
0.0
 11
-17.112915906759099
 21
-264.95387419217428
 31
0.0
  0
LINE
  8
DETAIL
  6
CONTINUOUS
 62
     5
 10
-17.112915906759099
 20
-264.95387419217428
 30
0.0
 11
-17.09736031632292
 21
-264.90617426045992
 31
0.0
  0
LINE
  8
DETAIL
  6
CONTINUOUS
 62
     5
 10
-17.09736031632292
 20
-264.90617426045992
 30
0.0
 11
-17.09736031632292
 21
-264.90617426045992
 31
0.0
  0
LINE
  8
DETAIL
  6
CONTINUOUS
 62
     5
 10
-17.09736031632292
 20
-264.90617426045992
 30
0.0
 11
-17.080922729594931
 21
-264.85860950123771
 31
0.0
  0
LINE
  8
DETAIL
  6
CONTINUOUS
 62
     5
 10
-17.080922729594931
 20
-264.85860950123771
 30
0.0
 11
-17.063888430988751
 21
-264.81176791856961
 31
0.0
  0
LINE
  8
DETAIL
  6
CONTINUOUS
 62
     5
 10
-17.063888430988751
 20
-264.81176791856961
 30
0.0
 11
-17.063888430988751
 21
-264.81176791856961
 31
0.0
  0
LINE
  8
DETAIL
  6
CONTINUOUS
 62
     5
 10
-17.063888430988751
 20
-264.81176791856961
 30
0.0
 11
-17.046354203868759
 21
-264.76579055861629
 31
0.0
  0
LINE
  8
DETAIL
  6
CONTINUOUS
 62
     5
 10
-17.046354203868759
 20
-264.76579055861629
 30
0.0
 11
-17.027407687193769
 21
-264.71848640323827
 31
0.0
  0
LINE
  8
DETAIL
  6
CONTINUOUS
 62
     5
 10
-17.027407687193769
 20
-264.71848640323827
 30
0.0
 11
-17.027407687193769
 21
-264.71848640323827
 31
0.0
  0
LINE
  8
DETAIL
  6
CONTINUOUS
 62
     5
 10
-17.027407687193769
 20
-264.71848640323827
 30
0.0
 11
-17.006267204277719
 21
-264.66801413587558
 31
0.0
  0
LINE
  8
DETAIL
  6
CONTINUOUS
 62
     5
 10
-17.006267204277719
 20
-264.66801413587558
 30
0.0
 11
-16.983682960270471
 21
-264.61626331058483
 31
0.0
  0
LINE
  8
DETAIL
  6
CONTINUOUS
 62
     5
 10
-16.983682960270471
 20
-264.61626331058483
 30
0.0
 11
-16.983682960270471
 21
-264.61626331058483
 31
0.0
  0
LINE
  8
DETAIL
  6
CONTINUOUS
 62
     5
 10
-16.983682960270471
 20
-264.61626331058483
 30
0.0
 11
-16.960555040900541
 21
-264.56545946583242
 31
0.0
  0
LINE
  8
DETAIL
  6
CONTINUOUS
 62
     5
 10
-16.960555040900541
 20
-264.56545946583242
 30
0.0
 11
-16.936851172383289
 21
-264.5154412071015
 31
0.0
  0
LINE
  8
DETAIL
  6
CONTINUOUS
 62
     5
 10
-16.936851172383289
 20
-264.5154412071015
 30
0.0
 11
-16.936851172383289
 21
-264.5154412071015
 31
0.0
  0
LINE
  8
DETAIL
  6
CONTINUOUS
 62
     5
 10
-16.936851172383289
 20
-264.5154412071015
 30
0.0
 11
-16.912372888154099
 21
-264.46560743084842
 31
0.0
  0
LINE
  8
DETAIL
  6
CONTINUOUS
 62
     5
 10
-16.912372888154099
 20
-264.46560743084842
 30
0.0
 11
-16.88718931004405
 21
-264.4159851304031
 31
0.0
  0
LINE
  8
DETAIL
  6
CONTINUOUS
 62
     5
 10
-16.88718931004405
 20
-264.4159851304031
 30
0.0
 11
-16.88718931004405
 21
-264.4159851304031
 31
0.0
  0
LINE
  8
DETAIL
  6
CONTINUOUS
 62
     5
 10
-16.88718931004405
 20
-264.4159851304031
 30
0.0
 11
-16.86140195846701
 21
-264.36672695968599
 31
0.0
  0
LINE
  8
DETAIL
  6
CONTINUOUS
 62
     5
 10
-16.86140195846701
 20
-264.36672695968599
 30
0.0
 11
-16.83497435976642
 21
-264.31786011810573
 31
0.0
  0
LINE
  8
DETAIL
  6
CONTINUOUS
 62
     5
 10
-16.83497435976642
 20
-264.31786011810573
 30
0.0
 11
-16.83497435976642
 21
-264.31786011810573
 31
0.0
  0
LINE
  8
DETAIL
  6
CONTINUOUS
 62
     5
 10
-16.83497435976642
 20
-264.31786011810573
 30
0.0
 11
-16.807906638738132
 21
-264.26934887173587
 31
0.0
  0
LINE
  8
DETAIL
  6
CONTINUOUS
 62
     5
 10
-16.807906638738132
 20
-264.26934887173587
 30
0.0
 11
-16.780483308061321
 21
-264.22103120782481
 31
0.0
  0
LINE
  8
DETAIL
  6
CONTINUOUS
 62
     5
 10
-16.780483308061321
 20
227.27524015791909
 30
0.0
 11
-16.808348476250099
 21
227.37348264016771
 31
0.0
  0
LINE
  8
DETAIL
  6
CONTINUOUS
 62
     5
 10
-16.808348476250099
 20
227.37348264016771
 30
0.0
 11
-16.835768943568841
 21
227.4718420443221
 31
0.0
  0
LINE
  8
DETAIL
  6
CONTINUOUS
 62
     5
 10
-16.835768943568841
 20
227.4718420443221
 30
0.0
 11
-16.835768943568841
 21
227.4718420443221
 31
0.0
  0
LINE
  8
DETAIL
  6
CONTINUOUS
 62
     5
 10
-16.835768943568841
 20
227.4718420443221
 30
0.0
 11
-16.862390443481669
 21
227.5704189113483
 31
0.0
  0
LINE
  8
DETAIL
  6
CONTINUOUS
 62
     5
 10
-16.862390443481669
 20
227.5704189113483
 30
0.0
 11
-16.8882204467991
 21
227.66924825845169
 31
0.0
  0
LINE
  8
DETAIL
  6
CONTINUOUS
 62
     5
 10
-16.8882204467991
 20
227.66924825845169
 30
0.0
 11
-16.8882204467991
 21
227.66924825845169
 31
0.0
  0
LINE
  8
DETAIL
  6
CONTINUOUS
 62
     5
 10
-16.8882204467991
 20
227.66924825845169
 30
0.0
 11
-16.91332467295797
 21
227.7683121639302
 31
0.0
  0
LINE
  8
DETAIL
  6
CONTINUOUS
 62
     5
 10
-16.91332467295797
 20
227.7683121639302
 30
0.0
 11
-16.93764009856886
 21
227.86744647420889
 31
0.0
  0
LINE
  8
DETAIL
  6
CONTINUOUS
 62
     5
 10
-16.93764009856886
 20
227.86744647420889
 30
0.0
 11
-16.93764009856886
 21
227.86744647420889
 31
0.0
  0
LINE
  8
DETAIL
  6
CONTINUOUS
 62
     5
 10
-16.93764009856886
 20
227.86744647420889
 30
0.0
 11
-16.961109823025708
 21
227.9666130905575
 31
0.0
  0
LINE
  8
DETAIL
  6
CONTINUOUS
 62
     5
 10
-16.961109823025708
 20
227.9666130905575
 30
0.0
 11
-16.983830179693999
 21
228.066424365496
 31
0.0
  0
LINE
  8
DETAIL
  6
CONTINUOUS
 62
     5
 10
-16.983830179693999
 20
228.066424365496
 30
0.0
 11
-16.983830179693999
 21
228.066424365496
 31
0.0
  0
LINE
  8
DETAIL
  6
CONTINUOUS
 62
     5
 10
-16.983830179693999
 20
228.066424365496
 30
0.0
 11
-17.00581476216848
 21
228.1670413710749
 31
0.0
  0
LINE
  8
DETAIL
  6
CONTINUOUS
 62
     5
 10
-17.00581476216848
 20
228.1670413710749
 30
0.0
 11
-17.02659297099035
 21
228.26616960621499
 31
0.0
  0
LINE
  8
DETAIL
  6
CONTINUOUS
 62
     5
 10
-17.02659297099035
 20
228.26616960621499
 30
0.0
 11
-17.02659297099035
 21
228.26616960621499
 31
0.0
  0
LINE
  8
DETAIL
  6
CONTINUOUS
 62
     5
 10
-17.02659297099035
 20
228.26616960621499
 30
0.0
 11
-17.045772493861481
 21
228.36186634573281
 31
0.0
  0
LINE
  8
DETAIL
  6
CONTINUOUS
 62
     5
 10
-17.045772493861481
 20
228.36186634573281
 30
0.0
 11
-17.063758360170599
 21
228.45605154115171
 31
0.0
  0
LINE
  8
DETAIL
  6
CONTINUOUS
 62
     5
 10
-17.063758360170599
 20
228.45605154115171
 30
0.0
 11
-17.063758360170599
 21
228.45605154115171
 31
0.0
  0
LINE
  8
DETAIL
  6
CONTINUOUS
 62
     5
 10
-17.063758360170599
 20
228.45605154115171
 30
0.0
 11
-17.081023374483721
 21
228.55100326490989
 31
0.0
  0
LINE
  8
DETAIL
  6
CONTINUOUS
 62
     5
 10
-17.081023374483721
 20
228.55100326490989
 30
0.0
 11
-17.097514100376429
 21
228.6465693963971
 31
0.0
  0
LINE
  8
DETAIL
  6
CONTINUOUS
 62
     5
 10
-17.097514100376429
 20
228.6465693963971
 30
0.0
 11
-17.097514100376429
 21
228.6465693963971
 31
0.0
  0
LINE
  8
DETAIL
  6
CONTINUOUS
 62
     5
 10
-17.097514100376429
 20
228.6465693963971
 30
0.0
 11
-17.113079276206921
 21
228.74213720986091
 31
0.0
  0
LINE
  8
DETAIL
  6
CONTINUOUS
 62
     5
 10
-17.113079276206921
 20
228.74213720986091
 30
0.0
 11
-17.12770258045202
 21
228.8376817520307
 31
0.0
  0
LINE
  8
DETAIL
  6
CONTINUOUS
 62
     5
 10
-17.12770258045202
 20
228.8376817520307
 30
0.0
 11
-17.12770258045202
 21
228.8376817520307
 31
0.0
  0
LINE
  8
DETAIL
  6
CONTINUOUS
 62
     5
 10
-17.12770258045202
 20
228.8376817520307
 30
0.0
 11
-17.141398046745511
 21
228.9333447885374
 31
0.0
  0
LINE
  8
DETAIL
  6
CONTINUOUS
 62
     5
 10
-17.141398046745511
 20
228.9333447885374
 30
0.0
 11
-17.154166189243821
 21
229.02934718813071
 31
0.0
  0
LINE
  8
DETAIL
  6
CONTINUOUS
 62
     5
 10
-17.154166189243821
 20
229.02934718813071
 30
0.0
 11
-17.154166189243821
 21
229.02934718813071
 31
0.0
  0
LINE
  8
DETAIL
  6
CONTINUOUS
 62
     5
 10
-17.154166189243821
 20
229.02934718813071
 30
0.0
 11
-17.165983926682198
 21
229.12570354910011
 31
0.0
  0
LINE
  8
DETAIL
  6
CONTINUOUS
 62
     5
 10
-17.165983926682198
 20
229.12570354910011
 30
0.0
 11
-17.176747315596
 21
229.2215242847769
 31
0.0
  0
LINE
  8
DETAIL
  6
CONTINUOUS
 62
     5
 10
-17.176747315596
 20
229.2215242847769
 30
0.0
 11
-17.176747315596
 21
229.2215242847769
 31
0.0
  0
LINE
  8
DETAIL
  6
CONTINUOUS
 62
     5
 10
-17.176747315596
 20
229.2215242847769
 30
0.0
 11
-17.186374270694159
 21
229.31606395408929
 31
0.0
  0
LINE
  8
DETAIL
  6
CONTINUOUS
 62
     5
 10
-17.186374270694159
 20
229.31606395408929
 30
0.0
 11
-17.194951001579739
 21
229.4100578833127
 31
0.0
  0
LINE
  8
DETAIL
  6
CONTINUOUS
 62
     5
 10
-17.194951001579739
 20
229.4100578833127
 30
0.0
 11
-17.194951001579739
 21
229.4100578833127
 31
0.0
  0
LINE
  8
DETAIL
  6
CONTINUOUS
 62
     5
 10
-17.194951001579739
 20
229.4100578833127
 30
0.0
 11
-17.202575017336589
 21
229.50437524683531
 31
0.0
  0
LINE
  8
DETAIL
  6
CONTINUOUS
 62
     5
 10
-17.202575017336589
 20
229.50437524683531
 30
0.0
 11
-17.20922073007705
 21
229.59893984415231
 31
0.0
  0
LINE
  8
DETAIL
  6
CONTINUOUS
 62
     5
 10
-17.20922073007705
 20
229.59893984415231
 30
0.0
 11
-17.20922073007705
 21
229.59893984415231
 31
0.0
  0
LINE
  8
DETAIL
  6
CONTINUOUS
 62
     5
 10
-17.20922073007705
 20
229.59893984415231
 30
0.0
 11
-17.214849372835939
 21
229.69350257124509
 31
0.0
  0
LINE
  8
DETAIL
  6
CONTINUOUS
 62
     5
 10
-17.214849372835939
 20
229.69350257124509
 30
0.0
 11
-17.219492559305309
 21
229.78806808493411
 31
0.0
  0
LINE
  8
DETAIL
  6
CONTINUOUS
 62
     5
 10
-17.219492559305309
 20
229.78806808493411
 30
0.0
 11
-17.219492559305309
 21
229.78806808493411
 31
0.0
  0
LINE
  8
DETAIL
  6
CONTINUOUS
 62
     5
 10
-17.219492559305309
 20
229.78806808493411
 30
0.0
 11
-17.223159891927931
 21
229.88268706513421
 31
0.0
  0
LINE
  8
DETAIL
  6
CONTINUOUS
 62
     5
 10
-17.223159891927931
 20
229.88268706513421
 30
0.0
 11
-17.225702547483252
 21
229.9773405232975
 31
0.0
  0
LINE
  8
DETAIL
  6
CONTINUOUS
 62
     5
 10
-17.225702547483252
 20
229.9773405232975
 30
0.0
 11
-17.225702547483252
 21
229.9773405232975
 31
0.0
  0
LINE
  8
DETAIL
  6
CONTINUOUS
 62
     5
 10
-17.225702547483252
 20
229.9773405232975
 30
0.0
 11
-17.22707292683117
 21
230.07199828201371
 31
0.0
  0
LINE
  8
DETAIL
  6
CONTINUOUS
 62
     5
 10
-17.22707292683117
 20
230.07199828201371
 30
0.0
 11
-17.227786752827338
 21
230.16665507688049
 31
0.0
  0
LINE
  8
DETAIL
  6
CONTINUOUS
 62
     5
 10
-17.227786752827338
 20
230.16665507688049
 30
0.0
 11
-17.227056942198029
 21
230.26234395042249
 31
0.0
  0
LINE
  8
DETAIL
  6
CONTINUOUS
 62
     5
 10
-17.227056942198029
 20
230.26234395042249
 30
0.0
 11
-17.22565641774554
 21
230.35803155239589
 31
0.0
  0
LINE
  8
DETAIL
  6
CONTINUOUS
 62
     5
 10
-17.22565641774554
 20
230.35803155239589
 30
0.0
 11
-17.22565641774554
 21
230.35803155239589
 31
0.0
  0
LINE
  8
DETAIL
  6
CONTINUOUS
 62
     5
 10
-17.22565641774554
 20
230.35803155239589
 30
0.0
 11
-17.2230581675758
 21
230.45371244849781
 31
0.0
  0
LINE
  8
DETAIL
  6
CONTINUOUS
 62
     5
 10
-17.2230581675758
 20
230.45371244849781
 30
0.0
 11
-17.219309987525779
 21
230.54936455348209
 31
0.0
  0
LINE
  8
DETAIL
  6
CONTINUOUS
 62
     5
 10
-17.219309987525779
 20
230.54936455348209
 30
0.0
 11
-17.219309987525779
 21
230.54936455348209
 31
0.0
  0
LINE
  8
DETAIL
  6
CONTINUOUS
 62
     5
 10
-17.219309987525779
 20
230.54936455348209
 30
0.0
 11
-17.21456393734297
 21
230.64497052735601
 31
0.0
  0
LINE
  8
DETAIL
  6
CONTINUOUS
 62
     5
 10
-17.21456393734297
 20
230.64497052735601
 30
0.0
 11
-17.208814324705141
 21
230.74054866207419
 31
0.0
  0
LINE
  8
DETAIL
  6
CONTINUOUS
 62
     5
 10
-17.208814324705141
 20
230.74054866207419
 30
0.0
 11
-17.208814324705141
 21
230.74054866207419
 31
0.0
  0
LINE
  8
DETAIL
  6
CONTINUOUS
 62
     5
 10
-17.208814324705141
 20
230.74054866207419
 30
0.0
 11
-17.202030069410739
 21
230.83609468836539
 31
0.0
  0
LINE
  8
DETAIL
  6
CONTINUOUS
 62
     5
 10
-17.202030069410739
 20
230.83609468836539
 30
0.0
 11
-17.19423629182074
 21
230.93147846010561
 31
0.0
  0
LINE
  8
DETAIL
  6
CONTINUOUS
 62
     5
 10
-17.19423629182074
 20
230.93147846010561
 30
0.0
 11
-17.19423629182074
 21
230.93147846010561
 31
0.0
  0
LINE
  8
DETAIL
  6
CONTINUOUS
 62
     5
 10
-17.19423629182074
 20
230.93147846010561
 30
0.0
 11
-17.18545539989373
 21
231.0266553308229
 31
0.0
  0
LINE
  8
DETAIL
  6
CONTINUOUS
 62
     5
 10
-17.18545539989373
 20
231.0266553308229
 30
0.0
 11
-17.175642751411029
 21
231.12204852951069
 31
0.0
  0
LINE
  8
DETAIL
  6
CONTINUOUS
 62
     5
 10
-17.175642751411029
 20
231.12204852951069
 30
0.0
 11
-17.175642751411029
 21
231.12204852951069
 31
0.0
  0
LINE
  8
DETAIL
  6
CONTINUOUS
 62
     5
 10
-17.175642751411029
 20
231.12204852951069
 30
0.0
 11
-17.164759115241399
 21
231.21801636440429
 31
0.0
  0
LINE
  8
DETAIL
  6
CONTINUOUS
 62
     5
 10
-17.164759115241399
 20
231.21801636440429
 30
0.0
 11
-17.152853954776671
 21
231.31418958523841
 31
0.0
  0
LINE
  8
DETAIL
  6
CONTINUOUS
 62
     5
 10
-17.152853954776671
 20
231.31418958523841
 30
0.0
 11
-17.152853954776671
 21
231.31418958523841
 31
0.0
  0
LINE
  8
DETAIL
  6
CONTINUOUS
 62
     5
 10
-17.152853954776671
 20
231.31418958523841
 30
0.0
 11
-17.13998946169659
 21
231.41012545624969
 31
0.0
  0
LINE
  8
DETAIL
  6
CONTINUOUS
 62
     5
 10
-17.13998946169659
 20
231.41012545624969
 30
0.0
 11
-17.12619004630324
 21
231.50581485817909
 31
0.0
  0
LINE
  8
DETAIL
  6
CONTINUOUS
 62
     5
 10
-17.12619004630324
 20
231.50581485817909
 30
0.0
 11
-17.12619004630324
 21
231.50581485817909
 31
0.0
  0
LINE
  8
DETAIL
  6
CONTINUOUS
 62
     5
 10
-17.12619004630324
 20
231.50581485817909
 30
0.0
 11
-17.111466040113559
 21
231.60136111256909
 31
0.0
  0
LINE
  8
DETAIL
  6
CONTINUOUS
 62
     5
 10
-17.111466040113559
 20
231.60136111256909
 30
0.0
 11
-17.095809240877319
 21
231.69688368766771
 31
0.0
  0
LINE
  8
DETAIL
  6
CONTINUOUS
 62
     5
 10
-17.095809240877319
 20
231.69688368766771
 30
0.0
 11
-17.095809240877319
 21
231.69688368766771
 31
0.0
  0
LINE
  8
DETAIL
  6
CONTINUOUS
 62
     5
 10
-17.095809240877319
 20
231.69688368766771
 30
0.0
 11
-17.079234792013722
 21
231.79238153756839
 31
0.0
  0
LINE
  8
DETAIL
  6
CONTINUOUS
 62
     5
 10
-17.079234792013722
 20
231.79238153756839
 30
0.0
 11
-17.061869753383689
 21
231.88735541304001
 31
0.0
  0
LINE
  8
DETAIL
  6
CONTINUOUS
 62
     5
 10
-17.061869753383689
 20
231.88735541304001
 30
0.0
 11
-17.061869753383689
 21
231.88735541304001
 31
0.0
  0
LINE
  8
DETAIL
  6
CONTINUOUS
 62
     5
 10
-17.061869753383689
 20
231.88735541304001
 30
0.0
 11
-17.043761880960119
 21
231.98167568066859
 31
0.0
  0
LINE
  8
DETAIL
  6
CONTINUOUS
 62
     5
 10
-17.043761880960119
 20
231.98167568066859
 30
0.0
 11
-17.0245297987085
 21
232.07718937363009
 31
0.0
  0
LINE
  8
DETAIL
  6
CONTINUOUS
 62
     5
 10
-17.0245297987085
 20
232.07718937363009
 30
0.0
 11
-17.0245297987085
 21
232.07718937363009
 31
0.0
  0
LINE
  8
DETAIL
  6
CONTINUOUS
 62
     5
 10
-17.0245297987085
 20
232.07718937363009
 30
0.0
 11
-17.003847386451529
 21
232.1754542741464
 31
0.0
  0
LINE
  8
DETAIL
  6
CONTINUOUS
 62
     5
 10
-17.003847386451529
 20
232.1754542741464
 30
0.0
 11
-16.982038679435849
 21
232.2748944940254
 31
0.0
  0
LINE
  8
DETAIL
  6
CONTINUOUS
 62
     5
 10
-16.982038679435849
 20
232.2748944940254
 30
0.0
 11
-16.982038679435849
 21
232.2748944940254
 31
0.0
  0
LINE
  8
DETAIL
  6
CONTINUOUS
 62
     5
 10
-16.982038679435849
 20
232.2748944940254
 30
0.0
 11
-16.959491271640221
 21
232.3736486132384
 31
0.0
  0
LINE
  8
DETAIL
  6
CONTINUOUS
 62
     5
 10
-16.959491271640221
 20
232.3736486132384
 30
0.0
 11
-16.936196836530598
 21
232.47184675482231
 31
0.0
  0
LINE
  8
DETAIL
  6
CONTINUOUS
 62
     5
 10
-16.936196836530598
 20
232.47184675482231
 30
0.0
 11
-16.936196836530598
 21
232.47184675482231
 31
0.0
  0
LINE
  8
DETAIL
  6
CONTINUOUS
 62
     5
 10
-16.936196836530598
 20
232.47184675482231
 30
0.0
 11
-16.912080348255589
 21
232.56998534972669
 31
0.0
  0
LINE
  8
DETAIL
  6
CONTINUOUS
 62
     5
 10
-16.912080348255589
 20
232.56998534972669
 30
0.0
 11
-16.887195904196229
 21
232.668034517488
 31
0.0
  0
LINE
  8
DETAIL
  6
CONTINUOUS
 62
     5
 10
-16.887195904196229
 20
232.668034517488
 30
0.0
 11
-16.887195904196229
 21
232.668034517488
 31
0.0
  0
LINE
  8
DETAIL
  6
CONTINUOUS
 62
     5
 10
-16.887195904196229
 20
232.668034517488
 30
0.0
 11
-16.861599739437221
 21
232.76586122543651
 31
0.0
  0
LINE
  8
DETAIL
  6
CONTINUOUS
 62
     5
 10
-16.861599739437221
 20
232.76586122543651
 30
0.0
 11
-16.835227516638501
 21
232.86344614348809
 31
0.0
  0
LINE
  8
DETAIL
  6
CONTINUOUS
 62
     5
 10
-16.835227516638501
 20
232.86344614348809
 30
0.0
 11
-16.835227516638501
 21
232.86344614348809
 31
0.0
  0
LINE
  8
DETAIL
  6
CONTINUOUS
 62
     5
 10
-16.835227516638501
 20
232.86344614348809
 30
0.0
 11
-16.808073046971
 21
232.96081624247239
 31
0.0
  0
LINE
  8
DETAIL
  6
CONTINUOUS
 62
     5
 10
-16.808073046971
 20
232.96081624247239
 30
0.0
 11
-16.780483308061321
 21
233.0580699942893
 31
0.0
  0
LINE
  8
DETAIL
  6
CONTINUOUS
 62
     5
 10
-16.780483308061321
 20
233.0580699942893
 30
0.0
 11
-16.807898339571238
 21
233.10637276662831
 31
0.0
  0
LINE
  8
DETAIL
  6
CONTINUOUS
 62
     5
 10
-16.807898339571238
 20
233.10637276662831
 30
0.0
 11
-16.83495800973742
 21
233.15486906004571
 31
0.0
  0
LINE
  8
DETAIL
  6
CONTINUOUS
 62
     5
 10
-16.83495800973742
 20
233.15486906004571
 30
0.0
 11
-16.83495800973742
 21
233.15486906004571
 31
0.0
  0
LINE
  8
DETAIL
  6
CONTINUOUS
 62
     5
 10
-16.83495800973742
 20
233.15486906004571
 30
0.0
 11
-16.861377986655949
 21
233.20372077996601
 31
0.0
  0
LINE
  8
DETAIL
  6
CONTINUOUS
 62
     5
 10
-16.861377986655949
 20
233.20372077996601
 30
0.0
 11
-16.887158056192671
 21
233.25296336920451
 31
0.0
  0
LINE
  8
DETAIL
  6
CONTINUOUS
 62
     5
 10
-16.887158056192671
 20
233.25296336920451
 30
0.0
 11
-16.887158056192671
 21
233.25296336920451
 31
0.0
  0
LINE
  8
DETAIL
  6
CONTINUOUS
 62
     5
 10
-16.887158056192671
 20
233.25296336920451
 30
0.0
 11
-16.91233466011818
 21
233.30256958550061
 31
0.0
  0
LINE
  8
DETAIL
  6
CONTINUOUS
 62
     5
 10
-16.91233466011818
 20
233.30256958550061
 30
0.0
 11
-16.93680674606594
 21
233.35238790890659
 31
0.0
  0
LINE
  8
DETAIL
  6
CONTINUOUS
 62
     5
 10
-16.93680674606594
 20
233.35238790890659
 30
0.0
 11
-16.93680674606594
 21
233.35238790890659
 31
0.0
  0
LINE
  8
DETAIL
  6
CONTINUOUS
 62
     5
 10
-16.93680674606594
 20
233.35238790890659
 30
0.0
 11
-16.960505352832119
 21
233.40239164339351
 31
0.0
  0
LINE
  8
DETAIL
  6
CONTINUOUS
 62
     5
 10
-16.960505352832119
 20
233.40239164339351
 30
0.0
 11
-16.983627377996068
 21
233.45317766629481
 31
0.0
  0
LINE
  8
DETAIL
  6
CONTINUOUS
 62
     5
 10
-16.983627377996068
 20
233.45317766629481
 30
0.0
 11
-16.983627377996068
 21
233.45317766629481
 31
0.0
  0
LINE
  8
DETAIL
  6
CONTINUOUS
 62
     5
 10
-16.983627377996068
 20
233.45317766629481
 30
0.0
 11
-17.006204698583591
 21
233.50490624434269
 31
0.0
  0
LINE
  8
DETAIL
  6
CONTINUOUS
 62
     5
 10
-17.006204698583591
 20
233.50490624434269
 30
0.0
 11
-17.02734325062147
 21
233.55536762850991
 31
0.0
  0
LINE
  8
DETAIL
  6
CONTINUOUS
 62
     5
 10
-17.02734325062147
 20
233.55536762850991
 30
0.0
 11
-17.02734325062147
 21
233.55536762850991
 31
0.0
  0
LINE
  8
DETAIL
  6
CONTINUOUS
 62
     5
 10
-17.02734325062147
 20
233.55536762850991
 30
0.0
 11
-17.0462977897032
 21
233.60268564978421
 31
0.0
  0
LINE
  8
DETAIL
  6
CONTINUOUS
 62
     5
 10
-17.0462977897032
 20
233.60268564978421
 30
0.0
 11
-17.06384429070431
 21
233.6486884749788
 31
0.0
  0
LINE
  8
DETAIL
  6
CONTINUOUS
 62
     5
 10
-17.06384429070431
 20
233.6486884749788
 30
0.0
 11
-17.06384429070431
 21
233.6486884749788
 31
0.0
  0
LINE
  8
DETAIL
  6
CONTINUOUS
 62
     5
 10
-17.06384429070431
 20
233.6486884749788
 30
0.0
 11
-17.080888514547041
 21
233.6955515607456
 31
0.0
  0
LINE
  8
DETAIL
  6
CONTINUOUS
 62
     5
 10
-17.080888514547041
 20
233.6955515607456
 30
0.0
 11
-17.097334147067158
 21
233.74313518726791
 31
0.0
  0
LINE
  8
DETAIL
  6
CONTINUOUS
 62
     5
 10
-17.097334147067158
 20
233.74313518726791
 30
0.0
 11
-17.097334147067158
 21
233.74313518726791
 31
0.0
  0
LINE
  8
DETAIL
  6
CONTINUOUS
 62
     5
 10
-17.097334147067158
 20
233.74313518726791
 30
0.0
 11
-17.11289762873184
 21
233.7908555626982
 31
0.0
  0
LINE
  8
DETAIL
  6
CONTINUOUS
 62
     5
 10
-17.11289762873184
 20
233.7908555626982
 30
0.0
 11
-17.127548493610899
 21
233.8386677835399
 31
0.0
  0
LINE
  8
DETAIL
  6
CONTINUOUS
 62
     5
 10
-17.127548493610899
 20
233.8386677835399
 30
0.0
 11
-17.127548493610899
 21
233.8386677835399
 31
0.0
  0
LINE
  8
DETAIL
  6
CONTINUOUS
 62
     5
 10
-17.127548493610899
 20
233.8386677835399
 30
0.0
 11
-17.141316974342772
 21
233.88670157415089
 31
0.0
  0
LINE
  8
DETAIL
  6
CONTINUOUS
 62
     5
 10
-17.141316974342772
 20
233.88670157415089
 30
0.0
 11
-17.15422300423597
 21
233.93524628195749
 31
0.0
  0
LINE
  8
DETAIL
  6
CONTINUOUS
 62
     5
 10
-17.15422300423597
 20
233.93524628195749
 30
0.0
 11
-17.15422300423597
 21
233.93524628195749
 31
0.0
  0
LINE
  8
DETAIL
  6
CONTINUOUS
 62
     5
 10
-17.15422300423597
 20
233.93524628195749
 30
0.0
 11
-17.16623096769581
 21
233.98433681499731
 31
0.0
  0
LINE
  8
DETAIL
  6
CONTINUOUS
 62
     5
 10
-17.16623096769581
 20
233.98433681499731
 30
0.0
 11
-17.17709335284508
 21
234.03283070068281
 31
0.0
  0
LINE
  8
DETAIL
  6
CONTINUOUS
 62
     5
 10
-17.17709335284508
 20
234.03283070068281
 30
0.0
 11
-17.17709335284508
 21
234.03283070068281
 31
0.0
  0
LINE
  8
DETAIL
  6
CONTINUOUS
 62
     5
 10
-17.17709335284508
 20
234.03283070068281
 30
0.0
 11
-17.186614114175882
 21
234.079764274768
 31
0.0
  0
LINE
  8
DETAIL
  6
CONTINUOUS
 62
     5
 10
-17.186614114175882
 20
234.079764274768
 30
0.0
 11
-17.195014967936459
 21
234.126066487001
 31
0.0
  0
LINE
  8
DETAIL
  6
CONTINUOUS
 62
     5
 10
-17.195014967936459
 20
234.126066487001
 30
0.0
 11
-17.195014967936459
 21
234.126066487001
 31
0.0
  0
LINE
  8
DETAIL
  6
CONTINUOUS
 62
     5
 10
-17.195014967936459
 20
234.126066487001
 30
0.0
 11
-17.20254788831971
 21
234.17283796296101
 31
0.0
  0
LINE
  8
DETAIL
  6
CONTINUOUS
 62
     5
 10
-17.20254788831971
 20
234.17283796296101
 30
0.0
 11
-17.209168119548391
 21
234.21997341756489
 31
0.0
  0
LINE
  8
DETAIL
  6
CONTINUOUS
 62
     5
 10
-17.209168119548391
 20
234.21997341756489
 30
0.0
 11
-17.209168119548391
 21
234.21997341756489
 31
0.0
  0
LINE
  8
DETAIL
  6
CONTINUOUS
 62
     5
 10
-17.209168119548391
 20
234.21997341756489
 30
0.0
 11
-17.21478610366103
 21
234.2671470782677
 31
0.0
  0
LINE
  8
DETAIL
  6
CONTINUOUS
 62
     5
 10
-17.21478610366103
 20
234.2671470782677
 30
0.0
 11
-17.2194298039235
 21
234.31435713334551
 31
0.0
  0
LINE
  8
DETAIL
  6
CONTINUOUS
 62
     5
 10
-17.2194298039235
 20
234.31435713334551
 30
0.0
 11
-17.2194298039235
 21
234.31435713334551
 31
0.0
  0
LINE
  8
DETAIL
  6
CONTINUOUS
 62
     5
 10
-17.2194298039235
 20
234.31435713334551
 30
0.0
 11
-17.22311322517362
 21
234.36166027812331
 31
0.0
  0
LINE
  8
DETAIL
  6
CONTINUOUS
 62
     5
 10
-17.22311322517362
 20
234.36166027812331
 30
0.0
 11
-17.22567701730441
 21
234.4090232753135
 31
0.0
  0
LINE
  8
DETAIL
  6
CONTINUOUS
 62
     5
 10
-17.22567701730441
 20
234.4090232753135
 30
0.0
 11
-17.22567701730441
 21
234.4090232753135
 31
0.0
  0
LINE
  8
DETAIL
  6
CONTINUOUS
 62
     5
 10
-17.22567701730441
 20
234.4090232753135
 30
0.0
 11
-17.22706246610915
 21
234.4563993468839
 31
0.0
  0
LINE
  8
DETAIL
  6
CONTINUOUS
 62
     5
 10
-17.22706246610915
 20
234.4563993468839
 30
0.0
 11
-17.227786755932812
 21
234.50377748443981
 31
0.0
  0
LINE
  8
DETAIL
  6
CONTINUOUS
 62
     5
 10
-17.227786755932812
 20
234.50377748443981
 30
0.0
 11
-17.227054862607929
 21
234.55119294699941
 31
0.0
  0
LINE
  8
DETAIL
  6
CONTINUOUS
 62
     5
 10
-17.227054862607929
 20
234.55119294699941
 30
0.0
 11
-17.22567656603724
 21
234.5985415956811
 31
0.0
  0
LINE
  8
DETAIL
  6
CONTINUOUS
 62
     5
 10
-17.22567656603724
 20
234.5985415956811
 30
0.0
 11
-17.22567656603724
 21
234.5985415956811
 31
0.0
  0
LINE
  8
DETAIL
  6
CONTINUOUS
 62
     5
 10
-17.22567656603724
 20
234.5985415956811
 30
0.0
 11
-17.223134573510379
 21
234.64581241927999
 31
0.0
  0
LINE
  8
DETAIL
  6
CONTINUOUS
 62
     5
 10
-17.223134573510379
 20
234.64581241927999
 30
0.0
 11
-17.219428034459721
 21
234.6932176172854
 31
0.0
  0
LINE
  8
DETAIL
  6
CONTINUOUS
 62
     5
 10
-17.219428034459721
 20
234.6932176172854
 30
0.0
 11
-17.219428034459721
 21
234.6932176172854
 31
0.0
  0
LINE
  8
DETAIL
  6
CONTINUOUS
 62
     5
 10
-17.219428034459721
 20
234.6932176172854
 30
0.0
 11
-17.21470144156638
 21
234.7407886892222
 31
0.0
  0
LINE
  8
DETAIL
  6
CONTINUOUS
 62
     5
 10
-17.21470144156638
 20
234.7407886892222
 30
0.0
 11
-17.209164218366372
 21
234.7876111240671
 31
0.0
  0
LINE
  8
DETAIL
  6
CONTINUOUS
 62
     5
 10
-17.209164218366372
 20
234.7876111240671
 30
0.0
 11
-17.209164218366372
 21
234.7876111240671
 31
0.0
  0
LINE
  8
DETAIL
  6
CONTINUOUS
 62
     5
 10
-17.209164218366372
 20
234.7876111240671
 30
0.0
 11
-17.20284797971863
 21
234.83342411603419
 31
0.0
  0
LINE
  8
DETAIL
  6
CONTINUOUS
 62
     5
 10
-17.20284797971863
 20
234.83342411603419
 30
0.0
 11
-17.195008174922801
 21
234.88152769084169
 31
0.0
  0
LINE
  8
DETAIL
  6
CONTINUOUS
 62
     5
 10
-17.195008174922801
 20
234.88152769084169
 30
0.0
 11
-17.195008174922801
 21
234.88152769084169
 31
0.0
  0
LINE
  8
DETAIL
  6
CONTINUOUS
 62
     5
 10
-17.195008174922801
 20
234.88152769084169
 30
0.0
 11
-17.185466144734161
 21
234.9327877532169
 31
0.0
  0
LINE
  8
DETAIL
  6
CONTINUOUS
 62
     5
 10
-17.185466144734161
 20
234.9327877532169
 30
0.0
 11
-17.177082961294222
 21
234.97477289242349
 31
0.0
  0
LINE
  8
DETAIL
  6
CONTINUOUS
 62
     5
 10
-17.177082961294222
 20
234.97477289242349
 30
0.0
 11
-17.177082961294222
 21
234.97477289242349
 31
0.0
  0
LINE
  8
DETAIL
  6
CONTINUOUS
 62
     5
 10
-17.177082961294222
 20
234.97477289242349
 30
0.0
 11
-17.172357442155771
 21
234.99699477625131
 31
0.0
  0
LINE
  8
DETAIL
  6
CONTINUOUS
 62
     5
 10
-17.172357442155771
 20
234.99699477625131
 30
0.0
 11
-17.169299655131908
 21
235.0100347020591
 31
0.0
  0
LINE
  8
DETAIL
  6
CONTINUOUS
 62
     5
 10
-17.169299655131908
 20
235.0100347020591
 30
0.0
 11
-17.169299655131908
 21
235.0100347020591
 31
0.0
  0
LINE
  8
DETAIL
  6
CONTINUOUS
 62
     5
 10
-17.169299655131908
 20
235.0100347020591
 30
0.0
 11
-17.165455242513868
 21
235.02639210150849
 31
0.0
  0
LINE
  8
DETAIL
  6
CONTINUOUS
 62
     5
 10
-17.165455242513868
 20
235.02639210150849
 30
0.0
 11
-17.161000894236171
 21
235.04516931389949
 31
0.0
  0
LINE
  8
DETAIL
  6
CONTINUOUS
 62
     5
 10
-17.161000894236171
 20
235.04516931389949
 30
0.0
 11
-17.161000894236171
 21
235.04516931389949
 31
0.0
  0
LINE
  8
DETAIL
  6
CONTINUOUS
 62
     5
 10
-17.161000894236171
 20
235.04516931389949
 30
0.0
 11
-17.15659591620215
 21
235.06301683275549
 31
0.0
  0
LINE
  8
DETAIL
  6
CONTINUOUS
 62
     5
 10
-17.15659591620215
 20
235.06301683275549
 30
0.0
 11
-17.15219903054594
 21
235.0801748608599
 31
0.0
  0
LINE
  8
DETAIL
  6
CONTINUOUS
 62
     5
 10
-17.15219903054594
 20
235.0801748608599
 30
0.0
 11
-17.15219903054594
 21
235.0801748608599
 31
0.0
  0
LINE
  8
DETAIL
  6
CONTINUOUS
 62
     5
 10
-17.15219903054594
 20
235.0801748608599
 30
0.0
 11
-17.14763663531539
 21
235.09754059214171
 31
0.0
  0
LINE
  8
DETAIL
  6
CONTINUOUS
 62
     5
 10
-17.14763663531539
 20
235.09754059214171
 30
0.0
 11
-17.142906415999729
 21
235.11504947585669
 31
0.0
  0
LINE
  8
DETAIL
  6
CONTINUOUS
 62
     5
 10
-17.142906415999729
 20
235.11504947585669
 30
0.0
 11
-17.142906415999729
 21
235.11504947585669
 31
0.0
  0
LINE
  8
DETAIL
  6
CONTINUOUS
 62
     5
 10
-17.142906415999729
 20
235.11504947585669
 30
0.0
 11
-17.138052738452188
 21
235.13246084245111
 31
0.0
  0
LINE
  8
DETAIL
  6
CONTINUOUS
 62
     5
 10
-17.138052738452188
 20
235.13246084245111
 30
0.0
 11
-17.133135402537391
 21
235.149791291806
 31
0.0
  0
LINE
  8
DETAIL
  6
CONTINUOUS
 62
     5
 10
-17.114461119936099
 20
235.21173247756451
 30
0.0
 11
-17.106656927232962
 21
235.23604341803161
 31
0.0
  0
LINE
  8
DETAIL
  6
CONTINUOUS
 62
     5
 10
-17.106656927232962
 20
235.23604341803161
 30
0.0
 11
-17.098691587122179
 21
235.2603670689098
 31
0.0
  0
LINE
  8
DETAIL
  6
CONTINUOUS
 62
     5
 10
-17.098691587122179
 20
235.2603670689098
 30
0.0
 11
-17.098691587122179
 21
235.2603670689098
 31
0.0
  0
LINE
  8
DETAIL
  6
CONTINUOUS
 62
     5
 10
-17.098691587122179
 20
235.2603670689098
 30
0.0
 11
-17.090458138377471
 21
235.28466814706479
 31
0.0
  0
LINE
  8
DETAIL
  6
CONTINUOUS
 62
     5
 10
-17.090458138377471
 20
235.28466814706479
 30
0.0
 11
-17.08206636450268
 21
235.3087193951778
 31
0.0
  0
LINE
  8
DETAIL
  6
CONTINUOUS
 62
     5
 10
-17.08206636450268
 20
235.3087193951778
 30
0.0
 11
-17.08206636450268
 21
235.3087193951778
 31
0.0
  0
LINE
  8
DETAIL
  6
CONTINUOUS
 62
     5
 10
-17.08206636450268
 20
235.3087193951778
 30
0.0
 11
-17.073574840851961
 21
235.33247215623811
 31
0.0
  0
LINE
  8
DETAIL
  6
CONTINUOUS
 62
     5
 10
-17.073574840851961
 20
235.33247215623811
 30
0.0
 11
-17.06462056544888
 21
235.35678414865311
 31
0.0
  0
LINE
  8
DETAIL
  6
CONTINUOUS
 62
     5
 10
-17.06462056544888
 20
235.35678414865311
 30
0.0
 11
-17.06462056544888
 21
235.35678414865311
 31
0.0
  0
LINE
  8
DETAIL
  6
CONTINUOUS
 62
     5
 10
-17.06462056544888
 20
235.35678414865311
 30
0.0
 11
-17.0551025331315
 21
235.3818813028131
 31
0.0
  0
LINE
  8
DETAIL
  6
CONTINUOUS
 62
     5
 10
-17.0551025331315
 20
235.3818813028131
 30
0.0
 11
-17.046389303329761
 21
235.4045560216214
 31
0.0
  0
LINE
  8
DETAIL
  6
CONTINUOUS
 62
     5
 10
-17.046389303329761
 20
235.4045560216214
 30
0.0
 11
-17.046389303329761
 21
235.4045560216214
 31
0.0
  0
LINE
  8
DETAIL
  6
CONTINUOUS
 62
     5
 10
-17.046389303329761
 20
235.4045560216214
 30
0.0
 11
-17.038852656362909
 21
235.4239492597417
 31
0.0
  0
LINE
  8
DETAIL
  6
CONTINUOUS
 62
     5
 10
-17.038852656362909
 20
235.4239492597417
 30
0.0
 11
-17.027407691517059
 21
235.4520297063668
 31
0.0
  0
LINE
  8
DETAIL
  6
CONTINUOUS
 62
     5
 10
-17.027407691517059
 20
235.4520297063668
 30
0.0
 11
-17.027407691517059
 21
235.4520297063668
 31
0.0
  0
LINE
  8
DETAIL
  6
CONTINUOUS
 62
     5
 10
-17.027407691517059
 20
235.4520297063668
 30
0.0
 11
-17.007691142791831
 21
235.49888524493829
 31
0.0
  0
LINE
  8
DETAIL
  6
CONTINUOUS
 62
     5
 10
-17.007691142791831
 20
235.49888524493829
 30
0.0
 11
-16.983682964076252
 21
235.55425280137069
 31
0.0
  0
LINE
  8
DETAIL
  6
CONTINUOUS
 62
     5
 10
-16.983682964076252
 20
235.55425280137069
 30
0.0
 11
-16.983682964076252
 21
235.55425280137069
 31
0.0
  0
LINE
  8
DETAIL
  6
CONTINUOUS
 62
     5
 10
-16.983682964076252
 20
235.55425280137069
 30
0.0
 11
-16.96017346714007
 21
235.60602583633951
 31
0.0
  0
LINE
  8
DETAIL
  6
CONTINUOUS
 62
     5
 10
-16.96017346714007
 20
235.60602583633951
 30
0.0
 11
-16.93685117538735
 21
235.65507490710209
 31
0.0
  0
LINE
  8
DETAIL
  6
CONTINUOUS
 62
     5
 10
-16.93685117538735
 20
235.65507490710209
 30
0.0
 11
-16.93685117538735
 21
235.65507490710209
 31
0.0
  0
LINE
  8
DETAIL
  6
CONTINUOUS
 62
     5
 10
-16.93685117538735
 20
235.65507490710209
 30
0.0
 11
-16.91247526505504
 21
235.70464865810069
 31
0.0
  0
LINE
  8
DETAIL
  6
CONTINUOUS
 62
     5
 10
-16.91247526505504
 20
235.70464865810069
 30
0.0
 11
-16.887189312074039
 21
235.75453098594221
 31
0.0
  0
LINE
  8
DETAIL
  6
CONTINUOUS
 62
     5
 10
-16.887189312074039
 20
235.75453098594221
 30
0.0
 11
-16.887189312074039
 21
235.75453098594221
 31
0.0
  0
LINE
  8
DETAIL
  6
CONTINUOUS
 62
     5
 10
-16.887189312074039
 20
235.75453098594221
 30
0.0
 11
-16.86137403969451
 21
235.8038600739651
 31
0.0
  0
LINE
  8
DETAIL
  6
CONTINUOUS
 62
     5
 10
-16.86137403969451
 20
235.8038600739651
 30
0.0
 11
-16.834974360758221
 21
235.85265600027239
 31
0.0
  0
LINE
  8
DETAIL
  6
CONTINUOUS
 62
     5
 10
-16.834974360758221
 20
235.85265600027239
 30
0.0
 11
-16.834974360758221
 21
235.85265600027239
 31
0.0
  0
LINE
  8
DETAIL
  6
CONTINUOUS
 62
     5
 10
-16.834974360758221
 20
235.85265600027239
 30
0.0
 11
-16.807915945989411
 21
235.9011436088534
 31
0.0
  0
LINE
  8
DETAIL
  6
CONTINUOUS
 62
     5
 10
-16.807915945989411
 20
235.9011436088534
 30
0.0
 11
-16.780483308061321
 21
235.94948491247439
 31
0.0
  0
LINE
  8
DETAIL
  6
CONTINUOUS
 62
     5
 10
-16.780483308061321
 20
224.3838252389576
 30
0.0
 11
-16.80789833957078
 21
224.4321280112961
 31
0.0
  0
LINE
  8
DETAIL
  6
CONTINUOUS
 62
     5
 10
-16.80789833957078
 20
224.4321280112961
 30
0.0
 11
-16.834958009736511
 21
224.48062430471259
 31
0.0
  0
LINE
  8
DETAIL
  6
CONTINUOUS
 62
     5
 10
-16.834958009736511
 20
224.48062430471259
 30
0.0
 11
-16.834958009736511
 21
224.48062430471259
 31
0.0
  0
LINE
  8
DETAIL
  6
CONTINUOUS
 62
     5
 10
-16.834958009736511
 20
224.48062430471259
 30
0.0
 11
-16.861377986655949
 21
224.5294760246318
 31
0.0
  0
LINE
  8
DETAIL
  6
CONTINUOUS
 62
     5
 10
-16.861377986655949
 20
224.5294760246318
 30
0.0
 11
-16.88715805619313
 21
224.57871861386911
 31
0.0
  0
LINE
  8
DETAIL
  6
CONTINUOUS
 62
     5
 10
-16.88715805619313
 20
224.57871861386911
 30
0.0
 11
-16.88715805619313
 21
224.57871861386911
 31
0.0
  0
LINE
  8
DETAIL
  6
CONTINUOUS
 62
     5
 10
-16.88715805619313
 20
224.57871861386911
 30
0.0
 11
-16.912334660120909
 21
224.62832483016501
 31
0.0
  0
LINE
  8
DETAIL
  6
CONTINUOUS
 62
     5
 10
-16.912334660120909
 20
224.62832483016501
 30
0.0
 11
-16.93680674607322
 21
224.67814315357279
 31
0.0
  0
LINE
  8
DETAIL
  6
CONTINUOUS
 62
     5
 10
-16.93680674607322
 20
224.67814315357279
 30
0.0
 11
-16.93680674607322
 21
224.67814315357279
 31
0.0
  0
LINE
  8
DETAIL
  6
CONTINUOUS
 62
     5
 10
-16.93680674607322
 20
224.67814315357279
 30
0.0
 11
-16.960505352845761
 21
224.72814688806369
 31
0.0
  0
LINE
  8
DETAIL
  6
CONTINUOUS
 62
     5
 10
-16.960505352845761
 20
224.72814688806369
 30
0.0
 11
-16.983627378019261
 21
224.7789329109703
 31
0.0
  0
LINE
  8
DETAIL
  6
CONTINUOUS
 62
     5
 10
-16.983627378019261
 20
224.7789329109703
 30
0.0
 11
-16.983627378019261
 21
224.7789329109703
 31
0.0
  0
LINE
  8
DETAIL
  6
CONTINUOUS
 62
     5
 10
-16.983627378019261
 20
224.7789329109703
 30
0.0
 11
-17.006204698620419
 21
224.83066148902549
 31
0.0
  0
LINE
  8
DETAIL
  6
CONTINUOUS
 62
     5
 10
-17.006204698620419
 20
224.83066148902549
 30
0.0
 11
-17.027343250675131
 21
224.88112287320629
 31
0.0
  0
LINE
  8
DETAIL
  6
CONTINUOUS
 62
     5
 10
-17.027343250675131
 20
224.88112287320629
 30
0.0
 11
-17.027343250675131
 21
224.88112287320629
 31
0.0
  0
LINE
  8
DETAIL
  6
CONTINUOUS
 62
     5
 10
-17.027343250675131
 20
224.88112287320629
 30
0.0
 11
-17.046297789779601
 21
224.9284408945044
 31
0.0
  0
LINE
  8
DETAIL
  6
CONTINUOUS
 62
     5
 10
-17.046297789779601
 20
224.9284408945044
 30
0.0
 11
-17.06384429080526
 21
224.97444371972799
 31
0.0
  0
LINE
  8
DETAIL
  6
CONTINUOUS
 62
     5
 10
-17.06384429080526
 20
224.97444371972799
 30
0.0
 11
-17.06384429080526
 21
224.97444371972799
 31
0.0
  0
LINE
  8
DETAIL
  6
CONTINUOUS
 62
     5
 10
-17.06384429080526
 20
224.97444371972799
 30
0.0
 11
-17.080888514671638
 21
225.0213068055225
 31
0.0
  0
LINE
  8
DETAIL
  6
CONTINUOUS
 62
     5
 10
-17.080888514671638
 20
225.0213068055225
 30
0.0
 11
-17.097334147212219
 21
225.06889043207391
 31
0.0
  0
LINE
  8
DETAIL
  6
CONTINUOUS
 62
     5
 10
-17.097334147212219
 20
225.06889043207391
 30
0.0
 11
-17.097334147212219
 21
225.06889043207391
 31
0.0
  0
LINE
  8
DETAIL
  6
CONTINUOUS
 62
     5
 10
-17.097334147212219
 20
225.06889043207391
 30
0.0
 11
-17.11289762889237
 21
225.1166108075349
 31
0.0
  0
LINE
  8
DETAIL
  6
CONTINUOUS
 62
     5
 10
-17.11289762889237
 20
225.1166108075349
 30
0.0
 11
-17.127548493777791
 21
225.16442302839661
 31
0.0
  0
LINE
  8
DETAIL
  6
CONTINUOUS
 62
     5
 10
-17.127548493777791
 20
225.16442302839661
 30
0.0
 11
-17.127548493777791
 21
225.16442302839661
 31
0.0
  0
LINE
  8
DETAIL
  6
CONTINUOUS
 62
     5
 10
-17.127548493777791
 20
225.16442302839661
 30
0.0
 11
-17.141316974505571
 21
225.21245681901249
 31
0.0
  0
LINE
  8
DETAIL
  6
CONTINUOUS
 62
     5
 10
-17.141316974505571
 20
225.21245681901249
 30
0.0
 11
-17.15422300438831
 21
225.26100152684899
 31
0.0
  0
LINE
  8
DETAIL
  6
CONTINUOUS
 62
     5
 10
-17.15422300438831
 20
225.26100152684899
 30
0.0
 11
-17.15422300438831
 21
225.26100152684899
 31
0.0
  0
LINE
  8
DETAIL
  6
CONTINUOUS
 62
     5
 10
-17.15422300438831
 20
225.26100152684899
 30
0.0
 11
-17.166230967830419
 21
225.3100920599536
 31
0.0
  0
LINE
  8
DETAIL
  6
CONTINUOUS
 62
     5
 10
-17.166230967830419
 20
225.3100920599536
 30
0.0
 11
-17.177093352926931
 21
225.35858594558391
 31
0.0
  0
LINE
  8
DETAIL
  6
CONTINUOUS
 62
     5
 10
-17.177093352926931
 20
225.35858594558391
 30
0.0
 11
-17.177093352926931
 21
225.35858594558391
 31
0.0
  0
LINE
  8
DETAIL
  6
CONTINUOUS
 62
     5
 10
-17.177093352926931
 20
225.35858594558391
 30
0.0
 11
-17.186614114147229
 21
225.40551951936391
 31
0.0
  0
LINE
  8
DETAIL
  6
CONTINUOUS
 62
     5
 10
-17.186614114147229
 20
225.40551951936391
 30
0.0
 11
-17.195014967771389
 21
225.4518217311734
 31
0.0
  0
LINE
  8
DETAIL
  6
CONTINUOUS
 62
     5
 10
-17.195014967771389
 20
225.4518217311734
 30
0.0
 11
-17.195014967771389
 21
225.4518217311734
 31
0.0
  0
LINE
  8
DETAIL
  6
CONTINUOUS
 62
     5
 10
-17.195014967771389
 20
225.4518217311734
 30
0.0
 11
-17.2025478880314
 21
225.49859320674889
 31
0.0
  0
LINE
  8
DETAIL
  6
CONTINUOUS
 62
     5
 10
-17.2025478880314
 20
225.49859320674889
 30
0.0
 11
-17.209168119150949
 21
225.54572866100099
 31
0.0
  0
LINE
  8
DETAIL
  6
CONTINUOUS
 62
     5
 10
-17.209168119150949
 20
225.54572866100099
 30
0.0
 11
-17.209168119150949
 21
225.54572866100099
 31
0.0
  0
LINE
  8
DETAIL
  6
CONTINUOUS
 62
     5
 10
-17.209168119150949
 20
225.54572866100099
 30
0.0
 11
-17.214786103161259
 21
225.59290232134961
 31
0.0
  0
LINE
  8
DETAIL
  6
CONTINUOUS
 62
     5
 10
-17.214786103161259
 20
225.59290232134961
 30
0.0
 11
-17.219429803330971
 21
225.6401123760761
 31
0.0
  0
LINE
  8
DETAIL
  6
CONTINUOUS
 62
     5
 10
-17.219429803330971
 20
225.6401123760761
 30
0.0
 11
-17.219429803330971
 21
225.6401123760761
 31
0.0
  0
LINE
  8
DETAIL
  6
CONTINUOUS
 62
     5
 10
-17.219429803330971
 20
225.6401123760761
 30
0.0
 11
-17.223113224503319
 21
225.68741552052191
 31
0.0
  0
LINE
  8
DETAIL
  6
CONTINUOUS
 62
     5
 10
-17.223113224503319
 20
225.68741552052191
 30
0.0
 11
-17.22567701657772
 21
225.73477851740719
 31
0.0
  0
LINE
  8
DETAIL
  6
CONTINUOUS
 62
     5
 10
-17.22567701657772
 20
225.73477851740719
 30
0.0
 11
-17.22567701657772
 21
225.73477851740719
 31
0.0
  0
LINE
  8
DETAIL
  6
CONTINUOUS
 62
     5
 10
-17.22567701657772
 20
225.73477851740719
 30
0.0
 11
-17.227062465351079
 21
225.78215458870341
 31
0.0
  0
LINE
  8
DETAIL
  6
CONTINUOUS
 62
     5
 10
-17.227062465351079
 20
225.78215458870341
 30
0.0
 11
-17.227786755156561
 21
225.8295327260021
 31
0.0
  0
LINE
  8
DETAIL
  6
CONTINUOUS
 62
     5
 10
-17.227786755156561
 20
225.8295327260021
 30
0.0
 11
-17.227062301744809
 21
225.8769158450273
 31
0.0
  0
LINE
  8
DETAIL
  6
CONTINUOUS
 62
     5
 10
-17.227062301744809
 20
225.8769158450273
 30
0.0
 11
-17.225676563204161
 21
225.92429684233159
 31
0.0
  0
LINE
  8
DETAIL
  6
CONTINUOUS
 62
     5
 10
-17.225676563204161
 20
225.92429684233159
 30
0.0
 11
-17.225676563204161
 21
225.92429684233159
 31
0.0
  0
LINE
  8
DETAIL
  6
CONTINUOUS
 62
     5
 10
-17.225676563204161
 20
225.92429684233159
 30
0.0
 11
-17.223112246967499
 21
225.9716647067012
 31
0.0
  0
LINE
  8
DETAIL
  6
CONTINUOUS
 62
     5
 10
-17.223112246967499
 20
225.9716647067012
 30
0.0
 11
-17.2194280307117
 21
226.01897286894609
 31
0.0
  0
LINE
  8
DETAIL
  6
CONTINUOUS
 62
     5
 10
-17.2194280307117
 20
226.01897286894609
 30
0.0
 11
-17.2194280307117
 21
226.01897286894609
 31
0.0
  0
LINE
  8
DETAIL
  6
CONTINUOUS
 62
     5
 10
-17.2194280307117
 20
226.01897286894609
 30
0.0
 11
-17.21478328908097
 21
226.06618813642379
 31
0.0
  0
LINE
  8
DETAIL
  6
CONTINUOUS
 62
     5
 10
-17.21478328908097
 20
226.06618813642379
 30
0.0
 11
-17.20916421434276
 21
226.11336638065541
 31
0.0
  0
LINE
  8
DETAIL
  6
CONTINUOUS
 62
     5
 10
-17.20916421434276
 20
226.11336638065541
 30
0.0
 11
-17.20916421434276
 21
226.11336638065541
 31
0.0
  0
LINE
  8
DETAIL
  6
CONTINUOUS
 62
     5
 10
-17.20916421434276
 20
226.11336638065541
 30
0.0
 11
-17.202542892985552
 21
226.1605055645332
 31
0.0
  0
LINE
  8
DETAIL
  6
CONTINUOUS
 62
     5
 10
-17.202542892985552
 20
226.1605055645332
 30
0.0
 11
-17.195008170760051
 21
226.20728295226829
 31
0.0
  0
LINE
  8
DETAIL
  6
CONTINUOUS
 62
     5
 10
-17.195008170760051
 20
226.20728295226829
 30
0.0
 11
-17.195008170760051
 21
226.20728295226829
 31
0.0
  0
LINE
  8
DETAIL
  6
CONTINUOUS
 62
     5
 10
-17.195008170760051
 20
226.20728295226829
 30
0.0
 11
-17.186604619563241
 21
226.2535940660423
 31
0.0
  0
LINE
  8
DETAIL
  6
CONTINUOUS
 62
     5
 10
-17.186604619563241
 20
226.2535940660423
 30
0.0
 11
-17.177082956625782
 21
226.30052815859361
 31
0.0
  0
LINE
  8
DETAIL
  6
CONTINUOUS
 62
     5
 10
-17.177082956625782
 20
226.30052815859361
 30
0.0
 11
-17.177082956625782
 21
226.30052815859361
 31
0.0
  0
LINE
  8
DETAIL
  6
CONTINUOUS
 62
     5
 10
-17.177082956625782
 20
226.30052815859361
 30
0.0
 11
-17.166223842493309
 21
226.34900460721499
 31
0.0
  0
LINE
  8
DETAIL
  6
CONTINUOUS
 62
     5
 10
-17.166223842493309
 20
226.34900460721499
 30
0.0
 11
-17.154221565635449
 21
226.39806955685211
 31
0.0
  0
LINE
  8
DETAIL
  6
CONTINUOUS
 62
     5
 10
-17.154221565635449
 20
226.39806955685211
 30
0.0
 11
-17.154221565635449
 21
226.39806955685211
 31
0.0
  0
LINE
  8
DETAIL
  6
CONTINUOUS
 62
     5
 10
-17.154221565635449
 20
226.39806955685211
 30
0.0
 11
-17.1413214528975
 21
226.44659203607191
 31
0.0
  0
LINE
  8
DETAIL
  6
CONTINUOUS
 62
     5
 10
-17.1413214528975
 20
226.44659203607191
 30
0.0
 11
-17.12755935670339
 21
226.49460584026929
 31
0.0
  0
LINE
  8
DETAIL
  6
CONTINUOUS
 62
     5
 10
-17.12755935670339
 20
226.49460584026929
 30
0.0
 11
-17.12755935670339
 21
226.49460584026929
 31
0.0
  0
LINE
  8
DETAIL
  6
CONTINUOUS
 62
     5
 10
-17.12755935670339
 20
226.49460584026929
 30
0.0
 11
-17.112915906759099
 21
226.54239717316159
 31
0.0
  0
LINE
  8
DETAIL
  6
CONTINUOUS
 62
     5
 10
-17.112915906759099
 20
226.54239717316159
 30
0.0
 11
-17.09736031632292
 21
226.59009710493339
 31
0.0
  0
LINE
  8
DETAIL
  6
CONTINUOUS
 62
     5
 10
-17.09736031632292
 20
226.59009710493339
 30
0.0
 11
-17.09736031632292
 21
226.59009710493339
 31
0.0
  0
LINE
  8
DETAIL
  6
CONTINUOUS
 62
     5
 10
-17.09736031632292
 20
226.59009710493339
 30
0.0
 11
-17.080922729594931
 21
226.63766186421211
 31
0.0
  0
LINE
  8
DETAIL
  6
CONTINUOUS
 62
     5
 10
-17.080922729594931
 20
226.63766186421211
 30
0.0
 11
-17.063888430988751
 21
226.68450344693309
 31
0.0
  0
LINE
  8
DETAIL
  6
CONTINUOUS
 62
     5
 10
-17.063888430988751
 20
226.68450344693309
 30
0.0
 11
-17.063888430988751
 21
226.68450344693309
 31
0.0
  0
LINE
  8
DETAIL
  6
CONTINUOUS
 62
     5
 10
-17.063888430988751
 20
226.68450344693309
 30
0.0
 11
-17.046354203868759
 21
226.73048080693479
 31
0.0
  0
LINE
  8
DETAIL
  6
CONTINUOUS
 62
     5
 10
-17.046354203868759
 20
226.73048080693479
 30
0.0
 11
-17.027407687193769
 21
226.77778496235669
 31
0.0
  0
LINE
  8
DETAIL
  6
CONTINUOUS
 62
     5
 10
-17.027407687193769
 20
226.77778496235669
 30
0.0
 11
-17.027407687193769
 21
226.77778496235669
 31
0.0
  0
LINE
  8
DETAIL
  6
CONTINUOUS
 62
     5
 10
-17.027407687193769
 20
226.77778496235669
 30
0.0
 11
-17.006267204277719
 21
226.8282572297592
 31
0.0
  0
LINE
  8
DETAIL
  6
CONTINUOUS
 62
     5
 10
-17.006267204277719
 20
226.8282572297592
 30
0.0
 11
-16.983682960270471
 21
226.8800080550827
 31
0.0
  0
LINE
  8
DETAIL
  6
CONTINUOUS
 62
     5
 10
-16.983682960270471
 20
226.8800080550827
 30
0.0
 11
-16.983682960270471
 21
226.8800080550827
 31
0.0
  0
LINE
  8
DETAIL
  6
CONTINUOUS
 62
     5
 10
-16.983682960270471
 20
226.8800080550827
 30
0.0
 11
-16.960555040900541
 21
226.9308118998606
 31
0.0
  0
LINE
  8
DETAIL
  6
CONTINUOUS
 62
     5
 10
-16.960555040900541
 20
226.9308118998606
 30
0.0
 11
-16.936851172383289
 21
226.9808301586099
 31
0.0
  0
LINE
  8
DETAIL
  6
CONTINUOUS
 62
     5
 10
-16.936851172383289
 20
226.9808301586099
 30
0.0
 11
-16.936851172383289
 21
226.9808301586099
 31
0.0
  0
LINE
  8
DETAIL
  6
CONTINUOUS
 62
     5
 10
-16.936851172383289
 20
226.9808301586099
 30
0.0
 11
-16.912372888154099
 21
227.0306639348764
 31
0.0
  0
LINE
  8
DETAIL
  6
CONTINUOUS
 62
     5
 10
-16.912372888154099
 20
227.0306639348764
 30
0.0
 11
-16.88718931004405
 21
227.08028623533119
 31
0.0
  0
LINE
  8
DETAIL
  6
CONTINUOUS
 62
     5
 10
-16.88718931004405
 20
227.08028623533119
 30
0.0
 11
-16.88718931004405
 21
227.08028623533119
 31
0.0
  0
LINE
  8
DETAIL
  6
CONTINUOUS
 62
     5
 10
-16.88718931004405
 20
227.08028623533119
 30
0.0
 11
-16.86140195846701
 21
227.12954440605381
 31
0.0
  0
LINE
  8
DETAIL
  6
CONTINUOUS
 62
     5
 10
-16.86140195846701
 20
227.12954440605381
 30
0.0
 11
-16.83497435976642
 21
227.17841124763689
 31
0.0
  0
LINE
  8
DETAIL
  6
CONTINUOUS
 62
     5
 10
-16.83497435976642
 20
227.17841124763689
 30
0.0
 11
-16.83497435976642
 21
227.17841124763689
 31
0.0
  0
LINE
  8
DETAIL
  6
CONTINUOUS
 62
     5
 10
-16.83497435976642
 20
227.17841124763689
 30
0.0
 11
-16.807906638738132
 21
227.22692249400779
 31
0.0
  0
LINE
  8
DETAIL
  6
CONTINUOUS
 62
     5
 10
-16.807906638738132
 20
227.22692249400779
 30
0.0
 11
-16.780483308061321
 21
227.27524015791909
 31
0.0
  0
LINE
  8
DETAIL
  6
CONTINUOUS
 62
     5
 10
-228.36833602584829
 20
-85.638126009692996
 30
0.0
 11
-225.36348949919241
 21
-85.638126009692996
 31
0.0
  0
LINE
  8
DETAIL
  6
CONTINUOUS
 62
     5
 10
-228.36833602584829
 20
-63.549721703072009
 30
0.0
 11
-225.36348949919241
 21
-63.549721703072009
 31
0.0
  0
LINE
  8
DETAIL
  6
CONTINUOUS
 62
     5
 10
-228.36833602584829
 20
85.638126009692996
 30
0.0
 11
-225.36348949919241
 21
85.638126009692996
 31
0.0
  0
LINE
  8
BASIS
  6
DASHDOT
 62
     6
 10
64.136317834989313
 20
0.0
 30
0.0
 11
-314.62264211805541
 21
0.0
 31
0.0
  0
ARC
  8
DETAIL
  6
CONTINUOUS
 62
     5
 10
-162.47640809284891
 20
152.5628775486957
 30
0.0
 40
108.84861794440459
 50
87.777508006275895
 51
162.7512713592017
  0
ARC
  8
DETAIL
  6
CONTINUOUS
 62
     5
 10
-161.50474976883021
 20
144.8348555361417
 30
0.0
 40
112.29229267853241
 50
88.341750895057629
 51
159.13007579197929
  0
ARC
  8
DETAIL
  6
CONTINUOUS
 62
     5
 10
-161.45619646376139
 20
160.3273189665606
 30
0.0
 40
69.912652101748208
 50
87.375799220735985
 51
163.152980144704
  0
ARC
  8
DETAIL
  6
CONTINUOUS
 62
     5
 10
-7.3550756443346472
 20
247.3157052451179
 30
0.0
 40
2.6636832864976592
 50
106.4683833268098
 51
177.46639426036231
  0
ARC
  8
DETAIL
  6
CONTINUOUS
 62
     5
 10
-12.475719112240769
 20
269.22032619006222
 30
0.0
 40
19.83654487623626
 50
282.71343332680181
 51
298.51870757904783
  0
ARC
  8
DETAIL
  6
CONTINUOUS
 62
     5
 10
-7.7081873783936317
 20
247.1849248038443
 30
0.0
 40
5.5187362891911294
 50
105.4483962469381
 51
177.41888211822939
  0
ARC
  8
DETAIL
  6
CONTINUOUS
 62
     5
 10
-10.833910321138321
 20
260.47904586649111
 30
0.0
 40
8.1448341791574972
 50
281.72892543526717
 51
329.63811964415657
  0
ARC
  8
DETAIL
  6
CONTINUOUS
 62
     5
 10
-7.7020045258759637
 20
296.75285928064392
 30
0.0
 40
5.5295447309985546
 50
105.4839156733766
 51
177.65614867930989
  0
ARC
  8
DETAIL
  6
CONTINUOUS
 62
     5
 10
-11.113013035203039
 20
313.86375133744792
 30
0.0
 40
11.939845190663521
 50
279.3256426496477
 51
302.77383325609128
  0
ARC
  8
DETAIL
  6
CONTINUOUS
 62
     5
 10
-162.47640809284891
 20
-152.56287754869621
 30
0.0
 40
108.84861794440459
 50
197.2487286407983
 51
272.22249199372408
  0
ARC
  8
DETAIL
  6
CONTINUOUS
 62
     5
 10
-161.50474976883021
 20
-144.83485553614219
 30
0.0
 40
112.29229267853241
 50
200.86992420802071
 51
271.6582491049424
  0
ARC
  8
DETAIL
  6
CONTINUOUS
 62
     5
 10
-161.45619646376139
 20
-160.32731896656119
 30
0.0
 40
69.912652101748208
 50
196.847019855296
 51
272.62420077926407
  0
ARC
  8
DETAIL
  6
CONTINUOUS
 62
     5
 10
-7.3550756443346472
 20
-247.31570524511841
 30
0.0
 40
2.6636832864976592
 50
182.53360573963769
 51
253.5316166731902
  0
ARC
  8
DETAIL
  6
CONTINUOUS
 62
     5
 10
-12.475719112240769
 20
-269.22032619006228
 30
0.0
 40
19.83654487623626
 50
61.481292420952251
 51
77.286566673198152
  0
ARC
  8
DETAIL
  6
CONTINUOUS
 62
     5
 10
-7.7081873783936317
 20
-247.18492480384481
 30
0.0
 40
5.5187362891911294
 50
182.58111788177061
 51
254.5516037530619
  0
ARC
  8
DETAIL
  6
CONTINUOUS
 62
     5
 10
-10.833910321138321
 20
-260.47904586649111
 30
0.0
 40
8.1448341791574972
 50
30.361880355843351
 51
78.271074564732842
  0
ARC
  8
DETAIL
  6
CONTINUOUS
 62
     5
 10
-11.113013035203039
 20
-313.86375133744792
 30
0.0
 40
11.939845190663521
 50
57.226166743908699
 51
80.674357350352281
  0
ARC
  8
DETAIL
  6
CONTINUOUS
 62
     5
 10
-53.023924276200432
 20
295.06944722799801
 30
0.0
 40
34.225812805661278
 50
279.66687291734792
 51
344.5664058753195
  0
ARC
  8
DETAIL
  6
CONTINUOUS
 62
     5
 10
-52.58330799932321
 20
-294.58209213115077
 30
0.0
 40
33.673235086965093
 50
14.833756459201259
 51
80.932964748095657
  0
ARC
  8
DETAIL
  6
CONTINUOUS
 62
     5
 10
-7.7020045258759637
 20
-296.75285928064392
 30
0.0
 40
5.5295447309985546
 50
182.34385132069011
 51
254.5160843266234
  0
LINE
  8
DETAIL
  6
CONTINUOUS
 62
     5
 10
-177.2859450726983
 20
95.738626136604353
 30
0.0
 11
-225.36348949919241
 21
95.738626136604353
 31
0.0
  0
LINE
  8
DETAIL
  6
CONTINUOUS
 62
     5
 10
-225.36348949919241
 20
95.738626136604353
 30
0.0
 11
-225.36348949919241
 21
-95.7386121442687
 31
0.0
  0
LINE
  8
DETAIL
  6
CONTINUOUS
 62
     5
 10
-225.36348949919241
 20
-95.7386121442687
 30
0.0
 11
-177.2859450726983
 21
-95.7386121442687
 31
0.0
  0
LINE
  8
DETAIL
  6
CONTINUOUS
 62
     5
 10
-177.2859450726983
 20
-95.7386121442687
 30
0.0
 11
-177.2859450726983
 21
95.738626136604353
 31
0.0
  0
LINE
  8
DETAIL
  6
CONTINUOUS
 62
     5
 10
-4.6496850470509798
 20
303.8245633974509
 30
0.0
 11
-3.004846526655911
 21
303.8245633974509
 31
0.0
  0
ARC
  8
OUTLINE
  6
CONTINUOUS
 62
     3
 10
-162.47640809284891
 20
152.5628775486957
 30
0.0
 40
108.84861794440459
 50
87.777508006275895
 51
162.7512713592017
  0
ARC
  8
OUTLINE
  6
CONTINUOUS
 62
     3
 10
-7.7020045258759637
 20
296.75285928064392
 30
0.0
 40
5.5295447309985546
 50
105.4839156733766
 51
177.65614867930989
  0
ARC
  8
OUTLINE
  6
CONTINUOUS
 62
     3
 10
-162.47640809284891
 20
-152.56287754869621
 30
0.0
 40
108.84861794440459
 50
197.2487286407983
 51
272.22249199372408
  0
ARC
  8
OUTLINE
  6
CONTINUOUS
 62
     3
 10
-53.023924276200432
 20
295.06944722799801
 30
0.0
 40
34.225812805661278
 50
279.66687291734792
 51
344.5664058753195
  0
ARC
  8
OUTLINE
  6
CONTINUOUS
 62
     3
 10
-52.583307999323097
 20
-294.58209213115077
 30
0.0
 40
33.673235086965093
 50
14.833756459201259
 51
80.932964748095657
  0
ARC
  8
OUTLINE
  6
CONTINUOUS
 62
     3
 10
-7.7020045258759637
 20
-296.75285928064392
 30
0.0
 40
5.5295447309985546
 50
182.34385132069011
 51
254.5160843266234
  0
ENDSEC
  0
EOF
