  0
SECTION
  2
HEADER
  9
$ACADVER
  1
AC1009
  9
$DWGCODEPAGE
  3
dos932
  9
$INSBASE
 10
0.0
 20
0.0
 30
0.0
  9
$EXTMIN
 10
-635.36680474105196
 20
-459.18272756876291
 30
-0.0015258207003583
  9
$EXTMAX
 10
1369.528210209131
 20
558.83789860973775
 30
0.0000000349246037
  9
$LIMMIN
 10
-2970.0
 20
-2100.0
  9
$LIMMAX
 10
2970.0
 20
2100.0
  9
$ORTHOMODE
 70
     1
  9
$REGENMODE
 70
     1
  9
$FILLMODE
 70
     1
  9
$QTEXTMODE
 70
     0
  9
$MIRRTEXT
 70
     0
  9
$LTSCALE
 40
20.0
  9
$ATTMODE
 70
     1
  9
$TEXTSIZE
 40
64.0
  9
$TRACEWID
 40
0.05
  9
$TEXTSTYLE
  7
STANDARD
  9
$CLAYER
  8
SIZE
  9
$CELTYPE
  6
CONTINUOUS
  9
$CECOLOR
 62
     7
  9
$DIMSCALE
 40
1.0
  9
$DIMASZ
 40
12.0
  9
$DIMEXO
 40
20.0
  9
$DIMDLI
 40
200.0
  9
$DIMRND
 40
0.0
  9
$DIMDLE
 40
0.0
  9
$DIMEXE
 40
20.0
  9
$DIMTP
 40
0.0
  9
$DIMTM
 40
0.0
  9
$DIMTXT
 40
64.0
  9
$DIMCEN
 40
0.09
  9
$DIMTSZ
 40
0.0
  9
$DIMTOL
 70
     0
  9
$DIMLIM
 70
     0
  9
$DIMTIH
 70
     0
  9
$DIMTOH
 70
     0
  9
$DIMSE1
 70
     0
  9
$DIMSE2
 70
     0
  9
$DIMTAD
 70
     1
  9
$DIMZIN
 70
     8
  9
$DIMBLK
  1

  9
$DIMASO
 70
     1
  9
$DIMSHO
 70
     0
  9
$DIMPOST
  1

  9
$DIMAPOST
  1

  9
$DIMALT
 70
     0
  9
$DIMALTD
 70
     2
  9
$DIMALTF
 40
25.399999999999999
  9
$DIMLFAC
 40
1.0
  9
$DIMTOFL
 70
     1
  9
$DIMTVP
 40
0.0
  9
$DIMTIX
 70
     1
  9
$DIMSOXD
 70
     0
  9
$DIMSAH
 70
     0
  9
$DIMBLK1
  1

  9
$DIMBLK2
  1

  9
$DIMSTYLE
  2
STANDARD
  9
$DIMCLRD
 70
     7
  9
$DIMCLRE
 70
     7
  9
$DIMCLRT
 70
     7
  9
$DIMTFAC
 40
1.0
  9
$DIMGAP
 40
25.0
  9
$LUNITS
 70
     2
  9
$LUPREC
 70
     4
  9
$SKETCHINC
 40
0.1
  9
$FILLETRAD
 40
3.0
  9
$AUNITS
 70
     1
  9
$AUPREC
 70
     3
  9
$MENU
  1
ACAD
  9
$ELEVATION
 40
0.0
  9
$PELEVATION
 40
0.0
  9
$THICKNESS
 40
0.0
  9
$LIMCHECK
 70
     0
  9
$CHAMFERA
 40
0.0
  9
$CHAMFERB
 40
0.0
  9
$SKPOLY
 70
     0
  9
$TDCREATE
 40
2453019.62301037
  9
$TDUPDATE
 40
2458949.448842049
  9
$TDINDWG
 40
1.7140669097
  9
$TDUSRTIMER
 40
1.7140669097
  9
$USRTIMER
 70
     1
  9
$ANGBASE
 50
0.0
  9
$ANGDIR
 70
     0
  9
$PDMODE
 70
     3
  9
$PDSIZE
 40
-2.0
  9
$PLINEWID
 40
0.0
  9
$SPLFRAME
 70
     0
  9
$SPLINETYPE
 70
     6
  9
$SPLINESEGS
 70
     8
  9
$SURFTAB1
 70
     6
  9
$SURFTAB2
 70
     6
  9
$SURFTYPE
 70
     6
  9
$SURFU
 70
     6
  9
$SURFV
 70
     6
  9
$UCSNAME
  2

  9
$UCSORG
 10
0.0
 20
0.0
 30
0.0
  9
$UCSXDIR
 10
1.0
 20
0.0
 30
0.0
  9
$UCSYDIR
 10
0.0
 20
1.0
 30
0.0
  9
$PUCSNAME
  2

  9
$PUCSORG
 10
0.0
 20
0.0
 30
0.0
  9
$PUCSXDIR
 10
1.0
 20
0.0
 30
0.0
  9
$PUCSYDIR
 10
0.0
 20
1.0
 30
0.0
  9
$USERI1
 70
     0
  9
$USERI2
 70
     0
  9
$USERI3
 70
     0
  9
$USERI4
 70
     0
  9
$USERI5
 70
     0
  9
$USERR1
 40
20.0
  9
$USERR2
 40
0.0
  9
$USERR3
 40
0.0
  9
$USERR4
 40
0.0
  9
$USERR5
 40
0.0
  9
$WORLDVIEW
 70
     1
  9
$SHADEDGE
 70
     3
  9
$SHADEDIF
 70
    70
  9
$TILEMODE
 70
     1
  9
$MAXACTVP
 70
    48
  9
$PINSBASE
 10
0.0
 20
0.0
 30
0.0
  9
$PLIMCHECK
 70
     0
  9
$PEXTMIN
 10
-100000000000000000000.0
 20
-100000000000000000000.0
 30
-100000000000000000000.0
  9
$PEXTMAX
 10
100000000000000000000.0
 20
100000000000000000000.0
 30
100000000000000000000.0
  9
$PLIMMIN
 10
0.0
 20
0.0
  9
$PLIMMAX
 10
12.0
 20
9.0
  9
$UNITMODE
 70
     0
  9
$VISRETAIN
 70
     0
  9
$PLINEGEN
 70
     0
  9
$PSLTSCALE
 70
     0
  9
$TREEDEPTH
 70
  3020
  9
$ATTDIA
 70
     0
  9
$ATTREQ
 70
     1
  9
$BLIPMODE
 70
     1
  9
$COORDS
 70
     1
  9
$DRAGMODE
 70
     2
  9
$OSMODE
 70
     0
  9
$HANDLING
 70
     0
  9
$HANDSEED
  5
137FF
  0
ENDSEC
  0
SECTION
  2
TABLES
  0
TABLE
  2
LTYPE
 70
     2
  0
LTYPE
  2
CONTINUOUS
 70
     0
  3
実線
 72
    65
 73
     0
 40
0.0
  0
LTYPE
  2
DASHDOT
 70
     0
  3
____ _ ____ _ ____ _ ____ _ ____ _ ____ _ ____
 72
    65
 73
     4
 40
5.5
 49
4.0
 49
-0.6
 49
0.3
 49
-0.6
  0
ENDTAB
  0
TABLE
  2
LAYER
 70
    12
  0
LAYER
  2
0
 70
     0
 62
     7
  6
CONTINUOUS
  0
LAYER
  2
BASIS
 70
     0
 62
     6
  6
DASHDOT
  0
LAYER
  2
OUTLINE
 70
     0
 62
     3
  6
CONTINUOUS
  0
LAYER
  2
DETAIL
 70
     0
 62
     5
  6
CONTINUOUS
  0
LAYER
  2
SIZE
 70
     0
 62
    30
  6
CONTINUOUS
  0
LAYER
  2
ARRANGE
 70
     0
 62
     1
  6
CONTINUOUS
  0
LAYER
  2
DEFPOINTS
 70
     0
 62
     7
  6
CONTINUOUS
  0
LAYER
  2
ETC
 70
     0
 62
    61
  6
CONTINUOUS
  0
LAYER
  2
FIX
 70
     0
 62
    11
  6
CONTINUOUS
  0
LAYER
  2
NOTE
 70
     0
 62
     4
  6
CONTINUOUS
  0
LAYER
  2
SERVICESPACE
 70
    64
 62
     2
  6
DASHDOT
  0
LAYER
  2
SYMBOLLINE
 70
    64
 62
    15
  6
CONTINUOUS
  0
ENDTAB
  0
TABLE
  2
STYLE
 70
     1
  0
STYLE
  2
STANDARD
 70
     0
 40
64.0
 41
0.9
 50
0.0
 71
     0
 42
64.0
  3
SIMPLEX.shx
  4
BIGFONT.shx
  0
ENDTAB
  0
TABLE
  2
APPID
 70
    19
  0
APPID
  2
ACAD
 70
     0
  0
APPID
  2
AUTOCAD_POSTSCRIPT_FIGURE
 70
     0
  0
APPID
  2
ACAD_EXEMPT_FROM_CAD_STANDARDS
 70
     0
  0
APPID
  2
ACAD_PSEXT
 70
     0
  0
APPID
  2
ACAUTHENVIRON
 70
     0
  0
APPID
  2
GENIUS_GENOENT_13
 70
     0
  0
APPID
  2
GENIUS_GENCFG_13
 70
     0
  0
APPID
  2
GENIUS_GENCFG0_13
 70
     0
  0
APPID
  2
GENIUS_GENCFG1_13
 70
     0
  0
APPID
  2
GENIUS_GENCFG2_13
 70
     0
  0
APPID
  2
GENIUS_GENCFG3_13
 70
     0
  0
APPID
  2
GENIUS_GENCFG4_13
 70
     0
  0
APPID
  2
GENIUS_GEVCFG0_13
 70
     0
  0
APPID
  2
CONTENTBLOCKICON
 70
     0
  0
APPID
  2
CONTENTBLOCKDESCRIPTION
 70
     0
  0
APPID
  2
ACAD_NAV_VCDISPLAY
 70
     0
  0
APPID
  2
ACAD_MLEADERVER
 70
     0
  0
APPID
  2
ACDBDYNAMICBLOCKTRUENAME
 70
     0
  0
APPID
  2
ACDBDYNAMICBLOCKGUID
 70
     0
  0
ENDTAB
  0
TABLE
  2
DIMSTYLE
 70
     1
  0
DIMSTYLE
  2
STANDARD
 70
     0
  3

  4

  5
_ORIGIN
  6

  7

 40
1.0
 41
12.0
 42
20.0
 43
200.0
 44
20.0
 45
0.0
 46
0.0
 47
0.0
 48
0.0
140
64.0
141
0.09
142
0.0
143
25.399999999999999
144
1.0
145
0.0
146
1.0
147
25.0
 71
     0
 72
     0
 73
     0
 74
     0
 75
     0
 76
     0
 77
     1
 78
     8
170
     0
171
     2
172
     1
173
     0
174
     1
175
     0
176
     7
177
     7
178
     7
  0
ENDTAB
  0
TABLE
  2
VIEW
 70
     1
  0
VIEW
  2
ALL
 70
     0
 40
4282.6198079999986
 10
0.0
 20
41.309904000000003
 41
5940.0
 11
0.0
 21
0.0
 31
1.0
 12
0.0
 22
0.0
 32
0.0
 42
50.0
 43
0.0
 44
0.0
 50
0.0
 71
     0
  0
ENDTAB
  0
TABLE
  2
UCS
 70
     0
  0
ENDTAB
  0
TABLE
  2
VPORT
 70
     1
  0
VPORT
  2
*ACTIVE
 70
     0
 10
0.0
 20
0.0
 11
1.0
 21
1.0
 12
367.08070273403962
 22
49.827585520487503
 13
0.0
 23
0.0
 14
1.0
 24
1.0
 15
0.0
 25
0.0
 16
0.0
 26
0.0
 36
1.0
 17
0.0
 27
0.0
 37
0.0
 40
1151.4557692023579
 41
1.747787610619469
 42
50.0
 43
0.0
 44
0.0
 50
0.0
 51
0.0
 71
     0
 72
  1000
 73
     1
 74
     3
 75
     0
 76
     0
 77
     0
 78
     0
  0
ENDTAB
  0
ENDSEC
  0
SECTION
  2
BLOCKS
  0
BLOCK
  8
0
  2
_ORIGIN
 70
     0
 10
0.0
 20
0.0
 30
0.0
  3
_ORIGIN
  1
_ORIGIN
  0
CIRCLE
  8
0
  6
CONTINUOUS
 62
     7
 10
0.0
 20
0.0
 30
0.0
 40
0.5
  0
LINE
  8
0
  6
CONTINUOUS
 62
     7
 10
0.0
 20
0.0
 30
0.0
 11
-1.0
 21
0.0
 31
0.0
  0
ENDBLK
  8
0
  0
ENDSEC
  0
SECTION
  2
ENTITIES
  0
CIRCLE
  8
ARRANGE
  6
CONTINUOUS
 62
     1
 10
0.0
 20
0.0
 30
0.0
 40
40.0
  0
POINT
  8
ARRANGE
  6
CONTINUOUS
 62
     1
 10
0.0
 20
0.0
 30
0.0
  0
TEXT
  8
ETC
  6
CONTINUOUS
 62
    61
 10
458.65793959955232
 20
494.56101113953241
 30
0.0
 40
64.0
  1
EWF-50FTA40A2-Q_6
 41
0.9
  0
TEXT
  8
ETC
  6
CONTINUOUS
 62
    61
 10
456.43370571627111
 20
376.60570112470168
 30
0.0
 40
64.0
  1
産業扇
 41
0.9
  0
TEXT
  8
ETC
  6
CONTINUOUS
 62
    61
 10
579.72053042231164
 20
276.29969587520009
 30
0.0
 40
40.0
  1
EWF-50FTA40A2-Q
 41
0.9
  0
LINE
  8
SIZE
  6
CONTINUOUS
 62
    30
 10
-309.99999999999949
 20
18.497576736672041
 30
0.0
 11
-309.99999999999949
 21
264.96668498765212
 31
0.0
  0
LINE
  8
SIZE
  6
CONTINUOUS
 62
    30
 10
310.0
 20
18.497576736672041
 30
0.0
 11
310.0
 21
264.96668498765212
 31
0.0
  0
LINE
  8
SIZE
  6
CONTINUOUS
 62
    30
 10
-297.99999999999949
 20
244.96668498765209
 30
0.0
 11
298.0
 21
244.96668498765209
 31
0.0
  0
CIRCLE
  8
SIZE
  6
CONTINUOUS
 62
    30
 10
-309.99999999999949
 20
244.96668498765209
 30
0.0
 40
6.0
  0
LINE
  8
SIZE
  6
CONTINUOUS
 62
    30
 10
-309.99999999999949
 20
244.96668498765209
 30
0.0
 11
-297.99999999999949
 21
244.96668498765209
 31
0.0
  0
CIRCLE
  8
SIZE
  6
CONTINUOUS
 62
    30
 10
310.0
 20
244.96668498765209
 30
0.0
 40
6.0
  0
LINE
  8
SIZE
  6
CONTINUOUS
 62
    30
 10
310.0
 20
244.96668498765209
 30
0.0
 11
298.0
 21
244.96668498765209
 31
0.0
  0
TEXT
  8
SIZE
  6
CONTINUOUS
 62
    30
 10
-74.834492931621668
 20
269.96668498765212
 30
0.0
 40
64.0
  1
620
 41
0.9
 72
     1
 11
-0.777350074478818
 21
269.96668498765212
 31
0.0
  0
POINT
  8
DEFPOINTS
  6
CONTINUOUS
 62
    30
 10
-309.99999999999949
 20
-1.5024232633279551
 30
0.0
  0
POINT
  8
DEFPOINTS
  6
CONTINUOUS
 62
    30
 10
310.0
 20
-1.5024232633279551
 30
0.0
  0
POINT
  8
DEFPOINTS
  6
CONTINUOUS
 62
    30
 10
310.0
 20
244.96668498765209
 30
0.0
  0
LINE
  8
SIZE
  6
CONTINUOUS
 62
    30
 10
-281.22969256213452
 20
44.796828318904552
 30
0.0
 11
-281.22969256213452
 21
151.39419561661629
 31
0.0
  0
LINE
  8
SIZE
  6
CONTINUOUS
 62
    30
 10
279.67499241363288
 20
44.79682831890409
 30
0.0
 11
279.67499241363288
 21
151.39419561661629
 31
0.0
  0
LINE
  8
SIZE
  6
CONTINUOUS
 62
    30
 10
-269.22969256213452
 20
131.39419561661629
 30
0.0
 11
267.67499241363288
 21
131.39419561661629
 31
0.0
  0
CIRCLE
  8
SIZE
  6
CONTINUOUS
 62
    30
 10
-281.22969256213452
 20
131.39419561661629
 30
0.0
 40
6.0
  0
LINE
  8
SIZE
  6
CONTINUOUS
 62
    30
 10
-281.22969256213452
 20
131.39419561661629
 30
0.0
 11
-269.22969256213452
 21
131.39419561661629
 31
0.0
  0
CIRCLE
  8
SIZE
  6
CONTINUOUS
 62
    30
 10
279.67499241363288
 20
131.39419561661629
 30
0.0
 40
6.0
  0
LINE
  8
SIZE
  6
CONTINUOUS
 62
    30
 10
279.67499241363288
 20
131.39419561661629
 30
0.0
 11
267.67499241363288
 21
131.39419561661629
 31
0.0
  0
TEXT
  8
SIZE
  6
CONTINUOUS
 62
    30
 10
-74.834492931393385
 20
156.39419561661629
 30
0.0
 40
64.0
  1
560
 41
0.9
 72
     1
 11
-0.7773500742505348
 21
156.39419561661629
 31
0.0
  0
POINT
  8
DEFPOINTS
  6
CONTINUOUS
 62
    30
 10
-281.22969256213452
 20
24.796828318904549
 30
0.0
  0
POINT
  8
DEFPOINTS
  6
CONTINUOUS
 62
    30
 10
279.67499241363288
 20
24.79682831890409
 30
0.0
  0
POINT
  8
DEFPOINTS
  6
CONTINUOUS
 62
    30
 10
279.67499241363288
 20
131.39419561661629
 30
0.0
  0
CIRCLE
  8
FIX
  6
CONTINUOUS
 62
    11
 10
-281.22969256213401
 20
0.0
 30
0.0
 40
7.0
  0
CIRCLE
  8
FIX
  6
CONTINUOUS
 62
    11
 10
279.67499241363288
 20
0.0
 30
0.0
 40
7.0
  0
LINE
  8
SIZE
  6
CONTINUOUS
 62
    30
 10
327.72022666242128
 20
0.0
 30
0.0
 11
532.63070699654236
 21
0.0
 31
0.0
  0
LINE
  8
SIZE
  6
CONTINUOUS
 62
    30
 10
322.6119875671061
 20
-10.016155088853109
 30
0.0
 11
532.63070699654236
 21
-10.016155088853109
 31
0.0
  0
LINE
  8
SIZE
  6
CONTINUOUS
 62
    30
 10
512.63070699654236
 20
-22.016155088853111
 30
0.0
 11
512.63070699654236
 21
-34.016155088853111
 31
0.0
  0
LINE
  8
SIZE
  6
CONTINUOUS
 62
    30
 10
512.63070699654236
 20
12.0
 30
0.0
 11
512.63070699654236
 21
156.28571428571419
 31
0.0
  0
LINE
  8
SIZE
  6
CONTINUOUS
 62
    30
 10
512.63070699654236
 20
-10.016155088853109
 30
0.0
 11
512.63070699654236
 21
0.0
 31
0.0
  0
CIRCLE
  8
SIZE
  6
CONTINUOUS
 62
    30
 10
512.63070699654236
 20
-10.016155088853109
 30
0.0
 40
6.0
  0
LINE
  8
SIZE
  6
CONTINUOUS
 62
    30
 10
512.63070699654236
 20
-10.016155088853109
 30
0.0
 11
512.63070699654236
 21
-22.016155088853111
 31
0.0
  0
CIRCLE
  8
SIZE
  6
CONTINUOUS
 62
    30
 10
512.63070699654236
 20
0.0
 30
0.0
 40
6.0
  0
LINE
  8
SIZE
  6
CONTINUOUS
 62
    30
 10
512.63070699654236
 20
0.0
 30
0.0
 11
512.63070699654236
 21
12.0
 31
0.0
  0
TEXT
  8
SIZE
  6
CONTINUOUS
 62
    30
 10
487.63070699654241
 20
49.000000000000199
 30
0.0
 40
64.0
  1
10
 50
90.0
 41
0.9
 72
     1
 11
487.63070699654241
 21
90.142857142857338
 31
0.0
  0
POINT
  8
DEFPOINTS
  6
CONTINUOUS
 62
    30
 10
307.72022666242128
 20
0.0
 30
0.0
  0
POINT
  8
DEFPOINTS
  6
CONTINUOUS
 62
    30
 10
302.6119875671061
 20
-10.016155088853109
 30
0.0
  0
POINT
  8
DEFPOINTS
  6
CONTINUOUS
 62
    30
 10
512.63070699654236
 20
-10.016155088853109
 30
0.0
  0
LINE
  8
SIZE
  6
CONTINUOUS
 62
    30
 10
322.6119875671061
 20
-10.016155088853109
 30
0.0
 11
532.63070699654236
 21
-10.016155088853109
 31
0.0
  0
LINE
  8
SIZE
  6
CONTINUOUS
 62
    30
 10
312.59583247825321
 20
-20.032310177706218
 30
0.0
 11
532.63070699654236
 21
-20.032310177706218
 31
0.0
  0
LINE
  8
SIZE
  6
CONTINUOUS
 62
    30
 10
512.63070699654236
 20
1.983844911146889
 30
0.0
 11
512.63070699654236
 21
13.983844911146891
 31
0.0
  0
LINE
  8
SIZE
  6
CONTINUOUS
 62
    30
 10
512.63070699654236
 20
-32.032310177706222
 30
0.0
 11
512.63070699654236
 21
-176.3180244634207
 31
0.0
  0
LINE
  8
SIZE
  6
CONTINUOUS
 62
    30
 10
512.63070699654236
 20
-10.016155088853109
 30
0.0
 11
512.63070699654236
 21
-20.032310177706218
 31
0.0
  0
CIRCLE
  8
SIZE
  6
CONTINUOUS
 62
    30
 10
512.63070699654236
 20
-10.016155088853109
 30
0.0
 40
6.0
  0
LINE
  8
SIZE
  6
CONTINUOUS
 62
    30
 10
512.63070699654236
 20
-10.016155088853109
 30
0.0
 11
512.63070699654236
 21
1.983844911146889
 31
0.0
  0
CIRCLE
  8
SIZE
  6
CONTINUOUS
 62
    30
 10
512.63070699654236
 20
-20.032310177706218
 30
0.0
 40
6.0
  0
LINE
  8
SIZE
  6
CONTINUOUS
 62
    30
 10
512.63070699654236
 20
-20.032310177706218
 30
0.0
 11
512.63070699654236
 21
-32.032310177706222
 31
0.0
  0
TEXT
  8
SIZE
  6
CONTINUOUS
 62
    30
 10
487.63070699654241
 20
-151.3180244634207
 30
0.0
 40
64.0
  1
10
 50
90.0
 41
0.9
 72
     1
 11
487.63070699654241
 21
-110.1751673205636
 31
0.0
  0
POINT
  8
DEFPOINTS
  6
CONTINUOUS
 62
    30
 10
302.6119875671061
 20
-10.016155088853109
 30
0.0
  0
POINT
  8
DEFPOINTS
  6
CONTINUOUS
 62
    30
 10
292.59583247825321
 20
-20.032310177706218
 30
0.0
  0
POINT
  8
DEFPOINTS
  6
CONTINUOUS
 62
    30
 10
512.63070699654236
 20
-20.032310177706218
 30
0.0
  0
LINE
  8
SIZE
  6
CONTINUOUS
 62
    30
 10
327.72022666242128
 20
0.0
 30
0.0
 11
685.3209723680402
 21
0.0
 31
0.0
  0
LINE
  8
SIZE
  6
CONTINUOUS
 62
    30
 10
250.16665507688089
 20
-155.25040387722129
 30
0.0
 11
685.3209723680402
 21
-155.25040387722129
 31
0.0
  0
LINE
  8
SIZE
  6
CONTINUOUS
 62
    30
 10
665.3209723680402
 20
-12.0
 30
0.0
 11
665.3209723680402
 21
-143.25040387722129
 31
0.0
  0
LINE
  8
SIZE
  6
CONTINUOUS
 62
    30
 10
665.3209723680402
 20
-155.25040387722129
 30
0.0
 11
665.3209723680402
 21
-354.39326102007868
 31
0.0
  0
CIRCLE
  8
SIZE
  6
CONTINUOUS
 62
    30
 10
665.3209723680402
 20
0.0
 30
0.0
 40
6.0
  0
LINE
  8
SIZE
  6
CONTINUOUS
 62
    30
 10
665.3209723680402
 20
0.0
 30
0.0
 11
665.3209723680402
 21
-12.0
 31
0.0
  0
CIRCLE
  8
SIZE
  6
CONTINUOUS
 62
    30
 10
665.3209723680402
 20
-155.25040387722129
 30
0.0
 40
6.0
  0
LINE
  8
SIZE
  6
CONTINUOUS
 62
    30
 10
665.3209723680402
 20
-155.25040387722129
 30
0.0
 11
665.3209723680402
 21
-143.25040387722129
 31
0.0
  0
TEXT
  8
SIZE
  6
CONTINUOUS
 62
    30
 10
640.3209723680402
 20
-329.39326102007863
 30
0.0
 40
64.0
  1
155
 50
90.0
 41
0.9
 72
     1
 11
640.3209723680402
 21
-260.82183244865001
 31
0.0
  0
POINT
  8
DEFPOINTS
  6
CONTINUOUS
 62
    30
 10
307.72022666242128
 20
0.0
 30
0.0
  0
POINT
  8
DEFPOINTS
  6
CONTINUOUS
 62
    30
 10
230.16665507688089
 20
-155.25040387722129
 30
0.0
  0
POINT
  8
DEFPOINTS
  6
CONTINUOUS
 62
    30
 10
665.3209723680402
 20
-155.25040387722129
 30
0.0
  0
TEXT
  8
NOTE
  6
CONTINUOUS
 62
     4
 10
-628.01975295431339
 20
89.566182407517999
 30
0.0
 40
64.0
  1
4-φ14
 41
0.9
  0
LINE
  8
SIZE
  6
CONTINUOUS
 62
    30
 10
-328.01960185989122
 20
0.0
 30
0.0
 11
-384.59666777554742
 21
0.0
 31
0.0
  0
LINE
  8
SIZE
  6
CONTINUOUS
 62
    30
 10
-20.00000000001819
 20
-295.09532458984017
 30
0.0
 11
-384.59666777554742
 21
-295.09532458983972
 31
0.0
  0
LINE
  8
SIZE
  6
CONTINUOUS
 62
    30
 10
-364.59666777554742
 20
-12.0
 30
0.0
 11
-364.59666777554742
 21
-283.09532458984017
 31
0.0
  0
CIRCLE
  8
SIZE
  6
CONTINUOUS
 62
    30
 10
-364.59666777554742
 20
0.0
 30
0.0
 40
6.0
  0
LINE
  8
SIZE
  6
CONTINUOUS
 62
    30
 10
-364.59666777554742
 20
0.0
 30
0.0
 11
-364.59666777554742
 21
-12.0
 31
0.0
  0
CIRCLE
  8
SIZE
  6
CONTINUOUS
 62
    30
 10
-364.59666777554742
 20
-295.09532458984017
 30
0.0
 40
6.0
  0
LINE
  8
SIZE
  6
CONTINUOUS
 62
    30
 10
-364.59666777554742
 20
-295.09532458984017
 30
0.0
 11
-364.59666777554742
 21
-283.09532458984017
 31
0.0
  0
TEXT
  8
SIZE
  6
CONTINUOUS
 62
    30
 10
-389.59666777554742
 20
-221.6048051520628
 30
0.0
 40
64.0
  1
295
 50
90.0
 41
0.9
 72
     1
 11
-389.59666777554742
 21
-147.54766229492
 31
0.0
  0
POINT
  8
DEFPOINTS
  6
CONTINUOUS
 62
    30
 10
-308.01960185989122
 20
0.0
 30
0.0
  0
POINT
  8
DEFPOINTS
  6
CONTINUOUS
 62
    30
 10
-0.0000000000181899
 20
-295.09532458984017
 30
0.0
  0
POINT
  8
DEFPOINTS
  6
CONTINUOUS
 62
    30
 10
-364.59666777554742
 20
-295.09532458984017
 30
0.0
  0
LINE
  8
NOTE
  6
CONTINUOUS
 62
     4
 10
-281.22969256213401
 20
-55.428046801112259
 30
0.0
 11
-281.22969256213401
 21
16.035252376258541
 31
0.0
  0
LINE
  8
NOTE
  6
CONTINUOUS
 62
     4
 10
279.67499241363288
 20
-55.428046801112259
 30
0.0
 11
279.67499241363288
 21
16.035252376258541
 31
0.0
  0
LINE
  8
NOTE
  6
CONTINUOUS
 62
     4
 10
-283.93444707329581
 20
5.4966390564275116
 30
0.0
 11
-281.1710484336636
 21
-0.0664830210105265
 31
0.0
  0
LINE
  8
NOTE
  6
CONTINUOUS
 62
     4
 10
-281.1710484336636
 20
-0.0664830210105265
 30
0.0
 11
-286.34578807309981
 21
3.3696149045513271
 31
0.0
  0
LINE
  8
NOTE
  6
CONTINUOUS
 62
     4
 10
-281.1710484336636
 20
-0.0664830210105265
 30
0.0
 11
-289.10918671273163
 21
8.9327369819893647
 31
0.0
  0
LINE
  8
NOTE
  6
CONTINUOUS
 62
     4
 10
-289.10918671273163
 20
8.9327369819893647
 30
0.0
 11
-337.27464131316492
 21
63.536411956604979
 31
0.0
  0
LINE
  8
NOTE
  6
CONTINUOUS
 62
     4
 10
-337.27464131316492
 20
63.536411956604979
 30
0.0
 11
-635.14320355819927
 21
63.697866805785452
 31
0.0
  0
LINE
  8
NOTE
  6
CONTINUOUS
 62
     4
 10
-281.22969256213452
 20
-46.485854787462358
 30
0.0
 11
-281.22969256213452
 21
24.796828318904549
 31
0.0
  0
LINE
  8
NOTE
  6
CONTINUOUS
 62
     4
 10
279.67499241363288
 20
-46.485854787462358
 30
0.0
 11
279.67499241363288
 21
24.79682831890409
 31
0.0
  0
LINE
  8
SIZE
  6
CONTINUOUS
 62
    30
 10
-65.305331179321456
 20
-305.15993537964448
 30
0.0
 11
-65.305331179321456
 21
-459.08713494128818
 31
0.0
  0
LINE
  8
SIZE
  6
CONTINUOUS
 62
    30
 10
65.305331179321456
 20
-305.15993537964448
 30
0.0
 11
65.305331179321456
 21
-459.08713494128818
 31
0.0
  0
LINE
  8
SIZE
  6
CONTINUOUS
 62
    30
 10
-53.305331179321463
 20
-439.08713494128818
 30
0.0
 11
53.305331179321463
 21
-439.08713494128818
 31
0.0
  0
LINE
  8
SIZE
  6
CONTINUOUS
 62
    30
 10
65.305331179321456
 20
-439.08713494128818
 30
0.0
 11
300.10533117932118
 21
-439.08713494128818
 31
0.0
  0
CIRCLE
  8
SIZE
  6
CONTINUOUS
 62
    30
 10
-65.305331179321456
 20
-439.08713494128818
 30
0.0
 40
6.0
  0
LINE
  8
SIZE
  6
CONTINUOUS
 62
    30
 10
-65.305331179321456
 20
-439.08713494128818
 30
0.0
 11
-53.305331179321463
 21
-439.08713494128818
 31
0.0
  0
CIRCLE
  8
SIZE
  6
CONTINUOUS
 62
    30
 10
65.305331179321456
 20
-439.08713494128818
 30
0.0
 40
6.0
  0
LINE
  8
SIZE
  6
CONTINUOUS
 62
    30
 10
65.305331179321456
 20
-439.08713494128818
 30
0.0
 11
53.305331179321463
 21
-439.08713494128818
 31
0.0
  0
TEXT
  8
SIZE
  6
CONTINUOUS
 62
    30
 10
92.156759750750126
 20
-403.42046827462173
 30
0.0
 40
64.0
  1
φ131
 41
0.9
 72
     1
 11
188.70533117932149
 21
-403.42046827462173
 31
0.0
  0
POINT
  8
DEFPOINTS
  6
CONTINUOUS
 62
    30
 10
-65.305331179321456
 20
-285.15993537964448
 30
0.0
  0
POINT
  8
DEFPOINTS
  6
CONTINUOUS
 62
    30
 10
65.305331179321456
 20
-285.15993537964448
 30
0.0
  0
POINT
  8
DEFPOINTS
  6
CONTINUOUS
 62
    30
 10
65.305331179321456
 20
-439.08713494128818
 30
0.0
  0
LINE
  8
NOTE
  6
CONTINUOUS
 62
     4
 10
250.8022770412326
 20
-66.997339447349987
 30
0.0
 11
249.59434623160629
 21
-60.904261206496813
 31
0.0
  0
LINE
  8
NOTE
  6
CONTINUOUS
 62
     4
 10
249.59434623160629
 20
-60.904261206496813
 30
0.0
 11
253.6869911608178
 21
-65.577050178128502
 31
0.0
  0
LINE
  8
NOTE
  6
CONTINUOUS
 62
     4
 10
249.59434623160629
 20
-60.904261206496813
 30
0.0
 11
254.89492197044359
 21
-71.670128418981676
 31
0.0
  0
LINE
  8
NOTE
  6
CONTINUOUS
 62
     4
 10
254.89492197044359
 20
-71.670128418981676
 30
0.0
 11
408.1258034017419
 21
-382.89355085861541
 31
0.0
  0
LINE
  8
NOTE
  6
CONTINUOUS
 62
     4
 10
408.1258034017419
 20
-382.89355085861541
 30
0.0
 11
516.19681472364255
 21
-383.22916737989942
 31
0.0
  0
TEXT
  8
NOTE
  6
CONTINUOUS
 62
     4
 10
424.22649532287971
 20
-362.71588950326441
 30
0.0
 40
64.0
  1
EL
 41
0.9
 72
     2
 11
509.25506675145112
 21
-362.71588950326441
 31
0.0
  0
LINE
  8
OUTLINE
  6
CONTINUOUS
 62
     3
 10
303.38933764135652
 20
-10.01615508885334
 30
0.0
 11
301.7449376818081
 21
-10.01615508885334
 31
0.0
  0
ARC
  8
OUTLINE
  6
CONTINUOUS
 62
     3
 10
303.38933764135652
 20
-6.4103392568661093
 30
0.0
 40
3.6058158319872282
 50
270.0
 51
0.0
  0
LINE
  8
OUTLINE
  6
CONTINUOUS
 62
     3
 10
306.99515347334409
 20
-3.004846526655911
 30
0.0
 11
306.99515347334409
 21
-6.4103392568661093
 31
0.0
  0
LINE
  8
OUTLINE
  6
CONTINUOUS
 62
     3
 10
296.97899838449121
 20
-13.221324717285819
 30
0.0
 11
296.97899838449121
 21
-16.426494345718769
 31
0.0
  0
ARC
  8
OUTLINE
  6
CONTINUOUS
 62
     3
 10
293.37318255250369
 20
-16.426494345718769
 30
0.0
 40
3.6058158319872282
 50
270.0
 51
0.0
  0
LINE
  8
OUTLINE
  6
CONTINUOUS
 62
     3
 10
261.32961628963949
 20
-155.25040387722129
 30
0.0
 11
262.42326332794801
 21
-155.25040387722129
 31
0.0
  0
ARC
  8
OUTLINE
  6
CONTINUOUS
 62
     3
 10
262.42326332794801
 20
-153.24717285945101
 30
0.0
 40
2.003231017770529
 50
270.0
 51
90.0
  0
LINE
  8
OUTLINE
  6
CONTINUOUS
 62
     3
 10
261.32961628963949
 20
-151.24394184168071
 30
0.0
 11
262.42326332794801
 21
-151.24394184168071
 31
0.0
  0
LINE
  8
OUTLINE
  6
CONTINUOUS
 62
     3
 10
-65.305331179321001
 20
-285.15993537964448
 30
0.0
 11
-65.305331179321001
 21
-270.43618739903093
 31
0.0
  0
LINE
  8
OUTLINE
  6
CONTINUOUS
 62
     3
 10
65.305331179321456
 20
-285.15993537964448
 30
0.0
 11
65.305331179321456
 21
-270.43618739903093
 31
0.0
  0
ARC
  8
OUTLINE
  6
CONTINUOUS
 62
     3
 10
57.893376413569968
 20
-285.15993537964448
 30
0.0
 40
7.4119547657514877
 50
270.0
 51
0.0
  0
LINE
  8
OUTLINE
  6
CONTINUOUS
 62
     3
 10
57.893376413569968
 20
-292.57189014539608
 30
0.0
 11
-57.893376413569968
 21
-292.57189014539608
 31
0.0
  0
ARC
  8
OUTLINE
  6
CONTINUOUS
 62
     3
 10
-57.893376413569968
 20
-285.15993537964448
 30
0.0
 40
7.4119547657514877
 50
180.0
 51
270.0
  0
LINE
  8
OUTLINE
  6
CONTINUOUS
 62
     3
 10
-262.42326332794801
 20
-151.24394184168071
 30
0.0
 11
-261.32961628886238
 21
-151.24394184168071
 31
0.0
  0
ARC
  8
OUTLINE
  6
CONTINUOUS
 62
     3
 10
-262.42326332794801
 20
-153.24717285945101
 30
0.0
 40
2.0032310177707591
 50
90.0
 51
270.0
  0
LINE
  8
OUTLINE
  6
CONTINUOUS
 62
     3
 10
-262.42326332794801
 20
-155.25040387722129
 30
0.0
 11
-261.32961628886238
 21
-155.25040387722129
 31
0.0
  0
LINE
  8
OUTLINE
  6
CONTINUOUS
 62
     3
 10
308.49757673667227
 20
0.0
 30
0.0
 11
-308.49757673667142
 21
0.0
 31
0.0
  0
ARC
  8
OUTLINE
  6
CONTINUOUS
 62
     3
 10
308.49757673667227
 20
-1.5024232633277279
 30
0.0
 40
1.5024232633281831
 50
270.0
 51
90.0
  0
ARC
  8
OUTLINE
  6
CONTINUOUS
 62
     3
 10
-308.49757673667142
 20
-1.5024232633277279
 30
0.0
 40
1.502423263327727
 50
90.0
 51
270.0
  0
LINE
  8
OUTLINE
  6
CONTINUOUS
 62
     3
 10
-301.74493768103088
 20
-10.01615508885334
 30
0.0
 11
-303.38933764135749
 21
-10.01615508885334
 31
0.0
  0
ARC
  8
OUTLINE
  6
CONTINUOUS
 62
     3
 10
-303.38933764135749
 20
-6.4103392568661093
 30
0.0
 40
3.6058158319870008
 50
180.0
 51
270.0
  0
LINE
  8
OUTLINE
  6
CONTINUOUS
 62
     3
 10
-296.9789983844903
 20
-16.426494345718769
 30
0.0
 11
-296.9789983844903
 21
-13.221324717285819
 31
0.0
  0
ARC
  8
OUTLINE
  6
CONTINUOUS
 62
     3
 10
-293.37318255250318
 20
-16.426494345718769
 30
0.0
 40
3.605815831987456
 50
180.0
 51
270.0
  0
LINE
  8
OUTLINE
  6
CONTINUOUS
 62
     3
 10
-306.99515347334358
 20
-3.004846526655911
 30
0.0
 11
-308.49757673667142
 21
-3.004846526655911
 31
0.0
  0
LINE
  8
OUTLINE
  6
CONTINUOUS
 62
     3
 10
-306.99515347334358
 20
-6.4103392568661093
 30
0.0
 11
-306.99515347334358
 21
-3.004846526655911
 31
0.0
  0
LINE
  8
OUTLINE
  6
CONTINUOUS
 62
     3
 10
-285.96122778707382
 20
-20.032310177705771
 30
0.0
 11
-293.37318255250318
 21
-20.032310177705771
 31
0.0
  0
LINE
  8
OUTLINE
  6
CONTINUOUS
 62
     3
 10
-261.32961628886238
 20
-158.2552504038772
 30
0.0
 11
-261.32961628886238
 21
-155.25040387722129
 31
0.0
  0
LINE
  8
OUTLINE
  6
CONTINUOUS
 62
     3
 10
-261.32961628886238
 20
-151.24394184168071
 30
0.0
 11
-261.32961628886238
 21
-46.990898158749587
 31
0.0
  0
LINE
  8
OUTLINE
  6
CONTINUOUS
 62
     3
 10
-184.8387114935567
 20
-266.42972536348998
 30
0.0
 11
-89.644588045234286
 21
-266.42972536348998
 31
0.0
  0
LINE
  8
OUTLINE
  6
CONTINUOUS
 62
     3
 10
-89.644588045234286
 20
-270.43618739903093
 30
0.0
 11
-89.644588045234286
 21
-266.42972536348998
 31
0.0
  0
LINE
  8
OUTLINE
  6
CONTINUOUS
 62
     3
 10
89.644588045234741
 20
-270.43618739903093
 30
0.0
 11
65.305331179321456
 21
-270.43618739903093
 31
0.0
  0
LINE
  8
OUTLINE
  6
CONTINUOUS
 62
     3
 10
-65.305331179321001
 20
-270.43618739903093
 30
0.0
 11
-89.644588045234286
 21
-270.43618739903093
 31
0.0
  0
LINE
  8
OUTLINE
  6
CONTINUOUS
 62
     3
 10
89.644588045234741
 20
-270.43618739903093
 30
0.0
 11
89.644588045234741
 21
-266.42972536348998
 31
0.0
  0
LINE
  8
OUTLINE
  6
CONTINUOUS
 62
     3
 10
89.644588045234741
 20
-266.42972536348998
 30
0.0
 11
184.83871149433341
 21
-266.42972536348998
 31
0.0
  0
LINE
  8
OUTLINE
  6
CONTINUOUS
 62
     3
 10
261.32961628963949
 20
-155.25040387722129
 30
0.0
 11
261.32961628963949
 21
-158.2552504038772
 31
0.0
  0
LINE
  8
OUTLINE
  6
CONTINUOUS
 62
     3
 10
261.32961628963949
 20
-46.990898158745487
 30
0.0
 11
261.32961628963949
 21
-151.24394184168071
 31
0.0
  0
LINE
  8
OUTLINE
  6
CONTINUOUS
 62
     3
 10
293.37318255250369
 20
-20.032310177705771
 30
0.0
 11
285.96212428776198
 21
-20.032310177705771
 31
0.0
  0
LINE
  8
OUTLINE
  6
CONTINUOUS
 62
     3
 10
308.49757673667227
 20
-3.004846526655911
 30
0.0
 11
306.99515347334409
 21
-3.004846526655911
 31
0.0
  0
LINE
  8
DETAIL
  6
CONTINUOUS
 62
     5
 10
-306.99515347334409
 20
-3.0048465266556832
 30
0.0
 11
-306.99515347334409
 21
-6.4103392568658819
 31
0.0
  0
LINE
  8
DETAIL
  6
CONTINUOUS
 62
     5
 10
-303.82456339745289
 20
-4.6496850462738166
 30
0.0
 11
-303.82456339745289
 21
-3.0048465266556832
 31
0.0
  0
LINE
  8
DETAIL
  6
CONTINUOUS
 62
     5
 10
-296.97899838449081
 20
-13.221324717285819
 30
0.0
 11
-296.97899838449081
 21
-16.426494345718769
 31
0.0
  0
LINE
  8
DETAIL
  6
CONTINUOUS
 62
     5
 10
-266.33769383328888
 20
-17.227786752827338
 30
0.0
 11
-266.33769383328888
 21
-13.221324717285819
 31
0.0
  0
LINE
  8
DETAIL
  6
CONTINUOUS
 62
     5
 10
-308.49757673667182
 20
0.0
 30
0.0
 11
308.49757673667227
 21
0.0
 31
0.0
  0
LINE
  8
DETAIL
  6
CONTINUOUS
 62
     5
 10
-308.49757673667182
 20
-3.0048465266556832
 30
0.0
 11
308.49757673667227
 21
-3.0048465266556832
 31
0.0
  0
LINE
  8
DETAIL
  6
CONTINUOUS
 62
     5
 10
-303.82456339745289
 20
-3.8061389337640321
 30
0.0
 11
-256.36215952694369
 21
-3.8061389337640321
 31
0.0
  0
LINE
  8
DETAIL
  6
CONTINUOUS
 62
     5
 10
256.36215952772091
 20
-3.8061389337640321
 30
0.0
 11
303.82456339822971
 21
-3.8061389337640321
 31
0.0
  0
LINE
  8
DETAIL
  6
CONTINUOUS
 62
     5
 10
-261.32961628886278
 20
-13.221324717285819
 30
0.0
 11
-261.32961628886278
 21
-158.2552504038772
 31
0.0
  0
LINE
  8
DETAIL
  6
CONTINUOUS
 62
     5
 10
-257.08012157753808
 20
-158.2552504038772
 30
0.0
 11
-257.08012157753808
 21
-13.221324717285819
 31
0.0
  0
LINE
  8
DETAIL
  6
CONTINUOUS
 62
     5
 10
-254.2471251043568
 20
-4.6496850462738166
 30
0.0
 11
-254.2471251043568
 21
-3.0048465266556832
 31
0.0
  0
LINE
  8
DETAIL
  6
CONTINUOUS
 62
     5
 10
-242.91513920852589
 20
-6.4103392568658819
 30
0.0
 11
-242.91513920852589
 21
-3.0048465266556832
 31
0.0
  0
LINE
  8
DETAIL
  6
CONTINUOUS
 62
     5
 10
-239.30932337653849
 20
-10.01615508885288
 30
0.0
 11
-247.43345430266339
 21
-10.01615508885288
 31
0.0
  0
LINE
  8
DETAIL
  6
CONTINUOUS
 62
     5
 10
-303.38933764135709
 20
-10.01615508885288
 30
0.0
 11
-301.74493768103088
 21
-10.01615508885288
 31
0.0
  0
LINE
  8
DETAIL
  6
CONTINUOUS
 62
     5
 10
-239.30932337653849
 20
-10.01615508885288
 30
0.0
 11
239.3093233773152
 21
-10.01615508885288
 31
0.0
  0
LINE
  8
DETAIL
  6
CONTINUOUS
 62
     5
 10
239.3093233773152
 20
-10.01615508885288
 30
0.0
 11
247.43345430344019
 21
-10.01615508885288
 31
0.0
  0
LINE
  8
DETAIL
  6
CONTINUOUS
 62
     5
 10
301.74493768180758
 20
-10.01615508885288
 30
0.0
 11
303.38933764135709
 21
-10.01615508885288
 31
0.0
  0
LINE
  8
DETAIL
  6
CONTINUOUS
 62
     5
 10
-297.01089259575917
 20
-13.221324717285819
 30
0.0
 11
-213.16867623235751
 21
-13.221324717285819
 31
0.0
  0
LINE
  8
DETAIL
  6
CONTINUOUS
 62
     5
 10
213.16867623313439
 20
-13.221324717285819
 30
0.0
 11
297.010892596536
 21
-13.221324717285819
 31
0.0
  0
LINE
  8
DETAIL
  6
CONTINUOUS
 62
     5
 10
-266.33769383328888
 20
-17.227786752827338
 30
0.0
 11
-261.32961628886278
 21
-17.227786752827338
 31
0.0
  0
LINE
  8
DETAIL
  6
CONTINUOUS
 62
     5
 10
225.1585775324543
 20
-17.227786752827338
 30
0.0
 11
235.17473262130719
 21
-17.227786752827338
 31
0.0
  0
LINE
  8
DETAIL
  6
CONTINUOUS
 62
     5
 10
-293.37318255250369
 20
-20.032310177705771
 30
0.0
 11
-261.32961628886278
 21
-20.032310177705771
 31
0.0
  0
LINE
  8
DETAIL
  6
CONTINUOUS
 62
     5
 10
-230.16665507610381
 20
-20.032310177705771
 30
0.0
 11
230.16665507688089
 21
-20.032310177705771
 31
0.0
  0
LINE
  8
DETAIL
  6
CONTINUOUS
 62
     5
 10
261.32961628963949
 20
-20.032310177705771
 30
0.0
 11
293.3731825525042
 21
-20.032310177705771
 31
0.0
  0
LINE
  8
DETAIL
  6
CONTINUOUS
 62
     5
 10
-184.79788458013039
 20
-20.533117932148802
 30
0.0
 11
-72.617301202614726
 21
-20.533117932148802
 31
0.0
  0
LINE
  8
DETAIL
  6
CONTINUOUS
 62
     5
 10
-230.16665507610381
 20
-158.2552504038772
 30
0.0
 11
-230.16665507610381
 21
-13.221324717285819
 31
0.0
  0
LINE
  8
DETAIL
  6
CONTINUOUS
 62
     5
 10
-213.16867623235751
 20
-13.221324717285819
 30
0.0
 11
-213.16867623235751
 21
-10.01615508885288
 31
0.0
  0
LINE
  8
DETAIL
  6
CONTINUOUS
 62
     5
 10
-201.1284412186196
 20
-16.426494345718769
 30
0.0
 11
-201.1284412186196
 21
-13.021001615508791
 31
0.0
  0
LINE
  8
DETAIL
  6
CONTINUOUS
 62
     5
 10
-184.79806138933739
 20
-20.032310177705771
 30
0.0
 11
-184.79806138933739
 21
-20.533117932148802
 31
0.0
  0
LINE
  8
DETAIL
  6
CONTINUOUS
 62
     5
 10
262.42326332794852
 20
-151.2439418416802
 30
0.0
 11
261.32961628963949
 21
-151.2439418416802
 31
0.0
  0
LINE
  8
DETAIL
  6
CONTINUOUS
 62
     5
 10
230.16665507688089
 20
-151.2439418416802
 30
0.0
 11
-230.16665507610381
 21
-151.2439418416802
 31
0.0
  0
LINE
  8
DETAIL
  6
CONTINUOUS
 62
     5
 10
-261.32961628886278
 20
-151.2439418416802
 30
0.0
 11
-262.42326332794801
 21
-151.2439418416802
 31
0.0
  0
LINE
  8
DETAIL
  6
CONTINUOUS
 62
     5
 10
262.42326332794852
 20
-155.25040387722129
 30
0.0
 11
261.32961628963949
 21
-155.25040387722129
 31
0.0
  0
LINE
  8
DETAIL
  6
CONTINUOUS
 62
     5
 10
230.16665507688089
 20
-155.25040387722129
 30
0.0
 11
-230.16665507610381
 21
-155.25040387722129
 31
0.0
  0
LINE
  8
DETAIL
  6
CONTINUOUS
 62
     5
 10
-261.32961628886278
 20
-155.25040387722129
 30
0.0
 11
-262.42326332794801
 21
-155.25040387722129
 31
0.0
  0
LINE
  8
DETAIL
  6
CONTINUOUS
 62
     5
 10
-89.644588045233832
 20
-270.43618739903059
 30
0.0
 11
-89.644588045233832
 21
-228.36833602584821
 31
0.0
  0
LINE
  8
DETAIL
  6
CONTINUOUS
 62
     5
 10
-72.617124394183975
 20
-20.032310177705771
 30
0.0
 11
-72.617124394183975
 21
-20.533117932148802
 31
0.0
  0
LINE
  8
DETAIL
  6
CONTINUOUS
 62
     5
 10
-65.305331179321001
 20
-285.15993537964448
 30
0.0
 11
-65.305331179321001
 21
-270.43618739903059
 31
0.0
  0
LINE
  8
DETAIL
  6
CONTINUOUS
 62
     5
 10
-65.305331179321001
 20
-177.28594507269739
 30
0.0
 11
-65.305331179321001
 21
-155.25040387722129
 31
0.0
  0
LINE
  8
DETAIL
  6
CONTINUOUS
 62
     5
 10
-180.58921678300791
 20
-228.36833602584821
 30
0.0
 11
-89.644588045233832
 21
-228.36833602584821
 31
0.0
  0
LINE
  8
DETAIL
  6
CONTINUOUS
 62
     5
 10
89.644588045234286
 20
-228.36833602584821
 30
0.0
 11
180.5892167830084
 21
-228.36833602584821
 31
0.0
  0
LINE
  8
DETAIL
  6
CONTINUOUS
 62
     5
 10
86.1389337641358
 20
-229.36995153473339
 30
0.0
 11
83.843891088602504
 21
-229.36995153473339
 31
0.0
  0
LINE
  8
DETAIL
  6
CONTINUOUS
 62
     5
 10
-83.843891087825796
 20
-229.36995153473339
 30
0.0
 11
-86.1389337641358
 21
-229.36995153473339
 31
0.0
  0
LINE
  8
DETAIL
  6
CONTINUOUS
 62
     5
 10
-83.634894991922465
 20
-229.36995153473339
 30
0.0
 11
83.63489499192292
 21
-229.36995153473339
 31
0.0
  0
LINE
  8
DETAIL
  6
CONTINUOUS
 62
     5
 10
-40.064620355411527
 20
-264.42649434571848
 30
0.0
 11
-40.064620355411527
 21
-243.64448099958639
 31
0.0
  0
LINE
  8
DETAIL
  6
CONTINUOUS
 62
     5
 10
-4.7075928917606689
 20
-293.07269789983837
 30
0.0
 11
-4.7075928917606689
 21
-292.57189014539563
 31
0.0
  0
LINE
  8
DETAIL
  6
CONTINUOUS
 62
     5
 10
4.7075928917611236
 20
-293.07269789983837
 30
0.0
 11
4.7075928917611236
 21
-292.57189014539563
 31
0.0
  0
LINE
  8
DETAIL
  6
CONTINUOUS
 62
     5
 10
-184.8387114935567
 20
-266.42972536348952
 30
0.0
 11
-89.644588045233832
 21
-266.42972536348952
 31
0.0
  0
LINE
  8
DETAIL
  6
CONTINUOUS
 62
     5
 10
89.644588045234286
 20
-266.42972536348952
 30
0.0
 11
108.4355058943033
 21
-266.42972536348952
 31
0.0
  0
LINE
  8
DETAIL
  6
CONTINUOUS
 62
     5
 10
112.14075624951469
 20
-266.42972536348952
 30
0.0
 11
184.83871149433341
 21
-266.42972536348952
 31
0.0
  0
LINE
  8
DETAIL
  6
CONTINUOUS
 62
     5
 10
35.056542810985768
 20
-269.43457189014538
 30
0.0
 11
-35.05654281098532
 21
-269.43457189014538
 31
0.0
  0
LINE
  8
DETAIL
  6
CONTINUOUS
 62
     5
 10
-89.644588045233832
 20
-270.43618739903059
 30
0.0
 11
40.353956620606368
 21
-270.43618739903059
 31
0.0
  0
LINE
  8
DETAIL
  6
CONTINUOUS
 62
     5
 10
40.353956620606368
 20
-270.43618739903059
 30
0.0
 11
89.644588045234286
 21
-270.43618739903059
 31
0.0
  0
LINE
  8
DETAIL
  6
CONTINUOUS
 62
     5
 10
40.064620355411989
 20
-243.64448099958639
 30
0.0
 11
40.064620355411989
 21
-264.42649434571848
 31
0.0
  0
LINE
  8
DETAIL
  6
CONTINUOUS
 62
     5
 10
-57.893376413569968
 20
-292.57189014539563
 30
0.0
 11
57.893376413570422
 21
-292.57189014539563
 31
0.0
  0
LINE
  8
DETAIL
  6
CONTINUOUS
 62
     5
 10
-4.7075928917606689
 20
-293.07269789983837
 30
0.0
 11
4.7075928917611236
 21
-293.07269789983837
 31
0.0
  0
LINE
  8
DETAIL
  6
CONTINUOUS
 62
     5
 10
65.305331179321911
 20
-285.15993537964448
 30
0.0
 11
65.305331179321911
 21
-270.43618739903059
 31
0.0
  0
LINE
  8
DETAIL
  6
CONTINUOUS
 62
     5
 10
65.305331179321911
 20
-177.28594507269739
 30
0.0
 11
65.305331179321911
 21
-155.25040387722129
 31
0.0
  0
LINE
  8
DETAIL
  6
CONTINUOUS
 62
     5
 10
86.1389337641358
 20
-229.36995153473339
 30
0.0
 11
86.1389337641358
 21
-225.36348949919221
 31
0.0
  0
LINE
  8
DETAIL
  6
CONTINUOUS
 62
     5
 10
89.644588045234286
 20
-228.36833602584821
 30
0.0
 11
89.644588045234286
 21
-258.15359193948689
 31
0.0
  0
LINE
  8
DETAIL
  6
CONTINUOUS
 62
     5
 10
89.644588045234286
 20
-270.43618739903059
 30
0.0
 11
89.644588045234286
 21
-258.15359193948689
 31
0.0
  0
LINE
  8
DETAIL
  6
CONTINUOUS
 62
     5
 10
201.12844121939631
 20
-13.021001615508791
 30
0.0
 11
201.12844121939631
 21
-16.426494345718769
 31
0.0
  0
LINE
  8
DETAIL
  6
CONTINUOUS
 62
     5
 10
213.16867623313439
 20
-13.221324717285819
 30
0.0
 11
213.16867623313439
 21
-10.01615508885288
 31
0.0
  0
LINE
  8
DETAIL
  6
CONTINUOUS
 62
     5
 10
225.1585775324543
 20
-17.227786752827338
 30
0.0
 11
225.1585775324543
 21
-13.221324717285819
 31
0.0
  0
LINE
  8
DETAIL
  6
CONTINUOUS
 62
     5
 10
230.16665507688089
 20
-13.221324717285819
 30
0.0
 11
230.16665507688089
 21
-16.780483308061321
 31
0.0
  0
LINE
  8
DETAIL
  6
CONTINUOUS
 62
     5
 10
230.16665507688089
 20
-17.227786752827338
 30
0.0
 11
230.16665507688089
 21
-158.2552504038772
 31
0.0
  0
LINE
  8
DETAIL
  6
CONTINUOUS
 62
     5
 10
235.17473262130719
 20
-13.221324717285819
 30
0.0
 11
235.17473262130719
 21
-17.227786752827338
 31
0.0
  0
LINE
  8
DETAIL
  6
CONTINUOUS
 62
     5
 10
242.91513920930271
 20
-3.0048465266556832
 30
0.0
 11
242.91513920930271
 21
-6.4103392568658819
 31
0.0
  0
LINE
  8
DETAIL
  6
CONTINUOUS
 62
     5
 10
254.24712510435711
 20
-4.6496850462738166
 30
0.0
 11
254.24712510435711
 21
-3.0048465266556832
 31
0.0
  0
LINE
  8
DETAIL
  6
CONTINUOUS
 62
     5
 10
257.0801215783149
 20
-13.221324717285819
 30
0.0
 11
257.0801215783149
 21
-60.247172859450529
 31
0.0
  0
LINE
  8
DETAIL
  6
CONTINUOUS
 62
     5
 10
257.0801215783149
 20
-60.247172859450529
 30
0.0
 11
257.0801215783149
 21
-158.2552504038772
 31
0.0
  0
LINE
  8
DETAIL
  6
CONTINUOUS
 62
     5
 10
261.32961628963949
 20
-158.2552504038772
 30
0.0
 11
261.32961628963949
 21
-60.247172859450529
 31
0.0
  0
LINE
  8
DETAIL
  6
CONTINUOUS
 62
     5
 10
261.32961628963949
 20
-56.74151857835227
 30
0.0
 11
261.32961628963949
 21
-13.221324717285819
 31
0.0
  0
LINE
  8
DETAIL
  6
CONTINUOUS
 62
     5
 10
296.97899838449121
 20
-16.426494345718769
 30
0.0
 11
296.97899838449121
 21
-13.221324717285819
 31
0.0
  0
LINE
  8
DETAIL
  6
CONTINUOUS
 62
     5
 10
303.82456339822971
 20
-3.0048465266556832
 30
0.0
 11
303.82456339822971
 21
-4.6496850462738166
 31
0.0
  0
LINE
  8
DETAIL
  6
CONTINUOUS
 62
     5
 10
306.99515347334449
 20
-6.4103392568658819
 30
0.0
 11
306.99515347334449
 21
-3.0048465266556832
 31
0.0
  0
ARC
  8
DETAIL
  6
CONTINUOUS
 62
     5
 10
-239.30932337653849
 20
-6.4103392568658819
 30
0.0
 40
3.6058158319871141
 50
180.0
 51
270.0
  0
ARC
  8
DETAIL
  6
CONTINUOUS
 62
     5
 10
-197.5226253866322
 20
-16.426494345718769
 30
0.0
 40
3.6058158319871141
 50
180.0
 51
270.0
  0
ARC
  8
DETAIL
  6
CONTINUOUS
 62
     5
 10
-293.37318255250369
 20
-16.426494345718769
 30
0.0
 40
3.6058158319871141
 50
180.0
 51
270.0
  0
ARC
  8
DETAIL
  6
CONTINUOUS
 62
     5
 10
-303.38933764135709
 20
-6.4103392568658819
 30
0.0
 40
3.6058158319871141
 50
180.0
 51
270.0
  0
ARC
  8
DETAIL
  6
CONTINUOUS
 62
     5
 10
-204.13328774527511
 20
-13.021001615508791
 30
0.0
 40
3.004846526655796
 50
0.0
 51
90.0
  0
ARC
  8
DETAIL
  6
CONTINUOUS
 62
     5
 10
-262.42326332794801
 20
-153.2471728594505
 30
0.0
 40
2.003231017770418
 50
90.0
 51
270.0
  0
ARC
  8
DETAIL
  6
CONTINUOUS
 62
     5
 10
-308.49757673667182
 20
-1.5024232633277279
 30
0.0
 40
1.502423263327727
 50
90.0
 51
270.0
  0
ARC
  8
DETAIL
  6
CONTINUOUS
 62
     5
 10
0.0
 20
-430.69466882067832
 30
0.0
 40
195.31502423263311
 50
79.384892149315746
 51
100.6151078506843
  0
ARC
  8
DETAIL
  6
CONTINUOUS
 62
     5
 10
-57.893376413569968
 20
-285.15993537964448
 30
0.0
 40
7.4119547657512017
 50
180.0
 51
270.0
  0
ARC
  8
DETAIL
  6
CONTINUOUS
 62
     5
 10
0.0
 20
-288.54289176090469
 30
0.0
 40
6.5330371567043954
 50
223.8973981670982
 51
316.10260183290183
  0
ARC
  8
DETAIL
  6
CONTINUOUS
 62
     5
 10
-83.634894991922465
 20
-235.37964458804501
 30
0.0
 40
6.0096930533118211
 50
90.0
 51
180.0
  0
ARC
  8
DETAIL
  6
CONTINUOUS
 62
     5
 10
-35.05654281098532
 20
-264.42649434571848
 30
0.0
 40
5.0080775444265564
 50
180.0
 51
270.0
  0
ARC
  8
DETAIL
  6
CONTINUOUS
 62
     5
 10
-35.05654281098532
 20
-243.64448099958639
 30
0.0
 40
5.0080775444262962
 50
100.6151078506843
 51
180.0
  0
ARC
  8
DETAIL
  6
CONTINUOUS
 62
     5
 10
57.893376413570422
 20
-285.15993537964448
 30
0.0
 40
7.4119547657510321
 50
270.0
 51
0.0
  0
ARC
  8
DETAIL
  6
CONTINUOUS
 62
     5
 10
83.63489499192292
 20
-235.37964458804501
 30
0.0
 40
6.0096930533117918
 50
0.0
 51
90.0
  0
ARC
  8
DETAIL
  6
CONTINUOUS
 62
     5
 10
35.056542810985768
 20
-243.64448099958639
 30
0.0
 40
5.0080775444264978
 50
0.0
 51
79.384892149315746
  0
ARC
  8
DETAIL
  6
CONTINUOUS
 62
     5
 10
35.056542810985768
 20
-264.42649434571848
 30
0.0
 40
5.0080775444264409
 50
270.0
 51
0.0
  0
ARC
  8
DETAIL
  6
CONTINUOUS
 62
     5
 10
303.38933764135709
 20
-6.4103392568658819
 30
0.0
 40
3.6058158319870008
 50
270.0
 51
0.0
  0
ARC
  8
DETAIL
  6
CONTINUOUS
 62
     5
 10
197.52262538740891
 20
-16.426494345718769
 30
0.0
 40
3.6058158319870008
 50
270.0
 51
0.0
  0
ARC
  8
DETAIL
  6
CONTINUOUS
 62
     5
 10
293.3731825525042
 20
-16.426494345718769
 30
0.0
 40
3.6058158319870008
 50
270.0
 51
0.0
  0
ARC
  8
DETAIL
  6
CONTINUOUS
 62
     5
 10
239.3093233773152
 20
-6.4103392568658819
 30
0.0
 40
3.6058158319870008
 50
270.0
 51
0.0
  0
ARC
  8
DETAIL
  6
CONTINUOUS
 62
     5
 10
204.1332877460521
 20
-13.021001615508791
 30
0.0
 40
3.004846526655911
 50
90.0
 51
180.0
  0
ARC
  8
DETAIL
  6
CONTINUOUS
 62
     5
 10
308.49757673667227
 20
-1.5024232633277279
 30
0.0
 40
1.5024232633279551
 50
270.0
 51
90.0
  0
ARC
  8
DETAIL
  6
CONTINUOUS
 62
     5
 10
262.42326332794852
 20
-153.2471728594505
 30
0.0
 40
2.0032310177707591
 50
270.0
 51
90.0
  0
LINE
  8
DETAIL
  6
CONTINUOUS
 62
     5
 10
-266.33769383328888
 20
-16.780483308061321
 30
0.0
 11
-266.25252722282039
 21
-16.808376770195991
 31
0.0
  0
LINE
  8
DETAIL
  6
CONTINUOUS
 62
     5
 10
-266.25252722282039
 20
-16.808376770195991
 30
0.0
 11
-266.167227197805
 21
-16.835834591760658
 31
0.0
  0
LINE
  8
DETAIL
  6
CONTINUOUS
 62
     5
 10
-266.167227197805
 20
-16.835834591760658
 30
0.0
 11
-266.167227197805
 21
-16.835834591760658
 31
0.0
  0
LINE
  8
DETAIL
  6
CONTINUOUS
 62
     5
 10
-266.167227197805
 20
-16.835834591760658
 30
0.0
 11
-266.08167992570998
 21
-16.86250957601305
 31
0.0
  0
LINE
  8
DETAIL
  6
CONTINUOUS
 62
     5
 10
-266.08167992570998
 20
-16.86250957601305
 30
0.0
 11
-265.99584990205398
 21
-16.888408301530941
 31
0.0
  0
LINE
  8
DETAIL
  6
CONTINUOUS
 62
     5
 10
-265.99584990205398
 20
-16.888408301530941
 30
0.0
 11
-265.99584990205398
 21
-16.888408301530941
 31
0.0
  0
LINE
  8
DETAIL
  6
CONTINUOUS
 62
     5
 10
-265.99584990205398
 20
-16.888408301530941
 30
0.0
 11
-265.90975789649201
 21
-16.913592702933101
 31
0.0
  0
LINE
  8
DETAIL
  6
CONTINUOUS
 62
     5
 10
-265.90975789649201
 20
-16.913592702933101
 30
0.0
 11
-265.82357144718122
 21
-16.9379923636825
 31
0.0
  0
LINE
  8
DETAIL
  6
CONTINUOUS
 62
     5
 10
-265.82357144718122
 20
-16.9379923636825
 30
0.0
 11
-265.82357144718122
 21
-16.9379923636825
 31
0.0
  0
LINE
  8
DETAIL
  6
CONTINUOUS
 62
     5
 10
-265.82357144718122
 20
-16.9379923636825
 30
0.0
 11
-265.73732843388922
 21
-16.961547686780701
 31
0.0
  0
LINE
  8
DETAIL
  6
CONTINUOUS
 62
     5
 10
-265.73732843388922
 20
-16.961547686780701
 30
0.0
 11
-265.65040133433149
 21
-16.984374704525859
 31
0.0
  0
LINE
  8
DETAIL
  6
CONTINUOUS
 62
     5
 10
-265.65040133433149
 20
-16.984374704525859
 30
0.0
 11
-265.65040133433149
 21
-16.984374704525859
 31
0.0
  0
LINE
  8
DETAIL
  6
CONTINUOUS
 62
     5
 10
-265.65040133433149
 20
-16.984374704525859
 30
0.0
 11
-265.56262498563859
 21
-17.00649081503229
 31
0.0
  0
LINE
  8
DETAIL
  6
CONTINUOUS
 62
     5
 10
-265.56262498563859
 20
-17.00649081503229
 30
0.0
 11
-265.47634906465038
 21
-17.027343250371359
 31
0.0
  0
LINE
  8
DETAIL
  6
CONTINUOUS
 62
     5
 10
-265.47634906465038
 20
-17.027343250371359
 30
0.0
 11
-265.47634906465038
 21
-17.027343250371359
 31
0.0
  0
LINE
  8
DETAIL
  6
CONTINUOUS
 62
     5
 10
-265.47634906465038
 20
-17.027343250371359
 30
0.0
 11
-265.39356377043248
 21
-17.046471670367279
 31
0.0
  0
LINE
  8
DETAIL
  6
CONTINUOUS
 62
     5
 10
-265.39356377043248
 20
-17.046471670367279
 30
0.0
 11
-265.31230655124273
 21
-17.06435561189846
 31
0.0
  0
LINE
  8
DETAIL
  6
CONTINUOUS
 62
     5
 10
-265.31230655124273
 20
-17.06435561189846
 30
0.0
 11
-265.31230655124273
 21
-17.06435561189846
 31
0.0
  0
LINE
  8
DETAIL
  6
CONTINUOUS
 62
     5
 10
-265.31230655124273
 20
-17.06435561189846
 30
0.0
 11
-265.23024765477243
 21
-17.081554495456881
 31
0.0
  0
LINE
  8
DETAIL
  6
CONTINUOUS
 62
     5
 10
-265.23024765477243
 20
-17.081554495456881
 30
0.0
 11
-265.14754127727559
 21
-17.098007398933991
 31
0.0
  0
LINE
  8
DETAIL
  6
CONTINUOUS
 62
     5
 10
-265.14754127727559
 20
-17.098007398933991
 30
0.0
 11
-265.14754127727559
 21
-17.098007398933991
 31
0.0
  0
LINE
  8
DETAIL
  6
CONTINUOUS
 62
     5
 10
-265.14754127727559
 20
-17.098007398933991
 30
0.0
 11
-265.06481402930058
 21
-17.113537912176749
 31
0.0
  0
LINE
  8
DETAIL
  6
CONTINUOUS
 62
     5
 10
-265.06481402930058
 20
-17.113537912176749
 30
0.0
 11
-264.9820982300289
 21
-17.12812801545056
 31
0.0
  0
LINE
  8
DETAIL
  6
CONTINUOUS
 62
     5
 10
-264.9820982300289
 20
-17.12812801545056
 30
0.0
 11
-264.9820982300289
 21
-17.12812801545056
 31
0.0
  0
LINE
  8
DETAIL
  6
CONTINUOUS
 62
     5
 10
-264.9820982300289
 20
-17.12812801545056
 30
0.0
 11
-264.8992509300283
 21
-17.14179598185774
 31
0.0
  0
LINE
  8
DETAIL
  6
CONTINUOUS
 62
     5
 10
-264.8992509300283
 20
-17.14179598185774
 30
0.0
 11
-264.81602239678301
 21
-17.154546865420571
 31
0.0
  0
LINE
  8
DETAIL
  6
CONTINUOUS
 62
     5
 10
-264.81602239678301
 20
-17.154546865420571
 30
0.0
 11
-264.81602239678301
 21
-17.154546865420571
 31
0.0
  0
LINE
  8
DETAIL
  6
CONTINUOUS
 62
     5
 10
-264.81602239678301
 20
-17.154546865420571
 30
0.0
 11
-264.73239155793181
 21
-17.166356036866549
 31
0.0
  0
LINE
  8
DETAIL
  6
CONTINUOUS
 62
     5
 10
-264.73239155793181
 20
-17.166356036866549
 30
0.0
 11
-264.6493587648165
 21
-17.177093352817341
 31
0.0
  0
LINE
  8
DETAIL
  6
CONTINUOUS
 62
     5
 10
-264.6493587648165
 20
-17.177093352817341
 30
0.0
 11
-264.6493587648165
 21
-17.177093352817341
 31
0.0
  0
LINE
  8
DETAIL
  6
CONTINUOUS
 62
     5
 10
-264.6493587648165
 20
-17.177093352817341
 30
0.0
 11
-264.56776342448529
 21
-17.186656143760729
 31
0.0
  0
LINE
  8
DETAIL
  6
CONTINUOUS
 62
     5
 10
-264.56776342448529
 20
-17.186656143760729
 30
0.0
 11
-264.48677974311289
 21
-17.195157149764778
 31
0.0
  0
LINE
  8
DETAIL
  6
CONTINUOUS
 62
     5
 10
-264.48677974311289
 20
-17.195157149764778
 30
0.0
 11
-264.48677974311289
 21
-17.195157149764778
 31
0.0
  0
LINE
  8
DETAIL
  6
CONTINUOUS
 62
     5
 10
-264.48677974311289
 20
-17.195157149764778
 30
0.0
 11
-264.40543120892471
 21
-17.202723950364089
 31
0.0
  0
LINE
  8
DETAIL
  6
CONTINUOUS
 62
     5
 10
-264.40543120892471
 20
-17.202723950364089
 30
0.0
 11
-264.32380363921948
 21
-17.209328073385681
 31
0.0
  0
LINE
  8
DETAIL
  6
CONTINUOUS
 62
     5
 10
-264.32380363921948
 20
-17.209328073385681
 30
0.0
 11
-264.32380363921948
 21
-17.209328073385681
 31
0.0
  0
LINE
  8
DETAIL
  6
CONTINUOUS
 62
     5
 10
-264.32380363921948
 20
-17.209328073385681
 30
0.0
 11
-264.24217714410042
 21
-17.21492179525967
 31
0.0
  0
LINE
  8
DETAIL
  6
CONTINUOUS
 62
     5
 10
-264.24217714410042
 20
-17.21492179525967
 30
0.0
 11
-264.1605466758042
 21
-17.219536438533851
 31
0.0
  0
LINE
  8
DETAIL
  6
CONTINUOUS
 62
     5
 10
-264.1605466758042
 20
-17.219536438533851
 30
0.0
 11
-264.1605466758042
 21
-17.219536438533851
 31
0.0
  0
LINE
  8
DETAIL
  6
CONTINUOUS
 62
     5
 10
-264.1605466758042
 20
-17.219536438533851
 30
0.0
 11
-264.07885547270013
 21
-17.22318305409317
 31
0.0
  0
LINE
  8
DETAIL
  6
CONTINUOUS
 62
     5
 10
-264.07885547270013
 20
-17.22318305409317
 30
0.0
 11
-263.99712507553431
 21
-17.225712560062679
 31
0.0
  0
LINE
  8
DETAIL
  6
CONTINUOUS
 62
     5
 10
-263.99712507553431
 20
-17.225712560062679
 30
0.0
 11
-263.99712507553431
 21
-17.225712560062679
 31
0.0
  0
LINE
  8
DETAIL
  6
CONTINUOUS
 62
     5
 10
-263.99712507553431
 20
-17.225712560062679
 30
0.0
 11
-263.91538958773481
 21
-17.227076212608839
 31
0.0
  0
LINE
  8
DETAIL
  6
CONTINUOUS
 62
     5
 10
-263.91538958773481
 20
-17.227076212608839
 30
0.0
 11
-263.83365506107612
 21
-17.227786752827338
 31
0.0
  0
LINE
  8
DETAIL
  6
CONTINUOUS
 62
     5
 10
-263.83365506107612
 20
-17.227786752827338
 30
0.0
 11
-263.7519120028569
 21
-17.227076054588451
 31
0.0
  0
LINE
  8
DETAIL
  6
CONTINUOUS
 62
     5
 10
-263.7519120028569
 20
-17.227076054588451
 30
0.0
 11
-263.67016807610571
 21
-17.225712120477059
 31
0.0
  0
LINE
  8
DETAIL
  6
CONTINUOUS
 62
     5
 10
-263.67016807610571
 20
-17.225712120477059
 30
0.0
 11
-263.67016807610571
 21
-17.225712120477059
 31
0.0
  0
LINE
  8
DETAIL
  6
CONTINUOUS
 62
     5
 10
-263.67016807610571
 20
-17.225712120477059
 30
0.0
 11
-263.58842933379361
 21
-17.22318210284357
 31
0.0
  0
LINE
  8
DETAIL
  6
CONTINUOUS
 62
     5
 10
-263.58842933379361
 20
-17.22318210284357
 30
0.0
 11
-263.50672951489332
 21
-17.219534706939609
 31
0.0
  0
LINE
  8
DETAIL
  6
CONTINUOUS
 62
     5
 10
-263.50672951489332
 20
-17.219534706939609
 30
0.0
 11
-263.50672951489332
 21
-17.219534706939609
 31
0.0
  0
LINE
  8
DETAIL
  6
CONTINUOUS
 62
     5
 10
-263.50672951489332
 20
-17.219534706939609
 30
0.0
 11
-263.42509007415907
 21
-17.21491903577407
 31
0.0
  0
LINE
  8
DETAIL
  6
CONTINUOUS
 62
     5
 10
-263.42509007415907
 20
-17.21491903577407
 30
0.0
 11
-263.34345564346359
 21
-17.209324230495671
 31
0.0
  0
LINE
  8
DETAIL
  6
CONTINUOUS
 62
     5
 10
-263.34345564346359
 20
-17.209324230495671
 30
0.0
 11
-263.34345564346359
 21
-17.209324230495671
 31
0.0
  0
LINE
  8
DETAIL
  6
CONTINUOUS
 62
     5
 10
-263.34345564346359
 20
-17.209324230495671
 30
0.0
 11
-263.26182155033848
 21
-17.202719015422868
 31
0.0
  0
LINE
  8
DETAIL
  6
CONTINUOUS
 62
     5
 10
-263.26182155033848
 20
-17.202719015422868
 30
0.0
 11
-263.18046272784068
 21
-17.195150409427239
 31
0.0
  0
LINE
  8
DETAIL
  6
CONTINUOUS
 62
     5
 10
-263.18046272784068
 20
-17.195150409427239
 30
0.0
 11
-263.18046272784068
 21
-17.195150409427239
 31
0.0
  0
LINE
  8
DETAIL
  6
CONTINUOUS
 62
     5
 10
-263.18046272784068
 20
-17.195150409427239
 30
0.0
 11
-263.0994636106052
 21
-17.186646700932219
 31
0.0
  0
LINE
  8
DETAIL
  6
CONTINUOUS
 62
     5
 10
-263.0994636106052
 20
-17.186646700932219
 30
0.0
 11
-263.01786703405111
 21
-17.17708296201636
 31
0.0
  0
LINE
  8
DETAIL
  6
CONTINUOUS
 62
     5
 10
-263.01786703405111
 20
-17.17708296201636
 30
0.0
 11
-263.01786703405111
 21
-17.17708296201636
 31
0.0
  0
LINE
  8
DETAIL
  6
CONTINUOUS
 62
     5
 10
-263.01786703405111
 20
-17.17708296201636
 30
0.0
 11
-262.93486351997899
 21
-17.166348797338511
 31
0.0
  0
LINE
  8
DETAIL
  6
CONTINUOUS
 62
     5
 10
-262.93486351997899
 20
-17.166348797338511
 30
0.0
 11
-262.85127593491188
 21
-17.154545158214891
 31
0.0
  0
LINE
  8
DETAIL
  6
CONTINUOUS
 62
     5
 10
-262.85127593491188
 20
-17.154545158214891
 30
0.0
 11
-262.85127593491188
 21
-17.154545158214891
 31
0.0
  0
LINE
  8
DETAIL
  6
CONTINUOUS
 62
     5
 10
-262.85127593491188
 20
-17.154545158214891
 30
0.0
 11
-262.76808520728991
 21
-17.14180005108938
 31
0.0
  0
LINE
  8
DETAIL
  6
CONTINUOUS
 62
     5
 10
-262.76808520728991
 20
-17.14180005108938
 30
0.0
 11
-262.68527216848042
 21
-17.128138356260479
 31
0.0
  0
LINE
  8
DETAIL
  6
CONTINUOUS
 62
     5
 10
-262.68527216848042
 20
-17.128138356260479
 30
0.0
 11
-262.68527216848042
 21
-17.128138356260479
 31
0.0
  0
LINE
  8
DETAIL
  6
CONTINUOUS
 62
     5
 10
-262.68527216848042
 20
-17.128138356260479
 30
0.0
 11
-262.60259240817959
 21
-17.113555588826561
 31
0.0
  0
LINE
  8
DETAIL
  6
CONTINUOUS
 62
     5
 10
-262.60259240817959
 20
-17.113555588826561
 30
0.0
 11
-262.51990064645088
 21
-17.098032929235611
 31
0.0
  0
LINE
  8
DETAIL
  6
CONTINUOUS
 62
     5
 10
-262.51990064645088
 20
-17.098032929235611
 30
0.0
 11
-262.51990064645088
 21
-17.098032929235611
 31
0.0
  0
LINE
  8
DETAIL
  6
CONTINUOUS
 62
     5
 10
-262.51990064645088
 20
-17.098032929235611
 30
0.0
 11
-262.43722727984868
 21
-17.081588090460169
 31
0.0
  0
LINE
  8
DETAIL
  6
CONTINUOUS
 62
     5
 10
-262.43722727984868
 20
-17.081588090460169
 30
0.0
 11
-262.3552062805179
 21
-17.064399250222781
 31
0.0
  0
LINE
  8
DETAIL
  6
CONTINUOUS
 62
     5
 10
-262.3552062805179
 20
-17.064399250222781
 30
0.0
 11
-262.3552062805179
 21
-17.064399250222781
 31
0.0
  0
LINE
  8
DETAIL
  6
CONTINUOUS
 62
     5
 10
-262.3552062805179
 20
-17.064399250222781
 30
0.0
 11
-262.27399415631771
 21
-17.046527821345531
 31
0.0
  0
LINE
  8
DETAIL
  6
CONTINUOUS
 62
     5
 10
-262.27399415631771
 20
-17.046527821345531
 30
0.0
 11
-262.19123398237718
 21
-17.027407692303999
 31
0.0
  0
LINE
  8
DETAIL
  6
CONTINUOUS
 62
     5
 10
-262.19123398237718
 20
-17.027407692303999
 30
0.0
 11
-262.19123398237718
 21
-17.027407692303999
 31
0.0
  0
LINE
  8
DETAIL
  6
CONTINUOUS
 62
     5
 10
-262.19123398237718
 20
-17.027407692303999
 30
0.0
 11
-262.10494019331509
 21
-17.006553532488851
 31
0.0
  0
LINE
  8
DETAIL
  6
CONTINUOUS
 62
     5
 10
-262.10494019331509
 20
-17.006553532488851
 30
0.0
 11
-262.01712609443263
 21
-16.984430659308149
 31
0.0
  0
LINE
  8
DETAIL
  6
CONTINUOUS
 62
     5
 10
-262.01712609443263
 20
-16.984430659308149
 30
0.0
 11
-262.01712609443263
 21
-16.984430659308149
 31
0.0
  0
LINE
  8
DETAIL
  6
CONTINUOUS
 62
     5
 10
-262.01712609443263
 20
-16.984430659308149
 30
0.0
 11
-261.93016868087898
 21
-16.961597894425719
 31
0.0
  0
LINE
  8
DETAIL
  6
CONTINUOUS
 62
     5
 10
-261.93016868087898
 20
-16.961597894425719
 30
0.0
 11
-261.84390083650851
 21
-16.938037428521739
 31
0.0
  0
LINE
  8
DETAIL
  6
CONTINUOUS
 62
     5
 10
-261.84390083650851
 20
-16.938037428521739
 30
0.0
 11
-261.84390083650851
 21
-16.938037428521739
 31
0.0
  0
LINE
  8
DETAIL
  6
CONTINUOUS
 62
     5
 10
-261.84390083650851
 20
-16.938037428521739
 30
0.0
 11
-261.75768772657409
 21
-16.913631638332841
 31
0.0
  0
LINE
  8
DETAIL
  6
CONTINUOUS
 62
     5
 10
-261.75768772657409
 20
-16.913631638332841
 30
0.0
 11
-261.67156775320558
 21
-16.888440275808989
 31
0.0
  0
LINE
  8
DETAIL
  6
CONTINUOUS
 62
     5
 10
-261.67156775320558
 20
-16.888440275808989
 30
0.0
 11
-261.67156775320558
 21
-16.888440275808989
 31
0.0
  0
LINE
  8
DETAIL
  6
CONTINUOUS
 62
     5
 10
-261.67156775320558
 20
-16.888440275808989
 30
0.0
 11
-261.58571041869709
 21
-16.86253421923675
 31
0.0
  0
LINE
  8
DETAIL
  6
CONTINUOUS
 62
     5
 10
-261.58571041869709
 20
-16.86253421923675
 30
0.0
 11
-261.50013638912378
 21
-16.835851477034112
 31
0.0
  0
LINE
  8
DETAIL
  6
CONTINUOUS
 62
     5
 10
-261.50013638912378
 20
-16.835851477034112
 30
0.0
 11
-261.50013638912378
 21
-16.835851477034112
 31
0.0
  0
LINE
  8
DETAIL
  6
CONTINUOUS
 62
     5
 10
-261.50013638912378
 20
-16.835851477034112
 30
0.0
 11
-261.41480964850462
 21
-16.808385366217411
 31
0.0
  0
LINE
  8
DETAIL
  6
CONTINUOUS
 62
     5
 10
-261.41480964850462
 20
-16.808385366217411
 30
0.0
 11
-261.32961628886278
 21
-16.780483308061321
 31
0.0
  0
LINE
  8
DETAIL
  6
CONTINUOUS
 62
     5
 10
225.1585775324543
 20
-16.780483308061321
 30
0.0
 11
225.24374414290739
 21
-16.808376770195991
 31
0.0
  0
LINE
  8
DETAIL
  6
CONTINUOUS
 62
     5
 10
225.24374414290739
 20
-16.808376770195991
 30
0.0
 11
225.32904416789549
 21
-16.835834591760658
 31
0.0
  0
LINE
  8
DETAIL
  6
CONTINUOUS
 62
     5
 10
225.32904416789549
 20
-16.835834591760658
 30
0.0
 11
225.32904416789549
 21
-16.835834591760658
 31
0.0
  0
LINE
  8
DETAIL
  6
CONTINUOUS
 62
     5
 10
225.32904416789549
 20
-16.835834591760658
 30
0.0
 11
225.41459143994331
 21
-16.86250957601305
 31
0.0
  0
LINE
  8
DETAIL
  6
CONTINUOUS
 62
     5
 10
225.41459143994331
 20
-16.86250957601305
 30
0.0
 11
225.50042146353641
 21
-16.888408301530941
 31
0.0
  0
LINE
  8
DETAIL
  6
CONTINUOUS
 62
     5
 10
225.50042146353641
 20
-16.888408301530941
 30
0.0
 11
225.50042146353641
 21
-16.888408301530941
 31
0.0
  0
LINE
  8
DETAIL
  6
CONTINUOUS
 62
     5
 10
225.50042146353641
 20
-16.888408301530941
 30
0.0
 11
225.58651346902661
 21
-16.913592702933101
 31
0.0
  0
LINE
  8
DETAIL
  6
CONTINUOUS
 62
     5
 10
225.58651346902661
 20
-16.913592702933101
 30
0.0
 11
225.67269991826109
 21
-16.9379923636825
 31
0.0
  0
LINE
  8
DETAIL
  6
CONTINUOUS
 62
     5
 10
225.67269991826109
 20
-16.9379923636825
 30
0.0
 11
225.67269991826109
 21
-16.9379923636825
 31
0.0
  0
LINE
  8
DETAIL
  6
CONTINUOUS
 62
     5
 10
225.67269991826109
 20
-16.9379923636825
 30
0.0
 11
225.75894293147439
 21
-16.961547686780701
 31
0.0
  0
LINE
  8
DETAIL
  6
CONTINUOUS
 62
     5
 10
225.75894293147439
 20
-16.961547686780701
 30
0.0
 11
225.84587003095359
 21
-16.984374704525859
 31
0.0
  0
LINE
  8
DETAIL
  6
CONTINUOUS
 62
     5
 10
225.84587003095359
 20
-16.984374704525859
 30
0.0
 11
225.84587003095359
 21
-16.984374704525859
 31
0.0
  0
LINE
  8
DETAIL
  6
CONTINUOUS
 62
     5
 10
225.84587003095359
 20
-16.984374704525859
 30
0.0
 11
225.9336463795735
 21
-17.00649081503229
 31
0.0
  0
LINE
  8
DETAIL
  6
CONTINUOUS
 62
     5
 10
225.9336463795735
 20
-17.00649081503229
 30
0.0
 11
226.01992230049839
 21
-17.027343250371359
 31
0.0
  0
LINE
  8
DETAIL
  6
CONTINUOUS
 62
     5
 10
226.01992230049839
 20
-17.027343250371359
 30
0.0
 11
226.01992230049839
 21
-17.027343250371359
 31
0.0
  0
LINE
  8
DETAIL
  6
CONTINUOUS
 62
     5
 10
226.01992230049839
 20
-17.027343250371359
 30
0.0
 11
226.10270759466559
 21
-17.046471670367279
 31
0.0
  0
LINE
  8
DETAIL
  6
CONTINUOUS
 62
     5
 10
226.10270759466559
 20
-17.046471670367279
 30
0.0
 11
226.18396481381799
 21
-17.06435561189846
 31
0.0
  0
LINE
  8
DETAIL
  6
CONTINUOUS
 62
     5
 10
226.18396481381799
 20
-17.06435561189846
 30
0.0
 11
226.18396481381799
 21
-17.06435561189846
 31
0.0
  0
LINE
  8
DETAIL
  6
CONTINUOUS
 62
     5
 10
226.18396481381799
 20
-17.06435561189846
 30
0.0
 11
226.26602371025729
 21
-17.081554495456881
 31
0.0
  0
LINE
  8
DETAIL
  6
CONTINUOUS
 62
     5
 10
226.26602371025729
 20
-17.081554495456881
 30
0.0
 11
226.3487300877309
 21
-17.098007398933991
 31
0.0
  0
LINE
  8
DETAIL
  6
CONTINUOUS
 62
     5
 10
226.3487300877309
 20
-17.098007398933991
 30
0.0
 11
226.3487300877309
 21
-17.098007398933991
 31
0.0
  0
LINE
  8
DETAIL
  6
CONTINUOUS
 62
     5
 10
226.3487300877309
 20
-17.098007398933991
 30
0.0
 11
226.4314573356892
 21
-17.113537912176749
 31
0.0
  0
LINE
  8
DETAIL
  6
CONTINUOUS
 62
     5
 10
226.4314573356892
 20
-17.113537912176749
 30
0.0
 11
226.51417313494949
 21
-17.12812801545056
 31
0.0
  0
LINE
  8
DETAIL
  6
CONTINUOUS
 62
     5
 10
226.51417313494949
 20
-17.12812801545056
 30
0.0
 11
226.51417313494949
 21
-17.12812801545056
 31
0.0
  0
LINE
  8
DETAIL
  6
CONTINUOUS
 62
     5
 10
226.51417313494949
 20
-17.12812801545056
 30
0.0
 11
226.59702043494369
 21
-17.14179598185774
 31
0.0
  0
LINE
  8
DETAIL
  6
CONTINUOUS
 62
     5
 10
226.59702043494369
 20
-17.14179598185774
 30
0.0
 11
226.68024896818591
 21
-17.154546865420571
 31
0.0
  0
LINE
  8
DETAIL
  6
CONTINUOUS
 62
     5
 10
226.68024896818591
 20
-17.154546865420571
 30
0.0
 11
226.68024896818591
 21
-17.154546865420571
 31
0.0
  0
LINE
  8
DETAIL
  6
CONTINUOUS
 62
     5
 10
226.68024896818591
 20
-17.154546865420571
 30
0.0
 11
226.76387980703569
 21
-17.166356036866549
 31
0.0
  0
LINE
  8
DETAIL
  6
CONTINUOUS
 62
     5
 10
226.76387980703569
 20
-17.166356036866549
 30
0.0
 11
226.846912600151
 21
-17.177093352817341
 31
0.0
  0
LINE
  8
DETAIL
  6
CONTINUOUS
 62
     5
 10
226.846912600151
 20
-17.177093352817341
 30
0.0
 11
226.846912600151
 21
-17.177093352817341
 31
0.0
  0
LINE
  8
DETAIL
  6
CONTINUOUS
 62
     5
 10
226.846912600151
 20
-17.177093352817341
 30
0.0
 11
226.92850794048221
 21
-17.186656143760729
 31
0.0
  0
LINE
  8
DETAIL
  6
CONTINUOUS
 62
     5
 10
226.92850794048221
 20
-17.186656143760729
 30
0.0
 11
227.00949162185449
 21
-17.195157149764778
 31
0.0
  0
LINE
  8
DETAIL
  6
CONTINUOUS
 62
     5
 10
227.00949162185449
 20
-17.195157149764778
 30
0.0
 11
227.00949162185449
 21
-17.195157149764778
 31
0.0
  0
LINE
  8
DETAIL
  6
CONTINUOUS
 62
     5
 10
227.00949162185449
 20
-17.195157149764778
 30
0.0
 11
227.09084015604279
 21
-17.202723950364089
 31
0.0
  0
LINE
  8
DETAIL
  6
CONTINUOUS
 62
     5
 10
227.09084015604279
 20
-17.202723950364089
 30
0.0
 11
227.17246772574751
 21
-17.209328073385681
 31
0.0
  0
LINE
  8
DETAIL
  6
CONTINUOUS
 62
     5
 10
227.17246772574751
 20
-17.209328073385681
 30
0.0
 11
227.17246772574751
 21
-17.209328073385681
 31
0.0
  0
LINE
  8
DETAIL
  6
CONTINUOUS
 62
     5
 10
227.17246772574751
 20
-17.209328073385681
 30
0.0
 11
227.2540942208669
 21
-17.21492179525967
 31
0.0
  0
LINE
  8
DETAIL
  6
CONTINUOUS
 62
     5
 10
227.2540942208669
 20
-17.21492179525967
 30
0.0
 11
227.33572468916279
 21
-17.219536438533851
 31
0.0
  0
LINE
  8
DETAIL
  6
CONTINUOUS
 62
     5
 10
227.33572468916279
 20
-17.219536438533851
 30
0.0
 11
227.33572468916279
 21
-17.219536438533851
 31
0.0
  0
LINE
  8
DETAIL
  6
CONTINUOUS
 62
     5
 10
227.33572468916279
 20
-17.219536438533851
 30
0.0
 11
227.4174158922674
 21
-17.22318305409317
 31
0.0
  0
LINE
  8
DETAIL
  6
CONTINUOUS
 62
     5
 10
227.4174158922674
 20
-17.22318305409317
 30
0.0
 11
227.49914628943321
 21
-17.225712560062679
 31
0.0
  0
LINE
  8
DETAIL
  6
CONTINUOUS
 62
     5
 10
227.49914628943321
 20
-17.225712560062679
 30
0.0
 11
227.49914628943321
 21
-17.225712560062679
 31
0.0
  0
LINE
  8
DETAIL
  6
CONTINUOUS
 62
     5
 10
227.49914628943321
 20
-17.225712560062679
 30
0.0
 11
227.58088177723221
 21
-17.227076212608839
 31
0.0
  0
LINE
  8
DETAIL
  6
CONTINUOUS
 62
     5
 10
227.58088177723221
 20
-17.227076212608839
 30
0.0
 11
227.6626163038909
 21
-17.227786752827338
 31
0.0
  0
LINE
  8
DETAIL
  6
CONTINUOUS
 62
     5
 10
227.6626163038909
 20
-17.227786752827338
 30
0.0
 11
227.7443593621106
 21
-17.227076054588451
 31
0.0
  0
LINE
  8
DETAIL
  6
CONTINUOUS
 62
     5
 10
227.7443593621106
 20
-17.227076054588451
 30
0.0
 11
227.8261032888613
 21
-17.225712120477059
 31
0.0
  0
LINE
  8
DETAIL
  6
CONTINUOUS
 62
     5
 10
227.8261032888613
 20
-17.225712120477059
 30
0.0
 11
227.8261032888613
 21
-17.225712120477059
 31
0.0
  0
LINE
  8
DETAIL
  6
CONTINUOUS
 62
     5
 10
227.8261032888613
 20
-17.225712120477059
 30
0.0
 11
227.90784203117349
 21
-17.22318210284357
 31
0.0
  0
LINE
  8
DETAIL
  6
CONTINUOUS
 62
     5
 10
227.90784203117349
 20
-17.22318210284357
 30
0.0
 11
227.98954185007369
 21
-17.219534706939609
 31
0.0
  0
LINE
  8
DETAIL
  6
CONTINUOUS
 62
     5
 10
227.98954185007369
 20
-17.219534706939609
 30
0.0
 11
227.98954185007369
 21
-17.219534706939609
 31
0.0
  0
LINE
  8
DETAIL
  6
CONTINUOUS
 62
     5
 10
227.98954185007369
 20
-17.219534706939609
 30
0.0
 11
228.071181290808
 21
-17.21491903577407
 31
0.0
  0
LINE
  8
DETAIL
  6
CONTINUOUS
 62
     5
 10
228.071181290808
 20
-17.21491903577407
 30
0.0
 11
228.15281572150391
 21
-17.209324230495671
 31
0.0
  0
LINE
  8
DETAIL
  6
CONTINUOUS
 62
     5
 10
228.15281572150391
 20
-17.209324230495671
 30
0.0
 11
228.15281572150391
 21
-17.209324230495671
 31
0.0
  0
LINE
  8
DETAIL
  6
CONTINUOUS
 62
     5
 10
228.15281572150391
 20
-17.209324230495671
 30
0.0
 11
228.2344498146285
 21
-17.202719015422868
 31
0.0
  0
LINE
  8
DETAIL
  6
CONTINUOUS
 62
     5
 10
228.2344498146285
 20
-17.202719015422868
 30
0.0
 11
228.31580863712631
 21
-17.195150409427239
 31
0.0
  0
LINE
  8
DETAIL
  6
CONTINUOUS
 62
     5
 10
228.31580863712631
 20
-17.195150409427239
 30
0.0
 11
228.31580863712631
 21
-17.195150409427239
 31
0.0
  0
LINE
  8
DETAIL
  6
CONTINUOUS
 62
     5
 10
228.31580863712631
 20
-17.195150409427239
 30
0.0
 11
228.3968077543623
 21
-17.186646700932219
 31
0.0
  0
LINE
  8
DETAIL
  6
CONTINUOUS
 62
     5
 10
228.3968077543623
 20
-17.186646700932219
 30
0.0
 11
228.47840433091599
 21
-17.17708296201636
 31
0.0
  0
LINE
  8
DETAIL
  6
CONTINUOUS
 62
     5
 10
228.47840433091599
 20
-17.17708296201636
 30
0.0
 11
228.47840433091599
 21
-17.17708296201636
 31
0.0
  0
LINE
  8
DETAIL
  6
CONTINUOUS
 62
     5
 10
228.47840433091599
 20
-17.17708296201636
 30
0.0
 11
228.56140784498851
 21
-17.166348797338511
 31
0.0
  0
LINE
  8
DETAIL
  6
CONTINUOUS
 62
     5
 10
228.56140784498851
 20
-17.166348797338511
 30
0.0
 11
228.6449954300565
 21
-17.154545158214891
 31
0.0
  0
LINE
  8
DETAIL
  6
CONTINUOUS
 62
     5
 10
228.6449954300565
 20
-17.154545158214891
 30
0.0
 11
228.6449954300565
 21
-17.154545158214891
 31
0.0
  0
LINE
  8
DETAIL
  6
CONTINUOUS
 62
     5
 10
228.6449954300565
 20
-17.154545158214891
 30
0.0
 11
228.72818615768259
 21
-17.14180005108938
 31
0.0
  0
LINE
  8
DETAIL
  6
CONTINUOUS
 62
     5
 10
228.72818615768259
 20
-17.14180005108938
 30
0.0
 11
228.81099919649839
 21
-17.128138356260479
 31
0.0
  0
LINE
  8
DETAIL
  6
CONTINUOUS
 62
     5
 10
228.81099919649839
 20
-17.128138356260479
 30
0.0
 11
228.81099919649839
 21
-17.128138356260479
 31
0.0
  0
LINE
  8
DETAIL
  6
CONTINUOUS
 62
     5
 10
228.81099919649839
 20
-17.128138356260479
 30
0.0
 11
228.89367895681059
 21
-17.113555588826561
 31
0.0
  0
LINE
  8
DETAIL
  6
CONTINUOUS
 62
     5
 10
228.89367895681059
 20
-17.113555588826561
 30
0.0
 11
228.9763707185557
 21
-17.098032929235611
 31
0.0
  0
LINE
  8
DETAIL
  6
CONTINUOUS
 62
     5
 10
228.9763707185557
 20
-17.098032929235611
 30
0.0
 11
228.9763707185557
 21
-17.098032929235611
 31
0.0
  0
LINE
  8
DETAIL
  6
CONTINUOUS
 62
     5
 10
228.9763707185557
 20
-17.098032929235611
 30
0.0
 11
229.05904408518111
 21
-17.081588090460169
 31
0.0
  0
LINE
  8
DETAIL
  6
CONTINUOUS
 62
     5
 10
229.05904408518111
 20
-17.081588090460169
 30
0.0
 11
229.14106508454279
 21
-17.064399250222781
 31
0.0
  0
LINE
  8
DETAIL
  6
CONTINUOUS
 62
     5
 10
229.14106508454279
 20
-17.064399250222781
 30
0.0
 11
229.14106508454279
 21
-17.064399250222781
 31
0.0
  0
LINE
  8
DETAIL
  6
CONTINUOUS
 62
     5
 10
229.14106508454279
 20
-17.064399250222781
 30
0.0
 11
229.22227720878161
 21
-17.046527821345531
 31
0.0
  0
LINE
  8
DETAIL
  6
CONTINUOUS
 62
     5
 10
229.22227720878161
 20
-17.046527821345531
 30
0.0
 11
229.30503738277159
 21
-17.027407692303999
 31
0.0
  0
LINE
  8
DETAIL
  6
CONTINUOUS
 62
     5
 10
229.30503738277159
 20
-17.027407692303999
 30
0.0
 11
229.30503738277159
 21
-17.027407692303999
 31
0.0
  0
LINE
  8
DETAIL
  6
CONTINUOUS
 62
     5
 10
229.30503738277159
 20
-17.027407692303999
 30
0.0
 11
229.39133117189749
 21
-17.006553532488851
 31
0.0
  0
LINE
  8
DETAIL
  6
CONTINUOUS
 62
     5
 10
229.39133117189749
 20
-17.006553532488851
 30
0.0
 11
229.4791452708528
 21
-16.984430659308149
 31
0.0
  0
LINE
  8
DETAIL
  6
CONTINUOUS
 62
     5
 10
229.4791452708528
 20
-16.984430659308149
 30
0.0
 11
229.4791452708528
 21
-16.984430659308149
 31
0.0
  0
LINE
  8
DETAIL
  6
CONTINUOUS
 62
     5
 10
229.4791452708528
 20
-16.984430659308149
 30
0.0
 11
229.5661026844846
 21
-16.961597894425719
 31
0.0
  0
LINE
  8
DETAIL
  6
CONTINUOUS
 62
     5
 10
229.5661026844846
 20
-16.961597894425719
 30
0.0
 11
229.65237052893329
 21
-16.938037428521739
 31
0.0
  0
LINE
  8
DETAIL
  6
CONTINUOUS
 62
     5
 10
229.65237052893329
 20
-16.938037428521739
 30
0.0
 11
229.65237052893329
 21
-16.938037428521739
 31
0.0
  0
LINE
  8
DETAIL
  6
CONTINUOUS
 62
     5
 10
229.65237052893329
 20
-16.938037428521739
 30
0.0
 11
229.73858363894439
 21
-16.913631638332841
 31
0.0
  0
LINE
  8
DETAIL
  6
CONTINUOUS
 62
     5
 10
229.73858363894439
 20
-16.913631638332841
 30
0.0
 11
229.82470361238481
 21
-16.888440275808989
 31
0.0
  0
LINE
  8
DETAIL
  6
CONTINUOUS
 62
     5
 10
229.82470361238481
 20
-16.888440275808989
 30
0.0
 11
229.82470361238481
 21
-16.888440275808989
 31
0.0
  0
LINE
  8
DETAIL
  6
CONTINUOUS
 62
     5
 10
229.82470361238481
 20
-16.888440275808989
 30
0.0
 11
229.91056094695571
 21
-16.86253421923675
 31
0.0
  0
LINE
  8
DETAIL
  6
CONTINUOUS
 62
     5
 10
229.91056094695571
 20
-16.86253421923675
 30
0.0
 11
229.99613497657671
 21
-16.835851477034112
 31
0.0
  0
LINE
  8
DETAIL
  6
CONTINUOUS
 62
     5
 10
229.99613497657671
 20
-16.835851477034112
 30
0.0
 11
229.99613497657671
 21
-16.835851477034112
 31
0.0
  0
LINE
  8
DETAIL
  6
CONTINUOUS
 62
     5
 10
229.99613497657671
 20
-16.835851477034112
 30
0.0
 11
230.08146171722319
 21
-16.808385366217411
 31
0.0
  0
LINE
  8
DETAIL
  6
CONTINUOUS
 62
     5
 10
230.08146171722319
 20
-16.808385366217411
 30
0.0
 11
230.16665507688089
 21
-16.780483308061321
 31
0.0
  0
LINE
  8
DETAIL
  6
CONTINUOUS
 62
     5
 10
230.16665507688089
 20
-16.780483308061321
 30
0.0
 11
230.25182168733591
 21
-16.808376770196901
 31
0.0
  0
LINE
  8
DETAIL
  6
CONTINUOUS
 62
     5
 10
230.25182168733591
 20
-16.808376770196901
 30
0.0
 11
230.33712171232759
 21
-16.835834591761341
 31
0.0
  0
LINE
  8
DETAIL
  6
CONTINUOUS
 62
     5
 10
230.33712171232759
 20
-16.835834591761341
 30
0.0
 11
230.33712171232759
 21
-16.835834591761341
 31
0.0
  0
LINE
  8
DETAIL
  6
CONTINUOUS
 62
     5
 10
230.33712171232759
 20
-16.835834591761341
 30
0.0
 11
230.42266898438271
 21
-16.862509576013281
 31
0.0
  0
LINE
  8
DETAIL
  6
CONTINUOUS
 62
     5
 10
230.42266898438271
 20
-16.862509576013281
 30
0.0
 11
230.5084990079886
 21
-16.888408301529811
 31
0.0
  0
LINE
  8
DETAIL
  6
CONTINUOUS
 62
     5
 10
230.5084990079886
 20
-16.888408301529811
 30
0.0
 11
230.5084990079886
 21
-16.888408301529811
 31
0.0
  0
LINE
  8
DETAIL
  6
CONTINUOUS
 62
     5
 10
230.5084990079886
 20
-16.888408301529811
 30
0.0
 11
230.5945910134956
 21
-16.913592702927421
 31
0.0
  0
LINE
  8
DETAIL
  6
CONTINUOUS
 62
     5
 10
230.5945910134956
 20
-16.913592702927421
 30
0.0
 11
230.68077746275051
 21
-16.93799236367045
 31
0.0
  0
LINE
  8
DETAIL
  6
CONTINUOUS
 62
     5
 10
230.68077746275051
 20
-16.93799236367045
 30
0.0
 11
230.68077746275051
 21
-16.93799236367045
 31
0.0
  0
LINE
  8
DETAIL
  6
CONTINUOUS
 62
     5
 10
230.68077746275051
 20
-16.93799236367045
 30
0.0
 11
230.7670204759888
 21
-16.96154768675774
 31
0.0
  0
LINE
  8
DETAIL
  6
CONTINUOUS
 62
     5
 10
230.7670204759888
 20
-16.96154768675774
 30
0.0
 11
230.85394757550191
 21
-16.98437470448857
 31
0.0
  0
LINE
  8
DETAIL
  6
CONTINUOUS
 62
     5
 10
230.85394757550191
 20
-16.98437470448857
 30
0.0
 11
230.85394757550191
 21
-16.98437470448857
 31
0.0
  0
LINE
  8
DETAIL
  6
CONTINUOUS
 62
     5
 10
230.85394757550191
 20
-16.98437470448857
 30
0.0
 11
230.9417239241657
 21
-17.006490814975681
 31
0.0
  0
LINE
  8
DETAIL
  6
CONTINUOUS
 62
     5
 10
230.9417239241657
 20
-17.006490814975681
 30
0.0
 11
231.0279998451297
 21
-17.02734325028905
 31
0.0
  0
LINE
  8
DETAIL
  6
CONTINUOUS
 62
     5
 10
231.0279998451297
 20
-17.02734325028905
 30
0.0
 11
231.0279998451297
 21
-17.02734325028905
 31
0.0
  0
LINE
  8
DETAIL
  6
CONTINUOUS
 62
     5
 10
231.0279998451297
 20
-17.02734325028905
 30
0.0
 11
231.11078513932031
 21
-17.046471670250639
 31
0.0
  0
LINE
  8
DETAIL
  6
CONTINUOUS
 62
     5
 10
231.11078513932031
 20
-17.046471670250639
 30
0.0
 11
231.19204235849929
 21
-17.064355611744759
 31
0.0
  0
LINE
  8
DETAIL
  6
CONTINUOUS
 62
     5
 10
231.19204235849929
 20
-17.064355611744759
 30
0.0
 11
231.19204235849929
 21
-17.064355611744759
 31
0.0
  0
LINE
  8
DETAIL
  6
CONTINUOUS
 62
     5
 10
231.19204235849929
 20
-17.064355611744759
 30
0.0
 11
231.27410125498361
 21
-17.081554495270669
 31
0.0
  0
LINE
  8
DETAIL
  6
CONTINUOUS
 62
     5
 10
231.27410125498361
 20
-17.081554495270669
 30
0.0
 11
231.3568076324791
 21
-17.098007398717751
 31
0.0
  0
LINE
  8
DETAIL
  6
CONTINUOUS
 62
     5
 10
231.3568076324791
 20
-17.098007398717751
 30
0.0
 11
231.3568076324791
 21
-17.098007398717751
 31
0.0
  0
LINE
  8
DETAIL
  6
CONTINUOUS
 62
     5
 10
231.3568076324791
 20
-17.098007398717751
 30
0.0
 11
231.4395348804205
 21
-17.113537911935051
 31
0.0
  0
LINE
  8
DETAIL
  6
CONTINUOUS
 62
     5
 10
231.4395348804205
 20
-17.113537911935051
 30
0.0
 11
231.52225067977321
 21
-17.12812801520931
 31
0.0
  0
LINE
  8
DETAIL
  6
CONTINUOUS
 62
     5
 10
231.52225067977321
 20
-17.12812801520931
 30
0.0
 11
231.52225067977321
 21
-17.12812801520931
 31
0.0
  0
LINE
  8
DETAIL
  6
CONTINUOUS
 62
     5
 10
231.52225067977321
 20
-17.12812801520931
 30
0.0
 11
231.60509798000791
 21
-17.141795981649011
 31
0.0
  0
LINE
  8
DETAIL
  6
CONTINUOUS
 62
     5
 10
231.60509798000791
 20
-17.141795981649011
 30
0.0
 11
231.68832651308551
 21
-17.154546865221619
 31
0.0
  0
LINE
  8
DETAIL
  6
CONTINUOUS
 62
     5
 10
231.68832651308551
 20
-17.154546865221619
 30
0.0
 11
231.68832651308551
 21
-17.154546865221619
 31
0.0
  0
LINE
  8
DETAIL
  6
CONTINUOUS
 62
     5
 10
231.68832651308551
 20
-17.154546865221619
 30
0.0
 11
231.77195735121771
 21
-17.166356036641449
 31
0.0
  0
LINE
  8
DETAIL
  6
CONTINUOUS
 62
     5
 10
231.77195735121771
 20
-17.166356036641449
 30
0.0
 11
231.85499014512061
 21
-17.177093352756859
 31
0.0
  0
LINE
  8
DETAIL
  6
CONTINUOUS
 62
     5
 10
231.85499014512061
 20
-17.177093352756859
 30
0.0
 11
231.85499014512061
 21
-17.177093352756859
 31
0.0
  0
LINE
  8
DETAIL
  6
CONTINUOUS
 62
     5
 10
231.85499014512061
 20
-17.177093352756859
 30
0.0
 11
231.93658548948679
 21
-17.186656144237531
 31
0.0
  0
LINE
  8
DETAIL
  6
CONTINUOUS
 62
     5
 10
231.93658548948679
 20
-17.186656144237531
 30
0.0
 11
232.01756917640341
 21
-17.19515715090461
 31
0.0
  0
LINE
  8
DETAIL
  6
CONTINUOUS
 62
     5
 10
232.01756917640341
 20
-17.19515715090461
 30
0.0
 11
232.01756917640341
 21
-17.19515715090461
 31
0.0
  0
LINE
  8
DETAIL
  6
CONTINUOUS
 62
     5
 10
232.01756917640341
 20
-17.19515715090461
 30
0.0
 11
232.09891771558799
 21
-17.20272395201528
 31
0.0
  0
LINE
  8
DETAIL
  6
CONTINUOUS
 62
     5
 10
232.09891771558799
 20
-17.20272395201528
 30
0.0
 11
232.1805452898839
 21
-17.209328075419531
 31
0.0
  0
LINE
  8
DETAIL
  6
CONTINUOUS
 62
     5
 10
232.1805452898839
 20
-17.209328075419531
 30
0.0
 11
232.1805452898839
 21
-17.209328075419531
 31
0.0
  0
LINE
  8
DETAIL
  6
CONTINUOUS
 62
     5
 10
232.1805452898839
 20
-17.209328075419531
 30
0.0
 11
232.26217178973371
 21
-17.214921797624811
 31
0.0
  0
LINE
  8
DETAIL
  6
CONTINUOUS
 62
     5
 10
232.26217178973371
 20
-17.214921797624811
 30
0.0
 11
232.3438022628566
 21
-17.21953644117821
 31
0.0
  0
LINE
  8
DETAIL
  6
CONTINUOUS
 62
     5
 10
232.3438022628566
 20
-17.21953644117821
 30
0.0
 11
232.3438022628566
 21
-17.21953644117821
 31
0.0
  0
LINE
  8
DETAIL
  6
CONTINUOUS
 62
     5
 10
232.3438022628566
 20
-17.21953644117821
 30
0.0
 11
232.42549347073279
 21
-17.223183056948528
 31
0.0
  0
LINE
  8
DETAIL
  6
CONTINUOUS
 62
     5
 10
232.42549347073279
 20
-17.223183056948528
 30
0.0
 11
232.50722387261609
 21
-17.225712563056732
 31
0.0
  0
LINE
  8
DETAIL
  6
CONTINUOUS
 62
     5
 10
232.50722387261609
 20
-17.225712563056732
 30
0.0
 11
232.50722387261609
 21
-17.225712563056732
 31
0.0
  0
LINE
  8
DETAIL
  6
CONTINUOUS
 62
     5
 10
232.50722387261609
 20
-17.225712563056732
 30
0.0
 11
232.5889593651109
 21
-17.227076215676789
 31
0.0
  0
LINE
  8
DETAIL
  6
CONTINUOUS
 62
     5
 10
232.5889593651109
 20
-17.227076215676789
 30
0.0
 11
232.6706938964571
 21
-17.22778675593327
 31
0.0
  0
LINE
  8
DETAIL
  6
CONTINUOUS
 62
     5
 10
232.6706938964571
 20
-17.22778675593327
 30
0.0
 11
232.7524369539706
 21
-17.227076057118889
 31
0.0
  0
LINE
  8
DETAIL
  6
CONTINUOUS
 62
     5
 10
232.7524369539706
 20
-17.227076057118889
 30
0.0
 11
232.8341808800069
 21
-17.22571212235448
 31
0.0
  0
LINE
  8
DETAIL
  6
CONTINUOUS
 62
     5
 10
232.8341808800069
 20
-17.22571212235448
 30
0.0
 11
232.8341808800069
 21
-17.22571212235448
 31
0.0
  0
LINE
  8
DETAIL
  6
CONTINUOUS
 62
     5
 10
232.8341808800069
 20
-17.22571212235448
 30
0.0
 11
232.91591962158961
 21
-17.223182103936551
 31
0.0
  0
LINE
  8
DETAIL
  6
CONTINUOUS
 62
     5
 10
232.91591962158961
 20
-17.223182103936551
 30
0.0
 11
232.99761943975949
 21
-17.219534707149709
 31
0.0
  0
LINE
  8
DETAIL
  6
CONTINUOUS
 62
     5
 10
232.99761943975949
 20
-17.219534707149709
 30
0.0
 11
232.99761943975949
 21
-17.219534707149709
 31
0.0
  0
LINE
  8
DETAIL
  6
CONTINUOUS
 62
     5
 10
232.99761943975949
 20
-17.219534707149709
 30
0.0
 11
233.07925887976671
 21
-17.21491903505466
 31
0.0
  0
LINE
  8
DETAIL
  6
CONTINUOUS
 62
     5
 10
233.07925887976671
 20
-17.21491903505466
 30
0.0
 11
233.16089330970181
 21
-17.20932422883061
 31
0.0
  0
LINE
  8
DETAIL
  6
CONTINUOUS
 62
     5
 10
233.16089330970181
 20
-17.20932422883061
 30
0.0
 11
233.16089330970181
 21
-17.20932422883061
 31
0.0
  0
LINE
  8
DETAIL
  6
CONTINUOUS
 62
     5
 10
233.16089330970181
 20
-17.20932422883061
 30
0.0
 11
233.24252740202249
 21
-17.202719012821031
 31
0.0
  0
LINE
  8
DETAIL
  6
CONTINUOUS
 62
     5
 10
233.24252740202249
 20
-17.202719012821031
 30
0.0
 11
233.32388622382041
 21
-17.19515040590932
 31
0.0
  0
LINE
  8
DETAIL
  6
CONTINUOUS
 62
     5
 10
233.32388622382041
 20
-17.19515040590932
 30
0.0
 11
233.32388622382041
 21
-17.19515040590932
 31
0.0
  0
LINE
  8
DETAIL
  6
CONTINUOUS
 62
     5
 10
233.32388622382041
 20
-17.19515040590932
 30
0.0
 11
233.40488534050161
 21
-17.186646696542539
 31
0.0
  0
LINE
  8
DETAIL
  6
CONTINUOUS
 62
     5
 10
233.40488534050161
 20
-17.186646696542539
 30
0.0
 11
233.48648191610161
 21
-17.177082956897269
 31
0.0
  0
LINE
  8
DETAIL
  6
CONTINUOUS
 62
     5
 10
233.48648191610161
 20
-17.177082956897269
 30
0.0
 11
233.48648191610161
 21
-17.177082956897269
 31
0.0
  0
LINE
  8
DETAIL
  6
CONTINUOUS
 62
     5
 10
233.48648191610161
 20
-17.177082956897269
 30
0.0
 11
233.56948542836199
 21
-17.166348791712839
 31
0.0
  0
LINE
  8
DETAIL
  6
CONTINUOUS
 62
     5
 10
233.56948542836199
 20
-17.166348791712839
 30
0.0
 11
233.65307301122169
 21
-17.154545152262472
 31
0.0
  0
LINE
  8
DETAIL
  6
CONTINUOUS
 62
     5
 10
233.65307301122169
 20
-17.154545152262472
 30
0.0
 11
233.65307301122169
 21
-17.154545152262472
 31
0.0
  0
LINE
  8
DETAIL
  6
CONTINUOUS
 62
     5
 10
233.65307301122169
 20
-17.154545152262472
 30
0.0
 11
233.73626373679051
 21
-17.14180004492755
 31
0.0
  0
LINE
  8
DETAIL
  6
CONTINUOUS
 62
     5
 10
233.73626373679051
 20
-17.14180004492755
 30
0.0
 11
233.81907677366101
 21
-17.128138349995879
 31
0.0
  0
LINE
  8
DETAIL
  6
CONTINUOUS
 62
     5
 10
233.81907677366101
 20
-17.128138349995879
 30
0.0
 11
233.81907677366101
 21
-17.128138349995879
 31
0.0
  0
LINE
  8
DETAIL
  6
CONTINUOUS
 62
     5
 10
233.81907677366101
 20
-17.128138349995879
 30
0.0
 11
233.90175653199231
 21
-17.113555582565819
 31
0.0
  0
LINE
  8
DETAIL
  6
CONTINUOUS
 62
     5
 10
233.90175653199231
 20
-17.113555582565819
 30
0.0
 11
233.98444829172601
 21
-17.098032923071511
 31
0.0
  0
LINE
  8
DETAIL
  6
CONTINUOUS
 62
     5
 10
233.98444829172601
 20
-17.098032923071511
 30
0.0
 11
233.98444829172601
 21
-17.098032923071511
 31
0.0
  0
LINE
  8
DETAIL
  6
CONTINUOUS
 62
     5
 10
233.98444829172601
 20
-17.098032923071511
 30
0.0
 11
234.06712165634551
 21
-17.08158808446888
 31
0.0
  0
LINE
  8
DETAIL
  6
CONTINUOUS
 62
     5
 10
234.06712165634551
 20
-17.08158808446888
 30
0.0
 11
234.14914265372499
 21
-17.064399244462042
 31
0.0
  0
LINE
  8
DETAIL
  6
CONTINUOUS
 62
     5
 10
234.14914265372499
 20
-17.064399244462042
 30
0.0
 11
234.14914265372499
 21
-17.064399244462042
 31
0.0
  0
LINE
  8
DETAIL
  6
CONTINUOUS
 62
     5
 10
234.14914265372499
 20
-17.064399244462042
 30
0.0
 11
234.23035477600069
 21
-17.046527815860369
 31
0.0
  0
LINE
  8
DETAIL
  6
CONTINUOUS
 62
     5
 10
234.23035477600069
 20
-17.046527815860369
 30
0.0
 11
234.3131149479664
 21
-17.027407687140109
 31
0.0
  0
LINE
  8
DETAIL
  6
CONTINUOUS
 62
     5
 10
234.3131149479664
 20
-17.027407687140109
 30
0.0
 11
234.3131149479664
 21
-17.027407687140109
 31
0.0
  0
LINE
  8
DETAIL
  6
CONTINUOUS
 62
     5
 10
234.3131149479664
 20
-17.027407687140109
 30
0.0
 11
234.399408734942
 21
-17.006553527695811
 31
0.0
  0
LINE
  8
DETAIL
  6
CONTINUOUS
 62
     5
 10
234.399408734942
 20
-17.006553527695811
 30
0.0
 11
234.48722283169451
 21
-16.984430654922111
 31
0.0
  0
LINE
  8
DETAIL
  6
CONTINUOUS
 62
     5
 10
234.48722283169451
 20
-16.984430654922111
 30
0.0
 11
234.48722283169451
 21
-16.984430654922111
 31
0.0
  0
LINE
  8
DETAIL
  6
CONTINUOUS
 62
     5
 10
234.48722283169451
 20
-16.984430654922111
 30
0.0
 11
234.57418024315589
 21
-16.961597890471239
 31
0.0
  0
LINE
  8
DETAIL
  6
CONTINUOUS
 62
     5
 10
234.57418024315589
 20
-16.961597890471239
 30
0.0
 11
234.6604480854688
 21
-16.938037425026781
 31
0.0
  0
LINE
  8
DETAIL
  6
CONTINUOUS
 62
     5
 10
234.6604480854688
 20
-16.938037425026781
 30
0.0
 11
234.6604480854688
 21
-16.938037425026781
 31
0.0
  0
LINE
  8
DETAIL
  6
CONTINUOUS
 62
     5
 10
234.6604480854688
 20
-16.938037425026781
 30
0.0
 11
234.74666119336331
 21
-16.913631635330379
 31
0.0
  0
LINE
  8
DETAIL
  6
CONTINUOUS
 62
     5
 10
234.74666119336331
 20
-16.913631635330379
 30
0.0
 11
234.8327811647132
 21
-16.88844027333289
 31
0.0
  0
LINE
  8
DETAIL
  6
CONTINUOUS
 62
     5
 10
234.8327811647132
 20
-16.88844027333289
 30
0.0
 11
234.8327811647132
 21
-16.88844027333289
 31
0.0
  0
LINE
  8
DETAIL
  6
CONTINUOUS
 62
     5
 10
234.8327811647132
 20
-16.88844027333289
 30
0.0
 11
234.91863849723089
 21
-16.862534217320441
 31
0.0
  0
LINE
  8
DETAIL
  6
CONTINUOUS
 62
     5
 10
234.91863849723089
 20
-16.862534217320441
 30
0.0
 11
235.004212524851
 21
-16.835851475718751
 31
0.0
  0
LINE
  8
DETAIL
  6
CONTINUOUS
 62
     5
 10
235.004212524851
 20
-16.835851475718751
 30
0.0
 11
235.004212524851
 21
-16.835851475718751
 31
0.0
  0
LINE
  8
DETAIL
  6
CONTINUOUS
 62
     5
 10
235.004212524851
 20
-16.835851475718751
 30
0.0
 11
235.08953926355659
 21
-16.808385365546879
 31
0.0
  0
LINE
  8
DETAIL
  6
CONTINUOUS
 62
     5
 10
235.08953926355659
 20
-16.808385365546879
 30
0.0
 11
235.17473262130719
 21
-16.780483308061321
 31
0.0
  0
LINE
  8
DETAIL
  6
CONTINUOUS
 62
     5
 10
231.9191332318396
 20
-30.211811113833392
 30
0.0
 11
231.9191332318396
 21
-30.211811113833392
 31
0.0
  0
LINE
  8
DETAIL
  6
CONTINUOUS
 62
     5
 10
231.9191332318396
 20
-30.211811113833392
 30
0.0
 11
231.91842103145879
 21
-30.20438302028197
 31
0.0
  0
LINE
  8
DETAIL
  6
CONTINUOUS
 62
     5
 10
231.91842103145879
 20
-30.20438302028197
 30
0.0
 11
231.91769907022351
 21
-30.196947759567589
 31
0.0
  0
LINE
  8
DETAIL
  6
CONTINUOUS
 62
     5
 10
231.91769907022351
 20
-30.196947759567589
 30
0.0
 11
231.91769907022351
 21
-30.196947759567589
 31
0.0
  0
LINE
  8
DETAIL
  6
CONTINUOUS
 62
     5
 10
231.91769907022351
 20
-30.196947759567589
 30
0.0
 11
231.91696569338271
 21
-30.18951366084957
 31
0.0
  0
LINE
  8
DETAIL
  6
CONTINUOUS
 62
     5
 10
231.91696569338271
 20
-30.18951366084957
 30
0.0
 11
231.91622413739199
 21
-30.182088555414339
 31
0.0
  0
LINE
  8
DETAIL
  6
CONTINUOUS
 62
     5
 10
231.91622413739199
 20
-30.182088555414339
 30
0.0
 11
231.91622413739199
 21
-30.182088555414339
 31
0.0
  0
LINE
  8
DETAIL
  6
CONTINUOUS
 62
     5
 10
231.91622413739199
 20
-30.182088555414339
 30
0.0
 11
231.91547821310769
 21
-30.174672466594298
 31
0.0
  0
LINE
  8
DETAIL
  6
CONTINUOUS
 62
     5
 10
231.91547821310769
 20
-30.174672466594298
 30
0.0
 11
231.9147291377908
 21
-30.16723468379632
 31
0.0
  0
LINE
  8
DETAIL
  6
CONTINUOUS
 62
     5
 10
231.9147291377908
 20
-30.16723468379632
 30
0.0
 11
231.9147291377908
 21
-30.16723468379632
 31
0.0
  0
LINE
  8
DETAIL
  6
CONTINUOUS
 62
     5
 10
231.9147291377908
 20
-30.16723468379632
 30
0.0
 11
231.91398012519949
 21
-30.159767541649671
 31
0.0
  0
LINE
  8
DETAIL
  6
CONTINUOUS
 62
     5
 10
231.91398012519949
 20
-30.159767541649671
 30
0.0
 11
231.91324496867401
 21
-30.152386289607421
 31
0.0
  0
LINE
  8
DETAIL
  6
CONTINUOUS
 62
     5
 10
231.91324496867401
 20
-30.152386289607421
 30
0.0
 11
231.91324496867401
 21
-30.152386289607421
 31
0.0
  0
LINE
  8
DETAIL
  6
CONTINUOUS
 62
     5
 10
231.91324496867401
 20
-30.152386289607421
 30
0.0
 11
231.9125301752679
 21
-30.14512167448629
 31
0.0
  0
LINE
  8
DETAIL
  6
CONTINUOUS
 62
     5
 10
231.9125301752679
 20
-30.14512167448629
 30
0.0
 11
231.91180252729541
 21
-30.137543517740141
 31
0.0
  0
LINE
  8
DETAIL
  6
CONTINUOUS
 62
     5
 10
231.91180252729541
 20
-30.137543517740141
 30
0.0
 11
231.91180252729541
 21
-30.137543517740141
 31
0.0
  0
LINE
  8
DETAIL
  6
CONTINUOUS
 62
     5
 10
231.91180252729541
 20
-30.137543517740141
 30
0.0
 11
231.91105595573029
 21
-30.12953660613903
 31
0.0
  0
LINE
  8
DETAIL
  6
CONTINUOUS
 62
     5
 10
231.91105595573029
 20
-30.12953660613903
 30
0.0
 11
231.91043271090939
 21
-30.12270651308927
 31
0.0
  0
LINE
  8
DETAIL
  6
CONTINUOUS
 62
     5
 10
231.91043271090939
 20
-30.12270651308927
 30
0.0
 11
231.91043271090939
 21
-30.12270651308927
 31
0.0
  0
LINE
  8
DETAIL
  6
CONTINUOUS
 62
     5
 10
231.91043271090939
 20
-30.12270651308927
 30
0.0
 11
231.91005029015969
 21
-30.11841024884097
 31
0.0
  0
LINE
  8
DETAIL
  6
CONTINUOUS
 62
     5
 10
231.91005029015969
 20
-30.11841024884097
 30
0.0
 11
231.9097788593904
 21
-30.115289784393781
 31
0.0
  0
LINE
  8
DETAIL
  6
CONTINUOUS
 62
     5
 10
231.9097788593904
 20
-30.115289784393781
 30
0.0
 11
231.9097788593904
 21
-30.115289784393781
 31
0.0
  0
LINE
  8
DETAIL
  6
CONTINUOUS
 62
     5
 10
231.9097788593904
 20
-30.115289784393781
 30
0.0
 11
231.90946643316241
 21
-30.111738686690838
 31
0.0
  0
LINE
  8
DETAIL
  6
CONTINUOUS
 62
     5
 10
231.90946643316241
 20
-30.111738686690838
 30
0.0
 11
231.90911975205429
 21
-30.107871945708212
 31
0.0
  0
LINE
  8
DETAIL
  6
CONTINUOUS
 62
     5
 10
231.90911975205429
 20
-30.107871945708212
 30
0.0
 11
231.90911975205429
 21
-30.107871945708212
 31
0.0
  0
LINE
  8
DETAIL
  6
CONTINUOUS
 62
     5
 10
231.90911975205429
 20
-30.107871945708212
 30
0.0
 11
231.90877460552429
 21
-30.10411959370094
 31
0.0
  0
LINE
  8
DETAIL
  6
CONTINUOUS
 62
     5
 10
231.90877460552429
 20
-30.10411959370094
 30
0.0
 11
231.9084242525214
 21
-30.100450409014229
 31
0.0
  0
LINE
  8
DETAIL
  6
CONTINUOUS
 62
     5
 10
231.9084242525214
 20
-30.100450409014229
 30
0.0
 11
231.9084242525214
 21
-30.100450409014229
 31
0.0
  0
LINE
  8
DETAIL
  6
CONTINUOUS
 62
     5
 10
231.9084242525214
 20
-30.100450409014229
 30
0.0
 11
231.9080541683702
 21
-30.096748754668621
 31
0.0
  0
LINE
  8
DETAIL
  6
CONTINUOUS
 62
     5
 10
231.9080541683702
 20
-30.096748754668621
 30
0.0
 11
231.90766122441241
 21
-30.093022586295319
 31
0.0
  0
LINE
  8
DETAIL
  6
CONTINUOUS
 62
     5
 10
231.90766122441241
 20
-30.093022586295319
 30
0.0
 11
231.90766122441241
 21
-30.093022586295319
 31
0.0
  0
LINE
  8
DETAIL
  6
CONTINUOUS
 62
     5
 10
231.90766122441241
 20
-30.093022586295319
 30
0.0
 11
231.90724437760451
 21
-30.089302478545282
 31
0.0
  0
LINE
  8
DETAIL
  6
CONTINUOUS
 62
     5
 10
231.90724437760451
 20
-30.089302478545282
 30
0.0
 11
231.90679953134901
 21
-30.085585889532918
 31
0.0
  0
LINE
  8
DETAIL
  6
CONTINUOUS
 62
     5
 10
231.90679953134901
 20
-30.085585889532918
 30
0.0
 11
231.90679953134901
 21
-30.085585889532918
 31
0.0
  0
LINE
  8
DETAIL
  6
CONTINUOUS
 62
     5
 10
231.90679953134901
 20
-30.085585889532918
 30
0.0
 11
231.90632527524389
 21
-30.081864503173161
 31
0.0
  0
LINE
  8
DETAIL
  6
CONTINUOUS
 62
     5
 10
231.90632527524389
 20
-30.081864503173161
 30
0.0
 11
231.9058339972197
 21
-30.078140023122611
 31
0.0
  0
LINE
  8
DETAIL
  6
CONTINUOUS
 62
     5
 10
231.9058339972197
 20
-30.078140023122611
 30
0.0
 11
231.9058339972197
 21
-30.078140023122611
 31
0.0
  0
LINE
  8
DETAIL
  6
CONTINUOUS
 62
     5
 10
231.9058339972197
 20
-30.078140023122611
 30
0.0
 11
231.90534147997869
 21
-30.07441606356997
 31
0.0
  0
LINE
  8
DETAIL
  6
CONTINUOUS
 62
     5
 10
231.90534147997869
 20
-30.07441606356997
 30
0.0
 11
231.9048632869835
 21
-30.070693861109248
 31
0.0
  0
LINE
  8
DETAIL
  6
CONTINUOUS
 62
     5
 10
231.9048632869835
 20
-30.070693861109248
 30
0.0
 11
231.9048632869835
 21
-30.070693861109248
 31
0.0
  0
LINE
  8
DETAIL
  6
CONTINUOUS
 62
     5
 10
231.9048632869835
 20
-30.070693861109248
 30
0.0
 11
231.9044149415777
 21
-30.066974217147621
 31
0.0
  0
LINE
  8
DETAIL
  6
CONTINUOUS
 62
     5
 10
231.9044149415777
 20
-30.066974217147621
 30
0.0
 11
231.90401202586779
 21
-30.063258569952719
 31
0.0
  0
LINE
  8
DETAIL
  6
CONTINUOUS
 62
     5
 10
231.90401202586779
 20
-30.063258569952719
 30
0.0
 11
231.90401202586779
 21
-30.063258569952719
 31
0.0
  0
LINE
  8
DETAIL
  6
CONTINUOUS
 62
     5
 10
231.90401202586779
 20
-30.063258569952719
 30
0.0
 11
231.9036701327
 21
-30.059548474546769
 31
0.0
  0
LINE
  8
DETAIL
  6
CONTINUOUS
 62
     5
 10
231.9036701327
 20
-30.059548474546769
 30
0.0
 11
231.90340483909949
 21
-30.055845316110439
 31
0.0
  0
LINE
  8
DETAIL
  6
CONTINUOUS
 62
     5
 10
231.90340483909949
 20
-30.055845316110439
 30
0.0
 11
231.90340483909949
 21
-30.055845316110439
 31
0.0
  0
LINE
  8
DETAIL
  6
CONTINUOUS
 62
     5
 10
231.90340483909949
 20
-30.055845316110439
 30
0.0
 11
231.90323171926551
 21
-30.052150447989561
 31
0.0
  0
LINE
  8
DETAIL
  6
CONTINUOUS
 62
     5
 10
231.90323171926551
 20
-30.052150447989561
 30
0.0
 11
231.90316635190541
 21
-30.048465266041148
 31
0.0
  0
LINE
  8
DETAIL
  6
CONTINUOUS
 62
     5
 10
231.90316635190541
 20
-30.048465266041148
 30
0.0
 11
231.90316635190541
 21
-30.048465266041148
 31
0.0
  0
LINE
  8
DETAIL
  6
CONTINUOUS
 62
     5
 10
231.90316635190541
 20
-30.048465266041148
 30
0.0
 11
231.90321912358101
 21
-30.044790710292091
 31
0.0
  0
LINE
  8
DETAIL
  6
CONTINUOUS
 62
     5
 10
231.90321912358101
 20
-30.044790710292091
 30
0.0
 11
231.90337964775429
 21
-30.041125854937491
 31
0.0
  0
LINE
  8
DETAIL
  6
CONTINUOUS
 62
     5
 10
231.90337964775429
 20
-30.041125854937491
 30
0.0
 11
231.90337964775429
 21
-30.041125854937491
 31
0.0
  0
LINE
  8
DETAIL
  6
CONTINUOUS
 62
     5
 10
231.90337964775429
 20
-30.041125854937491
 30
0.0
 11
231.9036323457058
 21
-30.03746929728641
 31
0.0
  0
LINE
  8
DETAIL
  6
CONTINUOUS
 62
     5
 10
231.9036323457058
 20
-30.03746929728641
 30
0.0
 11
231.90396164308001
 21
-30.03381959292642
 31
0.0
  0
LINE
  8
DETAIL
  6
CONTINUOUS
 62
     5
 10
231.90396164308001
 20
-30.03381959292642
 30
0.0
 11
231.90396164308001
 21
-30.03381959292642
 31
0.0
  0
LINE
  8
DETAIL
  6
CONTINUOUS
 62
     5
 10
231.90396164308001
 20
-30.03381959292642
 30
0.0
 11
231.90435196280211
 21
-30.030175328785159
 31
0.0
  0
LINE
  8
DETAIL
  6
CONTINUOUS
 62
     5
 10
231.90435196280211
 20
-30.030175328785159
 30
0.0
 11
231.90478771255681
 21
-30.026535258868989
 31
0.0
  0
LINE
  8
DETAIL
  6
CONTINUOUS
 62
     5
 10
231.90478771255681
 20
-30.026535258868989
 30
0.0
 11
231.90478771255681
 21
-30.026535258868989
 31
0.0
  0
LINE
  8
DETAIL
  6
CONTINUOUS
 62
     5
 10
231.90478771255681
 20
-30.026535258868989
 30
0.0
 11
231.9052533103677
 21
-30.022898022305071
 31
0.0
  0
LINE
  8
DETAIL
  6
CONTINUOUS
 62
     5
 10
231.9052533103677
 20
-30.022898022305071
 30
0.0
 11
231.9057332308607
 21
-30.01926163162625
 31
0.0
  0
LINE
  8
DETAIL
  6
CONTINUOUS
 62
     5
 10
231.9057332308607
 20
-30.01926163162625
 30
0.0
 11
231.9057332308607
 21
-30.01926163162625
 31
0.0
  0
LINE
  8
DETAIL
  6
CONTINUOUS
 62
     5
 10
231.9057332308607
 20
-30.01926163162625
 30
0.0
 11
231.90621191002171
 21
-30.015624527542059
 31
0.0
  0
LINE
  8
DETAIL
  6
CONTINUOUS
 62
     5
 10
231.90621191002171
 20
-30.015624527542059
 30
0.0
 11
231.90667357266651
 21
-30.01198749005971
 31
0.0
  0
LINE
  8
DETAIL
  6
CONTINUOUS
 62
     5
 10
231.90667357266651
 20
-30.01198749005971
 30
0.0
 11
231.90667357266651
 21
-30.01198749005971
 31
0.0
  0
LINE
  8
DETAIL
  6
CONTINUOUS
 62
     5
 10
231.90667357266651
 20
-30.01198749005971
 30
0.0
 11
231.9071058328841
 21
-30.00834999474705
 31
0.0
  0
LINE
  8
DETAIL
  6
CONTINUOUS
 62
     5
 10
231.9071058328841
 20
-30.00834999474705
 30
0.0
 11
231.90751007301239
 21
-30.004703960122239
 31
0.0
  0
LINE
  8
DETAIL
  6
CONTINUOUS
 62
     5
 10
231.90751007301239
 20
-30.004703960122239
 30
0.0
 11
231.90751007301239
 21
-30.004703960122239
 31
0.0
  0
LINE
  8
DETAIL
  6
CONTINUOUS
 62
     5
 10
231.90751007301239
 20
-30.004703960122239
 30
0.0
 11
231.90789038217551
 21
-30.001047561212999
 31
0.0
  0
LINE
  8
DETAIL
  6
CONTINUOUS
 62
     5
 10
231.90789038217551
 20
-30.001047561212999
 30
0.0
 11
231.90824790838539
 21
-29.997411556139919
 31
0.0
  0
LINE
  8
DETAIL
  6
CONTINUOUS
 62
     5
 10
231.90824790838539
 20
-29.997411556139919
 30
0.0
 11
231.90824790838539
 21
-29.997411556139919
 31
0.0
  0
LINE
  8
DETAIL
  6
CONTINUOUS
 62
     5
 10
231.90824790838539
 20
-29.997411556139919
 30
0.0
 11
231.9085858084691
 21
-29.993804448352421
 31
0.0
  0
LINE
  8
DETAIL
  6
CONTINUOUS
 62
     5
 10
231.9085858084691
 20
-29.993804448352421
 30
0.0
 11
231.9089182156354
 21
-29.99011313952883
 31
0.0
  0
LINE
  8
DETAIL
  6
CONTINUOUS
 62
     5
 10
231.9089182156354
 20
-29.99011313952883
 30
0.0
 11
231.9089182156354
 21
-29.99011313952883
 31
0.0
  0
LINE
  8
DETAIL
  6
CONTINUOUS
 62
     5
 10
231.9089182156354
 20
-29.99011313952883
 30
0.0
 11
231.90925176608559
 21
-29.986307586902061
 31
0.0
  0
LINE
  8
DETAIL
  6
CONTINUOUS
 62
     5
 10
231.90925176608559
 20
-29.986307586902061
 30
0.0
 11
231.90955213161311
 21
-29.98281157170663
 31
0.0
  0
LINE
  8
DETAIL
  6
CONTINUOUS
 62
     5
 10
231.90955213161311
 20
-29.98281157170663
 30
0.0
 11
231.90955213161311
 21
-29.98281157170663
 31
0.0
  0
LINE
  8
DETAIL
  6
CONTINUOUS
 62
     5
 10
231.90955213161311
 20
-29.98281157170663
 30
0.0
 11
231.90981296322209
 21
-29.97973890761978
 31
0.0
  0
LINE
  8
DETAIL
  6
CONTINUOUS
 62
     5
 10
231.90981296322209
 20
-29.97973890761978
 30
0.0
 11
231.9101807931693
 21
-29.975509714090549
 31
0.0
  0
LINE
  8
DETAIL
  6
CONTINUOUS
 62
     5
 10
231.9101807931693
 20
-29.975509714090549
 30
0.0
 11
231.9101807931693
 21
-29.975509714090549
 31
0.0
  0
LINE
  8
DETAIL
  6
CONTINUOUS
 62
     5
 10
231.9101807931693
 20
-29.975509714090549
 30
0.0
 11
231.91078084599349
 21
-29.96878864307223
 31
0.0
  0
LINE
  8
DETAIL
  6
CONTINUOUS
 62
     5
 10
231.91078084599349
 20
-29.96878864307223
 30
0.0
 11
231.9115002341068
 21
-29.960912170758998
 31
0.0
  0
LINE
  8
DETAIL
  6
CONTINUOUS
 62
     5
 10
231.9115002341068
 20
-29.960912170758998
 30
0.0
 11
231.9115002341068
 21
-29.960912170758998
 31
0.0
  0
LINE
  8
DETAIL
  6
CONTINUOUS
 62
     5
 10
231.9115002341068
 20
-29.960912170758998
 30
0.0
 11
231.91220216038801
 21
-29.95346105786302
 31
0.0
  0
LINE
  8
DETAIL
  6
CONTINUOUS
 62
     5
 10
231.91220216038801
 20
-29.95346105786302
 30
0.0
 11
231.9128923017083
 21
-29.946321378929039
 31
0.0
  0
LINE
  8
DETAIL
  6
CONTINUOUS
 62
     5
 10
231.9128923017083
 20
-29.946321378929039
 30
0.0
 11
231.9128923017083
 21
-29.946321378929039
 31
0.0
  0
LINE
  8
DETAIL
  6
CONTINUOUS
 62
     5
 10
231.9128923017083
 20
-29.946321378929039
 30
0.0
 11
231.91360241368599
 21
-29.93906902053914
 31
0.0
  0
LINE
  8
DETAIL
  6
CONTINUOUS
 62
     5
 10
231.91360241368599
 20
-29.93906902053914
 30
0.0
 11
231.9143260929263
 21
-29.931733803605081
 31
0.0
  0
LINE
  8
DETAIL
  6
CONTINUOUS
 62
     5
 10
231.9143260929263
 20
-29.931733803605081
 30
0.0
 11
231.9143260929263
 21
-29.931733803605081
 31
0.0
  0
LINE
  8
DETAIL
  6
CONTINUOUS
 62
     5
 10
231.9143260929263
 20
-29.931733803605081
 30
0.0
 11
231.91504993679609
 21
-29.924428769833181
 31
0.0
  0
LINE
  8
DETAIL
  6
CONTINUOUS
 62
     5
 10
231.91504993679609
 20
-29.924428769833181
 30
0.0
 11
231.915770704712
 21
-29.917145909794041
 31
0.0
  0
LINE
  8
DETAIL
  6
CONTINUOUS
 62
     5
 10
231.915770704712
 20
-29.917145909794041
 30
0.0
 11
231.915770704712
 21
-29.917145909794041
 31
0.0
  0
LINE
  8
DETAIL
  6
CONTINUOUS
 62
     5
 10
231.915770704712
 20
-29.917145909794041
 30
0.0
 11
231.9164870743061
 21
-29.909854518829661
 31
0.0
  0
LINE
  8
DETAIL
  6
CONTINUOUS
 62
     5
 10
231.9164870743061
 20
-29.909854518829661
 30
0.0
 11
231.91719523401841
 21
-29.902554162502842
 31
0.0
  0
LINE
  8
DETAIL
  6
CONTINUOUS
 62
     5
 10
231.91719523401841
 20
-29.902554162502842
 30
0.0
 11
231.91719523401841
 21
-29.902554162502842
 31
0.0
  0
LINE
  8
DETAIL
  6
CONTINUOUS
 62
     5
 10
231.91719523401841
 20
-29.902554162502842
 30
0.0
 11
231.917891973309
 21
-29.895252151205341
 31
0.0
  0
LINE
  8
DETAIL
  6
CONTINUOUS
 62
     5
 10
231.917891973309
 20
-29.895252151205341
 30
0.0
 11
231.91857897490721
 21
-29.887956504428761
 31
0.0
  0
LINE
  8
DETAIL
  6
CONTINUOUS
 62
     5
 10
231.91857897490721
 20
-29.887956504428761
 30
0.0
 11
231.91857897490721
 21
-29.887956504428761
 31
0.0
  0
LINE
  8
DETAIL
  6
CONTINUOUS
 62
     5
 10
231.91857897490721
 20
-29.887956504428761
 30
0.0
 11
231.91925997244471
 21
-29.88066788113133
 31
0.0
  0
LINE
  8
DETAIL
  6
CONTINUOUS
 62
     5
 10
-86.1389337641358
 20
-229.36995153473339
 30
0.0
 11
-86.1389337641358
 21
-225.36348949919221
 31
0.0
  0
LINE
  8
DETAIL
  6
CONTINUOUS
 62
     5
 10
-63.549721702295301
 20
-229.36995153473339
 30
0.0
 11
-63.549721702295301
 21
-225.36348949919221
 31
0.0
  0
LINE
  8
DETAIL
  6
CONTINUOUS
 62
     5
 10
63.549721703072457
 20
-229.36995153473339
 30
0.0
 11
63.549721703072457
 21
-225.36348949919221
 31
0.0
  0
LINE
  8
BASIS
  6
DASHDOT
 62
     6
 10
0.0
 20
-315.18953770740632
 30
0.0
 11
0.0
 21
72.458197947387816
 31
0.0
  0
ARC
  8
DETAIL
  6
CONTINUOUS
 62
     5
 10
-152.56287754869479
 20
-162.47640809284991
 30
0.0
 40
108.84861794440459
 50
177.77750800632811
 51
252.751271359181
  0
ARC
  8
DETAIL
  6
CONTINUOUS
 62
     5
 10
-144.83485553614079
 20
-161.50474976883109
 30
0.0
 40
112.29229267853241
 50
178.34175089505769
 51
249.13007579197571
  0
ARC
  8
DETAIL
  6
CONTINUOUS
 62
     5
 10
-160.32731896655969
 20
-161.45619646376329
 30
0.0
 40
69.912652101748208
 50
177.37579922073601
 51
253.15298014470741
  0
ARC
  8
DETAIL
  6
CONTINUOUS
 62
     5
 10
-247.31570524511699
 20
-7.3550756443355567
 30
0.0
 40
2.6636832864976592
 50
196.4683833268098
 51
267.46639426036228
  0
ARC
  8
DETAIL
  6
CONTINUOUS
 62
     5
 10
-269.22032619006131
 20
-12.47571911224259
 30
0.0
 40
19.83654487623626
 50
12.713433326741789
 51
28.5187075791039
  0
ARC
  8
DETAIL
  6
CONTINUOUS
 62
     5
 10
-247.18492480384521
 20
-7.7081873783954507
 30
0.0
 40
5.5187362891911294
 50
195.44839624694521
 51
267.41888211822942
  0
ARC
  8
DETAIL
  6
CONTINUOUS
 62
     5
 10
-260.4790458664902
 20
-10.83391032113923
 30
0.0
 40
8.1448341791574972
 50
11.728925435267159
 51
59.638119644104137
  0
ARC
  8
DETAIL
  6
CONTINUOUS
 62
     5
 10
-296.75285928064483
 20
-7.7020045258777827
 30
0.0
 40
5.5295447309985546
 50
195.4839156734173
 51
267.6561486793359
  0
ARC
  8
DETAIL
  6
CONTINUOUS
 62
     5
 10
-313.86375133744878
 20
-11.11301303520395
 30
0.0
 40
11.939845190663521
 50
9.325642649654684
 51
32.773833256060577
  0
ARC
  8
DETAIL
  6
CONTINUOUS
 62
     5
 10
152.56287754869479
 20
-162.47640809284991
 30
0.0
 40
108.84861794440459
 50
287.24872864081891
 51
2.2224919936719112
  0
ARC
  8
DETAIL
  6
CONTINUOUS
 62
     5
 10
144.83485553614079
 20
-161.50474976883109
 30
0.0
 40
112.29229267853241
 50
290.86992420802432
 51
1.65824910494233
  0
ARC
  8
DETAIL
  6
CONTINUOUS
 62
     5
 10
160.32731896655969
 20
-161.45619646376329
 30
0.0
 40
69.912652101748208
 50
286.84701985529261
 51
2.6242007792640241
  0
ARC
  8
DETAIL
  6
CONTINUOUS
 62
     5
 10
247.31570524511699
 20
-7.3550756443355567
 30
0.0
 40
2.6636832864976592
 50
272.53360573963772
 51
343.53161667319017
  0
ARC
  8
DETAIL
  6
CONTINUOUS
 62
     5
 10
269.22032619006131
 20
-12.47571911224259
 30
0.0
 40
19.83654487623626
 50
151.4812924208961
 51
167.28656667325819
  0
ARC
  8
DETAIL
  6
CONTINUOUS
 62
     5
 10
247.18492480384521
 20
-7.7081873783954507
 30
0.0
 40
5.5187362891911294
 50
272.58111788177058
 51
344.55160375305479
  0
ARC
  8
DETAIL
  6
CONTINUOUS
 62
     5
 10
260.4790458664902
 20
-10.83391032113923
 30
0.0
 40
8.1448341791574972
 50
120.36188035589591
 51
168.27107456473291
  0
ARC
  8
DETAIL
  6
CONTINUOUS
 62
     5
 10
-295.06944722695658
 20
-53.023924275263653
 30
0.0
 40
34.225812804480263
 50
9.6668729160329221
 51
74.566405876566336
  0
ARC
  8
DETAIL
  6
CONTINUOUS
 62
     5
 10
295.16022482644371
 20
-53.16932007281082
 30
0.0
 40
34.390158058937232
 50
105.51491611669481
 51
169.65023647351879
  0
ARC
  8
DETAIL
  6
CONTINUOUS
 62
     5
 10
296.75285928064483
 20
-7.7020045258777827
 30
0.0
 40
5.5295447309985546
 50
272.3438513206641
 51
344.51608432658259
  0
ARC
  8
DETAIL
  6
CONTINUOUS
 62
     5
 10
313.86375133744878
 20
-11.11301303520395
 30
0.0
 40
11.939845190663521
 50
147.22616674393939
 51
170.6743573503453
  0
LINE
  8
DETAIL
  6
CONTINUOUS
 62
     5
 10
-95.738626136604125
 20
-177.28594507269739
 30
0.0
 11
95.738541701193753
 21
-177.28594507269739
 31
0.0
  0
LINE
  8
DETAIL
  6
CONTINUOUS
 62
     5
 10
95.738541701193753
 20
-177.28594507269739
 30
0.0
 11
95.738541701193753
 21
-225.36348949919221
 31
0.0
  0
LINE
  8
DETAIL
  6
CONTINUOUS
 62
     5
 10
95.738541701193753
 20
-225.36348949919221
 30
0.0
 11
-95.738626136604125
 21
-225.36348949919221
 31
0.0
  0
LINE
  8
DETAIL
  6
CONTINUOUS
 62
     5
 10
-95.738626136604125
 20
-225.36348949919221
 30
0.0
 11
-95.738626136604125
 21
-177.28594507269739
 31
0.0
  0
ARC
  8
OUTLINE
  6
CONTINUOUS
 62
     3
 10
-152.56287754869479
 20
-162.47640809284979
 30
0.0
 40
108.84861794440459
 50
177.77750800632811
 51
252.751271359181
  0
ARC
  8
OUTLINE
  6
CONTINUOUS
 62
     3
 10
-296.75285928064483
 20
-7.702004525877669
 30
0.0
 40
5.5295447309985546
 50
195.4839156734173
 51
267.6561486793359
  0
ARC
  8
OUTLINE
  6
CONTINUOUS
 62
     3
 10
152.56287754869479
 20
-162.47640809284979
 30
0.0
 40
108.84861794440459
 50
287.24872864081891
 51
2.2224919936719112
  0
ARC
  8
OUTLINE
  6
CONTINUOUS
 62
     3
 10
-295.06944722695658
 20
-53.023924275263433
 30
0.0
 40
34.225812804480263
 50
9.6668729160329221
 51
74.566405876566336
  0
ARC
  8
OUTLINE
  6
CONTINUOUS
 62
     3
 10
295.16022482644371
 20
-53.169320072810713
 30
0.0
 40
34.390158058937232
 50
105.51491611669481
 51
169.65023647351879
  0
ARC
  8
OUTLINE
  6
CONTINUOUS
 62
     3
 10
296.75285928064483
 20
-7.702004525877669
 30
0.0
 40
5.5295447309985546
 50
272.3438513206641
 51
344.51608432658259
  0
ENDSEC
  0
EOF
