  0
SECTION
  2
HEADER
  9
$ACADVER
  1
AC1009
  9
$DWGCODEPAGE
  3
dos932
  9
$INSBASE
 10
0.0
 20
0.0
 30
0.0
  9
$EXTMIN
 10
-635.36680474105196
 20
-459.18272756876291
 30
-0.0015258207003583
  9
$EXTMAX
 10
1123.901378868497
 20
558.83789860973775
 30
0.0000000349246037
  9
$LIMMIN
 10
-2970.0
 20
-2100.0
  9
$LIMMAX
 10
2970.0
 20
2100.0
  9
$ORTHOMODE
 70
     1
  9
$REGENMODE
 70
     1
  9
$FILLMODE
 70
     1
  9
$QTEXTMODE
 70
     0
  9
$MIRRTEXT
 70
     0
  9
$LTSCALE
 40
20.0
  9
$ATTMODE
 70
     1
  9
$TEXTSIZE
 40
64.0
  9
$TRACEWID
 40
0.05
  9
$TEXTSTYLE
  7
STANDARD
  9
$CLAYER
  8
SIZE
  9
$CELTYPE
  6
CONTINUOUS
  9
$CECOLOR
 62
     7
  9
$DIMSCALE
 40
1.0
  9
$DIMASZ
 40
12.0
  9
$DIMEXO
 40
20.0
  9
$DIMDLI
 40
200.0
  9
$DIMRND
 40
0.0
  9
$DIMDLE
 40
0.0
  9
$DIMEXE
 40
20.0
  9
$DIMTP
 40
0.0
  9
$DIMTM
 40
0.0
  9
$DIMTXT
 40
64.0
  9
$DIMCEN
 40
0.09
  9
$DIMTSZ
 40
0.0
  9
$DIMTOL
 70
     0
  9
$DIMLIM
 70
     0
  9
$DIMTIH
 70
     0
  9
$DIMTOH
 70
     0
  9
$DIMSE1
 70
     0
  9
$DIMSE2
 70
     0
  9
$DIMTAD
 70
     1
  9
$DIMZIN
 70
     8
  9
$DIMBLK
  1

  9
$DIMASO
 70
     1
  9
$DIMSHO
 70
     0
  9
$DIMPOST
  1

  9
$DIMAPOST
  1

  9
$DIMALT
 70
     0
  9
$DIMALTD
 70
     2
  9
$DIMALTF
 40
25.399999999999999
  9
$DIMLFAC
 40
1.0
  9
$DIMTOFL
 70
     1
  9
$DIMTVP
 40
0.0
  9
$DIMTIX
 70
     1
  9
$DIMSOXD
 70
     0
  9
$DIMSAH
 70
     0
  9
$DIMBLK1
  1

  9
$DIMBLK2
  1

  9
$DIMSTYLE
  2
STANDARD
  9
$DIMCLRD
 70
     7
  9
$DIMCLRE
 70
     7
  9
$DIMCLRT
 70
     7
  9
$DIMTFAC
 40
1.0
  9
$DIMGAP
 40
25.0
  9
$LUNITS
 70
     2
  9
$LUPREC
 70
     4
  9
$SKETCHINC
 40
0.1
  9
$FILLETRAD
 40
3.0
  9
$AUNITS
 70
     1
  9
$AUPREC
 70
     3
  9
$MENU
  1
ACAD
  9
$ELEVATION
 40
0.0
  9
$PELEVATION
 40
0.0
  9
$THICKNESS
 40
0.0
  9
$LIMCHECK
 70
     0
  9
$CHAMFERA
 40
0.0
  9
$CHAMFERB
 40
0.0
  9
$SKPOLY
 70
     0
  9
$TDCREATE
 40
2453019.62301037
  9
$TDUPDATE
 40
2458949.448452396
  9
$TDINDWG
 40
1.7141710764
  9
$TDUSRTIMER
 40
1.7141710764
  9
$USRTIMER
 70
     1
  9
$ANGBASE
 50
0.0
  9
$ANGDIR
 70
     0
  9
$PDMODE
 70
     3
  9
$PDSIZE
 40
-2.0
  9
$PLINEWID
 40
0.0
  9
$SPLFRAME
 70
     0
  9
$SPLINETYPE
 70
     6
  9
$SPLINESEGS
 70
     8
  9
$SURFTAB1
 70
     6
  9
$SURFTAB2
 70
     6
  9
$SURFTYPE
 70
     6
  9
$SURFU
 70
     6
  9
$SURFV
 70
     6
  9
$UCSNAME
  2

  9
$UCSORG
 10
0.0
 20
0.0
 30
0.0
  9
$UCSXDIR
 10
1.0
 20
0.0
 30
0.0
  9
$UCSYDIR
 10
0.0
 20
1.0
 30
0.0
  9
$PUCSNAME
  2

  9
$PUCSORG
 10
0.0
 20
0.0
 30
0.0
  9
$PUCSXDIR
 10
1.0
 20
0.0
 30
0.0
  9
$PUCSYDIR
 10
0.0
 20
1.0
 30
0.0
  9
$USERI1
 70
     0
  9
$USERI2
 70
     0
  9
$USERI3
 70
     0
  9
$USERI4
 70
     0
  9
$USERI5
 70
     0
  9
$USERR1
 40
20.0
  9
$USERR2
 40
0.0
  9
$USERR3
 40
0.0
  9
$USERR4
 40
0.0
  9
$USERR5
 40
0.0
  9
$WORLDVIEW
 70
     1
  9
$SHADEDGE
 70
     3
  9
$SHADEDIF
 70
    70
  9
$TILEMODE
 70
     1
  9
$MAXACTVP
 70
    48
  9
$PINSBASE
 10
0.0
 20
0.0
 30
0.0
  9
$PLIMCHECK
 70
     0
  9
$PEXTMIN
 10
-100000000000000000000.0
 20
-100000000000000000000.0
 30
-100000000000000000000.0
  9
$PEXTMAX
 10
100000000000000000000.0
 20
100000000000000000000.0
 30
100000000000000000000.0
  9
$PLIMMIN
 10
0.0
 20
0.0
  9
$PLIMMAX
 10
12.0
 20
9.0
  9
$UNITMODE
 70
     0
  9
$VISRETAIN
 70
     0
  9
$PLINEGEN
 70
     0
  9
$PSLTSCALE
 70
     0
  9
$TREEDEPTH
 70
  3020
  9
$ATTDIA
 70
     0
  9
$ATTREQ
 70
     1
  9
$BLIPMODE
 70
     1
  9
$COORDS
 70
     1
  9
$DRAGMODE
 70
     2
  9
$OSMODE
 70
     0
  9
$HANDLING
 70
     0
  9
$HANDSEED
  5
13C0B
  0
ENDSEC
  0
SECTION
  2
TABLES
  0
TABLE
  2
LTYPE
 70
     2
  0
LTYPE
  2
CONTINUOUS
 70
     0
  3
実線
 72
    65
 73
     0
 40
0.0
  0
LTYPE
  2
DASHDOT
 70
     0
  3
____ _ ____ _ ____ _ ____ _ ____ _ ____ _ ____
 72
    65
 73
     4
 40
5.5
 49
4.0
 49
-0.6
 49
0.3
 49
-0.6
  0
ENDTAB
  0
TABLE
  2
LAYER
 70
    12
  0
LAYER
  2
0
 70
     0
 62
     7
  6
CONTINUOUS
  0
LAYER
  2
BASIS
 70
     0
 62
     6
  6
DASHDOT
  0
LAYER
  2
OUTLINE
 70
     0
 62
     3
  6
CONTINUOUS
  0
LAYER
  2
DETAIL
 70
     0
 62
     5
  6
CONTINUOUS
  0
LAYER
  2
SIZE
 70
     0
 62
    30
  6
CONTINUOUS
  0
LAYER
  2
ARRANGE
 70
     0
 62
     1
  6
CONTINUOUS
  0
LAYER
  2
DEFPOINTS
 70
     0
 62
     7
  6
CONTINUOUS
  0
LAYER
  2
ETC
 70
     0
 62
    61
  6
CONTINUOUS
  0
LAYER
  2
FIX
 70
     0
 62
    11
  6
CONTINUOUS
  0
LAYER
  2
NOTE
 70
     0
 62
     4
  6
CONTINUOUS
  0
LAYER
  2
SERVICESPACE
 70
    64
 62
     2
  6
DASHDOT
  0
LAYER
  2
SYMBOLLINE
 70
    64
 62
    15
  6
CONTINUOUS
  0
ENDTAB
  0
TABLE
  2
STYLE
 70
     1
  0
STYLE
  2
STANDARD
 70
     0
 40
64.0
 41
0.9
 50
0.0
 71
     0
 42
64.0
  3
SIMPLEX.shx
  4
BIGFONT.shx
  0
ENDTAB
  0
TABLE
  2
APPID
 70
    19
  0
APPID
  2
ACAD
 70
     0
  0
APPID
  2
AUTOCAD_POSTSCRIPT_FIGURE
 70
     0
  0
APPID
  2
ACAD_EXEMPT_FROM_CAD_STANDARDS
 70
     0
  0
APPID
  2
ACAD_PSEXT
 70
     0
  0
APPID
  2
ACAUTHENVIRON
 70
     0
  0
APPID
  2
GENIUS_GENOENT_13
 70
     0
  0
APPID
  2
GENIUS_GENCFG_13
 70
     0
  0
APPID
  2
GENIUS_GENCFG0_13
 70
     0
  0
APPID
  2
GENIUS_GENCFG1_13
 70
     0
  0
APPID
  2
GENIUS_GENCFG2_13
 70
     0
  0
APPID
  2
GENIUS_GENCFG3_13
 70
     0
  0
APPID
  2
GENIUS_GENCFG4_13
 70
     0
  0
APPID
  2
GENIUS_GEVCFG0_13
 70
     0
  0
APPID
  2
CONTENTBLOCKICON
 70
     0
  0
APPID
  2
CONTENTBLOCKDESCRIPTION
 70
     0
  0
APPID
  2
ACAD_NAV_VCDISPLAY
 70
     0
  0
APPID
  2
ACAD_MLEADERVER
 70
     0
  0
APPID
  2
ACDBDYNAMICBLOCKTRUENAME
 70
     0
  0
APPID
  2
ACDBDYNAMICBLOCKGUID
 70
     0
  0
ENDTAB
  0
TABLE
  2
DIMSTYLE
 70
     1
  0
DIMSTYLE
  2
STANDARD
 70
     0
  3

  4

  5
_ORIGIN
  6

  7

 40
1.0
 41
12.0
 42
20.0
 43
200.0
 44
20.0
 45
0.0
 46
0.0
 47
0.0
 48
0.0
140
64.0
141
0.09
142
0.0
143
25.399999999999999
144
1.0
145
0.0
146
1.0
147
25.0
 71
     0
 72
     0
 73
     0
 74
     0
 75
     0
 76
     0
 77
     1
 78
     8
170
     0
171
     2
172
     1
173
     0
174
     1
175
     0
176
     7
177
     7
178
     7
  0
ENDTAB
  0
TABLE
  2
VIEW
 70
     1
  0
VIEW
  2
ALL
 70
     0
 40
4282.6198079999986
 10
0.0
 20
41.309904000000003
 41
5940.0
 11
0.0
 21
0.0
 31
1.0
 12
0.0
 22
0.0
 32
0.0
 42
50.0
 43
0.0
 44
0.0
 50
0.0
 71
     0
  0
ENDTAB
  0
TABLE
  2
UCS
 70
     0
  0
ENDTAB
  0
TABLE
  2
VPORT
 70
     1
  0
VPORT
  2
*ACTIVE
 70
     0
 10
0.0
 20
0.0
 11
1.0
 21
1.0
 12
244.26728706372231
 22
49.827585520487503
 13
0.0
 23
0.0
 14
1.0
 24
1.0
 15
0.0
 25
0.0
 16
0.0
 26
0.0
 36
1.0
 17
0.0
 27
0.0
 37
0.0
 40
1024.7699341973639
 41
1.747787610619469
 42
50.0
 43
0.0
 44
0.0
 50
0.0
 51
0.0
 71
     0
 72
  1000
 73
     1
 74
     3
 75
     0
 76
     0
 77
     0
 78
     0
  0
ENDTAB
  0
ENDSEC
  0
SECTION
  2
BLOCKS
  0
BLOCK
  8
0
  2
_ORIGIN
 70
     0
 10
0.0
 20
0.0
 30
0.0
  3
_ORIGIN
  1
_ORIGIN
  0
CIRCLE
  8
0
  6
CONTINUOUS
 62
     7
 10
0.0
 20
0.0
 30
0.0
 40
0.5
  0
LINE
  8
0
  6
CONTINUOUS
 62
     7
 10
0.0
 20
0.0
 30
0.0
 11
-1.0
 21
0.0
 31
0.0
  0
ENDBLK
  8
0
  0
ENDSEC
  0
SECTION
  2
ENTITIES
  0
CIRCLE
  8
ARRANGE
  6
CONTINUOUS
 62
     1
 10
0.0
 20
0.0
 30
0.0
 40
40.0
  0
POINT
  8
ARRANGE
  6
CONTINUOUS
 62
     1
 10
0.0
 20
0.0
 30
0.0
  0
TEXT
  8
ETC
  6
CONTINUOUS
 62
    61
 10
344.87539504366401
 20
494.56101113953241
 30
0.0
 40
64.0
  1
EWF-50FTA40A2_6
 41
0.9
  0
TEXT
  8
ETC
  6
CONTINUOUS
 62
    61
 10
340.68940104366362
 20
376.60570112470168
 30
0.0
 40
64.0
  1
産業扇
 41
0.9
  0
TEXT
  8
ETC
  6
CONTINUOUS
 62
    61
 10
391.39079929221953
 20
268.45692823847639
 30
0.0
 40
40.0
  1
EWF-50FTA40A2
 41
0.9
  0
LINE
  8
SIZE
  6
CONTINUOUS
 62
    30
 10
-309.99999999999949
 20
18.497576736672041
 30
0.0
 11
-309.99999999999949
 21
264.96668498765212
 31
0.0
  0
LINE
  8
SIZE
  6
CONTINUOUS
 62
    30
 10
310.0
 20
18.497576736672041
 30
0.0
 11
310.0
 21
264.96668498765212
 31
0.0
  0
LINE
  8
SIZE
  6
CONTINUOUS
 62
    30
 10
-297.99999999999949
 20
244.9666849876522
 30
0.0
 11
298.0
 21
244.9666849876522
 31
0.0
  0
CIRCLE
  8
SIZE
  6
CONTINUOUS
 62
    30
 10
-309.99999999999949
 20
244.9666849876522
 30
0.0
 40
6.0
  0
LINE
  8
SIZE
  6
CONTINUOUS
 62
    30
 10
-309.99999999999949
 20
244.9666849876522
 30
0.0
 11
-297.99999999999949
 21
244.9666849876522
 31
0.0
  0
CIRCLE
  8
SIZE
  6
CONTINUOUS
 62
    30
 10
310.0
 20
244.9666849876522
 30
0.0
 40
6.0
  0
LINE
  8
SIZE
  6
CONTINUOUS
 62
    30
 10
310.0
 20
244.9666849876522
 30
0.0
 11
298.0
 21
244.9666849876522
 31
0.0
  0
TEXT
  8
SIZE
  6
CONTINUOUS
 62
    30
 10
-74.834492931621668
 20
269.96668498765212
 30
0.0
 40
64.0
  1
620
 41
0.9
 72
     1
 11
-0.777350074478818
 21
269.96668498765212
 31
0.0
  0
POINT
  8
DEFPOINTS
  6
CONTINUOUS
 62
    30
 10
-309.99999999999949
 20
-1.5024232633279551
 30
0.0
  0
POINT
  8
DEFPOINTS
  6
CONTINUOUS
 62
    30
 10
310.0
 20
-1.5024232633279551
 30
0.0
  0
POINT
  8
DEFPOINTS
  6
CONTINUOUS
 62
    30
 10
310.0
 20
244.9666849876522
 30
0.0
  0
LINE
  8
SIZE
  6
CONTINUOUS
 62
    30
 10
-281.22969256213452
 20
44.796828318904552
 30
0.0
 11
-281.22969256213452
 21
151.39419561661629
 31
0.0
  0
LINE
  8
SIZE
  6
CONTINUOUS
 62
    30
 10
279.67499241363288
 20
44.79682831890409
 30
0.0
 11
279.67499241363288
 21
151.39419561661629
 31
0.0
  0
LINE
  8
SIZE
  6
CONTINUOUS
 62
    30
 10
-269.22969256213452
 20
131.39419561661629
 30
0.0
 11
267.67499241363288
 21
131.39419561661629
 31
0.0
  0
CIRCLE
  8
SIZE
  6
CONTINUOUS
 62
    30
 10
-281.22969256213452
 20
131.39419561661629
 30
0.0
 40
6.0
  0
LINE
  8
SIZE
  6
CONTINUOUS
 62
    30
 10
-281.22969256213452
 20
131.39419561661629
 30
0.0
 11
-269.22969256213452
 21
131.39419561661629
 31
0.0
  0
CIRCLE
  8
SIZE
  6
CONTINUOUS
 62
    30
 10
279.67499241363288
 20
131.39419561661629
 30
0.0
 40
6.0
  0
LINE
  8
SIZE
  6
CONTINUOUS
 62
    30
 10
279.67499241363288
 20
131.39419561661629
 30
0.0
 11
267.67499241363288
 21
131.39419561661629
 31
0.0
  0
TEXT
  8
SIZE
  6
CONTINUOUS
 62
    30
 10
-74.834492931393385
 20
156.39419561661629
 30
0.0
 40
64.0
  1
560
 41
0.9
 72
     1
 11
-0.7773500742505348
 21
156.39419561661629
 31
0.0
  0
POINT
  8
DEFPOINTS
  6
CONTINUOUS
 62
    30
 10
-281.22969256213452
 20
24.796828318904549
 30
0.0
  0
POINT
  8
DEFPOINTS
  6
CONTINUOUS
 62
    30
 10
279.67499241363288
 20
24.79682831890409
 30
0.0
  0
POINT
  8
DEFPOINTS
  6
CONTINUOUS
 62
    30
 10
279.67499241363288
 20
131.39419561661629
 30
0.0
  0
CIRCLE
  8
FIX
  6
CONTINUOUS
 62
    11
 10
-281.22969256213401
 20
0.0
 30
0.0
 40
7.0
  0
CIRCLE
  8
FIX
  6
CONTINUOUS
 62
    11
 10
279.67499241363288
 20
0.0
 30
0.0
 40
7.0
  0
LINE
  8
SIZE
  6
CONTINUOUS
 62
    30
 10
327.72022666242128
 20
0.0
 30
0.0
 11
458.87747230986042
 21
0.0
 31
0.0
  0
LINE
  8
SIZE
  6
CONTINUOUS
 62
    30
 10
322.6119875671061
 20
-10.016155088853109
 30
0.0
 11
458.87747230986042
 21
-10.016155088853109
 31
0.0
  0
LINE
  8
SIZE
  6
CONTINUOUS
 62
    30
 10
438.87747230986042
 20
-22.016155088853111
 30
0.0
 11
438.87747230986042
 21
-34.016155088853111
 31
0.0
  0
LINE
  8
SIZE
  6
CONTINUOUS
 62
    30
 10
438.87747230986042
 20
12.0
 30
0.0
 11
438.87747230986042
 21
156.28571428571431
 31
0.0
  0
LINE
  8
SIZE
  6
CONTINUOUS
 62
    30
 10
438.87747230986042
 20
-10.016155088853109
 30
0.0
 11
438.87747230986042
 21
0.0
 31
0.0
  0
CIRCLE
  8
SIZE
  6
CONTINUOUS
 62
    30
 10
438.87747230986042
 20
-10.016155088853109
 30
0.0
 40
6.0
  0
LINE
  8
SIZE
  6
CONTINUOUS
 62
    30
 10
438.87747230986042
 20
-10.016155088853109
 30
0.0
 11
438.87747230986042
 21
-22.016155088853111
 31
0.0
  0
CIRCLE
  8
SIZE
  6
CONTINUOUS
 62
    30
 10
438.87747230986042
 20
0.0
 30
0.0
 40
6.0
  0
LINE
  8
SIZE
  6
CONTINUOUS
 62
    30
 10
438.87747230986042
 20
0.0
 30
0.0
 11
438.87747230986042
 21
12.0
 31
0.0
  0
TEXT
  8
SIZE
  6
CONTINUOUS
 62
    30
 10
413.87747230986042
 20
49.000000000000092
 30
0.0
 40
64.0
  1
10
 50
90.0
 41
0.9
 72
     1
 11
413.87747230986042
 21
90.142857142857224
 31
0.0
  0
POINT
  8
DEFPOINTS
  6
CONTINUOUS
 62
    30
 10
307.72022666242128
 20
0.0
 30
0.0
  0
POINT
  8
DEFPOINTS
  6
CONTINUOUS
 62
    30
 10
302.6119875671061
 20
-10.016155088853109
 30
0.0
  0
POINT
  8
DEFPOINTS
  6
CONTINUOUS
 62
    30
 10
438.87747230986042
 20
-10.016155088853109
 30
0.0
  0
LINE
  8
SIZE
  6
CONTINUOUS
 62
    30
 10
322.6119875671061
 20
-10.016155088853109
 30
0.0
 11
458.87747230986042
 21
-10.016155088853109
 31
0.0
  0
LINE
  8
SIZE
  6
CONTINUOUS
 62
    30
 10
312.59583247825321
 20
-20.032310177706218
 30
0.0
 11
458.87747230986042
 21
-20.032310177706339
 31
0.0
  0
LINE
  8
SIZE
  6
CONTINUOUS
 62
    30
 10
438.87747230986042
 20
1.983844911146889
 30
0.0
 11
438.87747230986042
 21
13.983844911146891
 31
0.0
  0
LINE
  8
SIZE
  6
CONTINUOUS
 62
    30
 10
438.87747230986042
 20
-32.032310177706343
 30
0.0
 11
438.87747230986042
 21
-257.26694449511132
 31
0.0
  0
LINE
  8
SIZE
  6
CONTINUOUS
 62
    30
 10
438.87747230986042
 20
-10.016155088853109
 30
0.0
 11
438.87747230986042
 21
-20.032310177706339
 31
0.0
  0
CIRCLE
  8
SIZE
  6
CONTINUOUS
 62
    30
 10
438.87747230986042
 20
-10.016155088853109
 30
0.0
 40
6.0
  0
LINE
  8
SIZE
  6
CONTINUOUS
 62
    30
 10
438.87747230986042
 20
-10.016155088853109
 30
0.0
 11
438.87747230986042
 21
1.983844911146889
 31
0.0
  0
CIRCLE
  8
SIZE
  6
CONTINUOUS
 62
    30
 10
438.87747230986042
 20
-20.032310177706339
 30
0.0
 40
6.0
  0
LINE
  8
SIZE
  6
CONTINUOUS
 62
    30
 10
438.87747230986042
 20
-20.032310177706339
 30
0.0
 11
438.87747230986042
 21
-32.032310177706343
 31
0.0
  0
TEXT
  8
SIZE
  6
CONTINUOUS
 62
    30
 10
413.87747230986042
 20
-232.26694449511109
 30
0.0
 40
64.0
  1
10
 50
90.0
 41
0.9
 72
     1
 11
413.87747230986042
 21
-191.12408735225401
 31
0.0
  0
POINT
  8
DEFPOINTS
  6
CONTINUOUS
 62
    30
 10
302.6119875671061
 20
-10.016155088853109
 30
0.0
  0
POINT
  8
DEFPOINTS
  6
CONTINUOUS
 62
    30
 10
292.59583247825321
 20
-20.032310177706218
 30
0.0
  0
POINT
  8
DEFPOINTS
  6
CONTINUOUS
 62
    30
 10
438.87747230986042
 20
-20.032310177706339
 30
0.0
  0
LINE
  8
SIZE
  6
CONTINUOUS
 62
    30
 10
327.72022666242128
 20
0.0
 30
0.0
 11
600.4362798262091
 21
0.0
 31
0.0
  0
LINE
  8
SIZE
  6
CONTINUOUS
 62
    30
 10
313.45581583198691
 20
-84.452730188701366
 30
0.0
 11
600.4362798262091
 21
-84.45273018870148
 31
0.0
  0
LINE
  8
SIZE
  6
CONTINUOUS
 62
    30
 10
580.4362798262091
 20
-12.0
 30
0.0
 11
580.4362798262091
 21
-72.45273018870148
 31
0.0
  0
LINE
  8
SIZE
  6
CONTINUOUS
 62
    30
 10
580.4362798262091
 20
-84.45273018870148
 30
0.0
 11
580.4362798262091
 21
-272.32282483267983
 31
0.0
  0
CIRCLE
  8
SIZE
  6
CONTINUOUS
 62
    30
 10
580.4362798262091
 20
0.0
 30
0.0
 40
6.0
  0
LINE
  8
SIZE
  6
CONTINUOUS
 62
    30
 10
580.4362798262091
 20
0.0
 30
0.0
 11
580.4362798262091
 21
-12.0
 31
0.0
  0
CIRCLE
  8
SIZE
  6
CONTINUOUS
 62
    30
 10
580.4362798262091
 20
-84.45273018870148
 30
0.0
 40
6.0
  0
LINE
  8
SIZE
  6
CONTINUOUS
 62
    30
 10
580.4362798262091
 20
-84.45273018870148
 30
0.0
 11
580.4362798262091
 21
-72.45273018870148
 31
0.0
  0
TEXT
  8
SIZE
  6
CONTINUOUS
 62
    30
 10
555.4362798262091
 20
-247.32282483267969
 30
0.0
 40
64.0
  1
84
 50
90.0
 41
0.9
 72
     1
 11
555.4362798262091
 21
-199.32282483267969
 31
0.0
  0
POINT
  8
DEFPOINTS
  6
CONTINUOUS
 62
    30
 10
307.72022666242128
 20
0.0
 30
0.0
  0
POINT
  8
DEFPOINTS
  6
CONTINUOUS
 62
    30
 10
293.45581583198691
 20
-84.452730188701366
 30
0.0
  0
POINT
  8
DEFPOINTS
  6
CONTINUOUS
 62
    30
 10
580.4362798262091
 20
-84.45273018870148
 30
0.0
  0
TEXT
  8
NOTE
  6
CONTINUOUS
 62
     4
 10
-628.01975295431339
 20
89.566182407517999
 30
0.0
 40
64.0
  1
4-φ14
 41
0.9
  0
LINE
  8
SIZE
  6
CONTINUOUS
 62
    30
 10
-328.01960185989122
 20
0.0
 30
0.0
 11
-384.59666777554742
 21
0.0
 31
0.0
  0
LINE
  8
SIZE
  6
CONTINUOUS
 62
    30
 10
-20.00000000001819
 20
-295.09532458984017
 30
0.0
 11
-384.59666777554742
 21
-295.09532458983972
 31
0.0
  0
LINE
  8
SIZE
  6
CONTINUOUS
 62
    30
 10
-364.59666777554742
 20
-12.0
 30
0.0
 11
-364.59666777554742
 21
-283.09532458984017
 31
0.0
  0
CIRCLE
  8
SIZE
  6
CONTINUOUS
 62
    30
 10
-364.59666777554742
 20
0.0
 30
0.0
 40
6.0
  0
LINE
  8
SIZE
  6
CONTINUOUS
 62
    30
 10
-364.59666777554742
 20
0.0
 30
0.0
 11
-364.59666777554742
 21
-12.0
 31
0.0
  0
CIRCLE
  8
SIZE
  6
CONTINUOUS
 62
    30
 10
-364.59666777554742
 20
-295.09532458984017
 30
0.0
 40
6.0
  0
LINE
  8
SIZE
  6
CONTINUOUS
 62
    30
 10
-364.59666777554742
 20
-295.09532458984017
 30
0.0
 11
-364.59666777554742
 21
-283.09532458984017
 31
0.0
  0
TEXT
  8
SIZE
  6
CONTINUOUS
 62
    30
 10
-389.59666777554742
 20
-221.60480515206291
 30
0.0
 40
64.0
  1
295
 50
90.0
 41
0.9
 72
     1
 11
-389.59666777554742
 21
-147.54766229492009
 31
0.0
  0
POINT
  8
DEFPOINTS
  6
CONTINUOUS
 62
    30
 10
-308.01960185989122
 20
0.0
 30
0.0
  0
POINT
  8
DEFPOINTS
  6
CONTINUOUS
 62
    30
 10
-0.0000000000181899
 20
-295.09532458984017
 30
0.0
  0
POINT
  8
DEFPOINTS
  6
CONTINUOUS
 62
    30
 10
-364.59666777554742
 20
-295.09532458984017
 30
0.0
  0
LINE
  8
NOTE
  6
CONTINUOUS
 62
     4
 10
-281.22969256213401
 20
-55.428046801112259
 30
0.0
 11
-281.22969256213401
 21
16.035252376258541
 31
0.0
  0
LINE
  8
NOTE
  6
CONTINUOUS
 62
     4
 10
279.67499241363288
 20
-55.428046801112259
 30
0.0
 11
279.67499241363288
 21
16.035252376258541
 31
0.0
  0
LINE
  8
DETAIL
  6
CONTINUOUS
 62
     4
 10
-283.93444707329581
 20
5.4966390564275116
 30
0.0
 11
-281.1710484336636
 21
-0.0664830210105265
 31
0.0
  0
LINE
  8
DETAIL
  6
CONTINUOUS
 62
     4
 10
-281.1710484336636
 20
-0.0664830210105265
 30
0.0
 11
-286.34578807309981
 21
3.3696149045513271
 31
0.0
  0
LINE
  8
DETAIL
  6
CONTINUOUS
 62
     4
 10
-281.1710484336636
 20
-0.0664830210105265
 30
0.0
 11
-289.10918671273163
 21
8.9327369819893647
 31
0.0
  0
LINE
  8
NOTE
  6
CONTINUOUS
 62
     4
 10
-289.10918671273163
 20
8.9327369819893647
 30
0.0
 11
-337.27464131316492
 21
63.536411956604979
 31
0.0
  0
LINE
  8
NOTE
  6
CONTINUOUS
 62
     4
 10
-337.27464131316492
 20
63.536411956604979
 30
0.0
 11
-635.14320355819927
 21
63.697866805785338
 31
0.0
  0
LINE
  8
NOTE
  6
CONTINUOUS
 62
     4
 10
-281.22969256213452
 20
-46.485854787462358
 30
0.0
 11
-281.22969256213452
 21
24.796828318904549
 31
0.0
  0
LINE
  8
NOTE
  6
CONTINUOUS
 62
     4
 10
279.67499241363288
 20
-46.485854787462358
 30
0.0
 11
279.67499241363288
 21
24.79682831890409
 31
0.0
  0
LINE
  8
OUTLINE
  6
CONTINUOUS
 62
     3
 10
261.32961628886278
 20
-158.25525040387731
 30
0.0
 11
261.32808558300297
 21
-158.84081308026299
 31
0.0
  0
LINE
  8
OUTLINE
  6
CONTINUOUS
 62
     3
 10
261.32808558300297
 20
-158.84081308026299
 30
0.0
 11
261.32513383598513
 21
-159.4263727723486
 31
0.0
  0
LINE
  8
OUTLINE
  6
CONTINUOUS
 62
     3
 10
261.32513383598513
 20
-159.4263727723486
 30
0.0
 11
261.32513383598513
 21
-159.4263727723486
 31
0.0
  0
LINE
  8
OUTLINE
  6
CONTINUOUS
 62
     3
 10
261.32513383598513
 20
-159.4263727723486
 30
0.0
 11
261.31964021544451
 21
-160.01192552267679
 31
0.0
  0
LINE
  8
OUTLINE
  6
CONTINUOUS
 62
     3
 10
234.05738014414709
 20
-240.7023239902511
 30
0.0
 11
234.05738014414709
 21
-240.7023239902511
 31
0.0
  0
LINE
  8
OUTLINE
  6
CONTINUOUS
 62
     3
 10
233.72806468840781
 20
-241.45007859725621
 30
0.0
 11
233.72806468840781
 21
-241.45007859725621
 31
0.0
  0
LINE
  8
OUTLINE
  6
CONTINUOUS
 62
     3
 10
233.0907020503773
 20
-242.19098884246031
 30
0.0
 11
233.0907020503773
 21
-242.19098884246031
 31
0.0
  0
LINE
  8
OUTLINE
  6
CONTINUOUS
 62
     3
 10
301.73006317270762
 20
-10.04940659837848
 30
0.0
 11
301.73006317270762
 21
-10.04940659837848
 31
0.0
  0
LINE
  8
OUTLINE
  6
CONTINUOUS
 62
     3
 10
-297.010892596536
 20
-13.221324717285601
 30
0.0
 11
-297.11323699116758
 21
-13.21979328931093
 31
0.0
  0
LINE
  8
OUTLINE
  6
CONTINUOUS
 62
     3
 10
236.52850041817891
 20
-237.60274227676521
 30
0.0
 11
236.52945016221449
 21
-237.62685115178201
 31
0.0
  0
LINE
  8
OUTLINE
  6
CONTINUOUS
 62
     3
 10
236.52945016221449
 20
-237.62685115178201
 30
0.0
 11
236.53029742961431
 21
-237.65114162333569
 31
0.0
  0
LINE
  8
OUTLINE
  6
CONTINUOUS
 62
     3
 10
236.53029742961431
 20
-237.65114162333569
 30
0.0
 11
236.53029742961431
 21
-237.65114162333569
 31
0.0
  0
LINE
  8
OUTLINE
  6
CONTINUOUS
 62
     3
 10
236.53029742961431
 20
-237.65114162333569
 30
0.0
 11
236.53096694465941
 21
-237.6756177506513
 31
0.0
  0
LINE
  8
OUTLINE
  6
CONTINUOUS
 62
     3
 10
236.53096694465941
 20
-237.6756177506513
 30
0.0
 11
236.5314922352961
 21
-237.69957344371201
 31
0.0
  0
LINE
  8
OUTLINE
  6
CONTINUOUS
 62
     3
 10
236.5314922352961
 20
-237.69957344371201
 30
0.0
 11
236.5314922352961
 21
-237.69957344371201
 31
0.0
  0
LINE
  8
OUTLINE
  6
CONTINUOUS
 62
     3
 10
236.5314922352961
 20
-237.69957344371201
 30
0.0
 11
236.53189922659581
 21
-237.72283070999879
 31
0.0
  0
LINE
  8
OUTLINE
  6
CONTINUOUS
 62
     3
 10
236.53189922659581
 20
-237.72283070999879
 30
0.0
 11
236.53207462845629
 21
-237.7480340962328
 31
0.0
  0
LINE
  8
OUTLINE
  6
CONTINUOUS
 62
     3
 10
236.53207462845629
 20
-237.7480340962328
 30
0.0
 11
236.53207462845629
 21
-237.7480340962328
 31
0.0
  0
LINE
  8
OUTLINE
  6
CONTINUOUS
 62
     3
 10
236.53207462845629
 20
-237.7480340962328
 30
0.0
 11
236.53198236123731
 21
-237.7758887820161
 31
0.0
  0
LINE
  8
OUTLINE
  6
CONTINUOUS
 62
     3
 10
236.53198236123731
 20
-237.7758887820161
 30
0.0
 11
236.53203440232599
 21
-237.7965199392373
 31
0.0
  0
LINE
  8
OUTLINE
  6
CONTINUOUS
 62
     3
 10
236.53203440232599
 20
-237.7965199392373
 30
0.0
 11
236.53203440232599
 21
-237.7965199392373
 31
0.0
  0
LINE
  8
OUTLINE
  6
CONTINUOUS
 62
     3
 10
236.53203440232599
 20
-237.7965199392373
 30
0.0
 11
236.53234149013059
 21
-237.80728211076041
 31
0.0
  0
LINE
  8
OUTLINE
  6
CONTINUOUS
 62
     3
 10
236.53234149013059
 20
-237.80728211076041
 30
0.0
 11
236.53136135013679
 21
-237.84502733106521
 31
0.0
  0
LINE
  8
OUTLINE
  6
CONTINUOUS
 62
     3
 10
236.53136135013679
 20
-237.84502733106521
 30
0.0
 11
236.53136135013679
 21
-237.84502733106521
 31
0.0
  0
LINE
  8
OUTLINE
  6
CONTINUOUS
 62
     3
 10
236.53136135013679
 20
-237.84502733106521
 30
0.0
 11
236.52744896187761
 21
-237.9408694692257
 31
0.0
  0
LINE
  8
OUTLINE
  6
CONTINUOUS
 62
     3
 10
236.52744896187761
 20
-237.9408694692257
 30
0.0
 11
236.5202013340087
 21
-238.063472241082
 31
0.0
  0
LINE
  8
OUTLINE
  6
CONTINUOUS
 62
     3
 10
236.5202013340087
 20
-238.063472241082
 30
0.0
 11
236.5202013340087
 21
-238.063472241082
 31
0.0
  0
LINE
  8
OUTLINE
  6
CONTINUOUS
 62
     3
 10
236.5202013340087
 20
-238.063472241082
 30
0.0
 11
236.50948401152041
 21
-238.1758479828186
 31
0.0
  0
LINE
  8
OUTLINE
  6
CONTINUOUS
 62
     3
 10
236.50948401152041
 20
-238.1758479828186
 30
0.0
 11
236.49499465560919
 21
-238.2808536652208
 31
0.0
  0
LINE
  8
OUTLINE
  6
CONTINUOUS
 62
     3
 10
236.49499465560919
 20
-238.2808536652208
 30
0.0
 11
236.49499465560919
 21
-238.2808536652208
 31
0.0
  0
LINE
  8
OUTLINE
  6
CONTINUOUS
 62
     3
 10
236.49499465560919
 20
-238.2808536652208
 30
0.0
 11
236.47656574685939
 21
-238.3882721110883
 31
0.0
  0
LINE
  8
OUTLINE
  6
CONTINUOUS
 62
     3
 10
236.47656574685939
 20
-238.3882721110883
 30
0.0
 11
236.45473692720341
 21
-238.4957449166692
 31
0.0
  0
LINE
  8
OUTLINE
  6
CONTINUOUS
 62
     3
 10
236.45473692720341
 20
-238.4957449166692
 30
0.0
 11
236.45473692720341
 21
-238.4957449166692
 31
0.0
  0
LINE
  8
OUTLINE
  6
CONTINUOUS
 62
     3
 10
236.45473692720341
 20
-238.4957449166692
 30
0.0
 11
236.42955943851089
 21
-238.60005843947431
 31
0.0
  0
LINE
  8
OUTLINE
  6
CONTINUOUS
 62
     3
 10
236.42955943851089
 20
-238.60005843947431
 30
0.0
 11
236.39842376105639
 21
-238.70671930861599
 31
0.0
  0
LINE
  8
OUTLINE
  6
CONTINUOUS
 62
     3
 10
236.39842376105639
 20
-238.70671930861599
 30
0.0
 11
236.39842376105639
 21
-238.70671930861599
 31
0.0
  0
LINE
  8
OUTLINE
  6
CONTINUOUS
 62
     3
 10
236.39842376105639
 20
-238.70671930861599
 30
0.0
 11
236.36053915597509
 21
-238.81772925614371
 31
0.0
  0
LINE
  8
OUTLINE
  6
CONTINUOUS
 62
     3
 10
236.36053915597509
 20
-238.81772925614371
 30
0.0
 11
236.325050769434
 21
-238.91235015424971
 31
0.0
  0
LINE
  8
OUTLINE
  6
CONTINUOUS
 62
     3
 10
236.325050769434
 20
-238.91235015424971
 30
0.0
 11
236.325050769434
 21
-238.91235015424971
 31
0.0
  0
LINE
  8
OUTLINE
  6
CONTINUOUS
 62
     3
 10
236.325050769434
 20
-238.91235015424971
 30
0.0
 11
236.30003930925051
 21
-238.97303238201081
 31
0.0
  0
LINE
  8
OUTLINE
  6
CONTINUOUS
 62
     3
 10
236.30003930925051
 20
-238.97303238201081
 30
0.0
 11
236.27939184481559
 21
-239.01772020590201
 31
0.0
  0
LINE
  8
OUTLINE
  6
CONTINUOUS
 62
     3
 10
236.27939184481559
 20
-239.01772020590201
 30
0.0
 11
236.27939184481559
 21
-239.01772020590201
 31
0.0
  0
LINE
  8
OUTLINE
  6
CONTINUOUS
 62
     3
 10
236.27939184481559
 20
-239.01772020590201
 30
0.0
 11
236.25549034971769
 21
-239.06755648255941
 31
0.0
  0
LINE
  8
OUTLINE
  6
CONTINUOUS
 62
     3
 10
236.25549034971769
 20
-239.06755648255941
 30
0.0
 11
236.22889005277031
 21
-239.12098454186611
 31
0.0
  0
LINE
  8
OUTLINE
  6
CONTINUOUS
 62
     3
 10
236.22889005277031
 20
-239.12098454186611
 30
0.0
 11
236.22889005277031
 21
-239.12098454186611
 31
0.0
  0
LINE
  8
OUTLINE
  6
CONTINUOUS
 62
     3
 10
236.22889005277031
 20
-239.12098454186611
 30
0.0
 11
236.20165174219451
 21
-239.17229971735529
 31
0.0
  0
LINE
  8
OUTLINE
  6
CONTINUOUS
 62
     3
 10
236.20165174219451
 20
-239.17229971735529
 30
0.0
 11
236.17368518861639
 21
-239.2219048839095
 31
0.0
  0
LINE
  8
OUTLINE
  6
CONTINUOUS
 62
     3
 10
236.17368518861639
 20
-239.2219048839095
 30
0.0
 11
236.17368518861639
 21
-239.2219048839095
 31
0.0
  0
LINE
  8
OUTLINE
  6
CONTINUOUS
 62
     3
 10
236.17368518861639
 20
-239.2219048839095
 30
0.0
 11
236.1444701120524
 21
-239.27129714208681
 31
0.0
  0
LINE
  8
OUTLINE
  6
CONTINUOUS
 62
     3
 10
236.1444701120524
 20
-239.27129714208681
 30
0.0
 11
236.11391704767189
 21
-239.32024295380009
 31
0.0
  0
LINE
  8
OUTLINE
  6
CONTINUOUS
 62
     3
 10
236.11391704767189
 20
-239.32024295380009
 30
0.0
 11
236.11391704767189
 21
-239.32024295380009
 31
0.0
  0
LINE
  8
OUTLINE
  6
CONTINUOUS
 62
     3
 10
236.11391704767189
 20
-239.32024295380009
 30
0.0
 11
236.08215117367831
 21
-239.36827987460671
 31
0.0
  0
LINE
  8
OUTLINE
  6
CONTINUOUS
 62
     3
 10
236.08215117367831
 20
-239.36827987460671
 30
0.0
 11
236.04972542525431
 21
-239.41576047330611
 31
0.0
  0
LINE
  8
OUTLINE
  6
CONTINUOUS
 62
     3
 10
238.28479728619891
 20
-235.25518775614941
 30
0.0
 11
238.28479728619891
 21
-235.25518775614941
 31
0.0
  0
LINE
  8
OUTLINE
  6
CONTINUOUS
 62
     3
 10
238.28479728619891
 20
-235.25518775614941
 30
0.0
 11
238.28489169716181
 21
-235.26934873809131
 31
0.0
  0
LINE
  8
OUTLINE
  6
CONTINUOUS
 62
     3
 10
238.28489169716181
 20
-235.26934873809131
 30
0.0
 11
238.2849540693899
 21
-235.28291849387881
 31
0.0
  0
LINE
  8
OUTLINE
  6
CONTINUOUS
 62
     3
 10
238.2849540693899
 20
-235.28291849387881
 30
0.0
 11
238.2849540693899
 21
-235.28291849387881
 31
0.0
  0
LINE
  8
OUTLINE
  6
CONTINUOUS
 62
     3
 10
238.2849540693899
 20
-235.28291849387881
 30
0.0
 11
238.28499883482229
 21
-235.29569878941331
 31
0.0
  0
LINE
  8
OUTLINE
  6
CONTINUOUS
 62
     3
 10
238.28499883482229
 20
-235.29569878941331
 30
0.0
 11
238.28490613848521
 21
-235.31065713764241
 31
0.0
  0
LINE
  8
OUTLINE
  6
CONTINUOUS
 62
     3
 10
238.28490613848521
 20
-235.31065713764241
 30
0.0
 11
238.28490613848521
 21
-235.31065713764241
 31
0.0
  0
LINE
  8
OUTLINE
  6
CONTINUOUS
 62
     3
 10
238.28490613848521
 20
-235.31065713764241
 30
0.0
 11
238.28464216977761
 21
-235.32858489009769
 31
0.0
  0
LINE
  8
OUTLINE
  6
CONTINUOUS
 62
     3
 10
238.28464216977761
 20
-235.32858489009769
 30
0.0
 11
238.28465158250691
 21
-235.33840300560379
 31
0.0
  0
LINE
  8
OUTLINE
  6
CONTINUOUS
 62
     3
 10
238.28465158250691
 20
-235.33840300560379
 30
0.0
 11
238.28465158250691
 21
-235.33840300560379
 31
0.0
  0
LINE
  8
OUTLINE
  6
CONTINUOUS
 62
     3
 10
238.28465158250691
 20
-235.33840300560379
 30
0.0
 11
238.2850537539031
 21
-235.33714380075381
 31
0.0
  0
LINE
  8
OUTLINE
  6
CONTINUOUS
 62
     3
 10
238.2850537539031
 20
-235.33714380075381
 30
0.0
 11
238.28418849047571
 21
-235.3661554159261
 31
0.0
  0
LINE
  8
OUTLINE
  6
CONTINUOUS
 62
     3
 10
238.28418849047571
 20
-235.3661554159261
 30
0.0
 11
238.28418849047571
 21
-235.3661554159261
 31
0.0
  0
LINE
  8
OUTLINE
  6
CONTINUOUS
 62
     3
 10
238.28418849047571
 20
-235.3661554159261
 30
0.0
 11
238.28029985106761
 21
-235.46035255174459
 31
0.0
  0
LINE
  8
OUTLINE
  6
CONTINUOUS
 62
     3
 10
238.28029985106761
 20
-235.46035255174459
 30
0.0
 11
238.27302847457739
 21
-235.5846003260308
 31
0.0
  0
LINE
  8
OUTLINE
  6
CONTINUOUS
 62
     3
 10
238.27302847457739
 20
-235.5846003260308
 30
0.0
 11
238.27302847457739
 21
-235.5846003260308
 31
0.0
  0
LINE
  8
OUTLINE
  6
CONTINUOUS
 62
     3
 10
238.27302847457739
 20
-235.5846003260308
 30
0.0
 11
238.26230478870249
 21
-235.69741684488031
 31
0.0
  0
LINE
  8
OUTLINE
  6
CONTINUOUS
 62
     3
 10
238.26230478870249
 20
-235.69741684488031
 30
0.0
 11
238.24782179627601
 21
-235.80198175027871
 31
0.0
  0
LINE
  8
OUTLINE
  6
CONTINUOUS
 62
     3
 10
238.24782179627601
 20
-235.80198175027871
 30
0.0
 11
238.24782179627601
 21
-235.80198175027871
 31
0.0
  0
LINE
  8
OUTLINE
  6
CONTINUOUS
 62
     3
 10
238.24782179627601
 20
-235.80198175027871
 30
0.0
 11
238.22939459261971
 21
-235.90928209034669
 31
0.0
  0
LINE
  8
OUTLINE
  6
CONTINUOUS
 62
     3
 10
238.22939459261971
 20
-235.90928209034669
 30
0.0
 11
238.20756406787751
 21
-236.01687300184199
 31
0.0
  0
LINE
  8
OUTLINE
  6
CONTINUOUS
 62
     3
 10
238.20756406787751
 20
-236.01687300184199
 30
0.0
 11
238.20756406787751
 21
-236.01687300184199
 31
0.0
  0
LINE
  8
OUTLINE
  6
CONTINUOUS
 62
     3
 10
238.20756406787751
 20
-236.01687300184199
 30
0.0
 11
238.18238612229209
 21
-236.12121817107121
 31
0.0
  0
LINE
  8
OUTLINE
  6
CONTINUOUS
 62
     3
 10
238.18238612229209
 20
-236.12121817107121
 30
0.0
 11
238.15125090168729
 21
-236.2278473938932
 31
0.0
  0
LINE
  8
OUTLINE
  6
CONTINUOUS
 62
     3
 10
238.15125090168729
 20
-236.2278473938932
 30
0.0
 11
238.15125090168729
 21
-236.2278473938932
 31
0.0
  0
LINE
  8
OUTLINE
  6
CONTINUOUS
 62
     3
 10
238.15125090168729
 20
-236.2278473938932
 30
0.0
 11
238.11336641899581
 21
-236.33884886184379
 31
0.0
  0
LINE
  8
OUTLINE
  6
CONTINUOUS
 62
     3
 10
238.11336641899581
 20
-236.33884886184379
 30
0.0
 11
238.07787791001121
 21
-236.43347823960571
 31
0.0
  0
LINE
  8
OUTLINE
  6
CONTINUOUS
 62
     3
 10
238.07787791001121
 20
-236.43347823960571
 30
0.0
 11
238.07787791001121
 21
-236.43347823960571
 31
0.0
  0
LINE
  8
OUTLINE
  6
CONTINUOUS
 62
     3
 10
238.07787791001121
 20
-236.43347823960571
 30
0.0
 11
238.05286641701451
 21
-236.4941627395028
 31
0.0
  0
LINE
  8
OUTLINE
  6
CONTINUOUS
 62
     3
 10
238.05286641701451
 20
-236.4941627395028
 30
0.0
 11
238.03221898537751
 21
-236.53884829126909
 31
0.0
  0
LINE
  8
OUTLINE
  6
CONTINUOUS
 62
     3
 10
238.03221898537751
 20
-236.53884829126909
 30
0.0
 11
238.03221898537751
 21
-236.53884829126909
 31
0.0
  0
LINE
  8
OUTLINE
  6
CONTINUOUS
 62
     3
 10
238.03221898537751
 20
-236.53884829126909
 30
0.0
 11
238.0083174990651
 21
-236.58868395904619
 31
0.0
  0
LINE
  8
OUTLINE
  6
CONTINUOUS
 62
     3
 10
238.0083174990651
 20
-236.58868395904619
 30
0.0
 11
237.9817171933237
 21
-236.64211262719829
 31
0.0
  0
LINE
  8
OUTLINE
  6
CONTINUOUS
 62
     3
 10
237.9817171933237
 20
-236.64211262719829
 30
0.0
 11
237.9817171933237
 21
-236.64211262719829
 31
0.0
  0
LINE
  8
OUTLINE
  6
CONTINUOUS
 62
     3
 10
237.9817171933237
 20
-236.64211262719829
 30
0.0
 11
237.95447888038709
 21
-236.69342796599679
 31
0.0
  0
LINE
  8
OUTLINE
  6
CONTINUOUS
 62
     3
 10
237.95447888038709
 20
-236.69342796599679
 30
0.0
 11
237.92651232916629
 21
-236.74303296912649
 31
0.0
  0
LINE
  8
OUTLINE
  6
CONTINUOUS
 62
     3
 10
237.92651232916629
 20
-236.74303296912649
 30
0.0
 11
237.92651232916629
 21
-236.74303296912649
 31
0.0
  0
LINE
  8
OUTLINE
  6
CONTINUOUS
 62
     3
 10
237.92651232916629
 20
-236.74303296912649
 30
0.0
 11
237.89729725324489
 21
-236.79242518265681
 31
0.0
  0
LINE
  8
OUTLINE
  6
CONTINUOUS
 62
     3
 10
237.89729725324489
 20
-236.79242518265681
 30
0.0
 11
237.86674418822079
 21
-236.84137103878751
 31
0.0
  0
LINE
  8
OUTLINE
  6
CONTINUOUS
 62
     3
 10
237.86674418822079
 20
-236.84137103878751
 30
0.0
 11
237.86674418822079
 21
-236.84137103878751
 31
0.0
  0
LINE
  8
OUTLINE
  6
CONTINUOUS
 62
     3
 10
237.86674418822079
 20
-236.84137103878751
 30
0.0
 11
237.8349783140126
 21
-236.88940797426761
 31
0.0
  0
LINE
  8
OUTLINE
  6
CONTINUOUS
 62
     3
 10
237.8349783140126
 20
-236.88940797426761
 30
0.0
 11
237.80255256580381
 21
-236.93688855791399
 31
0.0
  0
LINE
  8
OUTLINE
  6
CONTINUOUS
 62
     3
 10
236.04972542525431
 20
-239.41576047330611
 30
0.0
 11
236.02347740408891
 21
-239.452031661907
 31
0.0
  0
LINE
  8
OUTLINE
  6
CONTINUOUS
 62
     3
 10
236.02347740408891
 20
-239.452031661907
 30
0.0
 11
235.99672873406519
 21
-239.48808233052279
 31
0.0
  0
LINE
  8
OUTLINE
  6
CONTINUOUS
 62
     3
 10
235.99672873406519
 20
-239.48808233052279
 30
0.0
 11
235.99672873406519
 21
-239.48808233052279
 31
0.0
  0
LINE
  8
OUTLINE
  6
CONTINUOUS
 62
     3
 10
235.99672873406519
 20
-239.48808233052279
 30
0.0
 11
235.96916255161091
 21
-239.5236662216295
 31
0.0
  0
LINE
  8
OUTLINE
  6
CONTINUOUS
 62
     3
 10
235.96916255161091
 20
-239.5236662216295
 30
0.0
 11
235.94119713429669
 21
-239.55843412754791
 31
0.0
  0
LINE
  8
OUTLINE
  6
CONTINUOUS
 62
     3
 10
235.94119713429669
 20
-239.55843412754791
 30
0.0
 11
235.94119713429669
 21
-239.55843412754791
 31
0.0
  0
LINE
  8
OUTLINE
  6
CONTINUOUS
 62
     3
 10
235.94119713429669
 20
-239.55843412754791
 30
0.0
 11
235.91302453539831
 21
-239.59234621812141
 31
0.0
  0
LINE
  8
OUTLINE
  6
CONTINUOUS
 62
     3
 10
235.91302453539831
 20
-239.59234621812141
 30
0.0
 11
235.88319676987359
 21
-239.6267031234452
 31
0.0
  0
LINE
  8
OUTLINE
  6
CONTINUOUS
 62
     3
 10
235.88319676987359
 20
-239.6267031234452
 30
0.0
 11
235.88319676987359
 21
-239.6267031234452
 31
0.0
  0
LINE
  8
OUTLINE
  6
CONTINUOUS
 62
     3
 10
235.88319676987359
 20
-239.6267031234452
 30
0.0
 11
235.85131209613311
 21
-239.66182586596611
 31
0.0
  0
LINE
  8
OUTLINE
  6
CONTINUOUS
 62
     3
 10
235.85131209613311
 20
-239.66182586596611
 30
0.0
 11
235.8227937847216
 21
-239.69277657727719
 31
0.0
  0
LINE
  8
OUTLINE
  6
CONTINUOUS
 62
     3
 10
235.8227937847216
 20
-239.69277657727719
 30
0.0
 11
235.8227937847216
 21
-239.69277657727719
 31
0.0
  0
LINE
  8
OUTLINE
  6
CONTINUOUS
 62
     3
 10
235.8227937847216
 20
-239.69277657727719
 30
0.0
 11
235.79910635666491
 21
-239.71822644204971
 31
0.0
  0
LINE
  8
OUTLINE
  6
CONTINUOUS
 62
     3
 10
235.79910635666491
 20
-239.71822644204971
 30
0.0
 11
235.76005432276611
 21
-239.75654174810711
 31
0.0
  0
LINE
  8
OUTLINE
  6
CONTINUOUS
 62
     3
 10
235.76005432276611
 20
-239.75654174810711
 30
0.0
 11
235.76005432276611
 21
-239.75654174810711
 31
0.0
  0
LINE
  8
OUTLINE
  6
CONTINUOUS
 62
     3
 10
235.76005432276611
 20
-239.75654174810711
 30
0.0
 11
235.68832422894559
 21
-239.8229405685872
 31
0.0
  0
LINE
  8
OUTLINE
  6
CONTINUOUS
 62
     3
 10
235.68832422894559
 20
-239.8229405685872
 30
0.0
 11
235.59979077180759
 21
-239.9003530147188
 31
0.0
  0
LINE
  8
OUTLINE
  6
CONTINUOUS
 62
     3
 10
235.59979077180759
 20
-239.9003530147188
 30
0.0
 11
235.59979077180759
 21
-239.9003530147188
 31
0.0
  0
LINE
  8
OUTLINE
  6
CONTINUOUS
 62
     3
 10
235.59979077180759
 20
-239.9003530147188
 30
0.0
 11
235.51350699916861
 21
-239.96897951425919
 31
0.0
  0
LINE
  8
OUTLINE
  6
CONTINUOUS
 62
     3
 10
235.51350699916861
 20
-239.96897951425919
 30
0.0
 11
235.42805121300469
 21
-240.03038972297591
 31
0.0
  0
LINE
  8
OUTLINE
  6
CONTINUOUS
 62
     3
 10
235.42805121300469
 20
-240.03038972297591
 30
0.0
 11
235.42805121300469
 21
-240.03038972297591
 31
0.0
  0
LINE
  8
OUTLINE
  6
CONTINUOUS
 62
     3
 10
235.42805121300469
 20
-240.03038972297591
 30
0.0
 11
235.33851833405359
 21
-240.08996162777899
 31
0.0
  0
LINE
  8
OUTLINE
  6
CONTINUOUS
 62
     3
 10
235.33851833405359
 20
-240.08996162777899
 30
0.0
 11
235.2465445039326
 21
-240.14693731212441
 31
0.0
  0
LINE
  8
OUTLINE
  6
CONTINUOUS
 62
     3
 10
235.2465445039326
 20
-240.14693731212441
 30
0.0
 11
235.2465445039326
 21
-240.14693731212441
 31
0.0
  0
LINE
  8
OUTLINE
  6
CONTINUOUS
 62
     3
 10
235.2465445039326
 20
-240.14693731212441
 30
0.0
 11
235.15397863506061
 21
-240.1998184800544
 31
0.0
  0
LINE
  8
OUTLINE
  6
CONTINUOUS
 62
     3
 10
235.15397863506061
 20
-240.1998184800544
 30
0.0
 11
235.05697950217001
 21
-240.2502812214112
 31
0.0
  0
LINE
  8
OUTLINE
  6
CONTINUOUS
 62
     3
 10
235.05697950217001
 20
-240.2502812214112
 30
0.0
 11
235.05697950217001
 21
-240.2502812214112
 31
0.0
  0
LINE
  8
OUTLINE
  6
CONTINUOUS
 62
     3
 10
235.05697950217001
 20
-240.2502812214112
 30
0.0
 11
234.9543381780388
 21
-240.2991548125498
 31
0.0
  0
LINE
  8
OUTLINE
  6
CONTINUOUS
 62
     3
 10
234.9543381780388
 20
-240.2991548125498
 30
0.0
 11
234.86106506529339
 21
-240.34070689008249
 31
0.0
  0
LINE
  8
OUTLINE
  6
CONTINUOUS
 62
     3
 10
234.86106506529339
 20
-240.34070689008249
 30
0.0
 11
234.86106506529339
 21
-240.34070689008249
 31
0.0
  0
LINE
  8
OUTLINE
  6
CONTINUOUS
 62
     3
 10
234.86106506529339
 20
-240.34070689008249
 30
0.0
 11
234.78999438287849
 21
-240.37020572704381
 31
0.0
  0
LINE
  8
OUTLINE
  6
CONTINUOUS
 62
     3
 10
234.78999438287849
 20
-240.37020572704381
 30
0.0
 11
234.72903628516701
 21
-240.39348378190371
 31
0.0
  0
LINE
  8
OUTLINE
  6
CONTINUOUS
 62
     3
 10
234.72903628516701
 20
-240.39348378190371
 30
0.0
 11
234.72903628516701
 21
-240.39348378190371
 31
0.0
  0
LINE
  8
OUTLINE
  6
CONTINUOUS
 62
     3
 10
234.72903628516701
 20
-240.39348378190371
 30
0.0
 11
234.6637462980494
 21
-240.41722770091559
 31
0.0
  0
LINE
  8
OUTLINE
  6
CONTINUOUS
 62
     3
 10
234.6637462980494
 20
-240.41722770091559
 30
0.0
 11
234.5951854980697
 21
-240.44097669603289
 31
0.0
  0
LINE
  8
OUTLINE
  6
CONTINUOUS
 62
     3
 10
234.5951854980697
 20
-240.44097669603289
 30
0.0
 11
234.5951854980697
 21
-240.44097669603289
 31
0.0
  0
LINE
  8
OUTLINE
  6
CONTINUOUS
 62
     3
 10
234.5951854980697
 20
-240.44097669603289
 30
0.0
 11
234.52725530992859
 21
-240.46297156276771
 31
0.0
  0
LINE
  8
OUTLINE
  6
CONTINUOUS
 62
     3
 10
234.52725530992859
 20
-240.46297156276771
 30
0.0
 11
234.45971300031229
 21
-240.4834068651671
 31
0.0
  0
LINE
  8
OUTLINE
  6
CONTINUOUS
 62
     3
 10
234.45971300031229
 20
-240.4834068651671
 30
0.0
 11
234.45971300031229
 21
-240.4834068651671
 31
0.0
  0
LINE
  8
OUTLINE
  6
CONTINUOUS
 62
     3
 10
234.45971300031229
 20
-240.4834068651671
 30
0.0
 11
234.39154756675481
 21
-240.50279869945149
 31
0.0
  0
LINE
  8
OUTLINE
  6
CONTINUOUS
 62
     3
 10
234.39154756675481
 20
-240.50279869945149
 30
0.0
 11
234.3228190882048
 21
-240.52099552200301
 31
0.0
  0
LINE
  8
OUTLINE
  6
CONTINUOUS
 62
     3
 10
234.3228190882048
 20
-240.52099552200301
 30
0.0
 11
234.3228190882048
 21
-240.52099552200301
 31
0.0
  0
LINE
  8
OUTLINE
  6
CONTINUOUS
 62
     3
 10
234.3228190882048
 20
-240.52099552200301
 30
0.0
 11
234.25382037205429
 21
-240.53785807694791
 31
0.0
  0
LINE
  8
OUTLINE
  6
CONTINUOUS
 62
     3
 10
234.25382037205429
 20
-240.53785807694791
 30
0.0
 11
234.18470405805809
 21
-240.55396389923729
 31
0.0
  0
LINE
  8
OUTLINE
  6
CONTINUOUS
 62
     3
 10
0.0
 20
-295.07592891760908
 30
0.0
 11
-0.0193509487680785
 21
-295.07518206832782
 31
0.0
  0
LINE
  8
OUTLINE
  6
CONTINUOUS
 62
     3
 10
-0.0193509487680785
 20
-295.07518206832782
 30
0.0
 11
-0.0386822111122456
 21
-295.07444550858668
 31
0.0
  0
LINE
  8
OUTLINE
  6
CONTINUOUS
 62
     3
 10
-0.0386822111122456
 20
-295.07444550858668
 30
0.0
 11
-0.0386822111122456
 21
-295.07444550858668
 31
0.0
  0
LINE
  8
OUTLINE
  6
CONTINUOUS
 62
     3
 10
-0.0386822111122456
 20
-295.07444550858668
 30
0.0
 11
-0.0579939914282477
 21
-295.07372480996582
 31
0.0
  0
LINE
  8
OUTLINE
  6
CONTINUOUS
 62
     3
 10
-0.0579939914282477
 20
-295.07372480996582
 30
0.0
 11
-0.0773660573872803
 21
-295.07300667221
 31
0.0
  0
LINE
  8
OUTLINE
  6
CONTINUOUS
 62
     3
 10
-0.0773660573872803
 20
-295.07300667221
 30
0.0
 11
-0.0773660573872803
 21
-295.07300667221
 31
0.0
  0
LINE
  8
OUTLINE
  6
CONTINUOUS
 62
     3
 10
-0.0773660573872803
 20
-295.07300667221
 30
0.0
 11
-0.0968179932083331
 21
-295.0722780199784
 31
0.0
  0
LINE
  8
OUTLINE
  6
CONTINUOUS
 62
     3
 10
-0.0968179932083331
 20
-295.0722780199784
 30
0.0
 11
-0.1160490860288519
 21
-295.07154554942758
 31
0.0
  0
LINE
  8
OUTLINE
  6
CONTINUOUS
 62
     3
 10
-0.1160490860288519
 20
-295.07154554942758
 30
0.0
 11
-0.1160490860288519
 21
-295.07154554942758
 31
0.0
  0
LINE
  8
OUTLINE
  6
CONTINUOUS
 62
     3
 10
-0.1160490860288519
 20
-295.07154554942758
 30
0.0
 11
-0.134978954979033
 21
-295.0708058460508
 31
0.0
  0
LINE
  8
OUTLINE
  6
CONTINUOUS
 62
     3
 10
-0.134978954979033
 20
-295.0708058460508
 30
0.0
 11
-0.154728844242527
 21
-295.06999528118791
 31
0.0
  0
LINE
  8
OUTLINE
  6
CONTINUOUS
 62
     3
 10
-0.154728844242527
 20
-295.06999528118791
 30
0.0
 11
-0.154728844242527
 21
-295.06999528118791
 31
0.0
  0
LINE
  8
OUTLINE
  6
CONTINUOUS
 62
     3
 10
-0.154728844242527
 20
-295.06999528118791
 30
0.0
 11
-0.17559885348237
 21
-295.06909044391853
 31
0.0
  0
LINE
  8
OUTLINE
  6
CONTINUOUS
 62
     3
 10
-0.17559885348237
 20
-295.06909044391853
 30
0.0
 11
-0.1934028792320532
 21
-295.06828900843948
 31
0.0
  0
LINE
  8
OUTLINE
  6
CONTINUOUS
 62
     3
 10
-0.1934028792320532
 20
-295.06828900843948
 30
0.0
 11
-0.1934028792320532
 21
-295.06828900843948
 31
0.0
  0
LINE
  8
OUTLINE
  6
CONTINUOUS
 62
     3
 10
-0.1934028792320532
 20
-295.06828900843948
 30
0.0
 11
-0.2046025518038732
 21
-295.06776148859137
 31
0.0
  0
LINE
  8
OUTLINE
  6
CONTINUOUS
 62
     3
 10
-0.2046025518038732
 20
-295.06776148859137
 30
0.0
 11
-0.2127366397589867
 21
-295.06734867167199
 31
0.0
  0
LINE
  8
OUTLINE
  6
CONTINUOUS
 62
     3
 10
-0.2127366397589867
 20
-295.06734867167199
 30
0.0
 11
-0.2127366397589867
 21
-295.06734867167199
 31
0.0
  0
LINE
  8
OUTLINE
  6
CONTINUOUS
 62
     3
 10
-0.2127366397589867
 20
-295.06734867167199
 30
0.0
 11
-0.2219914099468951
 21
-295.0668585209537
 31
0.0
  0
LINE
  8
OUTLINE
  6
CONTINUOUS
 62
     3
 10
-0.2219914099468951
 20
-295.0668585209537
 30
0.0
 11
-0.2320659841211636
 21
-295.06629743014571
 31
0.0
  0
LINE
  8
OUTLINE
  6
CONTINUOUS
 62
     3
 10
-0.2320659841211636
 20
-295.06629743014571
 30
0.0
 11
-0.2320659841211636
 21
-295.06629743014571
 31
0.0
  0
LINE
  8
OUTLINE
  6
CONTINUOUS
 62
     3
 10
-0.2320659841211636
 20
-295.06629743014571
 30
0.0
 11
-0.2418382794876379
 21
-295.06570810824888
 31
0.0
  0
LINE
  8
OUTLINE
  6
CONTINUOUS
 62
     3
 10
-0.2418382794876379
 20
-295.06570810824888
 30
0.0
 11
-0.2513885401576772
 21
-295.06508009498918
 31
0.0
  0
LINE
  8
OUTLINE
  6
CONTINUOUS
 62
     3
 10
-0.2513885401576772
 20
-295.06508009498918
 30
0.0
 11
-0.2513885401576772
 21
-295.06508009498918
 31
0.0
  0
LINE
  8
OUTLINE
  6
CONTINUOUS
 62
     3
 10
-0.2513885401576772
 20
-295.06508009498918
 30
0.0
 11
-0.2610170513362391
 21
-295.06439319943883
 31
0.0
  0
LINE
  8
OUTLINE
  6
CONTINUOUS
 62
     3
 10
-0.2610170513362391
 20
-295.06439319943883
 30
0.0
 11
-0.2707019357076206
 21
-295.06364147733382
 31
0.0
  0
LINE
  8
OUTLINE
  6
CONTINUOUS
 62
     3
 10
-0.2707019357076206
 20
-295.06364147733382
 30
0.0
 11
-0.2707019357076206
 21
-295.06364147733382
 31
0.0
  0
LINE
  8
OUTLINE
  6
CONTINUOUS
 62
     3
 10
-0.2707019357076206
 20
-295.06364147733382
 30
0.0
 11
-0.2803623561203494
 21
-295.06282159173293
 31
0.0
  0
LINE
  8
OUTLINE
  6
CONTINUOUS
 62
     3
 10
-0.2803623561203494
 20
-295.06282159173293
 30
0.0
 11
-0.2900037986114512
 21
-295.06192638831038
 31
0.0
  0
LINE
  8
OUTLINE
  6
CONTINUOUS
 62
     3
 10
-0.2900037986114512
 20
-295.06192638831038
 30
0.0
 11
-0.2900037986114512
 21
-295.06192638831038
 31
0.0
  0
LINE
  8
OUTLINE
  6
CONTINUOUS
 62
     3
 10
-0.2900037986114512
 20
-295.06192638831038
 30
0.0
 11
-0.2996476940375032
 21
-295.06095122028682
 31
0.0
  0
LINE
  8
OUTLINE
  6
CONTINUOUS
 62
     3
 10
-0.2996476940375032
 20
-295.06095122028682
 30
0.0
 11
-0.3092929293461566
 21
-295.05990528844598
 31
0.0
  0
LINE
  8
OUTLINE
  6
CONTINUOUS
 62
     3
 10
-0.3092929293461566
 20
-295.05990528844598
 30
0.0
 11
-0.3092929293461566
 21
-295.05990528844598
 31
0.0
  0
LINE
  8
OUTLINE
  6
CONTINUOUS
 62
     3
 10
-0.3092929293461566
 20
-295.05990528844598
 30
0.0
 11
-0.3189343049393756
 21
-295.05880118694353
 31
0.0
  0
LINE
  8
OUTLINE
  6
CONTINUOUS
 62
     3
 10
-0.3189343049393756
 20
-295.05880118694353
 30
0.0
 11
-0.3285728189439396
 21
-295.05765123585911
 31
0.0
  0
LINE
  8
OUTLINE
  6
CONTINUOUS
 62
     3
 10
-0.3285728189439396
 20
-295.05765123585911
 30
0.0
 11
-0.3285728189439396
 21
-295.05765123585911
 31
0.0
  0
LINE
  8
OUTLINE
  6
CONTINUOUS
 62
     3
 10
-0.3285728189439396
 20
-295.05765123585911
 30
0.0
 11
-0.3382106037502126
 21
-295.05646770511368
 31
0.0
  0
LINE
  8
OUTLINE
  6
CONTINUOUS
 62
     3
 10
-0.3382106037502126
 20
-295.05646770511368
 30
0.0
 11
-0.3478481310730785
 21
-295.05526293806582
 31
0.0
  0
LINE
  8
OUTLINE
  6
CONTINUOUS
 62
     3
 10
-0.3478481310730785
 20
-295.05526293806582
 30
0.0
 11
-0.3478481310730785
 21
-295.05526293806582
 31
0.0
  0
LINE
  8
OUTLINE
  6
CONTINUOUS
 62
     3
 10
-0.3478481310730785
 20
-295.05526293806582
 30
0.0
 11
-0.3574855687020317
 21
-295.0540492915145
 31
0.0
  0
LINE
  8
OUTLINE
  6
CONTINUOUS
 62
     3
 10
-0.3574855687020317
 20
-295.0540492915145
 30
0.0
 11
-0.3671235294032158
 21
-295.05283910258157
 31
0.0
  0
LINE
  8
OUTLINE
  6
CONTINUOUS
 62
     3
 10
-0.3671235294032158
 20
-295.05283910258157
 30
0.0
 11
-0.3671235294032158
 21
-295.05283910258157
 31
0.0
  0
LINE
  8
OUTLINE
  6
CONTINUOUS
 62
     3
 10
-0.3671235294032158
 20
-295.05283910258157
 30
0.0
 11
-0.3767627073798394
 21
-295.05164470478599
 31
0.0
  0
LINE
  8
OUTLINE
  6
CONTINUOUS
 62
     3
 10
-0.3767627073798394
 20
-295.05164470478599
 30
0.0
 11
-0.3864036776035391
 21
-295.05047843692171
 31
0.0
  0
LINE
  8
OUTLINE
  6
CONTINUOUS
 62
     3
 10
-0.3864036776035391
 20
-295.05047843692171
 30
0.0
 11
-0.3864036776035391
 21
-295.05047843692171
 31
0.0
  0
LINE
  8
OUTLINE
  6
CONTINUOUS
 62
     3
 10
-0.3864036776035391
 20
-295.05047843692171
 30
0.0
 11
-0.3960467578867792
 21
-295.0493485918123
 31
0.0
  0
LINE
  8
OUTLINE
  6
CONTINUOUS
 62
     3
 10
-0.3960467578867792
 20
-295.0493485918123
 30
0.0
 11
-0.4056913566350886
 21
-295.04824727313797
 31
0.0
  0
LINE
  8
OUTLINE
  6
CONTINUOUS
 62
     3
 10
-0.4056913566350886
 20
-295.04824727313797
 30
0.0
 11
-0.4056913566350886
 21
-295.04824727313797
 31
0.0
  0
LINE
  8
OUTLINE
  6
CONTINUOUS
 62
     3
 10
-0.4056913566350886
 20
-295.04824727313797
 30
0.0
 11
-0.4153366527625622
 21
-295.04716253738468
 31
0.0
  0
LINE
  8
OUTLINE
  6
CONTINUOUS
 62
     3
 10
-0.4153366527625622
 20
-295.04716253738468
 30
0.0
 11
-0.4249818166235855
 21
-295.04608244142008
 31
0.0
  0
LINE
  8
OUTLINE
  6
CONTINUOUS
 62
     3
 10
-0.4249818166235855
 20
-295.04608244142008
 30
0.0
 11
-0.4249818166235855
 21
-295.04608244142008
 31
0.0
  0
LINE
  8
OUTLINE
  6
CONTINUOUS
 62
     3
 10
-0.4249818166235855
 20
-295.04608244142008
 30
0.0
 11
-0.4346260170041205
 21
-295.04499504217841
 31
0.0
  0
LINE
  8
OUTLINE
  6
CONTINUOUS
 62
     3
 10
-0.4346260170041205
 20
-295.04499504217841
 30
0.0
 11
-0.4442684249856939
 21
-295.04388839649408
 31
0.0
  0
LINE
  8
OUTLINE
  6
CONTINUOUS
 62
     3
 10
-0.4442684249856939
 20
-295.04388839649408
 30
0.0
 11
-0.4442684249856939
 21
-295.04388839649408
 31
0.0
  0
LINE
  8
OUTLINE
  6
CONTINUOUS
 62
     3
 10
-0.4442684249856939
 20
-295.04388839649408
 30
0.0
 11
-0.4539082120681996
 21
-295.04275056118252
 31
0.0
  0
LINE
  8
OUTLINE
  6
CONTINUOUS
 62
     3
 10
-0.4539082120681996
 20
-295.04275056118252
 30
0.0
 11
-0.4635445491385326
 21
-295.04156959308602
 31
0.0
  0
LINE
  8
OUTLINE
  6
CONTINUOUS
 62
     3
 10
-0.4635445491385326
 20
-295.04156959308602
 30
0.0
 11
-0.4635445491385326
 21
-295.04156959308602
 31
0.0
  0
LINE
  8
OUTLINE
  6
CONTINUOUS
 62
     3
 10
-0.4635445491385326
 20
-295.04156959308602
 30
0.0
 11
-0.4731766069689911
 21
-295.04033354905221
 31
0.0
  0
LINE
  8
OUTLINE
  6
CONTINUOUS
 62
     3
 10
-0.4731766069689911
 20
-295.04033354905221
 30
0.0
 11
-0.4828035564987658
 21
-295.03903048592122
 31
0.0
  0
LINE
  8
OUTLINE
  6
CONTINUOUS
 62
     3
 10
-0.4828035564987658
 20
-295.03903048592122
 30
0.0
 11
-0.4828035564987658
 21
-295.03903048592122
 31
0.0
  0
LINE
  8
OUTLINE
  6
CONTINUOUS
 62
     3
 10
-0.4828035564987658
 20
-295.03903048592122
 30
0.0
 11
-0.4924247609760641
 21
-295.03765129522662
 31
0.0
  0
LINE
  8
OUTLINE
  6
CONTINUOUS
 62
     3
 10
-0.4924247609760641
 20
-295.03765129522662
 30
0.0
 11
-0.5020403527255439
 21
-295.03619820728022
 31
0.0
  0
LINE
  8
OUTLINE
  6
CONTINUOUS
 62
     3
 10
-0.5020403527255439
 20
-295.03619820728022
 30
0.0
 11
-0.5020403527255439
 21
-295.03619820728022
 31
0.0
  0
LINE
  8
OUTLINE
  6
CONTINUOUS
 62
     3
 10
-0.5020403527255439
 20
-295.03619820728022
 30
0.0
 11
-0.5116506563445
 21
-295.0346762870895
 31
0.0
  0
LINE
  8
OUTLINE
  6
CONTINUOUS
 62
     3
 10
-0.5116506563445
 20
-295.0346762870895
 30
0.0
 11
-0.5212559964411412
 21
-295.0330905996608
 31
0.0
  0
LINE
  8
OUTLINE
  6
CONTINUOUS
 62
     3
 10
-0.5212559964411412
 20
-295.0330905996608
 30
0.0
 11
-0.5212559964411412
 21
-295.0330905996608
 31
0.0
  0
LINE
  8
OUTLINE
  6
CONTINUOUS
 62
     3
 10
-0.5212559964411412
 20
-295.0330905996608
 30
0.0
 11
-0.5308566976273141
 21
-295.03144621000098
 31
0.0
  0
LINE
  8
OUTLINE
  6
CONTINUOUS
 62
     3
 10
-0.5308566976273141
 20
-295.03144621000098
 30
0.0
 11
-0.5404530845107729
 21
-295.02974818311662
 31
0.0
  0
LINE
  8
OUTLINE
  6
CONTINUOUS
 62
     3
 10
-0.5404530845107729
 20
-295.02974818311662
 30
0.0
 11
-0.5404530845107729
 21
-295.02974818311662
 31
0.0
  0
LINE
  8
OUTLINE
  6
CONTINUOUS
 62
     3
 10
-0.5404530845107729
 20
-295.02974818311662
 30
0.0
 11
-0.5500454816988167
 21
-295.02800158401323
 31
0.0
  0
LINE
  8
OUTLINE
  6
CONTINUOUS
 62
     3
 10
-0.5500454816988167
 20
-295.02800158401323
 30
0.0
 11
-0.5596342137987449
 21
-295.02621147769861
 31
0.0
  0
LINE
  8
OUTLINE
  6
CONTINUOUS
 62
     3
 10
-0.5596342137987449
 20
-295.02621147769861
 30
0.0
 11
-0.5596342137987449
 21
-295.02621147769861
 31
0.0
  0
LINE
  8
OUTLINE
  6
CONTINUOUS
 62
     3
 10
-0.5596342137987449
 20
-295.02621147769861
 30
0.0
 11
-0.5692196054196756
 21
-295.02438292917861
 31
0.0
  0
LINE
  8
OUTLINE
  6
CONTINUOUS
 62
     3
 10
-0.5692196054196756
 20
-295.02438292917861
 30
0.0
 11
-0.5788019811689082
 21
-295.02252100346038
 31
0.0
  0
LINE
  8
OUTLINE
  6
CONTINUOUS
 62
     3
 10
-0.5788019811689082
 20
-295.02252100346038
 30
0.0
 11
-0.5788019811689082
 21
-295.02252100346038
 31
0.0
  0
LINE
  8
OUTLINE
  6
CONTINUOUS
 62
     3
 10
-0.5788019811689082
 20
-295.02252100346038
 30
0.0
 11
-0.5883817340550195
 21
-295.0206310660036
 31
0.0
  0
LINE
  8
OUTLINE
  6
CONTINUOUS
 62
     3
 10
-0.5883817340550195
 20
-295.0206310660036
 30
0.0
 11
-0.5979595306844203
 21
-295.01871968408318
 31
0.0
  0
LINE
  8
OUTLINE
  6
CONTINUOUS
 62
     3
 10
-0.5979595306844203
 20
-295.01871968408318
 30
0.0
 11
-0.5979595306844203
 21
-295.01871968408318
 31
0.0
  0
LINE
  8
OUTLINE
  6
CONTINUOUS
 62
     3
 10
-0.5979595306844203
 20
-295.01871968408318
 30
0.0
 11
-0.6075361060629803
 21
-295.01679372542708
 31
0.0
  0
LINE
  8
OUTLINE
  6
CONTINUOUS
 62
     3
 10
-0.6075361060629803
 20
-295.01679372542708
 30
0.0
 11
-0.617112195197933
 21
-295.0148600577628
 31
0.0
  0
LINE
  8
OUTLINE
  6
CONTINUOUS
 62
     3
 10
-0.617112195197933
 20
-295.0148600577628
 30
0.0
 11
-0.617112195197933
 21
-295.0148600577628
 31
0.0
  0
LINE
  8
OUTLINE
  6
CONTINUOUS
 62
     3
 10
-0.617112195197933
 20
-295.0148600577628
 30
0.0
 11
-0.6266885330956029
 21
-295.01292554881968
 31
0.0
  0
LINE
  8
OUTLINE
  6
CONTINUOUS
 62
     3
 10
-0.6266885330956029
 20
-295.01292554881968
 30
0.0
 11
-0.6362658547618594
 21
-295.01099706632567
 31
0.0
  0
LINE
  8
OUTLINE
  6
CONTINUOUS
 62
     3
 10
-0.6362658547618594
 20
-295.01099706632567
 30
0.0
 11
-0.6362658547618594
 21
-295.01099706632567
 31
0.0
  0
LINE
  8
OUTLINE
  6
CONTINUOUS
 62
     3
 10
-0.6362658547618594
 20
-295.01099706632567
 30
0.0
 11
-0.6458448952034814
 21
-295.0090814780084
 31
0.0
  0
LINE
  8
OUTLINE
  6
CONTINUOUS
 62
     3
 10
-0.6458448952034814
 20
-295.0090814780084
 30
0.0
 11
-0.6554263894267933
 21
-295.00718565159559
 31
0.0
  0
LINE
  8
OUTLINE
  6
CONTINUOUS
 62
     3
 10
-0.6554263894267933
 20
-295.00718565159559
 30
0.0
 11
-0.6554263894267933
 21
-295.00718565159559
 31
0.0
  0
LINE
  8
OUTLINE
  6
CONTINUOUS
 62
     3
 10
-0.6554263894267933
 20
-295.00718565159559
 30
0.0
 11
-0.6650110724381193
 21
-295.00531645481612
 31
0.0
  0
LINE
  8
OUTLINE
  6
CONTINUOUS
 62
     3
 10
-0.6650110724381193
 20
-295.00531645481612
 30
0.0
 11
-0.6745996792442384
 21
-295.00348075539819
 31
0.0
  0
LINE
  8
OUTLINE
  6
CONTINUOUS
 62
     3
 10
-0.6745996792442384
 20
-295.00348075539819
 30
0.0
 11
-0.6745996792442384
 21
-295.00348075539819
 31
0.0
  0
LINE
  8
OUTLINE
  6
CONTINUOUS
 62
     3
 10
-0.6745996792442384
 20
-295.00348075539819
 30
0.0
 11
-0.6841924789709992
 21
-295.0016813845607
 31
0.0
  0
LINE
  8
OUTLINE
  6
CONTINUOUS
 62
     3
 10
-0.6841924789709992
 20
-295.0016813845607
 30
0.0
 11
-0.6937878772241675
 21
-294.99990502748659
 31
0.0
  0
LINE
  8
OUTLINE
  6
CONTINUOUS
 62
     3
 10
-0.6937878772241675
 20
-294.99990502748659
 30
0.0
 11
-0.6937878772241675
 21
-294.99990502748659
 31
0.0
  0
LINE
  8
OUTLINE
  6
CONTINUOUS
 62
     3
 10
-0.6937878772241675
 20
-294.99990502748659
 30
0.0
 11
-0.7033838137276689
 21
-294.99813433284902
 31
0.0
  0
LINE
  8
OUTLINE
  6
CONTINUOUS
 62
     3
 10
-0.7033838137276689
 20
-294.99813433284902
 30
0.0
 11
-0.7129782282081578
 21
-294.99635194932188
 31
0.0
  0
LINE
  8
OUTLINE
  6
CONTINUOUS
 62
     3
 10
-0.7129782282081578
 20
-294.99635194932188
 30
0.0
 11
-0.7129782282081578
 21
-294.99635194932188
 31
0.0
  0
LINE
  8
OUTLINE
  6
CONTINUOUS
 62
     3
 10
-0.7129782282081578
 20
-294.99635194932188
 30
0.0
 11
-0.72256906038956
 21
-294.99454052557911
 31
0.0
  0
LINE
  8
OUTLINE
  6
CONTINUOUS
 62
     3
 10
-0.72256906038956
 20
-294.99454052557911
 30
0.0
 11
-0.7321542499971656
 21
-294.99268271029439
 31
0.0
  0
LINE
  8
OUTLINE
  6
CONTINUOUS
 62
     3
 10
-0.7321542499971656
 20
-294.99268271029439
 30
0.0
 11
-0.7321542499971656
 21
-294.99268271029439
 31
0.0
  0
LINE
  8
OUTLINE
  6
CONTINUOUS
 62
     3
 10
-0.7321542499971656
 20
-294.99268271029439
 30
0.0
 11
-0.7417317367558098
 21
-294.9907611521412
 31
0.0
  0
LINE
  8
OUTLINE
  6
CONTINUOUS
 62
     3
 10
-0.7417317367558098
 20
-294.9907611521412
 30
0.0
 11
-0.7512994603907828
 21
-294.98875849979311
 31
0.0
  0
LINE
  8
OUTLINE
  6
CONTINUOUS
 62
     3
 10
-0.7512994603907828
 20
-294.98875849979311
 30
0.0
 11
-0.7512994603907828
 21
-294.98875849979311
 31
0.0
  0
LINE
  8
OUTLINE
  6
CONTINUOUS
 62
     3
 10
-0.7512994603907828
 20
-294.98875849979311
 30
0.0
 11
-0.7608553606269197
 21
-294.98665740192371
 31
0.0
  0
LINE
  8
OUTLINE
  6
CONTINUOUS
 62
     3
 10
-0.7608553606269197
 20
-294.98665740192371
 30
0.0
 11
-0.7703973771899655
 21
-294.98444050720678
 31
0.0
  0
LINE
  8
OUTLINE
  6
CONTINUOUS
 62
     3
 10
-0.7703973771899655
 20
-294.98444050720678
 30
0.0
 11
-0.7703973771899655
 21
-294.98444050720678
 31
0.0
  0
LINE
  8
OUTLINE
  6
CONTINUOUS
 62
     3
 10
-0.7703973771899655
 20
-294.98444050720678
 30
0.0
 11
-0.7799241432753661
 21
-294.98209624621438
 31
0.0
  0
LINE
  8
OUTLINE
  6
CONTINUOUS
 62
     3
 10
-0.7799241432753661
 20
-294.98209624621438
 30
0.0
 11
-0.7894370659641936
 21
-294.97963617710718
 31
0.0
  0
LINE
  8
OUTLINE
  6
CONTINUOUS
 62
     3
 10
-0.7894370659641936
 20
-294.97963617710718
 30
0.0
 11
-0.7894370659641936
 21
-294.97963617710718
 31
0.0
  0
LINE
  8
OUTLINE
  6
CONTINUOUS
 62
     3
 10
-0.7894370659641936
 20
-294.97963617710718
 30
0.0
 11
-0.7989382458094951
 21
-294.9770776399447
 31
0.0
  0
LINE
  8
OUTLINE
  6
CONTINUOUS
 62
     3
 10
-0.7989382458094951
 20
-294.9770776399447
 30
0.0
 11
-0.8084297833629535
 21
-294.9744379747865
 31
0.0
  0
LINE
  8
OUTLINE
  6
CONTINUOUS
 62
     3
 10
-0.8084297833629535
 20
-294.9744379747865
 30
0.0
 11
-0.8084297833629535
 21
-294.9744379747865
 31
0.0
  0
LINE
  8
OUTLINE
  6
CONTINUOUS
 62
     3
 10
-0.8084297833629535
 20
-294.9744379747865
 30
0.0
 11
-0.8179137791771609
 21
-294.97173452169199
 31
0.0
  0
LINE
  8
OUTLINE
  6
CONTINUOUS
 62
     3
 10
-0.8179137791771609
 20
-294.97173452169199
 30
0.0
 11
-0.827392333804255
 21
-294.96898462072068
 31
0.0
  0
LINE
  8
OUTLINE
  6
CONTINUOUS
 62
     3
 10
-0.827392333804255
 20
-294.96898462072068
 30
0.0
 11
-0.827392333804255
 21
-294.96898462072068
 31
0.0
  0
LINE
  8
OUTLINE
  6
CONTINUOUS
 62
     3
 10
-0.827392333804255
 20
-294.96898462072068
 30
0.0
 11
-0.8368675477968282
 21
-294.96620561193129
 31
0.0
  0
LINE
  8
OUTLINE
  6
CONTINUOUS
 62
     3
 10
-0.8368675477968282
 20
-294.96620561193129
 30
0.0
 11
-0.8463415217074726
 21
-294.96341483538311
 31
0.0
  0
LINE
  8
OUTLINE
  6
CONTINUOUS
 62
     3
 10
-0.8463415217074726
 20
-294.96341483538311
 30
0.0
 11
-0.8463415217074726
 21
-294.96341483538311
 31
0.0
  0
LINE
  8
OUTLINE
  6
CONTINUOUS
 62
     3
 10
-0.8463415217074726
 20
-294.96341483538311
 30
0.0
 11
-0.8558163560874164
 21
-294.96062963113559
 31
0.0
  0
LINE
  8
OUTLINE
  6
CONTINUOUS
 62
     3
 10
-0.8558163560874164
 20
-294.96062963113559
 30
0.0
 11
-0.8652941514906161
 21
-294.95786733924803
 31
0.0
  0
LINE
  8
OUTLINE
  6
CONTINUOUS
 62
     3
 10
-0.8652941514906161
 20
-294.95786733924803
 30
0.0
 11
-0.8652941514906161
 21
-294.95786733924803
 31
0.0
  0
LINE
  8
OUTLINE
  6
CONTINUOUS
 62
     3
 10
-0.8652941514906161
 20
-294.95786733924803
 30
0.0
 11
-0.8747765023103966
 21
-294.95514127453879
 31
0.0
  0
LINE
  8
OUTLINE
  6
CONTINUOUS
 62
     3
 10
-0.8747765023103966
 20
-294.95514127453879
 30
0.0
 11
-0.8842629783125631
 21
-294.95244865085812
 31
0.0
  0
LINE
  8
OUTLINE
  6
CONTINUOUS
 62
     3
 10
-0.8842629783125631
 20
-294.95244865085812
 30
0.0
 11
-0.8842629783125631
 21
-294.95244865085812
 31
0.0
  0
LINE
  8
OUTLINE
  6
CONTINUOUS
 62
     3
 10
-0.8842629783125631
 20
-294.95244865085812
 30
0.0
 11
-0.8937526431041079
 21
-294.94978265681482
 31
0.0
  0
LINE
  8
OUTLINE
  6
CONTINUOUS
 62
     3
 10
-0.8937526431041079
 20
-294.94978265681482
 30
0.0
 11
-0.9032445602933876
 21
-294.94713648101862
 31
0.0
  0
LINE
  8
OUTLINE
  6
CONTINUOUS
 62
     3
 10
-0.9032445602933876
 20
-294.94713648101862
 30
0.0
 11
-0.9032445602933876
 21
-294.94713648101862
 31
0.0
  0
LINE
  8
OUTLINE
  6
CONTINUOUS
 62
     3
 10
-0.9032445602933876
 20
-294.94713648101862
 30
0.0
 11
-0.9127377934869401
 21
-294.94450331207878
 31
0.0
  0
LINE
  8
OUTLINE
  6
CONTINUOUS
 62
     3
 10
-0.9127377934869401
 20
-294.94450331207878
 30
0.0
 11
-0.9222314062931218
 21
-294.94187633860491
 31
0.0
  0
LINE
  8
OUTLINE
  6
CONTINUOUS
 62
     3
 10
-0.9222314062931218
 20
-294.94187633860491
 30
0.0
 11
-0.9222314062931218
 21
-294.94187633860491
 31
0.0
  0
LINE
  8
OUTLINE
  6
CONTINUOUS
 62
     3
 10
-0.9222314062931218
 20
-294.94187633860491
 30
0.0
 11
-0.9317244623189254
 21
-294.93924874920572
 31
0.0
  0
LINE
  8
OUTLINE
  6
CONTINUOUS
 62
     3
 10
-0.9317244623189254
 20
-294.93924874920572
 30
0.0
 11
-0.9412160251722526
 21
-294.93661373249017
 31
0.0
  0
LINE
  8
OUTLINE
  6
CONTINUOUS
 62
     3
 10
-0.9412160251722526
 20
-294.93661373249017
 30
0.0
 11
-0.9412160251722526
 21
-294.93661373249017
 31
0.0
  0
LINE
  8
OUTLINE
  6
CONTINUOUS
 62
     3
 10
-0.9412160251722526
 20
-294.93661373249017
 30
0.0
 11
-0.9507051584605506
 21
-294.933964477068
 31
0.0
  0
LINE
  8
OUTLINE
  6
CONTINUOUS
 62
     3
 10
-0.9507051584605506
 20
-294.933964477068
 30
0.0
 11
-0.9601909257908119
 21
-294.93129417154847
 31
0.0
  0
LINE
  8
OUTLINE
  6
CONTINUOUS
 62
     3
 10
-0.9601909257908119
 20
-294.93129417154847
 30
0.0
 11
-0.9601909257908119
 21
-294.93129417154847
 31
0.0
  0
LINE
  8
OUTLINE
  6
CONTINUOUS
 62
     3
 10
-0.9601909257908119
 20
-294.93129417154847
 30
0.0
 11
-0.9696724220543729
 21
-294.9285963073383
 31
0.0
  0
LINE
  8
OUTLINE
  6
CONTINUOUS
 62
     3
 10
-0.9696724220543729
 20
-294.9285963073383
 30
0.0
 11
-0.9791488672731248
 21
-294.92586558703442
 31
0.0
  0
LINE
  8
OUTLINE
  6
CONTINUOUS
 62
     3
 10
-0.9791488672731248
 20
-294.92586558703442
 30
0.0
 11
-0.9791488672731248
 21
-294.92586558703442
 31
0.0
  0
LINE
  8
OUTLINE
  6
CONTINUOUS
 62
     3
 10
-0.9791488672731248
 20
-294.92586558703442
 30
0.0
 11
-0.9886195127528481
 21
-294.92309701603119
 31
0.0
  0
LINE
  8
OUTLINE
  6
CONTINUOUS
 62
     3
 10
-0.9886195127528481
 20
-294.92309701603119
 30
0.0
 11
-0.9980836097993233
 21
-294.92028559972351
 31
0.0
  0
LINE
  8
OUTLINE
  6
CONTINUOUS
 62
     3
 10
-0.9980836097993233
 20
-294.92028559972351
 30
0.0
 11
-0.9980836097993233
 21
-294.92028559972351
 31
0.0
  0
LINE
  8
OUTLINE
  6
CONTINUOUS
 62
     3
 10
-0.9980836097993233
 20
-294.92028559972351
 30
0.0
 11
-1.0075404097183309
 21
-294.91742634350538
 31
0.0
  0
LINE
  8
OUTLINE
  6
CONTINUOUS
 62
     3
 10
-1.0075404097183309
 20
-294.91742634350538
 30
0.0
 11
-1.0169891638151971
 21
-294.91451425277279
 31
0.0
  0
LINE
  8
OUTLINE
  6
CONTINUOUS
 62
     3
 10
-1.0169891638151971
 20
-294.91451425277279
 30
0.0
 11
-1.0169891638151971
 21
-294.91451425277279
 31
0.0
  0
LINE
  8
OUTLINE
  6
CONTINUOUS
 62
     3
 10
-1.0169891638151971
 20
-294.91451425277279
 30
0.0
 11
-1.026429123394337
 21
-294.91154433291922
 31
0.0
  0
LINE
  8
OUTLINE
  6
CONTINUOUS
 62
     3
 10
-1.026429123394337
 20
-294.91154433291922
 30
0.0
 11
-1.035859539764715
 21
-294.90851158933862
 31
0.0
  0
LINE
  8
OUTLINE
  6
CONTINUOUS
 62
     3
 10
-1.035859539764715
 20
-294.90851158933862
 30
0.0
 11
-1.035859539764715
 21
-294.90851158933862
 31
0.0
  0
LINE
  8
OUTLINE
  6
CONTINUOUS
 62
     3
 10
-1.035859539764715
 20
-294.90851158933862
 30
0.0
 11
-1.045279664232567
 21
-294.90541102742469
 31
0.0
  0
LINE
  8
OUTLINE
  6
CONTINUOUS
 62
     3
 10
-1.045279664232567
 20
-294.90541102742469
 30
0.0
 11
-1.054688748093213
 21
-294.9022376525777
 31
0.0
  0
LINE
  8
OUTLINE
  6
CONTINUOUS
 62
     3
 10
-1.054688748093213
 20
-294.9022376525777
 30
0.0
 11
-1.054688748093213
 21
-294.9022376525777
 31
0.0
  0
LINE
  8
OUTLINE
  6
CONTINUOUS
 62
     3
 10
-1.054688748093213
 20
-294.9022376525777
 30
0.0
 11
-1.064086423674325
 21
-294.89898928424509
 31
0.0
  0
LINE
  8
OUTLINE
  6
CONTINUOUS
 62
     3
 10
-1.064086423674325
 20
-294.89898928424509
 30
0.0
 11
-1.073473847447985
 21
-294.89567499806589
 31
0.0
  0
LINE
  8
OUTLINE
  6
CONTINUOUS
 62
     3
 10
-1.073473847447985
 20
-294.89567499806589
 30
0.0
 11
-1.073473847447985
 21
-294.89567499806589
 31
0.0
  0
LINE
  8
OUTLINE
  6
CONTINUOUS
 62
     3
 10
-1.073473847447985
 20
-294.89567499806589
 30
0.0
 11
-1.0828525568817891
 21
-294.89230668374319
 31
0.0
  0
LINE
  8
OUTLINE
  6
CONTINUOUS
 62
     3
 10
-1.0828525568817891
 20
-294.89230668374319
 30
0.0
 11
-1.092224089284628
 21
-294.88889623105268
 31
0.0
  0
LINE
  8
OUTLINE
  6
CONTINUOUS
 62
     3
 10
-1.092224089284628
 20
-294.88889623105268
 30
0.0
 11
-1.092224089284628
 21
-294.88889623105268
 31
0.0
  0
LINE
  8
OUTLINE
  6
CONTINUOUS
 62
     3
 10
-1.092224089284628
 20
-294.88889623105268
 30
0.0
 11
-1.101589982073619
 21
-294.88545552972118
 31
0.0
  0
LINE
  8
OUTLINE
  6
CONTINUOUS
 62
     3
 10
-1.101589982073619
 20
-294.88545552972118
 30
0.0
 11
-1.1109517732616041
 21
-294.88199646921038
 31
0.0
  0
LINE
  8
OUTLINE
  6
CONTINUOUS
 62
     3
 10
-1.1109517732616041
 20
-294.88199646921038
 30
0.0
 11
-1.1109517732616041
 21
-294.88199646921038
 31
0.0
  0
LINE
  8
OUTLINE
  6
CONTINUOUS
 62
     3
 10
-1.1109517732616041
 20
-294.88199646921038
 30
0.0
 11
-1.120311000453512
 21
-294.87853093916249
 31
0.0
  0
LINE
  8
OUTLINE
  6
CONTINUOUS
 62
     3
 10
-1.120311000453512
 20
-294.87853093916249
 30
0.0
 11
-1.1296691990373799
 21
-294.87507083020682
 31
0.0
  0
LINE
  8
OUTLINE
  6
CONTINUOUS
 62
     3
 10
-1.1296691990373799
 20
-294.87507083020682
 30
0.0
 11
-1.1296691990373799
 21
-294.87507083020682
 31
0.0
  0
LINE
  8
OUTLINE
  6
CONTINUOUS
 62
     3
 10
-1.1296691990373799
 20
-294.87507083020682
 30
0.0
 11
-1.1390279059146451
 21
-294.87162803229722
 31
0.0
  0
LINE
  8
OUTLINE
  6
CONTINUOUS
 62
     3
 10
-1.1390279059146451
 20
-294.87162803229722
 30
0.0
 11
-1.1483886662699661
 21
-294.86821443171198
 31
0.0
  0
LINE
  8
OUTLINE
  6
CONTINUOUS
 62
     3
 10
-1.1483886662699661
 20
-294.86821443171198
 30
0.0
 11
-1.1483886662699661
 21
-294.86821443171198
 31
0.0
  0
LINE
  8
OUTLINE
  6
CONTINUOUS
 62
     3
 10
-1.1483886662699661
 20
-294.86821443171198
 30
0.0
 11
-1.1577526611031319
 21
-294.86483780828638
 31
0.0
  0
LINE
  8
OUTLINE
  6
CONTINUOUS
 62
     3
 10
-1.1577526611031319
 20
-294.86483780828638
 30
0.0
 11
-1.167119606396227
 21
-294.86148951976469
 31
0.0
  0
LINE
  8
OUTLINE
  6
CONTINUOUS
 62
     3
 10
-1.167119606396227
 20
-294.86148951976469
 30
0.0
 11
-1.167119606396227
 21
-294.86148951976469
 31
0.0
  0
LINE
  8
OUTLINE
  6
CONTINUOUS
 62
     3
 10
-1.167119606396227
 20
-294.86148951976469
 30
0.0
 11
-1.176488880712441
 21
-294.85815680556288
 31
0.0
  0
LINE
  8
OUTLINE
  6
CONTINUOUS
 62
     3
 10
-1.176488880712441
 20
-294.85815680556288
 30
0.0
 11
-1.185859977963446
 21
-294.85482685387308
 31
0.0
  0
LINE
  8
OUTLINE
  6
CONTINUOUS
 62
     3
 10
-1.185859977963446
 20
-294.85482685387308
 30
0.0
 11
-1.185859977963446
 21
-294.85482685387308
 31
0.0
  0
LINE
  8
OUTLINE
  6
CONTINUOUS
 62
     3
 10
-1.185859977963446
 20
-294.85482685387308
 30
0.0
 11
-1.195232313277756
 21
-294.85148688787268
 31
0.0
  0
LINE
  8
OUTLINE
  6
CONTINUOUS
 62
     3
 10
-1.195232313277756
 20
-294.85148688787268
 30
0.0
 11
-1.2046048712986701
 21
-294.84812432191387
 31
0.0
  0
LINE
  8
OUTLINE
  6
CONTINUOUS
 62
     3
 10
-1.2046048712986701
 20
-294.84812432191387
 30
0.0
 11
-1.2046048712986701
 21
-294.84812432191387
 31
0.0
  0
LINE
  8
OUTLINE
  6
CONTINUOUS
 62
     3
 10
-1.2046048712986701
 20
-294.84812432191387
 30
0.0
 11
-1.2139769306963899
 21
-294.84472643977278
 31
0.0
  0
LINE
  8
OUTLINE
  6
CONTINUOUS
 62
     3
 10
-1.2139769306963899
 20
-294.84472643977278
 30
0.0
 11
-1.2233493767275829
 21
-294.84127981176363
 31
0.0
  0
LINE
  8
OUTLINE
  6
CONTINUOUS
 62
     3
 10
-1.2233493767275829
 20
-294.84127981176363
 30
0.0
 11
-1.2233493767275829
 21
-294.84127981176363
 31
0.0
  0
LINE
  8
OUTLINE
  6
CONTINUOUS
 62
     3
 10
-1.2233493767275829
 20
-294.84127981176363
 30
0.0
 11
-1.232721997329463
 21
-294.83777149550542
 31
0.0
  0
LINE
  8
OUTLINE
  6
CONTINUOUS
 62
     3
 10
-1.232721997329463
 20
-294.83777149550542
 30
0.0
 11
-1.2420885845763221
 21
-294.83419121129941
 31
0.0
  0
LINE
  8
OUTLINE
  6
CONTINUOUS
 62
     3
 10
-1.2420885845763221
 20
-294.83419121129941
 30
0.0
 11
-1.2420885845763221
 21
-294.83419121129941
 31
0.0
  0
LINE
  8
OUTLINE
  6
CONTINUOUS
 62
     3
 10
-1.2420885845763221
 20
-294.83419121129941
 30
0.0
 11
-1.2514471677950501
 21
-294.83053018618062
 31
0.0
  0
LINE
  8
OUTLINE
  6
CONTINUOUS
 62
     3
 10
-1.2514471677950501
 20
-294.83053018618062
 30
0.0
 11
-1.2608187211972111
 21
-294.82678301143812
 31
0.0
  0
LINE
  8
OUTLINE
  6
CONTINUOUS
 62
     3
 10
-1.2608187211972111
 20
-294.82678301143812
 30
0.0
 11
-1.2608187211972111
 21
-294.82678301143812
 31
0.0
  0
LINE
  8
OUTLINE
  6
CONTINUOUS
 62
     3
 10
-1.2608187211972111
 20
-294.82678301143812
 30
0.0
 11
-1.270209077310938
 21
-294.82295439101961
 31
0.0
  0
LINE
  8
OUTLINE
  6
CONTINUOUS
 62
     3
 10
-1.270209077310938
 20
-294.82295439101961
 30
0.0
 11
-1.279540557050495
 21
-294.81908611525841
 31
0.0
  0
LINE
  8
OUTLINE
  6
CONTINUOUS
 62
     3
 10
-1.279540557050495
 20
-294.81908611525841
 30
0.0
 11
-1.279540557050495
 21
-294.81908611525841
 31
0.0
  0
LINE
  8
OUTLINE
  6
CONTINUOUS
 62
     3
 10
-1.279540557050495
 20
-294.81908611525841
 30
0.0
 11
-1.2887925208247
 21
-294.8151946440147
 31
0.0
  0
LINE
  8
OUTLINE
  6
CONTINUOUS
 62
     3
 10
-1.2887925208247
 20
-294.8151946440147
 30
0.0
 11
-1.2982559986212441
 21
-294.81115802888002
 31
0.0
  0
LINE
  8
OUTLINE
  6
CONTINUOUS
 62
     3
 10
-1.2982559986212441
 20
-294.81115802888002
 30
0.0
 11
-1.2982559986212441
 21
-294.81115802888002
 31
0.0
  0
LINE
  8
OUTLINE
  6
CONTINUOUS
 62
     3
 10
-1.2982559986212441
 20
-294.81115802888002
 30
0.0
 11
-1.3080091461465599
 21
-294.80694885605118
 31
0.0
  0
LINE
  8
OUTLINE
  6
CONTINUOUS
 62
     3
 10
-1.3080091461465599
 20
-294.80694885605118
 30
0.0
 11
-1.316966952395433
 21
-294.80305625842101
 31
0.0
  0
LINE
  8
OUTLINE
  6
CONTINUOUS
 62
     3
 10
-1.316966952395433
 20
-294.80305625842101
 30
0.0
 11
-1.316966952395433
 21
-294.80305625842101
 31
0.0
  0
LINE
  8
OUTLINE
  6
CONTINUOUS
 62
     3
 10
-1.316966952395433
 20
-294.80305625842101
 30
0.0
 11
-1.324838864001322
 21
-294.79961656092701
 31
0.0
  0
LINE
  8
OUTLINE
  6
CONTINUOUS
 62
     3
 10
-1.324838864001322
 20
-294.79961656092701
 30
0.0
 11
-1.3356753248590389
 21
-294.79483831000232
 31
0.0
  0
LINE
  8
OUTLINE
  6
CONTINUOUS
 62
     3
 10
-1.3356753248590389
 20
-294.79483831000232
 30
0.0
 11
-1.3356753248590389
 21
-294.79483831000232
 31
0.0
  0
LINE
  8
OUTLINE
  6
CONTINUOUS
 62
     3
 10
-1.3356753248590389
 20
-294.79483831000232
 30
0.0
 11
-1.35290013787926
 21
-294.78720390847923
 31
0.0
  0
LINE
  8
OUTLINE
  6
CONTINUOUS
 62
     3
 10
-1.35290013787926
 20
-294.78720390847923
 30
0.0
 11
-1.373089544777031
 21
-294.77821896329573
 31
0.0
  0
LINE
  8
OUTLINE
  6
CONTINUOUS
 62
     3
 10
-1.373089544777031
 20
-294.77821896329573
 30
0.0
 11
-1.373089544777031
 21
-294.77821896329573
 31
0.0
  0
LINE
  8
OUTLINE
  6
CONTINUOUS
 62
     3
 10
-1.373089544777031
 20
-294.77821896329573
 30
0.0
 11
-1.392193188130022
 21
-294.76966891511557
 31
0.0
  0
LINE
  8
OUTLINE
  6
CONTINUOUS
 62
     3
 10
-1.392193188130022
 20
-294.76966891511557
 30
0.0
 11
-1.4105018751606619
 21
-294.7614353353963
 31
0.0
  0
LINE
  8
OUTLINE
  6
CONTINUOUS
 62
     3
 10
-1.4105018751606619
 20
-294.7614353353963
 30
0.0
 11
-1.4105018751606619
 21
-294.7614353353963
 31
0.0
  0
LINE
  8
OUTLINE
  6
CONTINUOUS
 62
     3
 10
-1.4105018751606619
 20
-294.7614353353963
 30
0.0
 11
-1.4291009982507601
 21
-294.75305105760799
 31
0.0
  0
LINE
  8
OUTLINE
  6
CONTINUOUS
 62
     3
 10
-1.4291009982507601
 20
-294.75305105760799
 30
0.0
 11
-1.4479131257749029
 21
-294.74455783247657
 31
0.0
  0
LINE
  8
OUTLINE
  6
CONTINUOUS
 62
     3
 10
-1.4479131257749029
 20
-294.74455783247657
 30
0.0
 11
-1.4479131257749029
 21
-294.74455783247657
 31
0.0
  0
LINE
  8
OUTLINE
  6
CONTINUOUS
 62
     3
 10
-1.4479131257749029
 20
-294.74455783247657
 30
0.0
 11
-1.466647652950996
 21
-294.73609169008711
 31
0.0
  0
LINE
  8
OUTLINE
  6
CONTINUOUS
 62
     3
 10
-1.466647652950996
 20
-294.73609169008711
 30
0.0
 11
-1.485324106384724
 21
-294.72765686070801
 31
0.0
  0
LINE
  8
OUTLINE
  6
CONTINUOUS
 62
     3
 10
-1.485324106384724
 20
-294.72765686070801
 30
0.0
 11
-1.485324106384724
 21
-294.72765686070801
 31
0.0
  0
LINE
  8
OUTLINE
  6
CONTINUOUS
 62
     3
 10
-1.485324106384724
 20
-294.72765686070801
 30
0.0
 11
-1.504020120142286
 21
-294.71922919515521
 31
0.0
  0
LINE
  8
OUTLINE
  6
CONTINUOUS
 62
     3
 10
-1.504020120142286
 20
-294.71922919515521
 30
0.0
 11
-1.5227356267546379
 21
-294.71080282626349
 31
0.0
  0
LINE
  8
OUTLINE
  6
CONTINUOUS
 62
     3
 10
1.522735605014532
 20
-294.710802837134
 30
0.0
 11
1.504292087407066
 21
-294.71911845761969
 31
0.0
  0
LINE
  8
OUTLINE
  6
CONTINUOUS
 62
     3
 10
1.504292087407066
 20
-294.71911845761969
 30
0.0
 11
1.4858695542943681
 21
-294.72743461546492
 31
0.0
  0
LINE
  8
OUTLINE
  6
CONTINUOUS
 62
     3
 10
1.4858695542943681
 20
-294.72743461546492
 30
0.0
 11
1.4858695542943681
 21
-294.72743461546492
 31
0.0
  0
LINE
  8
OUTLINE
  6
CONTINUOUS
 62
     3
 10
1.4858695542943681
 20
-294.72743461546492
 30
0.0
 11
1.467469111356877
 21
-294.73575666614761
 31
0.0
  0
LINE
  8
OUTLINE
  6
CONTINUOUS
 62
     3
 10
1.467469111356877
 20
-294.73575666614761
 30
0.0
 11
1.449012349010445
 21
-294.74410923761712
 31
0.0
  0
LINE
  8
OUTLINE
  6
CONTINUOUS
 62
     3
 10
1.449012349010445
 20
-294.74410923761712
 30
0.0
 11
1.449012349010445
 21
-294.74410923761712
 31
0.0
  0
LINE
  8
OUTLINE
  6
CONTINUOUS
 62
     3
 10
1.449012349010445
 20
-294.74410923761712
 30
0.0
 11
1.430477729939867
 21
-294.75248911476552
 31
0.0
  0
LINE
  8
OUTLINE
  6
CONTINUOUS
 62
     3
 10
1.430477729939867
 20
-294.75248911476552
 30
0.0
 11
1.412150721163925
 21
-294.76076243778601
 31
0.0
  0
LINE
  8
OUTLINE
  6
CONTINUOUS
 62
     3
 10
1.412150721163925
 20
-294.76076243778601
 30
0.0
 11
1.412150721163925
 21
-294.76076243778601
 31
0.0
  0
LINE
  8
OUTLINE
  6
CONTINUOUS
 62
     3
 10
1.412150721163925
 20
-294.76076243778601
 30
0.0
 11
1.3941064152659239
 21
-294.76888851227812
 31
0.0
  0
LINE
  8
OUTLINE
  6
CONTINUOUS
 62
     3
 10
1.3941064152659239
 20
-294.76888851227812
 30
0.0
 11
1.37527140275597
 21
-294.777329950168
 31
0.0
  0
LINE
  8
OUTLINE
  6
CONTINUOUS
 62
     3
 10
1.37527140275597
 20
-294.777329950168
 30
0.0
 11
1.37527140275597
 21
-294.777329950168
 31
0.0
  0
LINE
  8
OUTLINE
  6
CONTINUOUS
 62
     3
 10
1.37527140275597
 20
-294.777329950168
 30
0.0
 11
1.3553568996148899
 21
-294.7862045448112
 31
0.0
  0
LINE
  8
OUTLINE
  6
CONTINUOUS
 62
     3
 10
1.3553568996148899
 20
-294.7862045448112
 30
0.0
 11
1.338361125788651
 21
-294.79374750895749
 31
0.0
  0
LINE
  8
OUTLINE
  6
CONTINUOUS
 62
     3
 10
1.338361125788651
 20
-294.79374750895749
 30
0.0
 11
1.338361125788651
 21
-294.79374750895749
 31
0.0
  0
LINE
  8
OUTLINE
  6
CONTINUOUS
 62
     3
 10
1.338361125788651
 20
-294.79374750895749
 30
0.0
 11
1.3276644381539879
 21
-294.79847036358473
 31
0.0
  0
LINE
  8
OUTLINE
  6
CONTINUOUS
 62
     3
 10
1.3276644381539879
 20
-294.79847036358473
 30
0.0
 11
1.3198887373514481
 21
-294.80187244319387
 31
0.0
  0
LINE
  8
OUTLINE
  6
CONTINUOUS
 62
     3
 10
1.3198887373514481
 20
-294.80187244319387
 30
0.0
 11
1.3198887373514481
 21
-294.80187244319387
 31
0.0
  0
LINE
  8
OUTLINE
  6
CONTINUOUS
 62
     3
 10
1.3198887373514481
 20
-294.80187244319387
 30
0.0
 11
1.311036963179959
 21
-294.80572393360251
 31
0.0
  0
LINE
  8
OUTLINE
  6
CONTINUOUS
 62
     3
 10
1.311036963179959
 20
-294.80572393360251
 30
0.0
 11
1.301394668309513
 21
-294.80989061236988
 31
0.0
  0
LINE
  8
OUTLINE
  6
CONTINUOUS
 62
     3
 10
1.301394668309513
 20
-294.80989061236988
 30
0.0
 11
1.301394668309513
 21
-294.80989061236988
 31
0.0
  0
LINE
  8
OUTLINE
  6
CONTINUOUS
 62
     3
 10
1.301394668309513
 20
-294.80989061236988
 30
0.0
 11
1.2920311779621441
 21
-294.81388972615622
 31
0.0
  0
LINE
  8
OUTLINE
  6
CONTINUOUS
 62
     3
 10
1.2920311779621441
 20
-294.81388972615622
 30
0.0
 11
1.282868294698801
 21
-294.81774880627518
 31
0.0
  0
LINE
  8
OUTLINE
  6
CONTINUOUS
 62
     3
 10
1.282868294698801
 20
-294.81774880627518
 30
0.0
 11
1.282868294698801
 21
-294.81774880627518
 31
0.0
  0
LINE
  8
OUTLINE
  6
CONTINUOUS
 62
     3
 10
1.282868294698801
 20
-294.81774880627518
 30
0.0
 11
1.273617809859843
 21
-294.82158877261372
 31
0.0
  0
LINE
  8
OUTLINE
  6
CONTINUOUS
 62
     3
 10
1.273617809859843
 20
-294.82158877261372
 30
0.0
 11
1.2642989925539041
 21
-294.82539381469837
 31
0.0
  0
LINE
  8
OUTLINE
  6
CONTINUOUS
 62
     3
 10
1.2642989925539041
 20
-294.82539381469837
 30
0.0
 11
1.2642989925539041
 21
-294.82539381469837
 31
0.0
  0
LINE
  8
OUTLINE
  6
CONTINUOUS
 62
     3
 10
1.2642989925539041
 20
-294.82539381469837
 30
0.0
 11
1.254987384228571
 21
-294.82912309866191
 31
0.0
  0
LINE
  8
OUTLINE
  6
CONTINUOUS
 62
     3
 10
1.254987384228571
 20
-294.82912309866191
 30
0.0
 11
1.245676137909868
 21
-294.83277242742793
 31
0.0
  0
LINE
  8
OUTLINE
  6
CONTINUOUS
 62
     3
 10
1.245676137909868
 20
-294.83277242742793
 30
0.0
 11
1.245676137909868
 21
-294.83277242742793
 31
0.0
  0
LINE
  8
OUTLINE
  6
CONTINUOUS
 62
     3
 10
1.245676137909868
 20
-294.83277242742793
 30
0.0
 11
1.2363439374130389
 21
-294.83634740423122
 31
0.0
  0
LINE
  8
OUTLINE
  6
CONTINUOUS
 62
     3
 10
1.2363439374130389
 20
-294.83634740423122
 30
0.0
 11
1.226993978122664
 21
-294.83985619676389
 31
0.0
  0
LINE
  8
OUTLINE
  6
CONTINUOUS
 62
     3
 10
1.226993978122664
 20
-294.83985619676389
 30
0.0
 11
1.226993978122664
 21
-294.83985619676389
 31
0.0
  0
LINE
  8
OUTLINE
  6
CONTINUOUS
 62
     3
 10
1.226993978122664
 20
-294.83985619676389
 30
0.0
 11
1.21763410451149
 21
-294.84330827143248
 31
0.0
  0
LINE
  8
OUTLINE
  6
CONTINUOUS
 62
     3
 10
1.21763410451149
 20
-294.84330827143248
 30
0.0
 11
1.2082662458296911
 21
-294.84671572504692
 31
0.0
  0
LINE
  8
OUTLINE
  6
CONTINUOUS
 62
     3
 10
1.2082662458296911
 20
-294.84671572504692
 30
0.0
 11
1.2082662458296911
 21
-294.84671572504692
 31
0.0
  0
LINE
  8
OUTLINE
  6
CONTINUOUS
 62
     3
 10
1.2082662458296911
 20
-294.84671572504692
 30
0.0
 11
1.1988912487663581
 21
-294.85009113581492
 31
0.0
  0
LINE
  8
OUTLINE
  6
CONTINUOUS
 62
     3
 10
1.1988912487663581
 20
-294.85009113581492
 30
0.0
 11
1.189511544989273
 21
-294.85344637712927
 31
0.0
  0
LINE
  8
OUTLINE
  6
CONTINUOUS
 62
     3
 10
1.189511544989273
 20
-294.85344637712927
 30
0.0
 11
1.189511544989273
 21
-294.85344637712927
 31
0.0
  0
LINE
  8
OUTLINE
  6
CONTINUOUS
 62
     3
 10
1.189511544989273
 20
-294.85344637712927
 30
0.0
 11
1.1801298562390909
 21
-294.85679319339238
 31
0.0
  0
LINE
  8
OUTLINE
  6
CONTINUOUS
 62
     3
 10
1.1801298562390909
 20
-294.85679319339238
 30
0.0
 11
1.170748479560189
 21
-294.86014351786167
 31
0.0
  0
LINE
  8
OUTLINE
  6
CONTINUOUS
 62
     3
 10
1.170748479560189
 20
-294.86014351786167
 30
0.0
 11
1.170748479560189
 21
-294.86014351786167
 31
0.0
  0
LINE
  8
OUTLINE
  6
CONTINUOUS
 62
     3
 10
1.170748479560189
 20
-294.86014351786167
 30
0.0
 11
1.161369634274706
 21
-294.86350931835682
 31
0.0
  0
LINE
  8
OUTLINE
  6
CONTINUOUS
 62
     3
 10
1.161369634274706
 20
-294.86350931835682
 30
0.0
 11
1.151995653500308
 21
-294.86690251209512
 31
0.0
  0
LINE
  8
OUTLINE
  6
CONTINUOUS
 62
     3
 10
1.151995653500308
 20
-294.86690251209512
 30
0.0
 11
1.151995653500308
 21
-294.86690251209512
 31
0.0
  0
LINE
  8
OUTLINE
  6
CONTINUOUS
 62
     3
 10
1.151995653500308
 20
-294.86690251209512
 30
0.0
 11
1.1426281700978509
 21
-294.87033107657282
 31
0.0
  0
LINE
  8
OUTLINE
  6
CONTINUOUS
 62
     3
 10
1.1426281700978509
 20
-294.87033107657282
 30
0.0
 11
1.1332659021054501
 21
-294.87378728100992
 31
0.0
  0
LINE
  8
OUTLINE
  6
CONTINUOUS
 62
     3
 10
1.1332659021054501
 20
-294.87378728100992
 30
0.0
 11
1.1332659021054501
 21
-294.87378728100992
 31
0.0
  0
LINE
  8
OUTLINE
  6
CONTINUOUS
 62
     3
 10
1.1332659021054501
 20
-294.87378728100992
 30
0.0
 11
1.1239068408967801
 21
-294.87725946664722
 31
0.0
  0
LINE
  8
OUTLINE
  6
CONTINUOUS
 62
     3
 10
1.1239068408967801
 20
-294.87725946664722
 30
0.0
 11
1.1145489860164159
 21
-294.88073597109423
 31
0.0
  0
LINE
  8
OUTLINE
  6
CONTINUOUS
 62
     3
 10
1.1145489860164159
 20
-294.88073597109423
 30
0.0
 11
1.1145489860164159
 21
-294.88073597109423
 31
0.0
  0
LINE
  8
OUTLINE
  6
CONTINUOUS
 62
     3
 10
1.1145489860164159
 20
-294.88073597109423
 30
0.0
 11
1.1051903385059629
 21
-294.88420513129472
 31
0.0
  0
LINE
  8
OUTLINE
  6
CONTINUOUS
 62
     3
 10
1.1051903385059629
 20
-294.88420513129472
 30
0.0
 11
1.0958288972142329
 21
-294.88765528516569
 31
0.0
  0
LINE
  8
OUTLINE
  6
CONTINUOUS
 62
     3
 10
1.0958288972142329
 20
-294.88765528516569
 30
0.0
 11
1.0958288972142329
 21
-294.88765528516569
 31
0.0
  0
LINE
  8
OUTLINE
  6
CONTINUOUS
 62
     3
 10
1.0958288972142329
 20
-294.88765528516569
 30
0.0
 11
1.0864626605916781
 21
-294.89107477080262
 31
0.0
  0
LINE
  8
OUTLINE
  6
CONTINUOUS
 62
     3
 10
1.0864626605916781
 20
-294.89107477080262
 30
0.0
 11
1.0770896276762869
 21
-294.89445192604029
 31
0.0
  0
LINE
  8
OUTLINE
  6
CONTINUOUS
 62
     3
 10
1.0770896276762869
 20
-294.89445192604029
 30
0.0
 11
1.0770896276762869
 21
-294.89445192604029
 31
0.0
  0
LINE
  8
OUTLINE
  6
CONTINUOUS
 62
     3
 10
1.0770896276762869
 20
-294.89445192604029
 30
0.0
 11
1.0677077976106371
 21
-294.89777508866598
 31
0.0
  0
LINE
  8
OUTLINE
  6
CONTINUOUS
 62
     3
 10
1.0677077976106371
 20
-294.89777508866598
 30
0.0
 11
1.0583151693822399
 21
-294.90103259653608
 31
0.0
  0
LINE
  8
OUTLINE
  6
CONTINUOUS
 62
     3
 10
1.0583151693822399
 20
-294.90103259653608
 30
0.0
 11
1.0583151693822399
 21
-294.90103259653608
 31
0.0
  0
LINE
  8
OUTLINE
  6
CONTINUOUS
 62
     3
 10
1.0583151693822399
 20
-294.90103259653608
 30
0.0
 11
1.0489102211322461
 21
-294.90421555341851
 31
0.0
  0
LINE
  8
OUTLINE
  6
CONTINUOUS
 62
     3
 10
1.0489102211322461
 20
-294.90421555341851
 30
0.0
 11
1.039493347778262
 21
-294.90732612666108
 31
0.0
  0
LINE
  8
OUTLINE
  6
CONTINUOUS
 62
     3
 10
1.039493347778262
 20
-294.90732612666108
 30
0.0
 11
1.039493347778262
 21
-294.90732612666108
 31
0.0
  0
LINE
  8
OUTLINE
  6
CONTINUOUS
 62
     3
 10
1.039493347778262
 20
-294.90732612666108
 30
0.0
 11
1.0300654234270039
 21
-294.91036924950481
 31
0.0
  0
LINE
  8
OUTLINE
  6
CONTINUOUS
 62
     3
 10
1.0300654234270039
 20
-294.91036924950481
 30
0.0
 11
1.0206273221765509
 21
-294.91334985519768
 31
0.0
  0
LINE
  8
OUTLINE
  6
CONTINUOUS
 62
     3
 10
1.0206273221765509
 20
-294.91334985519768
 30
0.0
 11
1.0206273221765509
 21
-294.91334985519768
 31
0.0
  0
LINE
  8
OUTLINE
  6
CONTINUOUS
 62
     3
 10
1.0206273221765509
 20
-294.91334985519768
 30
0.0
 11
1.0111799181204331
 21
-294.91627287698691
 31
0.0
  0
LINE
  8
OUTLINE
  6
CONTINUOUS
 62
     3
 10
1.0111799181204331
 20
-294.91627287698691
 30
0.0
 11
1.001724085356273
 21
-294.91914324812001
 31
0.0
  0
LINE
  8
OUTLINE
  6
CONTINUOUS
 62
     3
 10
1.001724085356273
 20
-294.91914324812001
 30
0.0
 11
1.001724085356273
 21
-294.91914324812001
 31
0.0
  0
LINE
  8
OUTLINE
  6
CONTINUOUS
 62
     3
 10
1.001724085356273
 20
-294.91914324812001
 30
0.0
 11
0.9922606979835109
 21
-294.92196590184261
 31
0.0
  0
LINE
  8
OUTLINE
  6
CONTINUOUS
 62
     3
 10
0.9922606979835109
 20
-294.92196590184261
 30
0.0
 11
0.9827906300979521
 21
-294.92474577140189
 31
0.0
  0
LINE
  8
OUTLINE
  6
CONTINUOUS
 62
     3
 10
0.9827906300979521
 20
-294.92474577140189
 30
0.0
 11
0.9827906300979521
 21
-294.92474577140189
 31
0.0
  0
LINE
  8
OUTLINE
  6
CONTINUOUS
 62
     3
 10
0.9827906300979521
 20
-294.92474577140189
 30
0.0
 11
0.9733147557981283
 21
-294.92748779004432
 31
0.0
  0
LINE
  8
OUTLINE
  6
CONTINUOUS
 62
     3
 10
0.9733147557981283
 20
-294.92748779004432
 30
0.0
 11
0.9638339491802981
 21
-294.93019689101732
 31
0.0
  0
LINE
  8
OUTLINE
  6
CONTINUOUS
 62
     3
 10
0.9638339491802981
 20
-294.93019689101732
 30
0.0
 11
0.9638339491802981
 21
-294.93019689101732
 31
0.0
  0
LINE
  8
OUTLINE
  6
CONTINUOUS
 62
     3
 10
0.9638339491802981
 20
-294.93019689101732
 30
0.0
 11
0.9543490897963238
 21
-294.93287832311478
 31
0.0
  0
LINE
  8
OUTLINE
  6
CONTINUOUS
 62
     3
 10
0.9543490897963238
 20
-294.93287832311478
 30
0.0
 11
0.94486107900957
 21
-294.93553859732123
 31
0.0
  0
LINE
  8
OUTLINE
  6
CONTINUOUS
 62
     3
 10
0.94486107900957
 20
-294.93553859732123
 30
0.0
 11
0.94486107900957
 21
-294.93553859732123
 31
0.0
  0
LINE
  8
OUTLINE
  6
CONTINUOUS
 62
     3
 10
0.94486107900957
 20
-294.93553859732123
 30
0.0
 11
0.9353708236390048
 21
-294.93818454016707
 31
0.0
  0
LINE
  8
OUTLINE
  6
CONTINUOUS
 62
     3
 10
0.9353708236390048
 20
-294.93818454016707
 30
0.0
 11
0.9258792305008683
 21
-294.94082297818397
 31
0.0
  0
LINE
  8
OUTLINE
  6
CONTINUOUS
 62
     3
 10
0.9258792305008683
 20
-294.94082297818397
 30
0.0
 11
0.9258792305008683
 21
-294.94082297818397
 31
0.0
  0
LINE
  8
OUTLINE
  6
CONTINUOUS
 62
     3
 10
0.9258792305008683
 20
-294.94082297818397
 30
0.0
 11
0.916387206413674
 21
-294.94346073790422
 31
0.0
  0
LINE
  8
OUTLINE
  6
CONTINUOUS
 62
     3
 10
0.916387206413674
 20
-294.94346073790422
 30
0.0
 11
0.9068956581945713
 21
-294.94610464585912
 31
0.0
  0
LINE
  8
OUTLINE
  6
CONTINUOUS
 62
     3
 10
0.9068956581945713
 20
-294.94610464585912
 30
0.0
 11
0.9068956581945713
 21
-294.94610464585912
 31
0.0
  0
LINE
  8
OUTLINE
  6
CONTINUOUS
 62
     3
 10
0.9068956581945713
 20
-294.94610464585912
 30
0.0
 11
0.8974054926616191
 21
-294.94876152857921
 31
0.0
  0
LINE
  8
OUTLINE
  6
CONTINUOUS
 62
     3
 10
0.8974054926616191
 20
-294.94876152857921
 30
0.0
 11
0.8879176166319667
 21
-294.95143821259671
 31
0.0
  0
LINE
  8
OUTLINE
  6
CONTINUOUS
 62
     3
 10
0.8879176166319667
 20
-294.95143821259671
 30
0.0
 11
0.8879176166319667
 21
-294.95143821259671
 31
0.0
  0
LINE
  8
OUTLINE
  6
CONTINUOUS
 62
     3
 10
0.8879176166319667
 20
-294.95143821259671
 30
0.0
 11
0.878432936923673
 21
-294.95414152444289
 31
0.0
  0
LINE
  8
OUTLINE
  6
CONTINUOUS
 62
     3
 10
0.878432936923673
 20
-294.95414152444289
 30
0.0
 11
0.8689523603547968
 21
-294.95687829064929
 31
0.0
  0
LINE
  8
OUTLINE
  6
CONTINUOUS
 62
     3
 10
0.8689523603547968
 20
-294.95687829064929
 30
0.0
 11
0.8689523603547968
 21
-294.95687829064929
 31
0.0
  0
LINE
  8
OUTLINE
  6
CONTINUOUS
 62
     3
 10
0.8689523603547968
 20
-294.95687829064929
 30
0.0
 11
0.8594762927459669
 21
-294.959651309658
 31
0.0
  0
LINE
  8
OUTLINE
  6
CONTINUOUS
 62
     3
 10
0.8594762927459669
 20
-294.959651309658
 30
0.0
 11
0.8500031359349123
 21
-294.9624472675556
 31
0.0
  0
LINE
  8
OUTLINE
  6
CONTINUOUS
 62
     3
 10
0.8500031359349123
 20
-294.9624472675556
 30
0.0
 11
0.8500031359349123
 21
-294.9624472675556
 31
0.0
  0
LINE
  8
OUTLINE
  6
CONTINUOUS
 62
     3
 10
0.8500031359349123
 20
-294.9624472675556
 30
0.0
 11
0.840530790763296
 21
-294.96524882233717
 31
0.0
  0
LINE
  8
OUTLINE
  6
CONTINUOUS
 62
     3
 10
0.840530790763296
 20
-294.96524882233717
 30
0.0
 11
0.8310571580723263
 21
-294.968038632
 31
0.0
  0
LINE
  8
OUTLINE
  6
CONTINUOUS
 62
     3
 10
0.8310571580723263
 20
-294.968038632
 30
0.0
 11
0.8310571580723263
 21
-294.968038632
 31
0.0
  0
LINE
  8
OUTLINE
  6
CONTINUOUS
 62
     3
 10
0.8310571580723263
 20
-294.968038632
 30
0.0
 11
0.8215801387036663
 21
-294.97079935454002
 31
0.0
  0
LINE
  8
OUTLINE
  6
CONTINUOUS
 62
     3
 10
0.8215801387036663
 20
-294.97079935454002
 30
0.0
 11
0.8120976334985244
 21
-294.97351364795418
 31
0.0
  0
LINE
  8
OUTLINE
  6
CONTINUOUS
 62
     3
 10
0.8120976334985244
 20
-294.97351364795418
 30
0.0
 11
0.8120976334985244
 21
-294.97351364795418
 31
0.0
  0
LINE
  8
OUTLINE
  6
CONTINUOUS
 62
     3
 10
0.8120976334985244
 20
-294.97351364795418
 30
0.0
 11
0.8026075432981088
 21
-294.97616417023937
 31
0.0
  0
LINE
  8
OUTLINE
  6
CONTINUOUS
 62
     3
 10
0.8026075432981088
 20
-294.97616417023937
 30
0.0
 11
0.7931077689440826
 21
-294.97873357939142
 31
0.0
  0
LINE
  8
OUTLINE
  6
CONTINUOUS
 62
     3
 10
0.7931077689440826
 20
-294.97873357939142
 30
0.0
 11
0.7931077689440826
 21
-294.97873357939142
 31
0.0
  0
LINE
  8
OUTLINE
  6
CONTINUOUS
 62
     3
 10
0.7931077689440826
 20
-294.97873357939142
 30
0.0
 11
0.7835962112776542
 21
-294.98120453340613
 31
0.0
  0
LINE
  8
OUTLINE
  6
CONTINUOUS
 62
     3
 10
0.7835962112776542
 20
-294.98120453340613
 30
0.0
 11
0.7740707711404866
 21
-294.98355969028131
 31
0.0
  0
LINE
  8
OUTLINE
  6
CONTINUOUS
 62
     3
 10
0.7740707711404866
 20
-294.98355969028131
 30
0.0
 11
0.7740707711404866
 21
-294.98355969028131
 31
0.0
  0
LINE
  8
OUTLINE
  6
CONTINUOUS
 62
     3
 10
0.7740707711404866
 20
-294.98355969028131
 30
0.0
 11
0.7645300423178014
 21
-294.98578749003678
 31
0.0
  0
LINE
  8
OUTLINE
  6
CONTINUOUS
 62
     3
 10
0.7645300423178014
 20
-294.98578749003678
 30
0.0
 11
0.7549753903726924
 21
-294.98789950078998
 31
0.0
  0
LINE
  8
OUTLINE
  6
CONTINUOUS
 62
     3
 10
0.7549753903726924
 20
-294.98789950078998
 30
0.0
 11
0.7549753903726924
 21
-294.98789950078998
 31
0.0
  0
LINE
  8
OUTLINE
  6
CONTINUOUS
 62
     3
 10
0.7549753903726924
 20
-294.98789950078998
 30
0.0
 11
0.7454088738122664
 21
-294.98991307268238
 31
0.0
  0
LINE
  8
OUTLINE
  6
CONTINUOUS
 62
     3
 10
0.7454088738122664
 20
-294.98991307268238
 30
0.0
 11
0.7358325511431758
 21
-294.99184555585578
 31
0.0
  0
LINE
  8
OUTLINE
  6
CONTINUOUS
 62
     3
 10
0.7358325511431758
 20
-294.99184555585578
 30
0.0
 11
0.7358325511431758
 21
-294.99184555585578
 31
0.0
  0
LINE
  8
OUTLINE
  6
CONTINUOUS
 62
     3
 10
0.7358325511431758
 20
-294.99184555585578
 30
0.0
 11
0.7262484808725276
 21
-294.99371430045142
 31
0.0
  0
LINE
  8
OUTLINE
  6
CONTINUOUS
 62
     3
 10
0.7262484808725276
 20
-294.99371430045142
 30
0.0
 11
0.716658721506974
 21
-294.99553665661062
 31
0.0
  0
LINE
  8
OUTLINE
  6
CONTINUOUS
 62
     3
 10
0.716658721506974
 20
-294.99553665661062
 30
0.0
 11
0.716658721506974
 21
-294.99553665661062
 31
0.0
  0
LINE
  8
OUTLINE
  6
CONTINUOUS
 62
     3
 10
0.716658721506974
 20
-294.99553665661062
 30
0.0
 11
0.7070653315540767
 21
-294.99732997447501
 31
0.0
  0
LINE
  8
OUTLINE
  6
CONTINUOUS
 62
     3
 10
0.7070653315540767
 20
-294.99732997447501
 30
0.0
 11
0.697470369520488
 21
-294.99911160418588
 31
0.0
  0
LINE
  8
OUTLINE
  6
CONTINUOUS
 62
     3
 10
0.697470369520488
 20
-294.99911160418588
 30
0.0
 11
0.697470369520488
 21
-294.99911160418588
 31
0.0
  0
LINE
  8
OUTLINE
  6
CONTINUOUS
 62
     3
 10
0.697470369520488
 20
-294.99911160418588
 30
0.0
 11
0.6878758939137697
 21
-295.0008988958848
 31
0.0
  0
LINE
  8
OUTLINE
  6
CONTINUOUS
 62
     3
 10
0.6878758939137697
 20
-295.0008988958848
 30
0.0
 11
0.6782839632401192
 21
-295.00270919971319
 31
0.0
  0
LINE
  8
OUTLINE
  6
CONTINUOUS
 62
     3
 10
0.6782839632401192
 20
-295.00270919971319
 30
0.0
 11
0.6782839632401192
 21
-295.00270919971319
 31
0.0
  0
LINE
  8
OUTLINE
  6
CONTINUOUS
 62
     3
 10
0.6782839632401192
 20
-295.00270919971319
 30
0.0
 11
0.668696175662717
 21
-295.00455582958568
 31
0.0
  0
LINE
  8
OUTLINE
  6
CONTINUOUS
 62
     3
 10
0.668696175662717
 20
-295.00455582958568
 30
0.0
 11
0.6591122879694922
 21
-295.00643595450919
 31
0.0
  0
LINE
  8
OUTLINE
  6
CONTINUOUS
 62
     3
 10
0.6591122879694922
 20
-295.00643595450919
 30
0.0
 11
0.6591122879694922
 21
-295.00643595450919
 31
0.0
  0
LINE
  8
OUTLINE
  6
CONTINUOUS
 62
     3
 10
0.6591122879694922
 20
-295.00643595450919
 30
0.0
 11
0.6495315966039925
 21
-295.00834270726239
 31
0.0
  0
LINE
  8
OUTLINE
  6
CONTINUOUS
 62
     3
 10
0.6495315966039925
 20
-295.00834270726239
 30
0.0
 11
0.6399533980093111
 21
-295.01026922062567
 31
0.0
  0
LINE
  8
OUTLINE
  6
CONTINUOUS
 62
     3
 10
0.6399533980093111
 20
-295.01026922062567
 30
0.0
 11
0.6399533980093111
 21
-295.01026922062567
 31
0.0
  0
LINE
  8
OUTLINE
  6
CONTINUOUS
 62
     3
 10
0.6399533980093111
 20
-295.01026922062567
 30
0.0
 11
0.6303769886289956
 21
-295.01220862737893
 31
0.0
  0
LINE
  8
OUTLINE
  6
CONTINUOUS
 62
     3
 10
0.6303769886289956
 20
-295.01220862737893
 30
0.0
 11
0.6208016649065939
 21
-295.01415406030088
 31
0.0
  0
LINE
  8
OUTLINE
  6
CONTINUOUS
 62
     3
 10
0.6208016649065939
 20
-295.01415406030088
 30
0.0
 11
0.6208016649065939
 21
-295.01415406030088
 31
0.0
  0
LINE
  8
OUTLINE
  6
CONTINUOUS
 62
     3
 10
0.6208016649065939
 20
-295.01415406030088
 30
0.0
 11
0.6112267232861086
 21
-295.01609865217199
 31
0.0
  0
LINE
  8
OUTLINE
  6
CONTINUOUS
 62
     3
 10
0.6112267232861086
 20
-295.01609865217199
 30
0.0
 11
0.6016514602106327
 21
-295.01803553577122
 31
0.0
  0
LINE
  8
OUTLINE
  6
CONTINUOUS
 62
     3
 10
0.6016514602106327
 20
-295.01803553577122
 30
0.0
 11
0.6016514602106327
 21
-295.01803553577122
 31
0.0
  0
LINE
  8
OUTLINE
  6
CONTINUOUS
 62
     3
 10
0.6016514602106327
 20
-295.01803553577122
 30
0.0
 11
0.5920751721237139
 21
-295.01995784387918
 31
0.0
  0
LINE
  8
OUTLINE
  6
CONTINUOUS
 62
     3
 10
0.5920751721237139
 20
-295.01995784387918
 30
0.0
 11
0.5824971554689
 21
-295.02185870927491
 31
0.0
  0
LINE
  8
OUTLINE
  6
CONTINUOUS
 62
     3
 10
0.5824971554689
 20
-295.02185870927491
 30
0.0
 11
0.5824971554689
 21
-295.02185870927491
 31
0.0
  0
LINE
  8
OUTLINE
  6
CONTINUOUS
 62
     3
 10
0.5824971554689
 20
-295.02185870927491
 30
0.0
 11
0.5729167477315968
 21
-295.02373156519559
 31
0.0
  0
LINE
  8
OUTLINE
  6
CONTINUOUS
 62
     3
 10
0.5729167477315968
 20
-295.02373156519559
 30
0.0
 11
0.5633334505660059
 21
-295.02557104670763
 31
0.0
  0
LINE
  8
OUTLINE
  6
CONTINUOUS
 62
     3
 10
0.5633334505660059
 20
-295.02557104670763
 30
0.0
 11
0.5633334505660059
 21
-295.02557104670763
 31
0.0
  0
LINE
  8
OUTLINE
  6
CONTINUOUS
 62
     3
 10
0.5633334505660059
 20
-295.02557104670763
 30
0.0
 11
0.553746806667732
 21
-295.02737208933399
 31
0.0
  0
LINE
  8
OUTLINE
  6
CONTINUOUS
 62
     3
 10
0.553746806667732
 20
-295.02737208933399
 30
0.0
 11
0.5441563587319251
 21
-295.02912962859921
 31
0.0
  0
LINE
  8
OUTLINE
  6
CONTINUOUS
 62
     3
 10
0.5441563587319251
 20
-295.02912962859921
 30
0.0
 11
0.5441563587319251
 21
-295.02912962859921
 31
0.0
  0
LINE
  8
OUTLINE
  6
CONTINUOUS
 62
     3
 10
0.5441563587319251
 20
-295.02912962859921
 30
0.0
 11
0.5345616494546448
 21
-295.03083860002721
 31
0.0
  0
LINE
  8
OUTLINE
  6
CONTINUOUS
 62
     3
 10
0.5345616494546448
 20
-295.03083860002721
 30
0.0
 11
0.5249622215324052
 21
-295.03249393914137
 31
0.0
  0
LINE
  8
OUTLINE
  6
CONTINUOUS
 62
     3
 10
0.5249622215324052
 20
-295.03249393914137
 30
0.0
 11
0.5249622215324052
 21
-295.03249393914137
 31
0.0
  0
LINE
  8
OUTLINE
  6
CONTINUOUS
 62
     3
 10
0.5249622215324052
 20
-295.03249393914137
 30
0.0
 11
0.5153576176608112
 21
-295.03409058146519
 31
0.0
  0
LINE
  8
OUTLINE
  6
CONTINUOUS
 62
     3
 10
0.5153576176608112
 20
-295.03409058146519
 30
0.0
 11
0.5057473805336485
 21
-295.03562346252278
 31
0.0
  0
LINE
  8
OUTLINE
  6
CONTINUOUS
 62
     3
 10
0.5057473805336485
 20
-295.03562346252278
 30
0.0
 11
0.5057473805336485
 21
-295.03562346252278
 31
0.0
  0
LINE
  8
OUTLINE
  6
CONTINUOUS
 62
     3
 10
0.5057473805336485
 20
-295.03562346252278
 30
0.0
 11
0.4961310528447029
 21
-295.03708751783768
 31
0.0
  0
LINE
  8
OUTLINE
  6
CONTINUOUS
 62
     3
 10
0.4961310528447029
 20
-295.03708751783768
 30
0.0
 11
0.4865081773014026
 21
-295.03847768293417
 31
0.0
  0
LINE
  8
OUTLINE
  6
CONTINUOUS
 62
     3
 10
0.4865081773014026
 20
-295.03847768293417
 30
0.0
 11
0.4865081773014026
 21
-295.03847768293417
 31
0.0
  0
LINE
  8
OUTLINE
  6
CONTINUOUS
 62
     3
 10
0.4865081773014026
 20
-295.03847768293417
 30
0.0
 11
0.4768785927781209
 21
-295.03979172773239
 31
0.0
  0
LINE
  8
OUTLINE
  6
CONTINUOUS
 62
     3
 10
0.4768785927781209
 20
-295.03979172773239
 30
0.0
 11
0.4672433228092814
 21
-295.04103875974772
 31
0.0
  0
LINE
  8
OUTLINE
  6
CONTINUOUS
 62
     3
 10
0.4672433228092814
 20
-295.04103875974772
 30
0.0
 11
0.4672433228092814
 21
-295.04103875974772
 31
0.0
  0
LINE
  8
OUTLINE
  6
CONTINUOUS
 62
     3
 10
0.4672433228092814
 20
-295.04103875974772
 30
0.0
 11
0.4576036871358156
 21
-295.04223072089121
 31
0.0
  0
LINE
  8
OUTLINE
  6
CONTINUOUS
 62
     3
 10
0.4576036871358156
 20
-295.04223072089121
 30
0.0
 11
0.4479610056650927
 21
-295.04337955306681
 31
0.0
  0
LINE
  8
OUTLINE
  6
CONTINUOUS
 62
     3
 10
0.4479610056650927
 20
-295.04337955306681
 30
0.0
 11
0.4479610056650927
 21
-295.04337955306681
 31
0.0
  0
LINE
  8
OUTLINE
  6
CONTINUOUS
 62
     3
 10
0.4479610056650927
 20
-295.04337955306681
 30
0.0
 11
0.438316598190795
 21
-295.04449719818308
 31
0.0
  0
LINE
  8
OUTLINE
  6
CONTINUOUS
 62
     3
 10
0.438316598190795
 20
-295.04449719818308
 30
0.0
 11
0.4286717838840559
 21
-295.04559559817778
 31
0.0
  0
LINE
  8
OUTLINE
  6
CONTINUOUS
 62
     3
 10
0.4286717838840559
 20
-295.04559559817778
 30
0.0
 11
0.4286717838840559
 21
-295.04559559817778
 31
0.0
  0
LINE
  8
OUTLINE
  6
CONTINUOUS
 62
     3
 10
0.4286717838840559
 20
-295.04559559817778
 30
0.0
 11
0.4190278823402878
 21
-295.04668669496709
 31
0.0
  0
LINE
  8
OUTLINE
  6
CONTINUOUS
 62
     3
 10
0.4190278823402878
 20
-295.04668669496709
 30
0.0
 11
0.409386215480481
 21
-295.04778243036611
 31
0.0
  0
LINE
  8
OUTLINE
  6
CONTINUOUS
 62
     3
 10
0.409386215480481
 20
-295.04778243036611
 30
0.0
 11
0.409386215480481
 21
-295.04778243036611
 31
0.0
  0
LINE
  8
OUTLINE
  6
CONTINUOUS
 62
     3
 10
0.409386215480481
 20
-295.04778243036611
 30
0.0
 11
0.3997481036381032
 21
-295.04889474625861
 31
0.0
  0
LINE
  8
OUTLINE
  6
CONTINUOUS
 62
     3
 10
0.3997481036381032
 20
-295.04889474625861
 30
0.0
 11
0.3901148584700422
 21
-295.05003558491808
 31
0.0
  0
LINE
  8
OUTLINE
  6
CONTINUOUS
 62
     3
 10
0.3901148584700422
 20
-295.05003558491808
 30
0.0
 11
0.3901148584700422
 21
-295.05003558491808
 31
0.0
  0
LINE
  8
OUTLINE
  6
CONTINUOUS
 62
     3
 10
0.3901148584700422
 20
-295.05003558491808
 30
0.0
 11
0.3804871783240742
 21
-295.05121284191171
 31
0.0
  0
LINE
  8
OUTLINE
  6
CONTINUOUS
 62
     3
 10
0.3804871783240742
 20
-295.05121284191171
 30
0.0
 11
0.3708633169876521
 21
-295.05241822559378
 31
0.0
  0
LINE
  8
OUTLINE
  6
CONTINUOUS
 62
     3
 10
0.3708633169876521
 20
-295.05241822559378
 30
0.0
 11
0.3708633169876521
 21
-295.05241822559378
 31
0.0
  0
LINE
  8
OUTLINE
  6
CONTINUOUS
 62
     3
 10
0.3708633169876521
 20
-295.05241822559378
 30
0.0
 11
0.3612408868989405
 21
-295.0536393988657
 31
0.0
  0
LINE
  8
OUTLINE
  6
CONTINUOUS
 62
     3
 10
0.3612408868989405
 20
-295.0536393988657
 30
0.0
 11
0.3516173796533621
 21
-295.05486403004159
 31
0.0
  0
LINE
  8
OUTLINE
  6
CONTINUOUS
 62
     3
 10
0.3516173796533621
 20
-295.05486403004159
 30
0.0
 11
0.3516173796533621
 21
-295.05486403004159
 31
0.0
  0
LINE
  8
OUTLINE
  6
CONTINUOUS
 62
     3
 10
0.3516173796533621
 20
-295.05486403004159
 30
0.0
 11
0.3419903693838933
 21
-295.05607978373882
 31
0.0
  0
LINE
  8
OUTLINE
  6
CONTINUOUS
 62
     3
 10
0.3419903693838933
 20
-295.05607978373882
 30
0.0
 11
0.3323578812060077
 21
-295.05727430438623
 31
0.0
  0
LINE
  8
OUTLINE
  6
CONTINUOUS
 62
     3
 10
0.3323578812060077
 20
-295.05727430438623
 30
0.0
 11
0.3323578812060077
 21
-295.05727430438623
 31
0.0
  0
LINE
  8
OUTLINE
  6
CONTINUOUS
 62
     3
 10
0.3323578812060077
 20
-295.05727430438623
 30
0.0
 11
0.3227176322075138
 21
-295.05843525020242
 31
0.0
  0
LINE
  8
OUTLINE
  6
CONTINUOUS
 62
     3
 10
0.3227176322075138
 20
-295.05843525020242
 30
0.0
 11
0.3130656563848788
 21
-295.05955035475068
 31
0.0
  0
LINE
  8
OUTLINE
  6
CONTINUOUS
 62
     3
 10
0.3130656563848788
 20
-295.05955035475068
 30
0.0
 11
0.3130656563848788
 21
-295.05955035475068
 31
0.0
  0
LINE
  8
OUTLINE
  6
CONTINUOUS
 62
     3
 10
0.3130656563848788
 20
-295.05955035475068
 30
0.0
 11
0.3033991373076788
 21
-295.06060730013269
 31
0.0
  0
LINE
  8
OUTLINE
  6
CONTINUOUS
 62
     3
 10
0.3033991373076788
 20
-295.06060730013269
 30
0.0
 11
0.2937215399297202
 21
-295.06159348725828
 31
0.0
  0
LINE
  8
OUTLINE
  6
CONTINUOUS
 62
     3
 10
0.2937215399297202
 20
-295.06159348725828
 30
0.0
 11
0.2937215399297202
 21
-295.06159348725828
 31
0.0
  0
LINE
  8
OUTLINE
  6
CONTINUOUS
 62
     3
 10
0.2937215399297202
 20
-295.06159348725828
 30
0.0
 11
0.2840326799596369
 21
-295.06249971481782
 31
0.0
  0
LINE
  8
OUTLINE
  6
CONTINUOUS
 62
     3
 10
0.2840326799596369
 20
-295.06249971481782
 30
0.0
 11
0.2743114947438698
 21
-295.06333065382569
 31
0.0
  0
LINE
  8
OUTLINE
  6
CONTINUOUS
 62
     3
 10
0.2743114947438698
 20
-295.06333065382569
 30
0.0
 11
0.2743114947438698
 21
-295.06333065382569
 31
0.0
  0
LINE
  8
OUTLINE
  6
CONTINUOUS
 62
     3
 10
0.2743114947438698
 20
-295.06333065382569
 30
0.0
 11
0.2645535741353342
 21
-295.064093464248
 31
0.0
  0
LINE
  8
OUTLINE
  6
CONTINUOUS
 62
     3
 10
0.2645535741353342
 20
-295.064093464248
 30
0.0
 11
0.2548419963868582
 21
-295.06479138954381
 31
0.0
  0
LINE
  8
OUTLINE
  6
CONTINUOUS
 62
     3
 10
0.2548419963868582
 20
-295.06479138954381
 30
0.0
 11
0.2548419963868582
 21
-295.06479138954381
 31
0.0
  0
LINE
  8
OUTLINE
  6
CONTINUOUS
 62
     3
 10
0.2548419963868582
 20
-295.06479138954381
 30
0.0
 11
0.2452000840639812
 21
-295.06543034819691
 31
0.0
  0
LINE
  8
OUTLINE
  6
CONTINUOUS
 62
     3
 10
0.2452000840639812
 20
-295.06543034819691
 30
0.0
 11
0.235324648583628
 21
-295.06603087529669
 31
0.0
  0
LINE
  8
OUTLINE
  6
CONTINUOUS
 62
     3
 10
0.235324648583628
 20
-295.06603087529669
 30
0.0
 11
0.235324648583628
 21
-295.06603087529669
 31
0.0
  0
LINE
  8
OUTLINE
  6
CONTINUOUS
 62
     3
 10
0.235324648583628
 20
-295.06603087529669
 30
0.0
 11
0.2251355126250019
 21
-295.06660352260451
 31
0.0
  0
LINE
  8
OUTLINE
  6
CONTINUOUS
 62
     3
 10
0.2251355126250019
 20
-295.06660352260451
 30
0.0
 11
0.2157710550573029
 21
-295.06710429196761
 31
0.0
  0
LINE
  8
OUTLINE
  6
CONTINUOUS
 62
     3
 10
0.2157710550573029
 20
-295.06710429196761
 30
0.0
 11
0.2157710550573029
 21
-295.06710429196761
 31
0.0
  0
LINE
  8
OUTLINE
  6
CONTINUOUS
 62
     3
 10
0.2157710550573029
 20
-295.06710429196761
 30
0.0
 11
0.2075373653938186
 21
-295.06752644351678
 31
0.0
  0
LINE
  8
OUTLINE
  6
CONTINUOUS
 62
     3
 10
0.2075373653938186
 20
-295.06752644351678
 30
0.0
 11
0.196192819531916
 21
-295.06806682044203
 31
0.0
  0
LINE
  8
OUTLINE
  6
CONTINUOUS
 62
     3
 10
0.196192819531916
 20
-295.06806682044203
 30
0.0
 11
0.196192819531916
 21
-295.06806682044203
 31
0.0
  0
LINE
  8
OUTLINE
  6
CONTINUOUS
 62
     3
 10
0.196192819531916
 20
-295.06806682044203
 30
0.0
 11
0.178151242992044
 21
-295.06888869882653
 31
0.0
  0
LINE
  8
OUTLINE
  6
CONTINUOUS
 62
     3
 10
0.178151242992044
 20
-295.06888869882653
 30
0.0
 11
0.1569959734051736
 21
-295.06981750328492
 31
0.0
  0
LINE
  8
OUTLINE
  6
CONTINUOUS
 62
     3
 10
0.1569959734051736
 20
-295.06981750328492
 30
0.0
 11
0.1569959734051736
 21
-295.06981750328492
 31
0.0
  0
LINE
  8
OUTLINE
  6
CONTINUOUS
 62
     3
 10
0.1569959734051736
 20
-295.06981750328492
 30
0.0
 11
0.1369671517295501
 21
-295.07065075409412
 31
0.0
  0
LINE
  8
OUTLINE
  6
CONTINUOUS
 62
     3
 10
0.1369671517295501
 20
-295.07065075409412
 30
0.0
 11
0.1177626201192652
 21
-295.07141220564972
 31
0.0
  0
LINE
  8
OUTLINE
  6
CONTINUOUS
 62
     3
 10
0.1177626201192652
 20
-295.07141220564972
 30
0.0
 11
0.1177626201192652
 21
-295.07141220564972
 31
0.0
  0
LINE
  8
OUTLINE
  6
CONTINUOUS
 62
     3
 10
0.1177626201192652
 20
-295.07141220564972
 30
0.0
 11
0.0982487596156716
 21
-295.07216677257901
 31
0.0
  0
LINE
  8
OUTLINE
  6
CONTINUOUS
 62
     3
 10
0.0982487596156716
 20
-295.07216677257901
 30
0.0
 11
0.0785084056137748
 21
-295.07291777630991
 31
0.0
  0
LINE
  8
OUTLINE
  6
CONTINUOUS
 62
     3
 10
0.0785084056137748
 20
-295.07291777630991
 30
0.0
 11
0.0785084056137748
 21
-295.07291777630991
 31
0.0
  0
LINE
  8
OUTLINE
  6
CONTINUOUS
 62
     3
 10
0.0785084056137748
 20
-295.07291777630991
 30
0.0
 11
0.0588476274442655
 21
-295.07365817463932
 31
0.0
  0
LINE
  8
OUTLINE
  6
CONTINUOUS
 62
     3
 10
0.0588476274442655
 20
-295.07365817463932
 30
0.0
 11
0.0392489758296506
 21
-295.07440106403823
 31
0.0
  0
LINE
  8
OUTLINE
  6
CONTINUOUS
 62
     3
 10
0.0392489758296506
 20
-295.07440106403823
 30
0.0
 11
0.0392489758296506
 21
-295.07440106403823
 31
0.0
  0
LINE
  8
OUTLINE
  6
CONTINUOUS
 62
     3
 10
0.0392489758296506
 20
-295.07440106403823
 30
0.0
 11
0.019633526861071
 21
-295.07515983527151
 31
0.0
  0
LINE
  8
OUTLINE
  6
CONTINUOUS
 62
     3
 10
0.019633526861071
 20
-295.07515983527151
 30
0.0
 11
-0.0000000232935236
 21
-295.07592891760908
 31
0.0
  0
ARC
  8
OUTLINE
  6
CONTINUOUS
 62
     3
 10
308.49757673667227
 20
-1.5024232633279551
 30
0.0
 40
1.5024232633279551
 50
270.0
 51
90.0
  0
ARC
  8
OUTLINE
  6
CONTINUOUS
 62
     3
 10
293.45581583198691
 20
-82.449499170930608
 30
0.0
 40
2.0032310177706441
 50
270.0
 51
90.0
  0
ARC
  8
OUTLINE
  6
CONTINUOUS
 62
     3
 10
303.38933764135709
 20
-6.4103392568659956
 30
0.0
 40
3.6058158319871141
 50
270.0
 51
0.0
  0
ARC
  8
OUTLINE
  6
CONTINUOUS
 62
     3
 10
293.37318255250369
 20
-16.426494345718989
 30
0.0
 40
3.6058158319872282
 50
270.0
 51
0.0
  0
ARC
  8
OUTLINE
  6
CONTINUOUS
 62
     3
 10
0.0
 20
-288.54289176090441
 30
0.0
 40
6.5330371567043164
 50
223.89739816709931
 51
316.10260183290058
  0
ARC
  8
OUTLINE
  6
CONTINUOUS
 62
     3
 10
57.893376413570422
 20
-285.15993537964448
 30
0.0
 40
7.4119547657512621
 50
270.0
 51
0.0
  0
ARC
  8
OUTLINE
  6
CONTINUOUS
 62
     3
 10
-308.49757673667182
 20
-1.5024232633279551
 30
0.0
 40
1.5024232633279551
 50
90.0
 51
270.0
  0
ARC
  8
OUTLINE
  6
CONTINUOUS
 62
     3
 10
-293.45581583198691
 20
-82.449499170930608
 30
0.0
 40
2.0032310177707591
 50
90.0
 51
270.0
  0
ARC
  8
OUTLINE
  6
CONTINUOUS
 62
     3
 10
-293.3731825525042
 20
-16.426494345718989
 30
0.0
 40
3.6058158319872282
 50
180.0
 51
270.0
  0
ARC
  8
OUTLINE
  6
CONTINUOUS
 62
     3
 10
-303.38933764135709
 20
-6.4103392568659956
 30
0.0
 40
3.6058158319870008
 50
180.0
 51
270.0
  0
ARC
  8
OUTLINE
  6
CONTINUOUS
 62
     3
 10
-57.893376413569968
 20
-285.15993537964448
 30
0.0
 40
7.4119547657512017
 50
180.0
 51
270.0
  0
LINE
  8
OUTLINE
  6
CONTINUOUS
 62
     3
 10
236.05084908411911
 20
-239.4162779203015
 30
0.0
 11
237.80367622466849
 21
-236.93740600568549
 31
0.0
  0
LINE
  8
OUTLINE
  6
CONTINUOUS
 62
     3
 10
306.99515347334409
 20
-3.004846526655911
 30
0.0
 11
306.99515347334409
 21
-6.4103392568659956
 31
0.0
  0
LINE
  8
OUTLINE
  6
CONTINUOUS
 62
     3
 10
296.97899838449121
 20
-13.221324717285601
 30
0.0
 11
296.97899838449121
 21
-16.426494345718989
 31
0.0
  0
LINE
  8
OUTLINE
  6
CONTINUOUS
 62
     3
 10
261.32961628886278
 20
-20.032310177705881
 30
0.0
 11
261.32961628886278
 21
-158.25525040387731
 31
0.0
  0
LINE
  8
OUTLINE
  6
CONTINUOUS
 62
     3
 10
89.644588045234286
 20
-270.43618739903047
 30
0.0
 11
89.644588045234286
 21
-266.42972536348918
 31
0.0
  0
LINE
  8
OUTLINE
  6
CONTINUOUS
 62
     3
 10
65.305331179321456
 20
-285.15993537964448
 30
0.0
 11
65.305331179321456
 21
-270.43618739903047
 31
0.0
  0
LINE
  8
OUTLINE
  6
CONTINUOUS
 62
     3
 10
4.7075928917611236
 20
-293.07269789983832
 30
0.0
 11
4.7075928917611236
 21
-292.57189014539563
 31
0.0
  0
LINE
  8
OUTLINE
  6
CONTINUOUS
 62
     3
 10
-4.7075928917606689
 20
-293.07269789983832
 30
0.0
 11
-4.7075928917606689
 21
-292.57189014539563
 31
0.0
  0
LINE
  8
OUTLINE
  6
CONTINUOUS
 62
     3
 10
308.49757673667227
 20
0.0
 30
0.0
 11
-308.49757673667182
 21
0.0
 31
0.0
  0
LINE
  8
OUTLINE
  6
CONTINUOUS
 62
     3
 10
308.49757673667227
 20
-3.004846526655911
 30
0.0
 11
306.99515347334409
 21
-3.004846526655911
 31
0.0
  0
LINE
  8
OUTLINE
  6
CONTINUOUS
 62
     3
 10
-301.74493768103088
 20
-10.01615508885266
 30
0.0
 11
-303.38933764135709
 21
-10.01615508885266
 31
0.0
  0
LINE
  8
OUTLINE
  6
CONTINUOUS
 62
     3
 10
303.38933764135709
 20
-10.01615508885266
 30
0.0
 11
301.74493768103088
 21
-10.01615508885266
 31
0.0
  0
LINE
  8
OUTLINE
  6
CONTINUOUS
 62
     3
 10
-261.32961628886278
 20
-20.032310177705881
 30
0.0
 11
-293.3731825525042
 21
-20.032310177705881
 31
0.0
  0
LINE
  8
OUTLINE
  6
CONTINUOUS
 62
     3
 10
293.37318255250369
 20
-20.032310177705881
 30
0.0
 11
261.32961628886278
 21
-20.032310177705881
 31
0.0
  0
LINE
  8
OUTLINE
  6
CONTINUOUS
 62
     3
 10
-65.305331179321456
 20
-285.15993537964448
 30
0.0
 11
-65.305331179321456
 21
-270.43618739903047
 31
0.0
  0
LINE
  8
OUTLINE
  6
CONTINUOUS
 62
     3
 10
-261.32961628886278
 20
-80.44626815316019
 30
0.0
 11
-293.45581583198691
 21
-80.44626815316019
 31
0.0
  0
LINE
  8
OUTLINE
  6
CONTINUOUS
 62
     3
 10
293.45581583198691
 20
-80.44626815316019
 30
0.0
 11
261.32961628886278
 21
-80.44626815316019
 31
0.0
  0
LINE
  8
OUTLINE
  6
CONTINUOUS
 62
     3
 10
-261.32961628886278
 20
-84.452730188701366
 30
0.0
 11
-293.45581583198691
 21
-84.452730188701366
 31
0.0
  0
LINE
  8
OUTLINE
  6
CONTINUOUS
 62
     3
 10
293.45581583198691
 20
-84.452730188701366
 30
0.0
 11
261.32961628886278
 21
-84.452730188701366
 31
0.0
  0
LINE
  8
OUTLINE
  6
CONTINUOUS
 62
     3
 10
-89.644588045234286
 20
-270.43618739903047
 30
0.0
 11
-89.644588045234286
 21
-266.42972536348918
 31
0.0
  0
LINE
  8
OUTLINE
  6
CONTINUOUS
 62
     3
 10
89.644588045234286
 20
-266.42972536348918
 30
0.0
 11
180.5892290579977
 21
-266.42972536348918
 31
0.0
  0
LINE
  8
OUTLINE
  6
CONTINUOUS
 62
     3
 10
-184.8387114935567
 20
-266.42972536348918
 30
0.0
 11
-89.644588045234286
 21
-266.42972536348918
 31
0.0
  0
LINE
  8
OUTLINE
  6
CONTINUOUS
 62
     3
 10
89.644588045234286
 20
-270.43618739903047
 30
0.0
 11
65.305331179321456
 21
-270.43618739903047
 31
0.0
  0
LINE
  8
OUTLINE
  6
CONTINUOUS
 62
     3
 10
-261.32961628886278
 20
-158.25525040387731
 30
0.0
 11
-261.32961628886278
 21
-20.032310177705881
 31
0.0
  0
LINE
  8
OUTLINE
  6
CONTINUOUS
 62
     3
 10
57.893376413570422
 20
-292.57189014539563
 30
0.0
 11
-57.893376413569968
 21
-292.57189014539563
 31
0.0
  0
LINE
  8
OUTLINE
  6
CONTINUOUS
 62
     3
 10
-4.7075928917606689
 20
-293.07269789983832
 30
0.0
 11
4.7075928917611236
 21
-293.07269789983832
 31
0.0
  0
LINE
  8
OUTLINE
  6
CONTINUOUS
 62
     3
 10
-296.97899838449081
 20
-16.426494345718989
 30
0.0
 11
-296.97899838449081
 21
-13.221324717285601
 31
0.0
  0
LINE
  8
OUTLINE
  6
CONTINUOUS
 62
     3
 10
-306.99515347334409
 20
-6.4103392568659956
 30
0.0
 11
-306.99515347334409
 21
-3.004846526655911
 31
0.0
  0
ARC
  8
OUTLINE
  6
CONTINUOUS
 62
     3
 10
275.94507269789972
 20
-39.463651050080557
 30
0.0
 40
19.43134087237468
 50
90.0
 51
138.7911112337016
  0
ARC
  8
OUTLINE
  6
CONTINUOUS
 62
     3
 10
295.97738287560611
 20
-44.471728594506999
 30
0.0
 40
39.463651050080827
 50
208.58710129419299
 51
245.7438683375953
  0
ARC
  8
OUTLINE
  6
CONTINUOUS
 62
     3
 10
-275.94507269789972
 20
-39.463651050080557
 30
0.0
 40
19.431340872374761
 50
41.208888766298408
 51
90.0
  0
ARC
  8
OUTLINE
  6
CONTINUOUS
 62
     3
 10
-295.9773828756056
 20
-44.471728594506999
 30
0.0
 40
39.463651050080891
 50
294.25613166249082
 51
331.41289870580698
  0
LINE
  8
OUTLINE
  6
CONTINUOUS
 62
     3
 10
-306.99515347334409
 20
-3.004846526655911
 30
0.0
 11
-308.49757673667182
 21
-3.004846526655911
 31
0.0
  0
LINE
  8
OUTLINE
  6
CONTINUOUS
 62
     3
 10
-65.305331179321456
 20
-270.43618739903047
 30
0.0
 11
-89.644588045234286
 21
-270.43618739903047
 31
0.0
  0
LINE
  8
SIZE
  6
CONTINUOUS
 62
    30
 10
-65.305331179321456
 20
-305.15993537964448
 30
0.0
 11
-65.305331179321456
 21
-459.08713494128818
 31
0.0
  0
LINE
  8
SIZE
  6
CONTINUOUS
 62
    30
 10
65.305331179321456
 20
-305.15993537964448
 30
0.0
 11
65.305331179321456
 21
-459.08713494128818
 31
0.0
  0
LINE
  8
SIZE
  6
CONTINUOUS
 62
    30
 10
-53.305331179321463
 20
-439.08713494128818
 30
0.0
 11
53.305331179321463
 21
-439.08713494128818
 31
0.0
  0
LINE
  8
SIZE
  6
CONTINUOUS
 62
    30
 10
65.305331179321456
 20
-439.08713494128818
 30
0.0
 11
300.10533117932118
 21
-439.08713494128818
 31
0.0
  0
CIRCLE
  8
SIZE
  6
CONTINUOUS
 62
    30
 10
-65.305331179321456
 20
-439.08713494128818
 30
0.0
 40
6.0
  0
LINE
  8
SIZE
  6
CONTINUOUS
 62
    30
 10
-65.305331179321456
 20
-439.08713494128818
 30
0.0
 11
-53.305331179321463
 21
-439.08713494128818
 31
0.0
  0
CIRCLE
  8
SIZE
  6
CONTINUOUS
 62
    30
 10
65.305331179321456
 20
-439.08713494128818
 30
0.0
 40
6.0
  0
LINE
  8
SIZE
  6
CONTINUOUS
 62
    30
 10
65.305331179321456
 20
-439.08713494128818
 30
0.0
 11
53.305331179321463
 21
-439.08713494128818
 31
0.0
  0
TEXT
  8
SIZE
  6
CONTINUOUS
 62
    30
 10
92.156759750750126
 20
-403.42046827462173
 30
0.0
 40
64.0
  1
φ131
 41
0.9
 72
     1
 11
188.70533117932149
 21
-403.42046827462173
 31
0.0
  0
POINT
  8
DEFPOINTS
  6
CONTINUOUS
 62
    30
 10
-65.305331179321456
 20
-285.15993537964448
 30
0.0
  0
POINT
  8
DEFPOINTS
  6
CONTINUOUS
 62
    30
 10
65.305331179321456
 20
-285.15993537964448
 30
0.0
  0
POINT
  8
DEFPOINTS
  6
CONTINUOUS
 62
    30
 10
65.305331179321456
 20
-439.08713494128818
 30
0.0
  0
LINE
  8
DETAIL
  6
CONTINUOUS
 62
     5
 10
-228.18198619338679
 20
-177.8945532702345
 30
0.0
 11
-228.2651179589607
 21
-177.4870473751441
 31
0.0
  0
LINE
  8
DETAIL
  6
CONTINUOUS
 62
     5
 10
-228.2651179589607
 20
-177.4870473751441
 30
0.0
 11
-228.2651179589607
 21
-177.4870473751441
 31
0.0
  0
LINE
  8
DETAIL
  6
CONTINUOUS
 62
     5
 10
-228.2651179589607
 20
-177.4870473751441
 30
0.0
 11
-228.34646125886229
 21
-177.07907206490711
 31
0.0
  0
LINE
  8
DETAIL
  6
CONTINUOUS
 62
     5
 10
-228.34646125886229
 20
-177.07907206490711
 30
0.0
 11
-228.426025581467
 21
-176.67058549047761
 31
0.0
  0
LINE
  8
DETAIL
  6
CONTINUOUS
 62
     5
 10
-228.426025581467
 20
-176.67058549047761
 30
0.0
 11
-228.426025581467
 21
-176.67058549047761
 31
0.0
  0
LINE
  8
DETAIL
  6
CONTINUOUS
 62
     5
 10
-228.426025581467
 20
-176.67058549047761
 30
0.0
 11
-228.503789077889
 21
-176.26170017152671
 31
0.0
  0
LINE
  8
DETAIL
  6
CONTINUOUS
 62
     5
 10
-228.503789077889
 20
-176.26170017152671
 30
0.0
 11
-228.57970324045621
 21
-175.85273159547191
 31
0.0
  0
LINE
  8
DETAIL
  6
CONTINUOUS
 62
     5
 10
-228.57970324045621
 20
-175.85273159547191
 30
0.0
 11
-228.57970324045621
 21
-175.85273159547191
 31
0.0
  0
LINE
  8
DETAIL
  6
CONTINUOUS
 62
     5
 10
-228.57970324045621
 20
-175.85273159547191
 30
0.0
 11
-228.65376422814731
 21
-175.4437393971422
 31
0.0
  0
LINE
  8
DETAIL
  6
CONTINUOUS
 62
     5
 10
-228.65376422814731
 20
-175.4437393971422
 30
0.0
 11
-228.72617352534641
 21
-175.03355683326001
 31
0.0
  0
LINE
  8
DETAIL
  6
CONTINUOUS
 62
     5
 10
-228.72617352534641
 20
-175.03355683326001
 30
0.0
 11
-228.72617352534641
 21
-175.03355683326001
 31
0.0
  0
LINE
  8
DETAIL
  6
CONTINUOUS
 62
     5
 10
-228.72617352534641
 20
-175.03355683326001
 30
0.0
 11
-228.79709776578099
 21
-174.62120479410319
 31
0.0
  0
LINE
  8
DETAIL
  6
CONTINUOUS
 62
     5
 10
-228.79709776578099
 20
-174.62120479410319
 30
0.0
 11
-228.86635885515261
 21
-174.2076810822696
 31
0.0
  0
LINE
  8
DETAIL
  6
CONTINUOUS
 62
     5
 10
-228.86635885515261
 20
-174.2076810822696
 30
0.0
 11
-228.86635885515261
 21
-174.2076810822696
 31
0.0
  0
LINE
  8
DETAIL
  6
CONTINUOUS
 62
     5
 10
-228.86635885515261
 20
-174.2076810822696
 30
0.0
 11
-228.93374841050169
 21
-173.79416763724359
 31
0.0
  0
LINE
  8
DETAIL
  6
CONTINUOUS
 62
     5
 10
-228.93374841050169
 20
-173.79416763724359
 30
0.0
 11
-228.9992816222539
 21
-173.3806060337304
 31
0.0
  0
LINE
  8
DETAIL
  6
CONTINUOUS
 62
     5
 10
-228.9992816222539
 20
-173.3806060337304
 30
0.0
 11
-228.9992816222539
 21
-173.3806060337304
 31
0.0
  0
LINE
  8
DETAIL
  6
CONTINUOUS
 62
     5
 10
-228.9992816222539
 20
-173.3806060337304
 30
0.0
 11
-229.06301662500661
 21
-172.96669456478651
 31
0.0
  0
LINE
  8
DETAIL
  6
CONTINUOUS
 62
     5
 10
-229.06301662500661
 20
-172.96669456478651
 30
0.0
 11
-229.12495975666249
 21
-172.55239876165709
 31
0.0
  0
LINE
  8
DETAIL
  6
CONTINUOUS
 62
     5
 10
-229.12495975666249
 20
-172.55239876165709
 30
0.0
 11
-229.12495975666249
 21
-172.55239876165709
 31
0.0
  0
LINE
  8
DETAIL
  6
CONTINUOUS
 62
     5
 10
-229.12495975666249
 20
-172.55239876165709
 30
0.0
 11
-229.18510030929929
 21
-172.1377938181416
 31
0.0
  0
LINE
  8
DETAIL
  6
CONTINUOUS
 62
     5
 10
-229.18510030929929
 20
-172.1377938181416
 30
0.0
 11
-229.24341118838859
 21
-171.72312634006451
 31
0.0
  0
LINE
  8
DETAIL
  6
CONTINUOUS
 62
     5
 10
-229.24341118838859
 20
-171.72312634006451
 30
0.0
 11
-229.24341118838859
 21
-171.72312634006451
 31
0.0
  0
LINE
  8
DETAIL
  6
CONTINUOUS
 62
     5
 10
-229.24341118838859
 20
-171.72312634006451
 30
0.0
 11
-229.2998905385316
 21
-171.3084475646842
 31
0.0
  0
LINE
  8
DETAIL
  6
CONTINUOUS
 62
     5
 10
-229.2998905385316
 20
-171.3084475646842
 30
0.0
 11
-229.35465384744251
 21
-170.89285584296661
 31
0.0
  0
LINE
  8
DETAIL
  6
CONTINUOUS
 62
     5
 10
-229.35465384744251
 20
-170.89285584296661
 30
0.0
 11
-229.35465384744251
 21
-170.89285584296661
 31
0.0
  0
LINE
  8
DETAIL
  6
CONTINUOUS
 62
     5
 10
-229.35465384744251
 20
-170.89285584296661
 30
0.0
 11
-229.40779626295941
 21
-170.47559403389269
 31
0.0
  0
LINE
  8
DETAIL
  6
CONTINUOUS
 62
     5
 10
-229.40779626295941
 20
-170.47559403389269
 30
0.0
 11
-229.45921423029361
 21
-170.05743591480939
 31
0.0
  0
LINE
  8
DETAIL
  6
CONTINUOUS
 62
     5
 10
-229.45921423029361
 20
-170.05743591480939
 30
0.0
 11
-229.45921423029361
 21
-170.05743591480939
 31
0.0
  0
LINE
  8
DETAIL
  6
CONTINUOUS
 62
     5
 10
-229.45921423029361
 20
-170.05743591480939
 30
0.0
 11
-229.50878698660929
 21
-169.6392984968646
 31
0.0
  0
LINE
  8
DETAIL
  6
CONTINUOUS
 62
     5
 10
-229.50878698660929
 20
-169.6392984968646
 30
0.0
 11
-229.55652363951691
 21
-169.2211408080552
 31
0.0
  0
LINE
  8
DETAIL
  6
CONTINUOUS
 62
     5
 10
-229.55652363951691
 20
-169.2211408080552
 30
0.0
 11
-229.55652363951691
 21
-169.2211408080552
 31
0.0
  0
LINE
  8
DETAIL
  6
CONTINUOUS
 62
     5
 10
-229.55652363951691
 20
-169.2211408080552
 30
0.0
 11
-229.60245828103871
 21
-168.80273151391609
 31
0.0
  0
LINE
  8
DETAIL
  6
CONTINUOUS
 62
     5
 10
-229.60245828103871
 20
-168.80273151391609
 30
0.0
 11
-229.64659507040909
 21
-168.38403581328691
 31
0.0
  0
LINE
  8
DETAIL
  6
CONTINUOUS
 62
     5
 10
-229.64659507040909
 20
-168.38403581328691
 30
0.0
 11
-229.64659507040909
 21
-168.38403581328691
 31
0.0
  0
LINE
  8
DETAIL
  6
CONTINUOUS
 62
     5
 10
-229.64659507040909
 20
-168.38403581328691
 30
0.0
 11
-229.68892814884251
 21
-167.96511100081739
 31
0.0
  0
LINE
  8
DETAIL
  6
CONTINUOUS
 62
     5
 10
-229.68892814884251
 20
-167.96511100081739
 30
0.0
 11
-229.7294415182669
 21
-167.54618622108609
 31
0.0
  0
LINE
  8
DETAIL
  6
CONTINUOUS
 62
     5
 10
-229.7294415182669
 20
-167.54618622108609
 30
0.0
 11
-229.7294415182669
 21
-167.54618622108609
 31
0.0
  0
LINE
  8
DETAIL
  6
CONTINUOUS
 62
     5
 10
-229.7294415182669
 20
-167.54618622108609
 30
0.0
 11
-229.76813426827269
 21
-167.12731259789879
 31
0.0
  0
LINE
  8
DETAIL
  6
CONTINUOUS
 62
     5
 10
-229.76813426827269
 20
-167.12731259789879
 30
0.0
 11
-229.80507597838641
 21
-166.70765732203611
 31
0.0
  0
LINE
  8
DETAIL
  6
CONTINUOUS
 62
     5
 10
-229.80507597838641
 20
-166.70765732203611
 30
0.0
 11
-229.80507597838641
 21
-166.70765732203611
 31
0.0
  0
LINE
  8
DETAIL
  6
CONTINUOUS
 62
     5
 10
-229.80507597838641
 20
-166.70765732203611
 30
0.0
 11
-229.84032335784829
 21
-166.28652089891219
 31
0.0
  0
LINE
  8
DETAIL
  6
CONTINUOUS
 62
     5
 10
-229.84032335784829
 20
-166.28652089891219
 30
0.0
 11
-229.8738111447974
 21
-165.86462102550189
 31
0.0
  0
LINE
  8
DETAIL
  6
CONTINUOUS
 62
     5
 10
-229.8738111447974
 20
-165.86462102550189
 30
0.0
 11
-229.8738111447974
 21
-165.86462102550189
 31
0.0
  0
LINE
  8
DETAIL
  6
CONTINUOUS
 62
     5
 10
-229.8738111447974
 20
-165.86462102550189
 30
0.0
 11
-229.90546400664701
 21
-165.44280544203559
 31
0.0
  0
LINE
  8
DETAIL
  6
CONTINUOUS
 62
     5
 10
-229.90546400664701
 20
-165.44280544203559
 30
0.0
 11
-229.93528829900521
 21
-165.0210248702094
 31
0.0
  0
LINE
  8
DETAIL
  6
CONTINUOUS
 62
     5
 10
-229.93528829900521
 20
-165.0210248702094
 30
0.0
 11
-229.93528829900521
 21
-165.0210248702094
 31
0.0
  0
LINE
  8
DETAIL
  6
CONTINUOUS
 62
     5
 10
-229.93528829900521
 20
-165.0210248702094
 30
0.0
 11
-229.96330543099569
 21
-164.5990625385075
 31
0.0
  0
LINE
  8
DETAIL
  6
CONTINUOUS
 62
     5
 10
-229.96330543099569
 20
-164.5990625385075
 30
0.0
 11
-229.98951533761189
 21
-164.1769287210968
 31
0.0
  0
LINE
  8
DETAIL
  6
CONTINUOUS
 62
     5
 10
-229.98951533761189
 20
-164.1769287210968
 30
0.0
 11
-229.98951533761189
 21
-164.1769287210968
 31
0.0
  0
LINE
  8
DETAIL
  6
CONTINUOUS
 62
     5
 10
-229.98951533761189
 20
-164.1769287210968
 30
0.0
 11
-230.01391363739731
 21
-163.75468766251541
 31
0.0
  0
LINE
  8
DETAIL
  6
CONTINUOUS
 62
     5
 10
-230.01391363739731
 20
-163.75468766251541
 30
0.0
 11
-230.03650015721809
 21
-163.33239244310121
 31
0.0
  0
LINE
  8
DETAIL
  6
CONTINUOUS
 62
     5
 10
-230.03650015721809
 20
-163.33239244310121
 30
0.0
 11
-230.03650015721809
 21
-163.33239244310121
 31
0.0
  0
LINE
  8
DETAIL
  6
CONTINUOUS
 62
     5
 10
-230.03650015721809
 20
-163.33239244310121
 30
0.0
 11
-230.05727693623021
 21
-162.91004775492081
 31
0.0
  0
LINE
  8
DETAIL
  6
CONTINUOUS
 62
     5
 10
-230.05727693623021
 20
-162.91004775492081
 30
0.0
 11
-230.07625065442471
 21
-162.48747590116
 31
0.0
  0
LINE
  8
DETAIL
  6
CONTINUOUS
 62
     5
 10
-230.07625065442471
 20
-162.48747590116
 30
0.0
 11
-230.07625065442471
 21
-162.48747590116
 31
0.0
  0
LINE
  8
DETAIL
  6
CONTINUOUS
 62
     5
 10
-230.07625065442471
 20
-162.48747590116
 30
0.0
 11
-230.09342702877061
 21
-162.06453143852571
 31
0.0
  0
LINE
  8
DETAIL
  6
CONTINUOUS
 62
     5
 10
-230.09342702877061
 20
-162.06453143852571
 30
0.0
 11
-230.10880328331629
 21
-161.64138032669419
 31
0.0
  0
LINE
  8
DETAIL
  6
CONTINUOUS
 62
     5
 10
-230.10880328331629
 20
-161.64138032669419
 30
0.0
 11
-230.10880328331629
 21
-161.64138032669419
 31
0.0
  0
LINE
  8
DETAIL
  6
CONTINUOUS
 62
     5
 10
-230.10880328331629
 20
-161.64138032669419
 30
0.0
 11
-230.12237221447279
 21
-161.21821680707771
 31
0.0
  0
LINE
  8
DETAIL
  6
CONTINUOUS
 62
     5
 10
-230.12237221447279
 20
-161.21821680707771
 30
0.0
 11
-230.13411740102211
 21
-160.79503684506031
 31
0.0
  0
LINE
  8
DETAIL
  6
CONTINUOUS
 62
     5
 10
-230.13411740102211
 20
-160.79503684506031
 30
0.0
 11
-230.13411740102211
 21
-160.79503684506031
 31
0.0
  0
LINE
  8
DETAIL
  6
CONTINUOUS
 62
     5
 10
-230.13411740102211
 20
-160.79503684506031
 30
0.0
 11
-230.14403686842121
 21
-160.37180001472009
 31
0.0
  0
LINE
  8
DETAIL
  6
CONTINUOUS
 62
     5
 10
-230.14403686842121
 20
-160.37180001472009
 30
0.0
 11
-230.15219564645079
 21
-159.94851860093081
 31
0.0
  0
LINE
  8
DETAIL
  6
CONTINUOUS
 62
     5
 10
-230.15219564645079
 20
-159.94851860093081
 30
0.0
 11
-230.15219564645079
 21
-159.94851860093081
 31
0.0
  0
LINE
  8
DETAIL
  6
CONTINUOUS
 62
     5
 10
-230.15219564645079
 20
-159.94851860093081
 30
0.0
 11
-230.15861081605539
 21
-159.52521492447659
 31
0.0
  0
LINE
  8
DETAIL
  6
CONTINUOUS
 62
     5
 10
-230.15861081605539
 20
-159.52521492447659
 30
0.0
 11
-230.16304065850861
 21
-159.101898738979
 31
0.0
  0
LINE
  8
DETAIL
  6
CONTINUOUS
 62
     5
 10
-230.16304065850861
 20
-159.101898738979
 30
0.0
 11
-230.16304065850861
 21
-159.101898738979
 31
0.0
  0
LINE
  8
DETAIL
  6
CONTINUOUS
 62
     5
 10
-230.16304065850861
 20
-159.101898738979
 30
0.0
 11
-230.16542080375581
 21
-158.67857604573101
 31
0.0
  0
LINE
  8
DETAIL
  6
CONTINUOUS
 62
     5
 10
-230.16542080375581
 20
-158.67857604573101
 30
0.0
 11
-230.16665507610421
 21
-158.2552504038772
 31
0.0
  0
LINE
  8
DETAIL
  6
CONTINUOUS
 62
     5
 10
257.08012157831439
 20
-158.2552504038772
 30
0.0
 11
257.07869122267681
 21
-158.82129197369409
 31
0.0
  0
LINE
  8
DETAIL
  6
CONTINUOUS
 62
     5
 10
257.07869122267681
 20
-158.82129197369409
 30
0.0
 11
257.07593299573091
 21
-159.38733093647889
 31
0.0
  0
LINE
  8
DETAIL
  6
CONTINUOUS
 62
     5
 10
257.07593299573091
 20
-159.38733093647889
 30
0.0
 11
257.07593299573091
 21
-159.38733093647889
 31
0.0
  0
LINE
  8
DETAIL
  6
CONTINUOUS
 62
     5
 10
257.07593299573091
 20
-159.38733093647889
 30
0.0
 11
257.07079956049438
 21
-159.95336371744071
 31
0.0
  0
LINE
  8
DETAIL
  6
CONTINUOUS
 62
     5
 10
63.457279500419652
 20
-270.43618739903093
 30
0.0
 11
63.407696528804081
 21
-270.43565561788279
 31
0.0
  0
LINE
  8
DETAIL
  6
CONTINUOUS
 62
     5
 10
63.407696528804081
 20
-270.43565561788279
 30
0.0
 11
63.358116619643617
 21
-270.43463101778508
 31
0.0
  0
LINE
  8
DETAIL
  6
CONTINUOUS
 62
     5
 10
63.358116619643617
 20
-270.43463101778508
 30
0.0
 11
63.358116619643617
 21
-270.43463101778508
 31
0.0
  0
LINE
  8
DETAIL
  6
CONTINUOUS
 62
     5
 10
63.358116619643617
 20
-270.43463101778508
 30
0.0
 11
63.308545405554007
 21
-270.43272516913049
 31
0.0
  0
LINE
  8
DETAIL
  6
CONTINUOUS
 62
     5
 10
63.308545405554007
 20
-270.43272516913049
 30
0.0
 11
63.25899879978715
 21
-270.42996719967721
 31
0.0
  0
LINE
  8
DETAIL
  6
CONTINUOUS
 62
     5
 10
63.25899879978715
 20
-270.42996719967721
 30
0.0
 11
63.25899879978715
 21
-270.42996719967721
 31
0.0
  0
LINE
  8
DETAIL
  6
CONTINUOUS
 62
     5
 10
63.25899879978715
 20
-270.42996719967721
 30
0.0
 11
63.209493706625381
 21
-270.42646249732189
 31
0.0
  0
LINE
  8
DETAIL
  6
CONTINUOUS
 62
     5
 10
63.209493706625381
 20
-270.42646249732189
 30
0.0
 11
63.160040713823037
 21
-270.42220393314972
 31
0.0
  0
LINE
  8
DETAIL
  6
CONTINUOUS
 62
     5
 10
63.160040713823037
 20
-270.42220393314972
 30
0.0
 11
63.160040713823037
 21
-270.42220393314972
 31
0.0
  0
LINE
  8
DETAIL
  6
CONTINUOUS
 62
     5
 10
63.160040713823037
 20
-270.42220393314972
 30
0.0
 11
63.11065257636983
 21
-270.41716437651212
 31
0.0
  0
LINE
  8
DETAIL
  6
CONTINUOUS
 62
     5
 10
63.11065257636983
 20
-270.41716437651212
 30
0.0
 11
63.061357034724097
 21
-270.41134920664638
 31
0.0
  0
LINE
  8
DETAIL
  6
CONTINUOUS
 62
     5
 10
63.061357034724097
 20
-270.41134920664638
 30
0.0
 11
63.061357034724097
 21
-270.41134920664638
 31
0.0
  0
LINE
  8
DETAIL
  6
CONTINUOUS
 62
     5
 10
-256.36215952694369
 20
-3.8061389337640321
 30
0.0
 11
-256.30363438198719
 21
-3.8069009340290449
 31
0.0
  0
LINE
  8
DETAIL
  6
CONTINUOUS
 62
     5
 10
-256.30363438198719
 20
-3.8069009340290449
 30
0.0
 11
-256.24511523824191
 21
-3.8083686367521068
 31
0.0
  0
LINE
  8
DETAIL
  6
CONTINUOUS
 62
     5
 10
-256.24511523824191
 20
-3.8083686367521068
 30
0.0
 11
-256.24511523824191
 21
-3.8083686367521068
 31
0.0
  0
LINE
  8
DETAIL
  6
CONTINUOUS
 62
     5
 10
-256.24511523824191
 20
-3.8083686367521068
 30
0.0
 11
-256.18661188625629
 21
-3.8110982787086409
 31
0.0
  0
LINE
  8
DETAIL
  6
CONTINUOUS
 62
     5
 10
-256.18661188625629
 20
-3.8110982787086409
 30
0.0
 11
-256.12814927392168
 21
-3.815048233938569
 31
0.0
  0
LINE
  8
DETAIL
  6
CONTINUOUS
 62
     5
 10
-256.12814927392168
 20
-3.815048233938569
 30
0.0
 11
-256.12814927392168
 21
-3.815048233938569
 31
0.0
  0
LINE
  8
DETAIL
  6
CONTINUOUS
 62
     5
 10
-256.12814927392168
 20
-3.815048233938569
 30
0.0
 11
-256.06975608541728
 21
-3.8200672533001812
 31
0.0
  0
LINE
  8
DETAIL
  6
CONTINUOUS
 62
     5
 10
-256.06975608541728
 20
-3.8200672533001812
 30
0.0
 11
-256.01146079273349
 21
-3.8261634576539341
 31
0.0
  0
LINE
  8
DETAIL
  6
CONTINUOUS
 62
     5
 10
-256.01146079273349
 20
-3.8261634576539341
 30
0.0
 11
-256.01146079273349
 21
-3.8261634576539341
 31
0.0
  0
LINE
  8
DETAIL
  6
CONTINUOUS
 62
     5
 10
-256.01146079273349
 20
-3.8261634576539341
 30
0.0
 11
-255.95328823766749
 21
-3.833374906042422
 31
0.0
  0
LINE
  8
DETAIL
  6
CONTINUOUS
 62
     5
 10
-255.95328823766749
 20
-3.833374906042422
 30
0.0
 11
-255.89524895342811
 21
-3.8417000402304211
 31
0.0
  0
LINE
  8
DETAIL
  6
CONTINUOUS
 62
     5
 10
-255.89524895342811
 20
-3.8417000402304211
 30
0.0
 11
-255.89524895342811
 21
-3.8417000402304211
 31
0.0
  0
LINE
  8
DETAIL
  6
CONTINUOUS
 62
     5
 10
-255.89524895342811
 20
-3.8417000402304211
 30
0.0
 11
-255.83736425771261
 21
-3.851127172439988
 31
0.0
  0
LINE
  8
DETAIL
  6
CONTINUOUS
 62
     5
 10
-255.83736425771261
 20
-3.851127172439988
 30
0.0
 11
-255.77971291475569
 21
-3.8616437139995701
 31
0.0
  0
LINE
  8
DETAIL
  6
CONTINUOUS
 62
     5
 10
-255.77971291475569
 20
-3.8616437139995701
 30
0.0
 11
-255.77971291475569
 21
-3.8616437139995701
 31
0.0
  0
LINE
  8
DETAIL
  6
CONTINUOUS
 62
     5
 10
-255.77971291475569
 20
-3.8616437139995701
 30
0.0
 11
-255.72236438264639
 21
-3.8732397847775251
 31
0.0
  0
LINE
  8
DETAIL
  6
CONTINUOUS
 62
     5
 10
-255.72236438264639
 20
-3.8732397847775251
 30
0.0
 11
-255.66529344835229
 21
-3.885917239698415
 31
0.0
  0
LINE
  8
DETAIL
  6
CONTINUOUS
 62
     5
 10
-255.66529344835229
 20
-3.885917239698415
 30
0.0
 11
-255.66529344835229
 21
-3.885917239698415
 31
0.0
  0
LINE
  8
DETAIL
  6
CONTINUOUS
 62
     5
 10
-255.66529344835229
 20
-3.885917239698415
 30
0.0
 11
-255.6084653791122
 21
-3.899678787716653
 31
0.0
  0
LINE
  8
DETAIL
  6
CONTINUOUS
 62
     5
 10
-255.6084653791122
 20
-3.899678787716653
 30
0.0
 11
-255.55190203436271
 21
-3.9145188188495008
 31
0.0
  0
LINE
  8
DETAIL
  6
CONTINUOUS
 62
     5
 10
-255.55190203436271
 20
-3.9145188188495008
 30
0.0
 11
-255.55190203436271
 21
-3.9145188188495008
 31
0.0
  0
LINE
  8
DETAIL
  6
CONTINUOUS
 62
     5
 10
-255.55190203436271
 20
-3.9145188188495008
 30
0.0
 11
-255.49563717430459
 21
-3.9304295445037951
 31
0.0
  0
LINE
  8
DETAIL
  6
CONTINUOUS
 62
     5
 10
-255.49563717430459
 20
-3.9304295445037951
 30
0.0
 11
-255.43969556998221
 21
-3.9474027805759988
 31
0.0
  0
LINE
  8
DETAIL
  6
CONTINUOUS
 62
     5
 10
-255.43969556998221
 20
-3.9474027805759988
 30
0.0
 11
-255.43969556998221
 21
-3.9474027805759988
 31
0.0
  0
LINE
  8
DETAIL
  6
CONTINUOUS
 62
     5
 10
-255.43969556998221
 20
-3.9474027805759988
 30
0.0
 11
-255.38409458625671
 21
-3.9654327193288741
 31
0.0
  0
LINE
  8
DETAIL
  6
CONTINUOUS
 62
     5
 10
-255.38409458625671
 20
-3.9654327193288741
 30
0.0
 11
-255.3288309524041
 21
-3.9845234539997141
 31
0.0
  0
LINE
  8
DETAIL
  6
CONTINUOUS
 62
     5
 10
-255.3288309524041
 20
-3.9845234539997141
 30
0.0
 11
-255.3288309524041
 21
-3.9845234539997141
 31
0.0
  0
LINE
  8
DETAIL
  6
CONTINUOUS
 62
     5
 10
-255.3288309524041
 20
-3.9845234539997141
 30
0.0
 11
-255.27391912167741
 21
-4.0046717509723067
 31
0.0
  0
LINE
  8
DETAIL
  6
CONTINUOUS
 62
     5
 10
-255.27391912167741
 20
-4.0046717509723067
 30
0.0
 11
-255.2194650788233
 21
-4.0258351682440434
 31
0.0
  0
LINE
  8
DETAIL
  6
CONTINUOUS
 62
     5
 10
-255.2194650788233
 20
-4.0258351682440434
 30
0.0
 11
-255.2194650788233
 21
-4.0258351682440434
 31
0.0
  0
LINE
  8
DETAIL
  6
CONTINUOUS
 62
     5
 10
-255.2194650788233
 20
-4.0258351682440434
 30
0.0
 11
-255.1655608239389
 21
-4.0479756753121592
 31
0.0
  0
LINE
  8
DETAIL
  6
CONTINUOUS
 62
     5
 10
-255.1655608239389
 20
-4.0479756753121592
 30
0.0
 11
-255.11215088703969
 21
-4.0711120960643257
 31
0.0
  0
LINE
  8
DETAIL
  6
CONTINUOUS
 62
     5
 10
-255.11215088703969
 20
-4.0711120960643257
 30
0.0
 11
-255.11215088703969
 21
-4.0711120960643257
 31
0.0
  0
LINE
  8
DETAIL
  6
CONTINUOUS
 62
     5
 10
-255.11215088703969
 20
-4.0711120960643257
 30
0.0
 11
-255.05916600852109
 21
-4.095268972419376
 31
0.0
  0
LINE
  8
DETAIL
  6
CONTINUOUS
 62
     5
 10
-255.05916600852109
 20
-4.095268972419376
 30
0.0
 11
-255.00662924038349
 21
-4.1204368640333087
 31
0.0
  0
LINE
  8
DETAIL
  6
CONTINUOUS
 62
     5
 10
-255.00662924038349
 20
-4.1204368640333087
 30
0.0
 11
-255.00662924038349
 21
-4.1204368640333087
 31
0.0
  0
LINE
  8
DETAIL
  6
CONTINUOUS
 62
     5
 10
-255.00662924038349
 20
-4.1204368640333087
 30
0.0
 11
-254.95458230891651
 21
-4.1465989284155276
 31
0.0
  0
LINE
  8
DETAIL
  6
CONTINUOUS
 62
     5
 10
-254.95458230891651
 20
-4.1465989284155276
 30
0.0
 11
-254.90304932594739
 21
-4.1737426967468991
 31
0.0
  0
LINE
  8
DETAIL
  6
CONTINUOUS
 62
     5
 10
-254.90304932594739
 20
-4.1737426967468991
 30
0.0
 11
-254.90304932594739
 21
-4.1737426967468991
 31
0.0
  0
LINE
  8
DETAIL
  6
CONTINUOUS
 62
     5
 10
-254.90304932594739
 20
-4.1737426967468991
 30
0.0
 11
-254.85204453624829
 21
-4.2018609155201148
 31
0.0
  0
LINE
  8
DETAIL
  6
CONTINUOUS
 62
     5
 10
-254.85204453624829
 20
-4.2018609155201148
 30
0.0
 11
-254.80156033082591
 21
-4.2309628188013448
 31
0.0
  0
LINE
  8
DETAIL
  6
CONTINUOUS
 62
     5
 10
-254.80156033082591
 20
-4.2309628188013448
 30
0.0
 11
-254.80156033082591
 21
-4.2309628188013448
 31
0.0
  0
LINE
  8
DETAIL
  6
CONTINUOUS
 62
     5
 10
-254.80156033082591
 20
-4.2309628188013448
 30
0.0
 11
-254.7516098946268
 21
-4.2610441815585318
 31
0.0
  0
LINE
  8
DETAIL
  6
CONTINUOUS
 62
     5
 10
-254.7516098946268
 20
-4.2610441815585318
 30
0.0
 11
-254.70231144211269
 21
-4.2920304547920978
 31
0.0
  0
LINE
  8
DETAIL
  6
CONTINUOUS
 62
     5
 10
-254.70231144211269
 20
-4.2920304547920978
 30
0.0
 11
-254.70231144211269
 21
-4.2920304547920978
 31
0.0
  0
LINE
  8
DETAIL
  6
CONTINUOUS
 62
     5
 10
-254.70231144211269
 20
-4.2920304547920978
 30
0.0
 11
-254.65376671758119
 21
-4.323855083897115
 31
0.0
  0
LINE
  8
DETAIL
  6
CONTINUOUS
 62
     5
 10
-254.65376671758119
 20
-4.323855083897115
 30
0.0
 11
-254.60590655515639
 21
-4.356553815806592
 31
0.0
  0
LINE
  8
DETAIL
  6
CONTINUOUS
 62
     5
 10
-254.60590655515639
 20
-4.356553815806592
 30
0.0
 11
-254.60590655515639
 21
-4.356553815806592
 31
0.0
  0
LINE
  8
DETAIL
  6
CONTINUOUS
 62
     5
 10
-254.60590655515639
 20
-4.356553815806592
 30
0.0
 11
-254.55864838511391
 21
-4.3901733100300362
 31
0.0
  0
LINE
  8
DETAIL
  6
CONTINUOUS
 62
     5
 10
-254.55864838511391
 20
-4.3901733100300362
 30
0.0
 11
-254.51202693252341
 21
-4.4247015748331933
 31
0.0
  0
LINE
  8
DETAIL
  6
CONTINUOUS
 62
     5
 10
-254.51202693252341
 20
-4.4247015748331933
 30
0.0
 11
-254.51202693252341
 21
-4.4247015748331933
 31
0.0
  0
LINE
  8
DETAIL
  6
CONTINUOUS
 62
     5
 10
-254.51202693252341
 20
-4.4247015748331933
 30
0.0
 11
-254.4660913392554
 21
-4.4601088699934053
 31
0.0
  0
LINE
  8
DETAIL
  6
CONTINUOUS
 62
     5
 10
-254.4660913392554
 20
-4.4601088699934053
 30
0.0
 11
-254.42083111959391
 21
-4.4963531125785039
 31
0.0
  0
LINE
  8
DETAIL
  6
CONTINUOUS
 62
     5
 10
-254.42083111959391
 20
-4.4963531125785039
 30
0.0
 11
-254.42083111959391
 21
-4.4963531125785039
 31
0.0
  0
LINE
  8
DETAIL
  6
CONTINUOUS
 62
     5
 10
-254.42083111959391
 20
-4.4963531125785039
 30
0.0
 11
-254.37625118481489
 21
-4.5334161394988541
 31
0.0
  0
LINE
  8
DETAIL
  6
CONTINUOUS
 62
     5
 10
-254.37625118481489
 20
-4.5334161394988541
 30
0.0
 11
-254.3324776617454
 21
-4.5713878097491261
 31
0.0
  0
LINE
  8
DETAIL
  6
CONTINUOUS
 62
     5
 10
-254.3324776617454
 20
-4.5713878097491261
 30
0.0
 11
-254.3324776617454
 21
-4.5713878097491261
 31
0.0
  0
LINE
  8
DETAIL
  6
CONTINUOUS
 62
     5
 10
-254.3324776617454
 20
-4.5713878097491261
 30
0.0
 11
-254.28956067244511
 21
-4.6102800514382807
 31
0.0
  0
LINE
  8
DETAIL
  6
CONTINUOUS
 62
     5
 10
-254.28956067244511
 20
-4.6102800514382807
 30
0.0
 11
-254.2471251043568
 21
-4.649685047050184
 31
0.0
  0
LINE
  8
DETAIL
  6
CONTINUOUS
 62
     5
 10
-253.6124326122152
 20
-5.7624822486882286
 30
0.0
 11
-253.62581449144091
 21
-5.7224337747571781
 31
0.0
  0
LINE
  8
DETAIL
  6
CONTINUOUS
 62
     5
 10
-253.62581449144091
 20
-5.7224337747571781
 30
0.0
 11
-253.63952477962991
 21
-5.6824918860190792
 31
0.0
  0
LINE
  8
DETAIL
  6
CONTINUOUS
 62
     5
 10
-253.63952477962991
 20
-5.6824918860190792
 30
0.0
 11
-253.63952477962991
 21
-5.6824918860190792
 31
0.0
  0
LINE
  8
DETAIL
  6
CONTINUOUS
 62
     5
 10
-253.63952477962991
 20
-5.6824918860190792
 30
0.0
 11
-253.65382172766749
 21
-5.6427435940687474
 31
0.0
  0
LINE
  8
DETAIL
  6
CONTINUOUS
 62
     5
 10
-253.65382172766749
 20
-5.6427435940687474
 30
0.0
 11
-253.6686829541286
 21
-5.6031976161120838
 31
0.0
  0
LINE
  8
DETAIL
  6
CONTINUOUS
 62
     5
 10
-253.6686829541286
 20
-5.6031976161120838
 30
0.0
 11
-253.6686829541286
 21
-5.6031976161120838
 31
0.0
  0
LINE
  8
DETAIL
  6
CONTINUOUS
 62
     5
 10
-253.6686829541286
 20
-5.6031976161120838
 30
0.0
 11
-253.68403726236329
 21
-5.5638432008485097
 31
0.0
  0
LINE
  8
DETAIL
  6
CONTINUOUS
 62
     5
 10
-253.68403726236329
 20
-5.5638432008485097
 30
0.0
 11
-253.69989882714299
 21
-5.524670017344306
 31
0.0
  0
LINE
  8
DETAIL
  6
CONTINUOUS
 62
     5
 10
-253.69989882714299
 20
-5.524670017344306
 30
0.0
 11
-253.69989882714299
 21
-5.524670017344306
 31
0.0
  0
LINE
  8
DETAIL
  6
CONTINUOUS
 62
     5
 10
-253.69989882714299
 20
-5.524670017344306
 30
0.0
 11
-253.71628795275001
 21
-5.485686992987894
 31
0.0
  0
LINE
  8
DETAIL
  6
CONTINUOUS
 62
     5
 10
-253.71628795275001
 20
-5.485686992987894
 30
0.0
 11
-253.73316409010431
 21
-5.4469796680928084
 31
0.0
  0
LINE
  8
DETAIL
  6
CONTINUOUS
 62
     5
 10
-253.73316409010431
 20
-5.4469796680928084
 30
0.0
 11
-253.73316409010431
 21
-5.4469796680928084
 31
0.0
  0
LINE
  8
DETAIL
  6
CONTINUOUS
 62
     5
 10
-253.73316409010431
 20
-5.4469796680928084
 30
0.0
 11
-253.75051098729361
 21
-5.4085760181872047
 31
0.0
  0
LINE
  8
DETAIL
  6
CONTINUOUS
 62
     5
 10
-253.75051098729361
 20
-5.4085760181872047
 30
0.0
 11
-253.76847043444471
 21
-5.3701971467348812
 31
0.0
  0
LINE
  8
DETAIL
  6
CONTINUOUS
 62
     5
 10
-253.76847043444471
 20
-5.3701971467348812
 30
0.0
 11
-253.76847043444471
 21
-5.3701971467348812
 31
0.0
  0
LINE
  8
DETAIL
  6
CONTINUOUS
 62
     5
 10
-253.76847043444471
 20
-5.3701971467348812
 30
0.0
 11
-253.78716525657271
 21
-5.3316095435957322
 31
0.0
  0
LINE
  8
DETAIL
  6
CONTINUOUS
 62
     5
 10
-253.78716525657271
 20
-5.3316095435957322
 30
0.0
 11
-253.8064843762057
 21
-5.2930681162761184
 31
0.0
  0
LINE
  8
DETAIL
  6
CONTINUOUS
 62
     5
 10
-253.8064843762057
 20
-5.2930681162761184
 30
0.0
 11
-253.8064843762057
 21
-5.2930681162761184
 31
0.0
  0
LINE
  8
DETAIL
  6
CONTINUOUS
 62
     5
 10
-253.8064843762057
 20
-5.2930681162761184
 30
0.0
 11
-253.82629314771199
 21
-5.2548730021519532
 31
0.0
  0
LINE
  8
DETAIL
  6
CONTINUOUS
 62
     5
 10
-253.82629314771199
 20
-5.2548730021519532
 30
0.0
 11
-253.84659655530871
 21
-5.2170168404290962
 31
0.0
  0
LINE
  8
DETAIL
  6
CONTINUOUS
 62
     5
 10
-253.84659655530871
 20
-5.2170168404290962
 30
0.0
 11
-253.84659655530871
 21
-5.2170168404290962
 31
0.0
  0
LINE
  8
DETAIL
  6
CONTINUOUS
 62
     5
 10
-253.84659655530871
 20
-5.2170168404290962
 30
0.0
 11
-253.86742867808741
 21
-5.1794308377576499
 31
0.0
  0
LINE
  8
DETAIL
  6
CONTINUOUS
 62
     5
 10
-253.86742867808741
 20
-5.1794308377576499
 30
0.0
 11
-253.8888003447864
 21
-5.1421079687374913
 31
0.0
  0
LINE
  8
DETAIL
  6
CONTINUOUS
 62
     5
 10
-253.8888003447864
 20
-5.1421079687374913
 30
0.0
 11
-253.8888003447864
 21
-5.1421079687374913
 31
0.0
  0
LINE
  8
DETAIL
  6
CONTINUOUS
 62
     5
 10
-253.8888003447864
 20
-5.1421079687374913
 30
0.0
 11
-253.91070491444731
 21
-5.1050717565487957
 31
0.0
  0
LINE
  8
DETAIL
  6
CONTINUOUS
 62
     5
 10
-253.91070491444731
 20
-5.1050717565487957
 30
0.0
 11
-253.93308911767551
 21
-5.0684061507460001
 31
0.0
  0
LINE
  8
DETAIL
  6
CONTINUOUS
 62
     5
 10
-253.93308911767551
 20
-5.0684061507460001
 30
0.0
 11
-253.93308911767551
 21
-5.0684061507460001
 31
0.0
  0
LINE
  8
DETAIL
  6
CONTINUOUS
 62
     5
 10
-253.93308911767551
 20
-5.0684061507460001
 30
0.0
 11
-253.95594046899259
 21
-5.0321343391160553
 31
0.0
  0
LINE
  8
DETAIL
  6
CONTINUOUS
 62
     5
 10
-253.95594046899259
 20
-5.0321343391160553
 30
0.0
 11
-253.97945624701009
 21
-4.9959760359980692
 31
0.0
  0
LINE
  8
DETAIL
  6
CONTINUOUS
 62
     5
 10
-253.97945624701009
 20
-4.9959760359980692
 30
0.0
 11
-253.97945624701009
 21
-4.9959760359980692
 31
0.0
  0
LINE
  8
DETAIL
  6
CONTINUOUS
 62
     5
 10
-253.97945624701009
 20
-4.9959760359980692
 30
0.0
 11
-254.00380387732409
 21
-4.9596985232383304
 31
0.0
  0
LINE
  8
DETAIL
  6
CONTINUOUS
 62
     5
 10
-254.00380387732409
 20
-4.9596985232383304
 30
0.0
 11
-254.02882160937591
 21
-4.9235628261566262
 31
0.0
  0
LINE
  8
DETAIL
  6
CONTINUOUS
 62
     5
 10
-254.02882160937591
 20
-4.9235628261566262
 30
0.0
 11
-254.02882160937591
 21
-4.9235628261566262
 31
0.0
  0
LINE
  8
DETAIL
  6
CONTINUOUS
 62
     5
 10
-254.02882160937591
 20
-4.9235628261566262
 30
0.0
 11
-254.05431703235081
 21
-4.8878755550175583
 31
0.0
  0
LINE
  8
DETAIL
  6
CONTINUOUS
 62
     5
 10
-254.05431703235081
 20
-4.8878755550175583
 30
0.0
 11
-254.08030427057071
 21
-4.8526319163976268
 31
0.0
  0
LINE
  8
DETAIL
  6
CONTINUOUS
 62
     5
 10
-254.08030427057071
 20
-4.8526319163976268
 30
0.0
 11
-254.08030427057071
 21
-4.8526319163976268
 31
0.0
  0
LINE
  8
DETAIL
  6
CONTINUOUS
 62
     5
 10
-254.08030427057071
 20
-4.8526319163976268
 30
0.0
 11
-254.10683082103509
 21
-4.8177659601171854
 31
0.0
  0
LINE
  8
DETAIL
  6
CONTINUOUS
 62
     5
 10
-254.10683082103509
 20
-4.8177659601171854
 30
0.0
 11
-254.13387113631731
 21
-4.7832785126651061
 31
0.0
  0
LINE
  8
DETAIL
  6
CONTINUOUS
 62
     5
 10
-254.13387113631731
 20
-4.7832785126651061
 30
0.0
 11
-254.13387113631731
 21
-4.7832785126651061
 31
0.0
  0
LINE
  8
DETAIL
  6
CONTINUOUS
 62
     5
 10
-254.13387113631731
 20
-4.7832785126651061
 30
0.0
 11
-254.16140281852481
 21
-4.7491981689507838
 31
0.0
  0
LINE
  8
DETAIL
  6
CONTINUOUS
 62
     5
 10
-254.16140281852481
 20
-4.7491981689507838
 30
0.0
 11
-254.18948911233841
 21
-4.7155978209012801
 31
0.0
  0
LINE
  8
DETAIL
  6
CONTINUOUS
 62
     5
 10
-254.18948911233841
 20
-4.7155978209012801
 30
0.0
 11
-254.18948911233841
 21
-4.7155978209012801
 31
0.0
  0
LINE
  8
DETAIL
  6
CONTINUOUS
 62
     5
 10
-254.18948911233841
 20
-4.7155978209012801
 30
0.0
 11
-254.2181472916154
 21
-4.6825004435140727
 31
0.0
  0
LINE
  8
DETAIL
  6
CONTINUOUS
 62
     5
 10
-254.2181472916154
 20
-4.6825004435140727
 30
0.0
 11
-254.2471251043568
 21
-4.649685047050184
 31
0.0
  0
LINE
  8
DETAIL
  6
CONTINUOUS
 62
     5
 10
-247.43345430344019
 20
-13.22132471728594
 30
0.0
 11
-247.5357986980716
 21
-13.219793289310591
 31
0.0
  0
LINE
  8
DETAIL
  6
CONTINUOUS
 62
     5
 10
-247.63812902205379
 20
-13.21684840427554
 30
0.0
 11
-247.63812902205379
 21
-13.21684840427554
 31
0.0
  0
LINE
  8
DETAIL
  6
CONTINUOUS
 62
     5
 10
-252.3080412510744
 20
-9.7068558081136871
 30
0.0
 11
-252.3080412510744
 21
-9.7068558081136871
 31
0.0
  0
LINE
  8
DETAIL
  6
CONTINUOUS
 62
     5
 10
-252.3080412510744
 20
-9.7068558081136871
 30
0.0
 11
-252.34382466647051
 21
-9.6198653672338423
 31
0.0
  0
LINE
  8
DETAIL
  6
CONTINUOUS
 62
     5
 10
-252.34382466647051
 20
-9.6198653672338423
 30
0.0
 11
-252.37839027400969
 21
-9.5324375104012233
 31
0.0
  0
LINE
  8
DETAIL
  6
CONTINUOUS
 62
     5
 10
-252.37839027400969
 20
-9.5324375104012233
 30
0.0
 11
-252.37839027400969
 21
-9.5324375104012233
 31
0.0
  0
LINE
  8
DETAIL
  6
CONTINUOUS
 62
     5
 10
-252.37839027400969
 20
-9.5324375104012233
 30
0.0
 11
-252.4117747562691
 21
-9.4445450525645356
 31
0.0
  0
LINE
  8
DETAIL
  6
CONTINUOUS
 62
     5
 10
-252.4117747562691
 20
-9.4445450525645356
 30
0.0
 11
-252.4438074035705
 21
-9.3561639681535098
 31
0.0
  0
LINE
  8
DETAIL
  6
CONTINUOUS
 62
     5
 10
-252.4438074035705
 20
-9.3561639681535098
 30
0.0
 11
-252.4438074035705
 21
-9.3561639681535098
 31
0.0
  0
LINE
  8
DETAIL
  6
CONTINUOUS
 62
     5
 10
-252.4438074035705
 20
-9.3561639681535098
 30
0.0
 11
-252.47443395052139
 21
-9.2673175492745941
 31
0.0
  0
LINE
  8
DETAIL
  6
CONTINUOUS
 62
     5
 10
-252.47443395052139
 20
-9.2673175492745941
 30
0.0
 11
-252.50427330112319
 21
-9.1782151992586023
 31
0.0
  0
LINE
  8
DETAIL
  6
CONTINUOUS
 62
     5
 10
-251.79191563093761
 20
-3.0028693298767171
 30
0.0
 11
-251.78104120367331
 21
-3.0190158563583509
 31
0.0
  0
LINE
  8
DETAIL
  6
CONTINUOUS
 62
     5
 10
-251.78104120367331
 20
-3.0190158563583509
 30
0.0
 11
-251.77013067465171
 21
-3.035294918591489
 31
0.0
  0
LINE
  8
DETAIL
  6
CONTINUOUS
 62
     5
 10
-251.77013067465171
 20
-3.035294918591489
 30
0.0
 11
-251.77013067465171
 21
-3.035294918591489
 31
0.0
  0
LINE
  8
DETAIL
  6
CONTINUOUS
 62
     5
 10
-251.77013067465171
 20
-3.035294918591489
 30
0.0
 11
-251.7592096688924
 21
-3.051723553283523
 31
0.0
  0
LINE
  8
DETAIL
  6
CONTINUOUS
 62
     5
 10
-251.7592096688924
 20
-3.051723553283523
 30
0.0
 11
-251.74855071852519
 21
-3.0678568009720948
 31
0.0
  0
LINE
  8
DETAIL
  6
CONTINUOUS
 62
     5
 10
-251.74855071852519
 20
-3.0678568009720948
 30
0.0
 11
-251.74855071852519
 21
-3.0678568009720948
 31
0.0
  0
LINE
  8
DETAIL
  6
CONTINUOUS
 62
     5
 10
-251.74855071852519
 20
-3.0678568009720948
 30
0.0
 11
-251.7382156010149
 21
-3.0835789503901201
 31
0.0
  0
LINE
  8
DETAIL
  6
CONTINUOUS
 62
     5
 10
-251.7382156010149
 20
-3.0835789503901201
 30
0.0
 11
-251.7271761680563
 21
-3.1005532792312351
 31
0.0
  0
LINE
  8
DETAIL
  6
CONTINUOUS
 62
     5
 10
-251.7271761680563
 20
-3.1005532792312351
 30
0.0
 11
-251.7271761680563
 21
-3.1005532792312351
 31
0.0
  0
LINE
  8
DETAIL
  6
CONTINUOUS
 62
     5
 10
-251.7271761680563
 20
-3.1005532792312351
 30
0.0
 11
-251.71515998889441
 21
-3.1192243225120819
 31
0.0
  0
LINE
  8
DETAIL
  6
CONTINUOUS
 62
     5
 10
-251.71515998889441
 20
-3.1192243225120819
 30
0.0
 11
-251.706007428741
 21
-3.1333826555802489
 31
0.0
  0
LINE
  8
DETAIL
  6
CONTINUOUS
 62
     5
 10
-251.706007428741
 20
-3.1333826555802489
 30
0.0
 11
-251.706007428741
 21
-3.1333826555802489
 31
0.0
  0
LINE
  8
DETAIL
  6
CONTINUOUS
 62
     5
 10
-251.706007428741
 20
-3.1333826555802489
 30
0.0
 11
-251.70074673727501
 21
-3.1413645762955871
 31
0.0
  0
LINE
  8
DETAIL
  6
CONTINUOUS
 62
     5
 10
-251.70074673727501
 20
-3.1413645762955871
 30
0.0
 11
-251.6850449060768
 21
-3.1663432322308149
 31
0.0
  0
LINE
  8
DETAIL
  6
CONTINUOUS
 62
     5
 10
-251.6850449060768
 20
-3.1663432322308149
 30
0.0
 11
-251.6850449060768
 21
-3.1663432322308149
 31
0.0
  0
LINE
  8
DETAIL
  6
CONTINUOUS
 62
     5
 10
-251.6850449060768
 20
-3.1663432322308149
 30
0.0
 11
-251.64687875533309
 21
-3.227961620804876
 31
0.0
  0
LINE
  8
DETAIL
  6
CONTINUOUS
 62
     5
 10
-251.64687875533309
 20
-3.227961620804876
 30
0.0
 11
-251.59882567775639
 21
-3.3069052891016781
 31
0.0
  0
LINE
  8
DETAIL
  6
CONTINUOUS
 62
     5
 10
-251.59882567775639
 20
-3.3069052891016781
 30
0.0
 11
-251.59882567775639
 21
-3.3069052891016781
 31
0.0
  0
LINE
  8
DETAIL
  6
CONTINUOUS
 62
     5
 10
-251.59882567775639
 20
-3.3069052891016781
 30
0.0
 11
-251.55565506687569
 21
-3.3802593752442358
 31
0.0
  0
LINE
  8
DETAIL
  6
CONTINUOUS
 62
     5
 10
-251.55565506687569
 20
-3.3802593752442358
 30
0.0
 11
-251.51630374697149
 21
-3.4496648318437342
 31
0.0
  0
LINE
  8
DETAIL
  6
CONTINUOUS
 62
     5
 10
-251.51630374697149
 20
-3.4496648318437342
 30
0.0
 11
-251.51630374697149
 21
-3.4496648318437342
 31
0.0
  0
LINE
  8
DETAIL
  6
CONTINUOUS
 62
     5
 10
-251.51630374697149
 20
-3.4496648318437342
 30
0.0
 11
-251.47681540151461
 21
-3.5212467777726029
 31
0.0
  0
LINE
  8
DETAIL
  6
CONTINUOUS
 62
     5
 10
-251.47681540151461
 20
-3.5212467777726029
 30
0.0
 11
-251.4374937199841
 21
-3.5945111824623841
 31
0.0
  0
LINE
  8
DETAIL
  6
CONTINUOUS
 62
     5
 10
-251.4374937199841
 20
-3.5945111824623841
 30
0.0
 11
-251.4374937199841
 21
-3.5945111824623841
 31
0.0
  0
LINE
  8
DETAIL
  6
CONTINUOUS
 62
     5
 10
-251.4374937199841
 20
-3.5945111824623841
 30
0.0
 11
-251.39940552966479
 21
-3.6677894238029012
 31
0.0
  0
LINE
  8
DETAIL
  6
CONTINUOUS
 62
     5
 10
-251.39940552966479
 20
-3.6677894238029012
 30
0.0
 11
-251.36241020305491
 21
-3.7413336629634841
 31
0.0
  0
LINE
  8
DETAIL
  6
CONTINUOUS
 62
     5
 10
-251.36241020305491
 20
-3.7413336629634841
 30
0.0
 11
-251.36241020305491
 21
-3.7413336629634841
 31
0.0
  0
LINE
  8
DETAIL
  6
CONTINUOUS
 62
     5
 10
-251.36241020305491
 20
-3.7413336629634841
 30
0.0
 11
-251.32620770223909
 21
-3.8156102610151952
 31
0.0
  0
LINE
  8
DETAIL
  6
CONTINUOUS
 62
     5
 10
-251.32620770223909
 20
-3.8156102610151952
 30
0.0
 11
-251.2910678024455
 21
-3.8900215953523229
 31
0.0
  0
LINE
  8
DETAIL
  6
CONTINUOUS
 62
     5
 10
-251.2910678024455
 20
-3.8900215953523229
 30
0.0
 11
-251.2910678024455
 21
-3.8900215953523229
 31
0.0
  0
LINE
  8
DETAIL
  6
CONTINUOUS
 62
     5
 10
-251.2910678024455
 20
-3.8900215953523229
 30
0.0
 11
-251.25727395160359
 21
-3.9639672945176021
 31
0.0
  0
LINE
  8
DETAIL
  6
CONTINUOUS
 62
     5
 10
-251.25727395160359
 20
-3.9639672945176021
 30
0.0
 11
-251.2245944753104
 21
-4.0378999753147582
 31
0.0
  0
LINE
  8
DETAIL
  6
CONTINUOUS
 62
     5
 10
-251.2245944753104
 20
-4.0378999753147582
 30
0.0
 11
-251.2245944753104
 21
-4.0378999753147582
 31
0.0
  0
LINE
  8
DETAIL
  6
CONTINUOUS
 62
     5
 10
-251.2245944753104
 20
-4.0378999753147582
 30
0.0
 11
-251.19274714623131
 21
-4.1123817259252746
 31
0.0
  0
LINE
  8
DETAIL
  6
CONTINUOUS
 62
     5
 10
-251.19274714623131
 20
-4.1123817259252746
 30
0.0
 11
-251.16176264764439
 21
-4.1873595317796344
 31
0.0
  0
LINE
  8
DETAIL
  6
CONTINUOUS
 62
     5
 10
-251.16176264764439
 20
-4.1873595317796344
 30
0.0
 11
-251.16176264764439
 21
-4.1873595317796344
 31
0.0
  0
LINE
  8
DETAIL
  6
CONTINUOUS
 62
     5
 10
-251.16176264764439
 20
-4.1873595317796344
 30
0.0
 11
-251.13172070155591
 21
-4.2626652867299981
 31
0.0
  0
LINE
  8
DETAIL
  6
CONTINUOUS
 62
     5
 10
-251.13172070155591
 20
-4.2626652867299981
 30
0.0
 11
-251.10258427428471
 21
-4.3382856210636191
 31
0.0
  0
LINE
  8
DETAIL
  6
CONTINUOUS
 62
     5
 10
-251.10258427428471
 20
-4.3382856210636191
 30
0.0
 11
-251.10258427428471
 21
-4.3382856210636191
 31
0.0
  0
LINE
  8
DETAIL
  6
CONTINUOUS
 62
     5
 10
-251.10258427428471
 20
-4.3382856210636191
 30
0.0
 11
-251.07432567126349
 21
-4.4142448884293799
 31
0.0
  0
LINE
  8
DETAIL
  6
CONTINUOUS
 62
     5
 10
-251.07432567126349
 20
-4.4142448884293799
 30
0.0
 11
-251.04707131006899
 21
-4.490563599484517
 31
0.0
  0
LINE
  8
DETAIL
  6
CONTINUOUS
 62
     5
 10
-251.04707131006899
 20
-4.490563599484517
 30
0.0
 11
-251.04707131006899
 21
-4.490563599484517
 31
0.0
  0
LINE
  8
DETAIL
  6
CONTINUOUS
 62
     5
 10
-251.04707131006899
 20
-4.490563599484517
 30
0.0
 11
-251.02086121309171
 21
-4.5672264630214841
 31
0.0
  0
LINE
  8
DETAIL
  6
CONTINUOUS
 62
     5
 10
-251.02086121309171
 20
-4.5672264630214841
 30
0.0
 11
-250.99523570983459
 21
-4.6440788233584271
 31
0.0
  0
LINE
  8
DETAIL
  6
CONTINUOUS
 62
     5
 10
-297.11323699116758
 20
-13.219793289310591
 30
0.0
 11
-297.010892596536
 21
-13.22132471728594
 31
0.0
  0
LINE
  8
DETAIL
  6
CONTINUOUS
 62
     5
 10
-247.43345430344019
 20
-10.016155088853109
 30
0.0
 11
-247.491159615729
 21
-10.01514554914502
 31
0.0
  0
LINE
  8
DETAIL
  6
CONTINUOUS
 62
     5
 10
-247.491159615729
 20
-10.01514554914502
 30
0.0
 11
-247.5488540414253
 21
-10.013206128395501
 31
0.0
  0
LINE
  8
DETAIL
  6
CONTINUOUS
 62
     5
 10
-247.5488540414253
 20
-10.013206128395501
 30
0.0
 11
-247.5488540414253
 21
-10.013206128395501
 31
0.0
  0
LINE
  8
DETAIL
  6
CONTINUOUS
 62
     5
 10
-247.5488540414253
 20
-10.013206128395501
 30
0.0
 11
-247.60652037868479
 21
-10.009605042485299
 31
0.0
  0
LINE
  8
DETAIL
  6
CONTINUOUS
 62
     5
 10
-247.60652037868479
 20
-10.009605042485299
 30
0.0
 11
-247.6641161646576
 21
-10.00440289499466
 31
0.0
  0
LINE
  8
DETAIL
  6
CONTINUOUS
 62
     5
 10
-247.6641161646576
 20
-10.00440289499466
 30
0.0
 11
-247.6641161646576
 21
-10.00440289499466
 31
0.0
  0
LINE
  8
DETAIL
  6
CONTINUOUS
 62
     5
 10
-247.6641161646576
 20
-10.00440289499466
 30
0.0
 11
-247.7215920125154
 21
-9.997805966842634
 31
0.0
  0
LINE
  8
DETAIL
  6
CONTINUOUS
 62
     5
 10
-247.7215920125154
 20
-9.997805966842634
 30
0.0
 11
-247.7788961005235
 21
-9.9898108606093956
 31
0.0
  0
LINE
  8
DETAIL
  6
CONTINUOUS
 62
     5
 10
-247.7788961005235
 20
-9.9898108606093956
 30
0.0
 11
-247.7788961005235
 21
-9.9898108606093956
 31
0.0
  0
LINE
  8
DETAIL
  6
CONTINUOUS
 62
     5
 10
-247.7788961005235
 20
-9.9898108606093956
 30
0.0
 11
-247.83598474837891
 21
-9.9803733407057962
 31
0.0
  0
LINE
  8
DETAIL
  6
CONTINUOUS
 62
     5
 10
-247.83598474837891
 20
-9.9803733407057962
 30
0.0
 11
-247.89284927641069
 21
-9.9694954971982952
 31
0.0
  0
LINE
  8
DETAIL
  6
CONTINUOUS
 62
     5
 10
-247.89284927641069
 20
-9.9694954971982952
 30
0.0
 11
-247.89284927641069
 21
-9.9694954971982952
 31
0.0
  0
LINE
  8
DETAIL
  6
CONTINUOUS
 62
     5
 10
-247.89284927641069
 20
-9.9694954971982952
 30
0.0
 11
-247.94945536319801
 21
-9.9571970954971221
 31
0.0
  0
LINE
  8
DETAIL
  6
CONTINUOUS
 62
     5
 10
-247.94945536319801
 20
-9.9571970954971221
 30
0.0
 11
-248.0056311197045
 21
-9.943522276719591
 31
0.0
  0
LINE
  8
DETAIL
  6
CONTINUOUS
 62
     5
 10
-248.0056311197045
 20
-9.943522276719591
 30
0.0
 11
-248.0056311197045
 21
-9.943522276719591
 31
0.0
  0
LINE
  8
DETAIL
  6
CONTINUOUS
 62
     5
 10
-248.0056311197045
 20
-9.943522276719591
 30
0.0
 11
-248.06122773300291
 21
-9.9285104018728134
 31
0.0
  0
LINE
  8
DETAIL
  6
CONTINUOUS
 62
     5
 10
-248.06122773300291
 20
-9.9285104018728134
 30
0.0
 11
-248.11632626222581
 21
-9.9121573358034993
 31
0.0
  0
LINE
  8
DETAIL
  6
CONTINUOUS
 62
     5
 10
-248.11632626222581
 20
-9.9121573358034993
 30
0.0
 11
-248.11632626222581
 21
-9.9121573358034993
 31
0.0
  0
LINE
  8
DETAIL
  6
CONTINUOUS
 62
     5
 10
-248.11632626222581
 20
-9.9121573358034993
 30
0.0
 11
-248.17103138620911
 21
-9.894455009080275
 31
0.0
  0
LINE
  8
DETAIL
  6
CONTINUOUS
 62
     5
 10
-248.17103138620911
 20
-9.894455009080275
 30
0.0
 11
-248.22531239054749
 21
-9.8754231113144897
 31
0.0
  0
LINE
  8
DETAIL
  6
CONTINUOUS
 62
     5
 10
-248.22531239054749
 20
-9.8754231113144897
 30
0.0
 11
-248.22531239054749
 21
-9.8754231113144897
 31
0.0
  0
LINE
  8
DETAIL
  6
CONTINUOUS
 62
     5
 10
-248.22531239054749
 20
-9.8754231113144897
 30
0.0
 11
-248.27910926011009
 21
-9.8550889876590873
 31
0.0
  0
LINE
  8
DETAIL
  6
CONTINUOUS
 62
     5
 10
-248.27910926011009
 20
-9.8550889876590873
 30
0.0
 11
-248.3323801701026
 21
-9.8334828463877102
 31
0.0
  0
LINE
  8
DETAIL
  6
CONTINUOUS
 62
     5
 10
-248.3323801701026
 20
-9.8334828463877102
 30
0.0
 11
-248.3323801701026
 21
-9.8334828463877102
 31
0.0
  0
LINE
  8
DETAIL
  6
CONTINUOUS
 62
     5
 10
-248.3323801701026
 20
-9.8334828463877102
 30
0.0
 11
-248.3851035012884
 21
-9.8106258086726257
 31
0.0
  0
LINE
  8
DETAIL
  6
CONTINUOUS
 62
     5
 10
-248.3851035012884
 20
-9.8106258086726257
 30
0.0
 11
-248.43732026632281
 21
-9.7864997841567174
 31
0.0
  0
LINE
  8
DETAIL
  6
CONTINUOUS
 62
     5
 10
-248.43732026632281
 20
-9.7864997841567174
 30
0.0
 11
-248.43732026632281
 21
-9.7864997841567174
 31
0.0
  0
LINE
  8
DETAIL
  6
CONTINUOUS
 62
     5
 10
-248.43732026632281
 20
-9.7864997841567174
 30
0.0
 11
-248.489019956357
 21
-9.7611153753497319
 31
0.0
  0
LINE
  8
DETAIL
  6
CONTINUOUS
 62
     5
 10
-248.489019956357
 20
-9.7611153753497319
 30
0.0
 11
-248.5399233446401
 21
-9.7346371677562047
 31
0.0
  0
LINE
  8
DETAIL
  6
CONTINUOUS
 62
     5
 10
-248.5399233446401
 20
-9.7346371677562047
 30
0.0
 11
-248.5399233446401
 21
-9.7346371677562047
 31
0.0
  0
LINE
  8
DETAIL
  6
CONTINUOUS
 62
     5
 10
-248.5399233446401
 20
-9.7346371677562047
 30
0.0
 11
-248.58979366551421
 21
-9.7072111255761229
 31
0.0
  0
LINE
  8
DETAIL
  6
CONTINUOUS
 62
     5
 10
-248.58979366551421
 20
-9.7072111255761229
 30
0.0
 11
-248.63883271559831
 21
-9.6787547447904672
 31
0.0
  0
LINE
  8
DETAIL
  6
CONTINUOUS
 62
     5
 10
-248.63883271559831
 20
-9.6787547447904672
 30
0.0
 11
-248.63883271559831
 21
-9.6787547447904672
 31
0.0
  0
LINE
  8
DETAIL
  6
CONTINUOUS
 62
     5
 10
-248.63883271559831
 20
-9.6787547447904672
 30
0.0
 11
-248.6872837198753
 21
-9.6491619191406244
 31
0.0
  0
LINE
  8
DETAIL
  6
CONTINUOUS
 62
     5
 10
-248.6872837198753
 20
-9.6491619191406244
 30
0.0
 11
-248.73511705451349
 21
-9.6184606016311136
 31
0.0
  0
LINE
  8
DETAIL
  6
CONTINUOUS
 62
     5
 10
-248.73511705451349
 20
-9.6184606016311136
 30
0.0
 11
-248.73511705451349
 21
-9.6184606016311136
 31
0.0
  0
LINE
  8
DETAIL
  6
CONTINUOUS
 62
     5
 10
-248.73511705451349
 20
-9.6184606016311136
 30
0.0
 11
-248.78224724949919
 21
-9.5867086324333286
 31
0.0
  0
LINE
  8
DETAIL
  6
CONTINUOUS
 62
     5
 10
-248.78224724949919
 20
-9.5867086324333286
 30
0.0
 11
-248.82863829891451
 21
-9.5539493411173453
 31
0.0
  0
LINE
  8
DETAIL
  6
CONTINUOUS
 62
     5
 10
-248.82863829891451
 20
-9.5539493411173453
 30
0.0
 11
-248.82863829891451
 21
-9.5539493411173453
 31
0.0
  0
LINE
  8
DETAIL
  6
CONTINUOUS
 62
     5
 10
-248.82863829891451
 20
-9.5539493411173453
 30
0.0
 11
-248.87428531097339
 21
-9.5202034253887859
 31
0.0
  0
LINE
  8
DETAIL
  6
CONTINUOUS
 62
     5
 10
-248.87428531097339
 20
-9.5202034253887859
 30
0.0
 11
-248.9192583863296
 21
-9.485415566087795
 31
0.0
  0
LINE
  8
DETAIL
  6
CONTINUOUS
 62
     5
 10
-248.9192583863296
 20
-9.485415566087795
 30
0.0
 11
-248.9192583863296
 21
-9.485415566087795
 31
0.0
  0
LINE
  8
DETAIL
  6
CONTINUOUS
 62
     5
 10
-248.9192583863296
 20
-9.485415566087795
 30
0.0
 11
-248.96355901528341
 21
-9.4495910843538695
 31
0.0
  0
LINE
  8
DETAIL
  6
CONTINUOUS
 62
     5
 10
-248.96355901528341
 20
-9.4495910843538695
 30
0.0
 11
-249.006839254288
 21
-9.4130538793810956
 31
0.0
  0
LINE
  8
DETAIL
  6
CONTINUOUS
 62
     5
 10
-249.006839254288
 20
-9.4130538793810956
 30
0.0
 11
-249.006839254288
 21
-9.4130538793810956
 31
0.0
  0
LINE
  8
DETAIL
  6
CONTINUOUS
 62
     5
 10
-249.006839254288
 20
-9.4130538793810956
 30
0.0
 11
-249.04880762531911
 21
-9.3760845192974784
 31
0.0
  0
LINE
  8
DETAIL
  6
CONTINUOUS
 62
     5
 10
-249.04880762531911
 20
-9.3760845192974784
 30
0.0
 11
-249.08974794629879
 21
-9.3384716699162027
 31
0.0
  0
LINE
  8
DETAIL
  6
CONTINUOUS
 62
     5
 10
-249.08974794629879
 20
-9.3384716699162027
 30
0.0
 11
-249.08974794629879
 21
-9.3384716699162027
 31
0.0
  0
LINE
  8
DETAIL
  6
CONTINUOUS
 62
     5
 10
-249.08974794629879
 20
-9.3384716699162027
 30
0.0
 11
-249.1299969702886
 21
-9.2999548109695525
 31
0.0
  0
LINE
  8
DETAIL
  6
CONTINUOUS
 62
     5
 10
-249.1299969702886
 20
-9.2999548109695525
 30
0.0
 11
-249.16952789497159
 21
-9.2605685801853497
 31
0.0
  0
LINE
  8
DETAIL
  6
CONTINUOUS
 62
     5
 10
-249.16952789497159
 20
-9.2605685801853497
 30
0.0
 11
-249.16952789497159
 21
-9.2605685801853497
 31
0.0
  0
LINE
  8
DETAIL
  6
CONTINUOUS
 62
     5
 10
-249.16952789497159
 20
-9.2605685801853497
 30
0.0
 11
-249.2082415856689
 21
-9.2204094531459759
 31
0.0
  0
LINE
  8
DETAIL
  6
CONTINUOUS
 62
     5
 10
-249.2082415856689
 20
-9.2204094531459759
 30
0.0
 11
-249.2461131336357
 21
-9.1795260988628797
 31
0.0
  0
LINE
  8
DETAIL
  6
CONTINUOUS
 62
     5
 10
-249.2461131336357
 20
-9.1795260988628797
 30
0.0
 11
-249.2461131336357
 21
-9.1795260988628797
 31
0.0
  0
LINE
  8
DETAIL
  6
CONTINUOUS
 62
     5
 10
-249.2461131336357
 20
-9.1795260988628797
 30
0.0
 11
-249.28315284952259
 21
-9.137929251776427
 31
0.0
  0
LINE
  8
DETAIL
  6
CONTINUOUS
 62
     5
 10
-249.28315284952259
 20
-9.137929251776427
 30
0.0
 11
-249.31943769562349
 21
-9.0955257146229087
 31
0.0
  0
LINE
  8
DETAIL
  6
CONTINUOUS
 62
     5
 10
-249.31943769562349
 20
-9.0955257146229087
 30
0.0
 11
-249.31943769562349
 21
-9.0955257146229087
 31
0.0
  0
LINE
  8
DETAIL
  6
CONTINUOUS
 62
     5
 10
-249.31943769562349
 20
-9.0955257146229087
 30
0.0
 11
-249.3549760890169
 21
-9.0523121905605421
 31
0.0
  0
LINE
  8
DETAIL
  6
CONTINUOUS
 62
     5
 10
-249.3549760890169
 20
-9.0523121905605421
 30
0.0
 11
-249.3894356142641
 21
-9.0087489161396661
 31
0.0
  0
LINE
  8
DETAIL
  6
CONTINUOUS
 62
     5
 10
-249.3894356142641
 20
-9.0087489161396661
 30
0.0
 11
-249.3894356142641
 21
-9.0087489161396661
 31
0.0
  0
LINE
  8
DETAIL
  6
CONTINUOUS
 62
     5
 10
-249.3894356142641
 20
-9.0087489161396661
 30
0.0
 11
-249.42254002985601
 21
-8.9652299832168865
 31
0.0
  0
LINE
  8
DETAIL
  6
CONTINUOUS
 62
     5
 10
-249.42254002985601
 20
-8.9652299832168865
 30
0.0
 11
-249.45457862251351
 21
-8.9214213714785728
 31
0.0
  0
LINE
  8
DETAIL
  6
CONTINUOUS
 62
     5
 10
-249.45457862251351
 20
-8.9214213714785728
 30
0.0
 11
-249.45457862251351
 21
-8.9214213714785728
 31
0.0
  0
LINE
  8
DETAIL
  6
CONTINUOUS
 62
     5
 10
-249.45457862251351
 20
-8.9214213714785728
 30
0.0
 11
-249.48589127953261
 21
-8.8769180464125839
 31
0.0
  0
LINE
  8
DETAIL
  6
CONTINUOUS
 62
     5
 10
-249.48589127953261
 20
-8.8769180464125839
 30
0.0
 11
-249.51645476227529
 21
-8.8317590288836527
 31
0.0
  0
LINE
  8
DETAIL
  6
CONTINUOUS
 62
     5
 10
-249.51645476227529
 20
-8.8317590288836527
 30
0.0
 11
-249.51645476227529
 21
-8.8317590288836527
 31
0.0
  0
LINE
  8
DETAIL
  6
CONTINUOUS
 62
     5
 10
-249.51645476227529
 20
-8.8317590288836527
 30
0.0
 11
-249.5461750437112
 21
-8.7860733441647199
 31
0.0
  0
LINE
  8
DETAIL
  6
CONTINUOUS
 62
     5
 10
-249.5461750437112
 20
-8.7860733441647199
 30
0.0
 11
-249.57503806916111
 21
-8.7399059797930931
 31
0.0
  0
LINE
  8
DETAIL
  6
CONTINUOUS
 62
     5
 10
-249.57503806916111
 20
-8.7399059797930931
 30
0.0
 11
-249.57503806916111
 21
-8.7399059797930931
 31
0.0
  0
LINE
  8
DETAIL
  6
CONTINUOUS
 62
     5
 10
-249.57503806916111
 20
-8.7399059797930931
 30
0.0
 11
-249.60306058616521
 21
-8.6932539377640978
 31
0.0
  0
LINE
  8
DETAIL
  6
CONTINUOUS
 62
     5
 10
-249.60306058616521
 20
-8.6932539377640978
 30
0.0
 11
-249.6303025787806
 21
-8.6460063156446267
 31
0.0
  0
LINE
  8
DETAIL
  6
CONTINUOUS
 62
     5
 10
-249.6303025787806
 20
-8.6460063156446267
 30
0.0
 11
-249.6303025787806
 21
-8.6460063156446267
 31
0.0
  0
LINE
  8
DETAIL
  6
CONTINUOUS
 62
     5
 10
-249.6303025787806
 20
-8.6460063156446267
 30
0.0
 11
-249.65677161058829
 21
-8.5981541487566346
 31
0.0
  0
LINE
  8
DETAIL
  6
CONTINUOUS
 62
     5
 10
-249.65677161058829
 20
-8.5981541487566346
 30
0.0
 11
-249.68222232674589
 21
-8.5502041278766683
 31
0.0
  0
LINE
  8
DETAIL
  6
CONTINUOUS
 62
     5
 10
-249.68222232674589
 20
-8.5502041278766683
 30
0.0
 11
-249.68222232674589
 21
-8.5502041278766683
 31
0.0
  0
LINE
  8
DETAIL
  6
CONTINUOUS
 62
     5
 10
-249.68222232674589
 20
-8.5502041278766683
 30
0.0
 11
-249.70645281681161
 21
-8.5025877987017111
 31
0.0
  0
LINE
  8
DETAIL
  6
CONTINUOUS
 62
     5
 10
-249.70645281681161
 20
-8.5025877987017111
 30
0.0
 11
-249.72968786637881
 21
-8.4549204711642005
 31
0.0
  0
LINE
  8
DETAIL
  6
CONTINUOUS
 62
     5
 10
-249.72968786637881
 20
-8.4549204711642005
 30
0.0
 11
-249.72968786637881
 21
-8.4549204711642005
 31
0.0
  0
LINE
  8
DETAIL
  6
CONTINUOUS
 62
     5
 10
-249.72968786637881
 20
-8.4549204711642005
 30
0.0
 11
-249.75218693035501
 21
-8.4067410565608043
 31
0.0
  0
LINE
  8
DETAIL
  6
CONTINUOUS
 62
     5
 10
-249.75218693035501
 20
-8.4067410565608043
 30
0.0
 11
-249.7739214448716
 21
-8.3580991074132953
 31
0.0
  0
LINE
  8
DETAIL
  6
CONTINUOUS
 62
     5
 10
-249.7739214448716
 20
-8.3580991074132953
 30
0.0
 11
-249.7739214448716
 21
-8.3580991074132953
 31
0.0
  0
LINE
  8
DETAIL
  6
CONTINUOUS
 62
     5
 10
-249.7739214448716
 20
-8.3580991074132953
 30
0.0
 11
-249.7948174800504
 21
-8.3091398215275376
 31
0.0
  0
LINE
  8
DETAIL
  6
CONTINUOUS
 62
     5
 10
-249.7948174800504
 20
-8.3091398215275376
 30
0.0
 11
-249.81490766074739
 21
-8.2598803366234961
 31
0.0
  0
LINE
  8
DETAIL
  6
CONTINUOUS
 62
     5
 10
-249.81490766074739
 20
-8.2598803366234961
 30
0.0
 11
-249.81490766074739
 21
-8.2598803366234961
 31
0.0
  0
LINE
  8
DETAIL
  6
CONTINUOUS
 62
     5
 10
-249.81490766074739
 20
-8.2598803366234961
 30
0.0
 11
-249.83421670046241
 21
-8.2103061751794257
 31
0.0
  0
LINE
  8
DETAIL
  6
CONTINUOUS
 62
     5
 10
-249.83421670046241
 20
-8.2103061751794257
 30
0.0
 11
-249.85263111253019
 21
-8.1604044587954832
 31
0.0
  0
LINE
  8
DETAIL
  6
CONTINUOUS
 62
     5
 10
-249.85263111253019
 20
-8.1604044587954832
 30
0.0
 11
-249.85263111253019
 21
-8.1604044587954832
 31
0.0
  0
LINE
  8
DETAIL
  6
CONTINUOUS
 62
     5
 10
-249.85263111253019
 20
-8.1604044587954832
 30
0.0
 11
-249.87011442172479
 21
-8.1101931247521861
 31
0.0
  0
LINE
  8
DETAIL
  6
CONTINUOUS
 62
     5
 10
-249.87011442172479
 20
-8.1101931247521861
 30
0.0
 11
-249.88707639874289
 21
-8.0598117739288
 31
0.0
  0
LINE
  8
DETAIL
  6
CONTINUOUS
 62
     5
 10
252.50427330112319
 20
-9.1782151992586023
 30
0.0
 11
252.47443395050641
 21
-9.2673175492745941
 31
0.0
  0
LINE
  8
DETAIL
  6
CONTINUOUS
 62
     5
 10
252.47443395050641
 20
-9.2673175492745941
 30
0.0
 11
252.44380740352969
 21
-9.3561639681535098
 31
0.0
  0
LINE
  8
DETAIL
  6
CONTINUOUS
 62
     5
 10
252.44380740352969
 20
-9.3561639681535098
 30
0.0
 11
252.44380740352969
 21
-9.3561639681535098
 31
0.0
  0
LINE
  8
DETAIL
  6
CONTINUOUS
 62
     5
 10
247.8426245944033
 20
-13.20346821922249
 30
0.0
 11
247.8426245944033
 21
-13.20346821922249
 31
0.0
  0
LINE
  8
DETAIL
  6
CONTINUOUS
 62
     5
 10
247.63812902165591
 20
-13.21684840427554
 30
0.0
 11
247.63812902165591
 21
-13.21684840427554
 31
0.0
  0
LINE
  8
DETAIL
  6
CONTINUOUS
 62
     5
 10
301.73006317270801
 20
-10.049406598379051
 30
0.0
 11
301.73006317270801
 21
-10.049406598379051
 31
0.0
  0
LINE
  8
DETAIL
  6
CONTINUOUS
 62
     5
 10
251.79191563093761
 20
-3.0028693298767171
 30
0.0
 11
251.7810412036674
 21
-3.0190158563583509
 31
0.0
  0
LINE
  8
DETAIL
  6
CONTINUOUS
 62
     5
 10
251.7810412036674
 20
-3.0190158563583509
 30
0.0
 11
251.77013067463491
 21
-3.035294918591489
 31
0.0
  0
LINE
  8
DETAIL
  6
CONTINUOUS
 62
     5
 10
251.77013067463491
 20
-3.035294918591489
 30
0.0
 11
251.77013067463491
 21
-3.035294918591489
 31
0.0
  0
LINE
  8
DETAIL
  6
CONTINUOUS
 62
     5
 10
251.77013067463491
 20
-3.035294918591489
 30
0.0
 11
251.75920966885769
 21
-3.051723553283523
 31
0.0
  0
LINE
  8
DETAIL
  6
CONTINUOUS
 62
     5
 10
251.75920966885769
 20
-3.051723553283523
 30
0.0
 11
251.7485507184665
 21
-3.0678568009720948
 31
0.0
  0
LINE
  8
DETAIL
  6
CONTINUOUS
 62
     5
 10
251.7485507184665
 20
-3.0678568009720948
 30
0.0
 11
251.7485507184665
 21
-3.0678568009720948
 31
0.0
  0
LINE
  8
DETAIL
  6
CONTINUOUS
 62
     5
 10
251.7485507184665
 20
-3.0678568009720948
 30
0.0
 11
251.73821560092799
 21
-3.0835789503901201
 31
0.0
  0
LINE
  8
DETAIL
  6
CONTINUOUS
 62
     5
 10
251.73821560092799
 20
-3.0835789503901201
 30
0.0
 11
251.72717616793719
 21
-3.1005532792312351
 31
0.0
  0
LINE
  8
DETAIL
  6
CONTINUOUS
 62
     5
 10
251.72717616793719
 20
-3.1005532792312351
 30
0.0
 11
251.72717616793719
 21
-3.1005532792312351
 31
0.0
  0
LINE
  8
DETAIL
  6
CONTINUOUS
 62
     5
 10
238.28480065220921
 20
-235.2555506290856
 30
0.0
 11
238.28480065220921
 21
-235.2555506290856
 31
0.0
  0
LINE
  8
DETAIL
  6
CONTINUOUS
 62
     5
 10
238.28480065220921
 20
-235.2555506290856
 30
0.0
 11
238.28489346113761
 21
-235.2696664420528
 31
0.0
  0
LINE
  8
DETAIL
  6
CONTINUOUS
 62
     5
 10
238.28489346113761
 20
-235.2696664420528
 30
0.0
 11
238.28495459710771
 21
-235.28319072943609
 31
0.0
  0
LINE
  8
DETAIL
  6
CONTINUOUS
 62
     5
 10
238.28495459710771
 20
-235.28319072943609
 30
0.0
 11
238.28495459710771
 21
-235.28319072943609
 31
0.0
  0
LINE
  8
DETAIL
  6
CONTINUOUS
 62
     5
 10
238.28495459710771
 20
-235.28319072943609
 30
0.0
 11
238.28499845381819
 21
-235.2959251662875
 31
0.0
  0
LINE
  8
DETAIL
  6
CONTINUOUS
 62
     5
 10
238.28499845381819
 20
-235.2959251662875
 30
0.0
 11
238.2849051466649
 21
-235.3108386775003
 31
0.0
  0
LINE
  8
DETAIL
  6
CONTINUOUS
 62
     5
 10
238.2849051466649
 20
-235.3108386775003
 30
0.0
 11
238.2849051466649
 21
-235.3108386775003
 31
0.0
  0
LINE
  8
DETAIL
  6
CONTINUOUS
 62
     5
 10
238.2849051466649
 20
-235.3108386775003
 30
0.0
 11
238.2846408695402
 21
-235.3287229911401
 31
0.0
  0
LINE
  8
DETAIL
  6
CONTINUOUS
 62
     5
 10
238.2846408695402
 20
-235.3287229911401
 30
0.0
 11
238.2846504086049
 21
-235.33849379811829
 31
0.0
  0
LINE
  8
DETAIL
  6
CONTINUOUS
 62
     5
 10
238.2846504086049
 20
-235.33849379811829
 30
0.0
 11
238.2846504086049
 21
-235.33849379811829
 31
0.0
  0
LINE
  8
DETAIL
  6
CONTINUOUS
 62
     5
 10
238.2846504086049
 20
-235.33849379811829
 30
0.0
 11
238.28505317539319
 21
-235.33718200475241
 31
0.0
  0
LINE
  8
DETAIL
  6
CONTINUOUS
 62
     5
 10
238.28505317539319
 20
-235.33718200475241
 30
0.0
 11
238.28418849065349
 21
-235.36615541613091
 31
0.0
  0
LINE
  8
DETAIL
  6
CONTINUOUS
 62
     5
 10
238.28418849065349
 20
-235.36615541613091
 30
0.0
 11
238.28418849065349
 21
-235.36615541613091
 31
0.0
  0
LINE
  8
DETAIL
  6
CONTINUOUS
 62
     5
 10
238.28418849065349
 20
-235.36615541613091
 30
0.0
 11
238.2802999669145
 21
-235.4603453563017
 31
0.0
  0
LINE
  8
DETAIL
  6
CONTINUOUS
 62
     5
 10
238.2802999669145
 20
-235.4603453563017
 30
0.0
 11
238.27302847460371
 21
-235.584600326372
 31
0.0
  0
LINE
  8
DETAIL
  6
CONTINUOUS
 62
     5
 10
238.27302847460371
 20
-235.584600326372
 30
0.0
 11
238.27302847460371
 21
-235.584600326372
 31
0.0
  0
LINE
  8
DETAIL
  6
CONTINUOUS
 62
     5
 10
238.27302847460371
 20
-235.584600326372
 30
0.0
 11
238.26230475766729
 21
-235.69741877333209
 31
0.0
  0
LINE
  8
DETAIL
  6
CONTINUOUS
 62
     5
 10
238.26230475766729
 20
-235.69741877333209
 30
0.0
 11
238.24782179622949
 21
-235.80198175063339
 31
0.0
  0
LINE
  8
DETAIL
  6
CONTINUOUS
 62
     5
 10
238.24782179622949
 20
-235.80198175063339
 30
0.0
 11
238.24782179622949
 21
-235.80198175063339
 31
0.0
  0
LINE
  8
DETAIL
  6
CONTINUOUS
 62
     5
 10
238.24782179622949
 20
-235.80198175063339
 30
0.0
 11
238.2293946008696
 21
-235.90928157404559
 31
0.0
  0
LINE
  8
DETAIL
  6
CONTINUOUS
 62
     5
 10
238.2293946008696
 20
-235.90928157404559
 30
0.0
 11
238.2075640678124
 21
-236.01687300213251
 31
0.0
  0
LINE
  8
DETAIL
  6
CONTINUOUS
 62
     5
 10
238.2075640678124
 20
-236.01687300213251
 30
0.0
 11
238.2075640678124
 21
-236.01687300213251
 31
0.0
  0
LINE
  8
DETAIL
  6
CONTINUOUS
 62
     5
 10
238.2075640678124
 20
-236.01687300213251
 30
0.0
 11
238.18238612000391
 21
-236.1212183097449
 31
0.0
  0
LINE
  8
DETAIL
  6
CONTINUOUS
 62
     5
 10
238.18238612000391
 20
-236.1212183097449
 30
0.0
 11
238.15125090163451
 21
-236.2278473940863
 31
0.0
  0
LINE
  8
DETAIL
  6
CONTINUOUS
 62
     5
 10
238.15125090163451
 20
-236.2278473940863
 30
0.0
 11
238.15125090163451
 21
-236.2278473940863
 31
0.0
  0
LINE
  8
DETAIL
  6
CONTINUOUS
 62
     5
 10
238.15125090163451
 20
-236.2278473940863
 30
0.0
 11
238.11336641954881
 21
-236.33884882489741
 31
0.0
  0
LINE
  8
DETAIL
  6
CONTINUOUS
 62
     5
 10
238.11336641954881
 20
-236.33884882489741
 30
0.0
 11
238.07787790997619
 21
-236.43347823971331
 31
0.0
  0
LINE
  8
DETAIL
  6
CONTINUOUS
 62
     5
 10
238.07787790997619
 20
-236.43347823971331
 30
0.0
 11
238.07787790997619
 21
-236.43347823971331
 31
0.0
  0
LINE
  8
DETAIL
  6
CONTINUOUS
 62
     5
 10
238.07787790997619
 20
-236.43347823971331
 30
0.0
 11
238.0528664168265
 21
-236.49416274952401
 31
0.0
  0
LINE
  8
DETAIL
  6
CONTINUOUS
 62
     5
 10
238.0528664168265
 20
-236.49416274952401
 30
0.0
 11
238.03221898535571
 21
-236.53884829133781
 31
0.0
  0
LINE
  8
DETAIL
  6
CONTINUOUS
 62
     5
 10
238.03221898535571
 20
-236.53884829133781
 30
0.0
 11
238.03221898535571
 21
-236.53884829133781
 31
0.0
  0
LINE
  8
DETAIL
  6
CONTINUOUS
 62
     5
 10
238.03221898535571
 20
-236.53884829133781
 30
0.0
 11
238.00831749909159
 21
-236.5886839564495
 31
0.0
  0
LINE
  8
DETAIL
  6
CONTINUOUS
 62
     5
 10
238.00831749909159
 20
-236.5886839564495
 30
0.0
 11
237.9817171933116
 21
-236.64211262727969
 31
0.0
  0
LINE
  8
DETAIL
  6
CONTINUOUS
 62
     5
 10
237.9817171933116
 20
-236.64211262727969
 30
0.0
 11
237.9817171933116
 21
-236.64211262727969
 31
0.0
  0
LINE
  8
DETAIL
  6
CONTINUOUS
 62
     5
 10
237.9817171933116
 20
-236.64211262727969
 30
0.0
 11
237.95447888036699
 21
-236.69342796683
 31
0.0
  0
LINE
  8
DETAIL
  6
CONTINUOUS
 62
     5
 10
237.95447888036699
 20
-236.69342796683
 30
0.0
 11
237.92651232916089
 21
-236.74303296930671
 31
0.0
  0
LINE
  8
DETAIL
  6
CONTINUOUS
 62
     5
 10
237.92651232916089
 20
-236.74303296930671
 30
0.0
 11
237.92651232916089
 21
-236.74303296930671
 31
0.0
  0
LINE
  8
DETAIL
  6
CONTINUOUS
 62
     5
 10
237.92651232916089
 20
-236.74303296930671
 30
0.0
 11
237.89729725324489
 21
-236.7924251827327
 31
0.0
  0
LINE
  8
DETAIL
  6
CONTINUOUS
 62
     5
 10
237.89729725324489
 20
-236.7924251827327
 30
0.0
 11
237.8667441882196
 21
-236.84137103918741
 31
0.0
  0
LINE
  8
DETAIL
  6
CONTINUOUS
 62
     5
 10
237.8667441882196
 20
-236.84137103918741
 30
0.0
 11
237.8667441882196
 21
-236.84137103918741
 31
0.0
  0
LINE
  8
DETAIL
  6
CONTINUOUS
 62
     5
 10
237.8667441882196
 20
-236.84137103918741
 30
0.0
 11
237.83497831401129
 21
-236.8894079749081
 31
0.0
  0
LINE
  8
DETAIL
  6
CONTINUOUS
 62
     5
 10
237.83497831401129
 20
-236.8894079749081
 30
0.0
 11
237.80255256580381
 21
-236.93688855869061
 31
0.0
  0
LINE
  8
DETAIL
  6
CONTINUOUS
 62
     5
 10
232.6706938964571
 20
-17.227786755932929
 30
0.0
 11
232.75243695395559
 21
-17.22707605711901
 31
0.0
  0
LINE
  8
DETAIL
  6
CONTINUOUS
 62
     5
 10
232.75243695395559
 20
-17.22707605711901
 30
0.0
 11
232.83418087996509
 21
-17.225712122355731
 31
0.0
  0
LINE
  8
DETAIL
  6
CONTINUOUS
 62
     5
 10
232.83418087996509
 20
-17.225712122355731
 30
0.0
 11
232.83418087996509
 21
-17.225712122355731
 31
0.0
  0
LINE
  8
DETAIL
  6
CONTINUOUS
 62
     5
 10
232.83418087996509
 20
-17.225712122355731
 30
0.0
 11
232.91591962150281
 21
-17.223182103940079
 31
0.0
  0
LINE
  8
DETAIL
  6
CONTINUOUS
 62
     5
 10
232.91591962150281
 20
-17.223182103940079
 30
0.0
 11
232.99761943961221
 21
-17.219534707157209
 31
0.0
  0
LINE
  8
DETAIL
  6
CONTINUOUS
 62
     5
 10
232.99761943961221
 20
-17.219534707157209
 30
0.0
 11
232.99761943961221
 21
-17.219534707157209
 31
0.0
  0
LINE
  8
DETAIL
  6
CONTINUOUS
 62
     5
 10
232.99761943961221
 20
-17.219534707157209
 30
0.0
 11
233.07925887955031
 21
-17.214919035069901
 31
0.0
  0
LINE
  8
DETAIL
  6
CONTINUOUS
 62
     5
 10
233.07925887955031
 20
-17.214919035069901
 30
0.0
 11
233.1608933094117
 21
-17.209324228857099
 31
0.0
  0
LINE
  8
DETAIL
  6
CONTINUOUS
 62
     5
 10
233.1608933094117
 20
-17.209324228857099
 30
0.0
 11
233.1608933094117
 21
-17.209324228857099
 31
0.0
  0
LINE
  8
DETAIL
  6
CONTINUOUS
 62
     5
 10
233.1608933094117
 20
-17.209324228857099
 30
0.0
 11
233.24252740165591
 21
-17.202719012863099
 31
0.0
  0
LINE
  8
DETAIL
  6
CONTINUOUS
 62
     5
 10
233.24252740165591
 20
-17.202719012863099
 30
0.0
 11
233.32388622337751
 21
-17.195150405971621
 31
0.0
  0
LINE
  8
DETAIL
  6
CONTINUOUS
 62
     5
 10
233.32388622337751
 20
-17.195150405971621
 30
0.0
 11
233.32388622337751
 21
-17.195150405971621
 31
0.0
  0
LINE
  8
DETAIL
  6
CONTINUOUS
 62
     5
 10
233.32388622337751
 20
-17.195150405971621
 30
0.0
 11
233.40488533998811
 21
-17.186646696631779
 31
0.0
  0
LINE
  8
DETAIL
  6
CONTINUOUS
 62
     5
 10
233.40488533998811
 20
-17.186646696631779
 30
0.0
 11
233.48648191552459
 21
-17.177082957020051
 31
0.0
  0
LINE
  8
DETAIL
  6
CONTINUOUS
 62
     5
 10
233.48648191552459
 20
-17.177082957020051
 30
0.0
 11
233.48648191552459
 21
-17.177082957020051
 31
0.0
  0
LINE
  8
DETAIL
  6
CONTINUOUS
 62
     5
 10
233.48648191552459
 20
-17.177082957020051
 30
0.0
 11
233.56948542773131
 21
-17.166348791877109
 31
0.0
  0
LINE
  8
DETAIL
  6
CONTINUOUS
 62
     5
 10
233.56948542773131
 20
-17.166348791877109
 30
0.0
 11
233.6530730105487
 21
-17.154545152474039
 31
0.0
  0
LINE
  8
DETAIL
  6
CONTINUOUS
 62
     5
 10
233.6530730105487
 20
-17.154545152474039
 30
0.0
 11
233.6530730105487
 21
-17.154545152474039
 31
0.0
  0
LINE
  8
DETAIL
  6
CONTINUOUS
 62
     5
 10
233.6530730105487
 20
-17.154545152474039
 30
0.0
 11
233.73626373608701
 21
-17.141800045191641
 31
0.0
  0
LINE
  8
DETAIL
  6
CONTINUOUS
 62
     5
 10
233.73626373608701
 20
-17.141800045191641
 30
0.0
 11
233.81907677293881
 21
-17.12813835031568
 31
0.0
  0
LINE
  8
DETAIL
  6
CONTINUOUS
 62
     5
 10
233.81907677293881
 20
-17.12813835031568
 30
0.0
 11
233.81907677293881
 21
-17.12813835031568
 31
0.0
  0
LINE
  8
DETAIL
  6
CONTINUOUS
 62
     5
 10
233.81907677293881
 20
-17.12813835031568
 30
0.0
 11
233.90175653126329
 21
-17.113555582942919
 31
0.0
  0
LINE
  8
DETAIL
  6
CONTINUOUS
 62
     5
 10
233.90175653126329
 20
-17.113555582942919
 30
0.0
 11
233.9844482910012
 21
-17.098032923506139
 31
0.0
  0
LINE
  8
DETAIL
  6
CONTINUOUS
 62
     5
 10
233.9844482910012
 20
-17.098032923506139
 30
0.0
 11
233.9844482910012
 21
-17.098032923506139
 31
0.0
  0
LINE
  8
DETAIL
  6
CONTINUOUS
 62
     5
 10
233.9844482910012
 20
-17.098032923506139
 30
0.0
 11
234.06712165563661
 21
-17.081588084959439
 31
0.0
  0
LINE
  8
DETAIL
  6
CONTINUOUS
 62
     5
 10
234.06712165563661
 20
-17.081588084959439
 30
0.0
 11
234.1491426530433
 21
-17.064399245005919
 31
0.0
  0
LINE
  8
DETAIL
  6
CONTINUOUS
 62
     5
 10
234.1491426530433
 20
-17.064399245005919
 30
0.0
 11
234.1491426530433
 21
-17.064399245005919
 31
0.0
  0
LINE
  8
DETAIL
  6
CONTINUOUS
 62
     5
 10
234.1491426530433
 20
-17.064399245005919
 30
0.0
 11
234.23035477535629
 21
-17.046527816452791
 31
0.0
  0
LINE
  8
DETAIL
  6
CONTINUOUS
 62
     5
 10
234.23035477535629
 20
-17.046527816452791
 30
0.0
 11
234.3131149473711
 21
-17.02740768777619
 31
0.0
  0
LINE
  8
DETAIL
  6
CONTINUOUS
 62
     5
 10
234.3131149473711
 20
-17.02740768777619
 30
0.0
 11
234.3131149473711
 21
-17.02740768777619
 31
0.0
  0
LINE
  8
DETAIL
  6
CONTINUOUS
 62
     5
 10
234.3131149473711
 20
-17.02740768777619
 30
0.0
 11
234.39940873440901
 21
-17.006553528368389
 31
0.0
  0
LINE
  8
DETAIL
  6
CONTINUOUS
 62
     5
 10
234.39940873440901
 20
-17.006553528368389
 30
0.0
 11
234.4872228312297
 21
-16.984430655620141
 31
0.0
  0
LINE
  8
DETAIL
  6
CONTINUOUS
 62
     5
 10
234.4872228312297
 20
-16.984430655620141
 30
0.0
 11
234.4872228312297
 21
-16.984430655620141
 31
0.0
  0
LINE
  8
DETAIL
  6
CONTINUOUS
 62
     5
 10
234.4872228312297
 20
-16.984430655620141
 30
0.0
 11
234.57418024275421
 21
-16.961597891178599
 31
0.0
  0
LINE
  8
DETAIL
  6
CONTINUOUS
 62
     5
 10
234.57418024275421
 20
-16.961597891178599
 30
0.0
 11
234.66044808511739
 21
-16.93803742572311
 31
0.0
  0
LINE
  8
DETAIL
  6
CONTINUOUS
 62
     5
 10
234.66044808511739
 20
-16.93803742572311
 30
0.0
 11
234.66044808511739
 21
-16.93803742572311
 31
0.0
  0
LINE
  8
DETAIL
  6
CONTINUOUS
 62
     5
 10
234.66044808511739
 20
-16.93803742572311
 30
0.0
 11
234.74666119304041
 21
-16.913631635991688
 31
0.0
  0
LINE
  8
DETAIL
  6
CONTINUOUS
 62
     5
 10
234.74666119304041
 20
-16.913631635991688
 30
0.0
 11
234.83278116439169
 21
-16.888440273932819
 31
0.0
  0
LINE
  8
DETAIL
  6
CONTINUOUS
 62
     5
 10
234.83278116439169
 20
-16.888440273932819
 30
0.0
 11
234.83278116439169
 21
-16.888440273932819
 31
0.0
  0
LINE
  8
DETAIL
  6
CONTINUOUS
 62
     5
 10
234.83278116439169
 20
-16.888440273932819
 30
0.0
 11
234.91863849687621
 21
-16.862534217829079
 31
0.0
  0
LINE
  8
DETAIL
  6
CONTINUOUS
 62
     5
 10
234.91863849687621
 20
-16.862534217829079
 30
0.0
 11
235.00421252441041
 21
-16.835851476096199
 31
0.0
  0
LINE
  8
DETAIL
  6
CONTINUOUS
 62
     5
 10
235.00421252441041
 20
-16.835851476096199
 30
0.0
 11
235.00421252441041
 21
-16.835851476096199
 31
0.0
  0
LINE
  8
DETAIL
  6
CONTINUOUS
 62
     5
 10
235.00421252441041
 20
-16.835851476096199
 30
0.0
 11
235.0895392629659
 21
-16.808385365748681
 31
0.0
  0
LINE
  8
DETAIL
  6
CONTINUOUS
 62
     5
 10
235.0895392629659
 20
-16.808385365748681
 30
0.0
 11
235.17473262053039
 21
-16.780483308061321
 31
0.0
  0
LINE
  8
DETAIL
  6
CONTINUOUS
 62
     5
 10
230.16665507610421
 20
-16.780483308061321
 30
0.0
 11
230.25182168657511
 21
-16.808376770398809
 31
0.0
  0
LINE
  8
DETAIL
  6
CONTINUOUS
 62
     5
 10
230.25182168657511
 20
-16.808376770398809
 30
0.0
 11
230.3371217115932
 21
-16.8358345921406
 31
0.0
  0
LINE
  8
DETAIL
  6
CONTINUOUS
 62
     5
 10
230.3371217115932
 20
-16.8358345921406
 30
0.0
 11
230.3371217115932
 21
-16.8358345921406
 31
0.0
  0
LINE
  8
DETAIL
  6
CONTINUOUS
 62
     5
 10
230.3371217115932
 20
-16.8358345921406
 30
0.0
 11
230.42266898369331
 21
-16.862509576525891
 31
0.0
  0
LINE
  8
DETAIL
  6
CONTINUOUS
 62
     5
 10
230.42266898369331
 20
-16.862509576525891
 30
0.0
 11
230.50849900735651
 21
-16.88840830213849
 31
0.0
  0
LINE
  8
DETAIL
  6
CONTINUOUS
 62
     5
 10
230.50849900735651
 20
-16.88840830213849
 30
0.0
 11
230.50849900735651
 21
-16.88840830213849
 31
0.0
  0
LINE
  8
DETAIL
  6
CONTINUOUS
 62
     5
 10
230.50849900735651
 20
-16.88840830213849
 30
0.0
 11
230.5945910129262
 21
-16.913592703606351
 31
0.0
  0
LINE
  8
DETAIL
  6
CONTINUOUS
 62
     5
 10
230.5945910129262
 20
-16.913592703606351
 30
0.0
 11
230.68077746224481
 21
-16.93799236439725
 31
0.0
  0
LINE
  8
DETAIL
  6
CONTINUOUS
 62
     5
 10
230.68077746224481
 20
-16.93799236439725
 30
0.0
 11
230.68077746224481
 21
-16.93799236439725
 31
0.0
  0
LINE
  8
DETAIL
  6
CONTINUOUS
 62
     5
 10
230.68077746224481
 20
-16.93799236439725
 30
0.0
 11
230.76702047554409
 21
-16.96154768751342
 31
0.0
  0
LINE
  8
DETAIL
  6
CONTINUOUS
 62
     5
 10
230.76702047554409
 20
-16.96154768751342
 30
0.0
 11
230.85394757511131
 21
-16.984374705258919
 31
0.0
  0
LINE
  8
DETAIL
  6
CONTINUOUS
 62
     5
 10
230.85394757511131
 20
-16.984374705258919
 30
0.0
 11
230.85394757511131
 21
-16.984374705258919
 31
0.0
  0
LINE
  8
DETAIL
  6
CONTINUOUS
 62
     5
 10
230.85394757511131
 20
-16.984374705258919
 30
0.0
 11
230.94172392381731
 21
-17.00649081575159
 31
0.0
  0
LINE
  8
DETAIL
  6
CONTINUOUS
 62
     5
 10
230.94172392381731
 20
-17.00649081575159
 30
0.0
 11
231.02799984480731
 21
-17.02734325106519
 31
0.0
  0
LINE
  8
DETAIL
  6
CONTINUOUS
 62
     5
 10
231.02799984480731
 20
-17.02734325106519
 30
0.0
 11
231.02799984480731
 21
-17.02734325106519
 31
0.0
  0
LINE
  8
DETAIL
  6
CONTINUOUS
 62
     5
 10
231.02799984480731
 20
-17.02734325106519
 30
0.0
 11
231.11078513900429
 21
-17.04647167102689
 31
0.0
  0
LINE
  8
DETAIL
  6
CONTINUOUS
 62
     5
 10
231.11078513900429
 20
-17.04647167102689
 30
0.0
 11
231.19204235817321
 21
-17.064355612519648
 31
0.0
  0
LINE
  8
DETAIL
  6
CONTINUOUS
 62
     5
 10
231.19204235817321
 20
-17.064355612519648
 30
0.0
 11
231.19204235817321
 21
-17.064355612519648
 31
0.0
  0
LINE
  8
DETAIL
  6
CONTINUOUS
 62
     5
 10
231.19204235817321
 20
-17.064355612519648
 30
0.0
 11
231.2741012546353
 21
-17.08155449604169
 31
0.0
  0
LINE
  8
DETAIL
  6
CONTINUOUS
 62
     5
 10
231.2741012546353
 20
-17.08155449604169
 30
0.0
 11
231.356807632098
 21
-17.098007399481279
 31
0.0
  0
LINE
  8
DETAIL
  6
CONTINUOUS
 62
     5
 10
231.356807632098
 20
-17.098007399481279
 30
0.0
 11
231.356807632098
 21
-17.098007399481279
 31
0.0
  0
LINE
  8
DETAIL
  6
CONTINUOUS
 62
     5
 10
231.356807632098
 20
-17.098007399481279
 30
0.0
 11
231.43953487999809
 21
-17.113537912686869
 31
0.0
  0
LINE
  8
DETAIL
  6
CONTINUOUS
 62
     5
 10
231.43953487999809
 20
-17.113537912686869
 30
0.0
 11
231.52225067930431
 21
-17.12812801594248
 31
0.0
  0
LINE
  8
DETAIL
  6
CONTINUOUS
 62
     5
 10
231.52225067930431
 20
-17.12812801594248
 30
0.0
 11
231.52225067930431
 21
-17.12812801594248
 31
0.0
  0
LINE
  8
DETAIL
  6
CONTINUOUS
 62
     5
 10
231.52225067930431
 20
-17.12812801594248
 30
0.0
 11
231.60509797949001
 21
-17.14179598235717
 31
0.0
  0
LINE
  8
DETAIL
  6
CONTINUOUS
 62
     5
 10
231.60509797949001
 20
-17.14179598235717
 30
0.0
 11
231.6883265125193
 21
-17.154546865896009
 31
0.0
  0
LINE
  8
DETAIL
  6
CONTINUOUS
 62
     5
 10
231.6883265125193
 20
-17.154546865896009
 30
0.0
 11
231.6883265125193
 21
-17.154546865896009
 31
0.0
  0
LINE
  8
DETAIL
  6
CONTINUOUS
 62
     5
 10
231.6883265125193
 20
-17.154546865896009
 30
0.0
 11
231.77195735060471
 21
-17.166356037271949
 31
0.0
  0
LINE
  8
DETAIL
  6
CONTINUOUS
 62
     5
 10
231.77195735060471
 20
-17.166356037271949
 30
0.0
 11
231.8549901444662
 21
-17.177093353333699
 31
0.0
  0
LINE
  8
DETAIL
  6
CONTINUOUS
 62
     5
 10
231.8549901444662
 20
-17.177093353333699
 30
0.0
 11
231.8549901444662
 21
-17.177093353333699
 31
0.0
  0
LINE
  8
DETAIL
  6
CONTINUOUS
 62
     5
 10
231.8549901444662
 20
-17.177093353333699
 30
0.0
 11
231.93658548879969
 21
-17.1866561447506
 31
0.0
  0
LINE
  8
DETAIL
  6
CONTINUOUS
 62
     5
 10
231.93658548879969
 20
-17.1866561447506
 30
0.0
 11
232.0175691756958
 21
-17.195157151346962
 31
0.0
  0
LINE
  8
DETAIL
  6
CONTINUOUS
 62
     5
 10
232.0175691756958
 20
-17.195157151346962
 30
0.0
 11
232.0175691756958
 21
-17.195157151346962
 31
0.0
  0
LINE
  8
DETAIL
  6
CONTINUOUS
 62
     5
 10
232.0175691756958
 20
-17.195157151346962
 30
0.0
 11
232.09891771487401
 21
-17.20272395238203
 31
0.0
  0
LINE
  8
DETAIL
  6
CONTINUOUS
 62
     5
 10
232.09891771487401
 20
-17.20272395238203
 30
0.0
 11
232.1805452891831
 21
-17.20932807570966
 31
0.0
  0
LINE
  8
DETAIL
  6
CONTINUOUS
 62
     5
 10
232.1805452891831
 20
-17.20932807570966
 30
0.0
 11
232.1805452891831
 21
-17.20932807570966
 31
0.0
  0
LINE
  8
DETAIL
  6
CONTINUOUS
 62
     5
 10
232.1805452891831
 20
-17.20932807570966
 30
0.0
 11
232.2621717890697
 21
-17.21492179784082
 31
0.0
  0
LINE
  8
DETAIL
  6
CONTINUOUS
 62
     5
 10
232.2621717890697
 20
-17.21492179784082
 30
0.0
 11
232.34380226225539
 21
-17.2195364413252
 31
0.0
  0
LINE
  8
DETAIL
  6
CONTINUOUS
 62
     5
 10
232.34380226225539
 20
-17.2195364413252
 30
0.0
 11
232.34380226225539
 21
-17.2195364413252
 31
0.0
  0
LINE
  8
DETAIL
  6
CONTINUOUS
 62
     5
 10
232.34380226225539
 20
-17.2195364413252
 30
0.0
 11
232.42549347022401
 21
-17.22318305703493
 31
0.0
  0
LINE
  8
DETAIL
  6
CONTINUOUS
 62
     5
 10
232.42549347022401
 20
-17.22318305703493
 30
0.0
 11
232.5072238722378
 21
-17.225712563098231
 31
0.0
  0
LINE
  8
DETAIL
  6
CONTINUOUS
 62
     5
 10
232.5072238722378
 20
-17.225712563098231
 30
0.0
 11
232.5072238722378
 21
-17.225712563098231
 31
0.0
  0
LINE
  8
DETAIL
  6
CONTINUOUS
 62
     5
 10
232.5072238722378
 20
-17.225712563098231
 30
0.0
 11
232.58895936490899
 21
-17.227076215691682
 31
0.0
  0
LINE
  8
DETAIL
  6
CONTINUOUS
 62
     5
 10
232.58895936490899
 20
-17.227076215691682
 30
0.0
 11
232.6706938964571
 21
-17.227786755932929
 31
0.0
  0
LINE
  8
DETAIL
  6
CONTINUOUS
 62
     5
 10
227.6626163038909
 20
-17.227786752827111
 30
0.0
 11
227.74435936209559
 21
-17.227076054588789
 31
0.0
  0
LINE
  8
DETAIL
  6
CONTINUOUS
 62
     5
 10
227.74435936209559
 20
-17.227076054588789
 30
0.0
 11
227.8261032888195
 21
-17.225712120476832
 31
0.0
  0
LINE
  8
DETAIL
  6
CONTINUOUS
 62
     5
 10
227.8261032888195
 20
-17.225712120476832
 30
0.0
 11
227.8261032888195
 21
-17.225712120476832
 31
0.0
  0
LINE
  8
DETAIL
  6
CONTINUOUS
 62
     5
 10
227.8261032888195
 20
-17.225712120476832
 30
0.0
 11
227.9078420310866
 21
-17.223182102843449
 31
0.0
  0
LINE
  8
DETAIL
  6
CONTINUOUS
 62
     5
 10
227.9078420310866
 20
-17.223182102843449
 30
0.0
 11
227.98954184992641
 21
-17.21953470693904
 31
0.0
  0
LINE
  8
DETAIL
  6
CONTINUOUS
 62
     5
 10
227.98954184992641
 20
-17.21953470693904
 30
0.0
 11
227.98954184992641
 21
-17.21953470693904
 31
0.0
  0
LINE
  8
DETAIL
  6
CONTINUOUS
 62
     5
 10
227.98954184992641
 20
-17.21953470693904
 30
0.0
 11
228.07118129059199
 21
-17.21491903577407
 31
0.0
  0
LINE
  8
DETAIL
  6
CONTINUOUS
 62
     5
 10
228.07118129059199
 20
-17.21491903577407
 30
0.0
 11
228.15281572121381
 21
-17.20932423049544
 31
0.0
  0
LINE
  8
DETAIL
  6
CONTINUOUS
 62
     5
 10
228.15281572121381
 20
-17.20932423049544
 30
0.0
 11
228.15281572121381
 21
-17.20932423049544
 31
0.0
  0
LINE
  8
DETAIL
  6
CONTINUOUS
 62
     5
 10
228.15281572121381
 20
-17.20932423049544
 30
0.0
 11
228.23444981426201
 21
-17.202719015422989
 31
0.0
  0
LINE
  8
DETAIL
  6
CONTINUOUS
 62
     5
 10
228.23444981426201
 20
-17.202719015422989
 30
0.0
 11
228.3158086366839
 21
-17.19515040942758
 31
0.0
  0
LINE
  8
DETAIL
  6
CONTINUOUS
 62
     5
 10
228.3158086366839
 20
-17.19515040942758
 30
0.0
 11
228.3158086366839
 21
-17.19515040942758
 31
0.0
  0
LINE
  8
DETAIL
  6
CONTINUOUS
 62
     5
 10
228.3158086366839
 20
-17.19515040942758
 30
0.0
 11
228.39680775384841
 21
-17.186646700932101
 31
0.0
  0
LINE
  8
DETAIL
  6
CONTINUOUS
 62
     5
 10
228.39680775384841
 20
-17.186646700932101
 30
0.0
 11
228.47840433033889
 21
-17.17708296201624
 31
0.0
  0
LINE
  8
DETAIL
  6
CONTINUOUS
 62
     5
 10
228.47840433033889
 20
-17.17708296201624
 30
0.0
 11
228.47840433033889
 21
-17.17708296201624
 31
0.0
  0
LINE
  8
DETAIL
  6
CONTINUOUS
 62
     5
 10
228.47840433033889
 20
-17.17708296201624
 30
0.0
 11
228.56140784435769
 21
-17.166348797338511
 31
0.0
  0
LINE
  8
DETAIL
  6
CONTINUOUS
 62
     5
 10
228.56140784435769
 20
-17.166348797338511
 30
0.0
 11
228.64499542938211
 21
-17.15454515821602
 31
0.0
  0
LINE
  8
DETAIL
  6
CONTINUOUS
 62
     5
 10
228.64499542938211
 20
-17.15454515821602
 30
0.0
 11
228.64499542938211
 21
-17.15454515821602
 31
0.0
  0
LINE
  8
DETAIL
  6
CONTINUOUS
 62
     5
 10
228.64499542938211
 20
-17.15454515821602
 30
0.0
 11
228.72818615697409
 21
-17.141800051094378
 31
0.0
  0
LINE
  8
DETAIL
  6
CONTINUOUS
 62
     5
 10
228.72818615697409
 20
-17.141800051094378
 30
0.0
 11
228.81099919576491
 21
-17.128138356272299
 31
0.0
  0
LINE
  8
DETAIL
  6
CONTINUOUS
 62
     5
 10
228.81099919576491
 20
-17.128138356272299
 30
0.0
 11
228.81099919576491
 21
-17.128138356272299
 31
0.0
  0
LINE
  8
DETAIL
  6
CONTINUOUS
 62
     5
 10
228.81099919576491
 20
-17.128138356272299
 30
0.0
 11
228.89367895605889
 21
-17.113555588849291
 31
0.0
  0
LINE
  8
DETAIL
  6
CONTINUOUS
 62
     5
 10
228.89367895605889
 20
-17.113555588849291
 30
0.0
 11
228.9763707177917
 21
-17.09803292927506
 31
0.0
  0
LINE
  8
DETAIL
  6
CONTINUOUS
 62
     5
 10
228.9763707177917
 20
-17.09803292927506
 30
0.0
 11
228.9763707177917
 21
-17.09803292927506
 31
0.0
  0
LINE
  8
DETAIL
  6
CONTINUOUS
 62
     5
 10
228.9763707177917
 20
-17.09803292927506
 30
0.0
 11
229.05904408440981
 21
-17.081588090522931
 31
0.0
  0
LINE
  8
DETAIL
  6
CONTINUOUS
 62
     5
 10
229.05904408440981
 20
-17.081588090522931
 30
0.0
 11
229.1410650837673
 21
-17.064399250316111
 31
0.0
  0
LINE
  8
DETAIL
  6
CONTINUOUS
 62
     5
 10
229.1410650837673
 20
-17.064399250316111
 30
0.0
 11
229.1410650837673
 21
-17.064399250316111
 31
0.0
  0
LINE
  8
DETAIL
  6
CONTINUOUS
 62
     5
 10
229.1410650837673
 20
-17.064399250316111
 30
0.0
 11
229.22227720800541
 21
-17.046527821477639
 31
0.0
  0
LINE
  8
DETAIL
  6
CONTINUOUS
 62
     5
 10
229.22227720800541
 20
-17.046527821477639
 30
0.0
 11
229.30503738199511
 21
-17.027407692485781
 31
0.0
  0
LINE
  8
DETAIL
  6
CONTINUOUS
 62
     5
 10
229.30503738199511
 20
-17.027407692485781
 30
0.0
 11
229.30503738199511
 21
-17.027407692485781
 31
0.0
  0
LINE
  8
DETAIL
  6
CONTINUOUS
 62
     5
 10
229.30503738199511
 20
-17.027407692485781
 30
0.0
 11
229.39133117112081
 21
-17.006553532733282
 31
0.0
  0
LINE
  8
DETAIL
  6
CONTINUOUS
 62
     5
 10
229.39133117112081
 20
-17.006553532733282
 30
0.0
 11
229.47914527007609
 21
-16.984430659619989
 31
0.0
  0
LINE
  8
DETAIL
  6
CONTINUOUS
 62
     5
 10
229.47914527007609
 20
-16.984430659619989
 30
0.0
 11
229.47914527007609
 21
-16.984430659619989
 31
0.0
  0
LINE
  8
DETAIL
  6
CONTINUOUS
 62
     5
 10
229.47914527007609
 20
-16.984430659619989
 30
0.0
 11
229.5661026837079
 21
-16.96159789480112
 31
0.0
  0
LINE
  8
DETAIL
  6
CONTINUOUS
 62
     5
 10
229.5661026837079
 20
-16.96159789480112
 30
0.0
 11
229.65237052815701
 21
-16.938037428946931
 31
0.0
  0
LINE
  8
DETAIL
  6
CONTINUOUS
 62
     5
 10
229.65237052815701
 20
-16.938037428946931
 30
0.0
 11
229.65237052815701
 21
-16.938037428946931
 31
0.0
  0
LINE
  8
DETAIL
  6
CONTINUOUS
 62
     5
 10
229.65237052815701
 20
-16.938037428946931
 30
0.0
 11
229.73858363816771
 21
-16.91363163878691
 31
0.0
  0
LINE
  8
DETAIL
  6
CONTINUOUS
 62
     5
 10
229.73858363816771
 20
-16.91363163878691
 30
0.0
 11
229.8247036116081
 21
-16.888440276264191
 31
0.0
  0
LINE
  8
DETAIL
  6
CONTINUOUS
 62
     5
 10
229.8247036116081
 20
-16.888440276264191
 30
0.0
 11
229.8247036116081
 21
-16.888440276264191
 31
0.0
  0
LINE
  8
DETAIL
  6
CONTINUOUS
 62
     5
 10
229.8247036116081
 20
-16.888440276264191
 30
0.0
 11
229.9105609461794
 21
-16.862534219658531
 31
0.0
  0
LINE
  8
DETAIL
  6
CONTINUOUS
 62
     5
 10
229.9105609461794
 20
-16.862534219658531
 30
0.0
 11
229.9961349758
 21
-16.835851477369829
 31
0.0
  0
LINE
  8
DETAIL
  6
CONTINUOUS
 62
     5
 10
229.9961349758
 20
-16.835851477369829
 30
0.0
 11
229.9961349758
 21
-16.835851477369829
 31
0.0
  0
LINE
  8
DETAIL
  6
CONTINUOUS
 62
     5
 10
229.9961349758
 20
-16.835851477369829
 30
0.0
 11
230.08146171644651
 21
-16.808385366403169
 31
0.0
  0
LINE
  8
DETAIL
  6
CONTINUOUS
 62
     5
 10
230.08146171644651
 20
-16.808385366403169
 30
0.0
 11
230.16665507610421
 21
-16.780483308061321
 31
0.0
  0
LINE
  8
DETAIL
  6
CONTINUOUS
 62
     5
 10
225.15857753167759
 20
-16.780483308061321
 30
0.0
 11
225.24374414214711
 21
-16.808376770212249
 31
0.0
  0
LINE
  8
DETAIL
  6
CONTINUOUS
 62
     5
 10
225.24374414214711
 20
-16.808376770212249
 30
0.0
 11
225.32904416716249
 21
-16.83583459180397
 31
0.0
  0
LINE
  8
DETAIL
  6
CONTINUOUS
 62
     5
 10
225.32904416716249
 20
-16.83583459180397
 30
0.0
 11
225.32904416716249
 21
-16.83583459180397
 31
0.0
  0
LINE
  8
DETAIL
  6
CONTINUOUS
 62
     5
 10
225.32904416716249
 20
-16.83583459180397
 30
0.0
 11
225.41459143925661
 21
-16.862509576103889
 31
0.0
  0
LINE
  8
DETAIL
  6
CONTINUOUS
 62
     5
 10
225.41459143925661
 20
-16.862509576103889
 30
0.0
 11
225.50042146291341
 21
-16.888408301684539
 31
0.0
  0
LINE
  8
DETAIL
  6
CONTINUOUS
 62
     5
 10
225.50042146291341
 20
-16.888408301684539
 30
0.0
 11
225.50042146291341
 21
-16.888408301684539
 31
0.0
  0
LINE
  8
DETAIL
  6
CONTINUOUS
 62
     5
 10
225.50042146291341
 20
-16.888408301684539
 30
0.0
 11
225.586513468475
 21
-16.913592703158091
 31
0.0
  0
LINE
  8
DETAIL
  6
CONTINUOUS
 62
     5
 10
225.586513468475
 20
-16.913592703158091
 30
0.0
 11
225.6726999177863
 21
-16.937992363984218
 31
0.0
  0
LINE
  8
DETAIL
  6
CONTINUOUS
 62
     5
 10
225.6726999177863
 20
-16.937992363984218
 30
0.0
 11
225.6726999177863
 21
-16.937992363984218
 31
0.0
  0
LINE
  8
DETAIL
  6
CONTINUOUS
 62
     5
 10
225.6726999177863
 20
-16.937992363984218
 30
0.0
 11
225.75894293107791
 21
-16.961547687161211
 31
0.0
  0
LINE
  8
DETAIL
  6
CONTINUOUS
 62
     5
 10
225.75894293107791
 20
-16.961547687161211
 30
0.0
 11
225.8458700306355
 21
-16.984374704984251
 31
0.0
  0
LINE
  8
DETAIL
  6
CONTINUOUS
 62
     5
 10
225.8458700306355
 20
-16.984374704984251
 30
0.0
 11
225.8458700306355
 21
-16.984374704984251
 31
0.0
  0
LINE
  8
DETAIL
  6
CONTINUOUS
 62
     5
 10
225.8458700306355
 20
-16.984374704984251
 30
0.0
 11
225.93364637932839
 21
-17.006490815563669
 31
0.0
  0
LINE
  8
DETAIL
  6
CONTINUOUS
 62
     5
 10
225.93364637932839
 20
-17.006490815563669
 30
0.0
 11
226.01992230031649
 21
-17.027343250965831
 31
0.0
  0
LINE
  8
DETAIL
  6
CONTINUOUS
 62
     5
 10
226.01992230031649
 20
-17.027343250965831
 30
0.0
 11
226.01992230031649
 21
-17.027343250965831
 31
0.0
  0
LINE
  8
DETAIL
  6
CONTINUOUS
 62
     5
 10
226.01992230031649
 20
-17.027343250965831
 30
0.0
 11
226.102707594534
 21
-17.046471671011659
 31
0.0
  0
LINE
  8
DETAIL
  6
CONTINUOUS
 62
     5
 10
226.102707594534
 20
-17.046471671011659
 30
0.0
 11
226.18396481372471
 21
-17.064355612580361
 31
0.0
  0
LINE
  8
DETAIL
  6
CONTINUOUS
 62
     5
 10
226.18396481372471
 20
-17.064355612580361
 30
0.0
 11
226.18396481372471
 21
-17.064355612580361
 31
0.0
  0
LINE
  8
DETAIL
  6
CONTINUOUS
 62
     5
 10
226.18396481372471
 20
-17.064355612580361
 30
0.0
 11
226.2660237101945
 21
-17.081554496165719
 31
0.0
  0
LINE
  8
DETAIL
  6
CONTINUOUS
 62
     5
 10
226.2660237101945
 20
-17.081554496165719
 30
0.0
 11
226.34873008769139
 21
-17.098007399658631
 31
0.0
  0
LINE
  8
DETAIL
  6
CONTINUOUS
 62
     5
 10
226.34873008769139
 20
-17.098007399658631
 30
0.0
 11
226.34873008769139
 21
-17.098007399658631
 31
0.0
  0
LINE
  8
DETAIL
  6
CONTINUOUS
 62
     5
 10
226.34873008769139
 20
-17.098007399658631
 30
0.0
 11
226.43145733566641
 21
-17.113537912905372
 31
0.0
  0
LINE
  8
DETAIL
  6
CONTINUOUS
 62
     5
 10
226.43145733566641
 20
-17.113537912905372
 30
0.0
 11
226.51417313493769
 21
-17.128128016172131
 31
0.0
  0
LINE
  8
DETAIL
  6
CONTINUOUS
 62
     5
 10
226.51417313493769
 20
-17.128128016172131
 30
0.0
 11
226.51417313493769
 21
-17.128128016172131
 31
0.0
  0
LINE
  8
DETAIL
  6
CONTINUOUS
 62
     5
 10
226.51417313493769
 20
-17.128128016172131
 30
0.0
 11
226.59702043493871
 21
-17.14179598256089
 31
0.0
  0
LINE
  8
DETAIL
  6
CONTINUOUS
 62
     5
 10
226.59702043493871
 20
-17.14179598256089
 30
0.0
 11
226.68024896818409
 21
-17.15454686609371
 31
0.0
  0
LINE
  8
DETAIL
  6
CONTINUOUS
 62
     5
 10
226.68024896818409
 20
-17.15454686609371
 30
0.0
 11
226.68024896818409
 21
-17.15454686609371
 31
0.0
  0
LINE
  8
DETAIL
  6
CONTINUOUS
 62
     5
 10
226.68024896818409
 20
-17.15454686609371
 30
0.0
 11
226.76387980703521
 21
-17.16635603749739
 31
0.0
  0
LINE
  8
DETAIL
  6
CONTINUOUS
 62
     5
 10
226.76387980703521
 20
-17.16635603749739
 30
0.0
 11
226.846912600151
 21
-17.177093353394181
 31
0.0
  0
LINE
  8
DETAIL
  6
CONTINUOUS
 62
     5
 10
226.846912600151
 20
-17.177093353394181
 30
0.0
 11
226.846912600151
 21
-17.177093353394181
 31
0.0
  0
LINE
  8
DETAIL
  6
CONTINUOUS
 62
     5
 10
226.846912600151
 20
-17.177093353394181
 30
0.0
 11
226.92850794048169
 21
-17.186656144274369
 31
0.0
  0
LINE
  8
DETAIL
  6
CONTINUOUS
 62
     5
 10
226.92850794048169
 20
-17.186656144274369
 30
0.0
 11
227.0094916218541
 21
-17.195157150207478
 31
0.0
  0
LINE
  8
DETAIL
  6
CONTINUOUS
 62
     5
 10
227.0094916218541
 20
-17.195157150207478
 30
0.0
 11
227.0094916218541
 21
-17.195157150207478
 31
0.0
  0
LINE
  8
DETAIL
  6
CONTINUOUS
 62
     5
 10
227.0094916218541
 20
-17.195157150207478
 30
0.0
 11
227.0908401560423
 21
-17.20272395073107
 31
0.0
  0
LINE
  8
DETAIL
  6
CONTINUOUS
 62
     5
 10
227.0908401560423
 20
-17.20272395073107
 30
0.0
 11
227.17246772574711
 21
-17.209328073675689
 31
0.0
  0
LINE
  8
DETAIL
  6
CONTINUOUS
 62
     5
 10
227.17246772574711
 20
-17.209328073675689
 30
0.0
 11
227.17246772574711
 21
-17.209328073675689
 31
0.0
  0
LINE
  8
DETAIL
  6
CONTINUOUS
 62
     5
 10
227.17246772574711
 20
-17.209328073675689
 30
0.0
 11
227.2540942208669
 21
-17.21492179547602
 31
0.0
  0
LINE
  8
DETAIL
  6
CONTINUOUS
 62
     5
 10
227.2540942208669
 20
-17.21492179547602
 30
0.0
 11
227.33572468916279
 21
-17.219536438680851
 31
0.0
  0
LINE
  8
DETAIL
  6
CONTINUOUS
 62
     5
 10
227.33572468916279
 20
-17.219536438680851
 30
0.0
 11
227.33572468916279
 21
-17.219536438680851
 31
0.0
  0
LINE
  8
DETAIL
  6
CONTINUOUS
 62
     5
 10
227.33572468916279
 20
-17.219536438680851
 30
0.0
 11
227.41741589226689
 21
-17.223183054179909
 31
0.0
  0
LINE
  8
DETAIL
  6
CONTINUOUS
 62
     5
 10
227.41741589226689
 20
-17.223183054179909
 30
0.0
 11
227.49914628943321
 21
-17.225712560104171
 31
0.0
  0
LINE
  8
DETAIL
  6
CONTINUOUS
 62
     5
 10
227.49914628943321
 20
-17.225712560104171
 30
0.0
 11
227.49914628943321
 21
-17.225712560104171
 31
0.0
  0
LINE
  8
DETAIL
  6
CONTINUOUS
 62
     5
 10
227.49914628943321
 20
-17.225712560104171
 30
0.0
 11
227.58088177723221
 21
-17.22707621262407
 31
0.0
  0
LINE
  8
DETAIL
  6
CONTINUOUS
 62
     5
 10
227.58088177723221
 20
-17.22707621262407
 30
0.0
 11
227.6626163038909
 21
-17.227786752827111
 31
0.0
  0
LINE
  8
DETAIL
  6
CONTINUOUS
 62
     5
 10
-263.83365506185282
 20
-17.227786752827111
 30
0.0
 11
-263.75191200344671
 21
-17.227076054588789
 31
0.0
  0
LINE
  8
DETAIL
  6
CONTINUOUS
 62
     5
 10
-263.75191200344671
 20
-17.227076054588789
 30
0.0
 11
-263.67016807654551
 21
-17.225712120476832
 31
0.0
  0
LINE
  8
DETAIL
  6
CONTINUOUS
 62
     5
 10
-263.67016807654551
 20
-17.225712120476832
 30
0.0
 11
-263.67016807654551
 21
-17.225712120476832
 31
0.0
  0
LINE
  8
DETAIL
  6
CONTINUOUS
 62
     5
 10
-263.67016807654551
 20
-17.225712120476832
 30
0.0
 11
-263.58842933414462
 21
-17.223182102843449
 31
0.0
  0
LINE
  8
DETAIL
  6
CONTINUOUS
 62
     5
 10
-263.58842933414462
 20
-17.223182102843449
 30
0.0
 11
-263.50672951520852
 21
-17.21953470693904
 31
0.0
  0
LINE
  8
DETAIL
  6
CONTINUOUS
 62
     5
 10
-263.50672951520852
 20
-17.21953470693904
 30
0.0
 11
-263.50672951520852
 21
-17.21953470693904
 31
0.0
  0
LINE
  8
DETAIL
  6
CONTINUOUS
 62
     5
 10
-263.50672951520852
 20
-17.21953470693904
 30
0.0
 11
-263.42509007447279
 21
-17.21491903577407
 31
0.0
  0
LINE
  8
DETAIL
  6
CONTINUOUS
 62
     5
 10
-263.42509007447279
 20
-17.21491903577407
 30
0.0
 11
-263.34345564380328
 21
-17.20932423049544
 31
0.0
  0
LINE
  8
DETAIL
  6
CONTINUOUS
 62
     5
 10
-263.34345564380328
 20
-17.20932423049544
 30
0.0
 11
-263.34345564380328
 21
-17.20932423049544
 31
0.0
  0
LINE
  8
DETAIL
  6
CONTINUOUS
 62
     5
 10
-263.34345564380328
 20
-17.20932423049544
 30
0.0
 11
-263.26182155072638
 21
-17.202719015422989
 31
0.0
  0
LINE
  8
DETAIL
  6
CONTINUOUS
 62
     5
 10
-263.26182155072638
 20
-17.202719015422989
 30
0.0
 11
-263.18046272829002
 21
-17.19515040942758
 31
0.0
  0
LINE
  8
DETAIL
  6
CONTINUOUS
 62
     5
 10
-263.18046272829002
 20
-17.19515040942758
 30
0.0
 11
-263.18046272829002
 21
-17.19515040942758
 31
0.0
  0
LINE
  8
DETAIL
  6
CONTINUOUS
 62
     5
 10
-263.18046272829002
 20
-17.19515040942758
 30
0.0
 11
-263.09946361111952
 21
-17.186646700932101
 31
0.0
  0
LINE
  8
DETAIL
  6
CONTINUOUS
 62
     5
 10
-263.09946361111952
 20
-17.186646700932101
 30
0.0
 11
-263.01786703462813
 21
-17.17708296201624
 31
0.0
  0
LINE
  8
DETAIL
  6
CONTINUOUS
 62
     5
 10
-263.01786703462813
 20
-17.17708296201624
 30
0.0
 11
-263.01786703462813
 21
-17.17708296201624
 31
0.0
  0
LINE
  8
DETAIL
  6
CONTINUOUS
 62
     5
 10
-263.01786703462813
 20
-17.17708296201624
 30
0.0
 11
-262.93486352060972
 21
-17.166348797338511
 31
0.0
  0
LINE
  8
DETAIL
  6
CONTINUOUS
 62
     5
 10
-262.93486352060972
 20
-17.166348797338511
 30
0.0
 11
-262.85127593558542
 21
-17.15454515821602
 31
0.0
  0
LINE
  8
DETAIL
  6
CONTINUOUS
 62
     5
 10
-262.85127593558542
 20
-17.15454515821602
 30
0.0
 11
-262.85127593558542
 21
-17.15454515821602
 31
0.0
  0
LINE
  8
DETAIL
  6
CONTINUOUS
 62
     5
 10
-262.85127593558542
 20
-17.15454515821602
 30
0.0
 11
-262.76808520799301
 21
-17.141800051094378
 31
0.0
  0
LINE
  8
DETAIL
  6
CONTINUOUS
 62
     5
 10
-262.76808520799301
 20
-17.141800051094378
 30
0.0
 11
-262.68527216920211
 21
-17.128138356272299
 31
0.0
  0
LINE
  8
DETAIL
  6
CONTINUOUS
 62
     5
 10
-262.68527216920211
 20
-17.128138356272299
 30
0.0
 11
-262.68527216920211
 21
-17.128138356272299
 31
0.0
  0
LINE
  8
DETAIL
  6
CONTINUOUS
 62
     5
 10
-262.68527216920211
 20
-17.128138356272299
 30
0.0
 11
-262.60259240890838
 21
-17.113555588849291
 31
0.0
  0
LINE
  8
DETAIL
  6
CONTINUOUS
 62
     5
 10
-262.60259240890838
 20
-17.113555588849291
 30
0.0
 11
-262.51990064717569
 21
-17.09803292927506
 31
0.0
  0
LINE
  8
DETAIL
  6
CONTINUOUS
 62
     5
 10
-262.51990064717569
 20
-17.09803292927506
 30
0.0
 11
-262.51990064717569
 21
-17.09803292927506
 31
0.0
  0
LINE
  8
DETAIL
  6
CONTINUOUS
 62
     5
 10
-262.51990064717569
 20
-17.09803292927506
 30
0.0
 11
-262.43722728055758
 21
-17.081588090522931
 31
0.0
  0
LINE
  8
DETAIL
  6
CONTINUOUS
 62
     5
 10
-262.43722728055758
 20
-17.081588090522931
 30
0.0
 11
-262.35520628120003
 21
-17.064399250316111
 31
0.0
  0
LINE
  8
DETAIL
  6
CONTINUOUS
 62
     5
 10
-262.35520628120003
 20
-17.064399250316111
 30
0.0
 11
-262.35520628120003
 21
-17.064399250316111
 31
0.0
  0
LINE
  8
DETAIL
  6
CONTINUOUS
 62
     5
 10
-262.35520628120003
 20
-17.064399250316111
 30
0.0
 11
-262.27399415696209
 21
-17.046527821477639
 31
0.0
  0
LINE
  8
DETAIL
  6
CONTINUOUS
 62
     5
 10
-262.27399415696209
 20
-17.046527821477639
 30
0.0
 11
-262.19123398297188
 21
-17.027407692485781
 31
0.0
  0
LINE
  8
DETAIL
  6
CONTINUOUS
 62
     5
 10
-262.19123398297188
 20
-17.027407692485781
 30
0.0
 11
-262.19123398297188
 21
-17.027407692485781
 31
0.0
  0
LINE
  8
DETAIL
  6
CONTINUOUS
 62
     5
 10
-262.19123398297188
 20
-17.027407692485781
 30
0.0
 11
-262.10494019384669
 21
-17.006553532733282
 31
0.0
  0
LINE
  8
DETAIL
  6
CONTINUOUS
 62
     5
 10
-262.10494019384669
 20
-17.006553532733282
 30
0.0
 11
-262.01712609489141
 21
-16.984430659619989
 31
0.0
  0
LINE
  8
DETAIL
  6
CONTINUOUS
 62
     5
 10
-262.01712609489141
 20
-16.984430659619989
 30
0.0
 11
-262.01712609489141
 21
-16.984430659619989
 31
0.0
  0
LINE
  8
DETAIL
  6
CONTINUOUS
 62
     5
 10
-262.01712609489141
 20
-16.984430659619989
 30
0.0
 11
-261.9301686812596
 21
-16.96159789480112
 31
0.0
  0
LINE
  8
DETAIL
  6
CONTINUOUS
 62
     5
 10
-261.9301686812596
 20
-16.96159789480112
 30
0.0
 11
-261.84390083681052
 21
-16.938037428946931
 31
0.0
  0
LINE
  8
DETAIL
  6
CONTINUOUS
 62
     5
 10
-261.84390083681052
 20
-16.938037428946931
 30
0.0
 11
-261.84390083681052
 21
-16.938037428946931
 31
0.0
  0
LINE
  8
DETAIL
  6
CONTINUOUS
 62
     5
 10
-261.84390083681052
 20
-16.938037428946931
 30
0.0
 11
-261.7576877267993
 21
-16.91363163878691
 31
0.0
  0
LINE
  8
DETAIL
  6
CONTINUOUS
 62
     5
 10
-261.7576877267993
 20
-16.91363163878691
 30
0.0
 11
-261.67156775335928
 21
-16.888440276264191
 31
0.0
  0
LINE
  8
DETAIL
  6
CONTINUOUS
 62
     5
 10
-261.67156775335928
 20
-16.888440276264191
 30
0.0
 11
-261.67156775335928
 21
-16.888440276264191
 31
0.0
  0
LINE
  8
DETAIL
  6
CONTINUOUS
 62
     5
 10
-261.67156775335928
 20
-16.888440276264191
 30
0.0
 11
-261.58571041878798
 21
-16.862534219658531
 31
0.0
  0
LINE
  8
DETAIL
  6
CONTINUOUS
 62
     5
 10
-261.58571041878798
 20
-16.862534219658531
 30
0.0
 11
-261.50013638916698
 21
-16.835851477369829
 31
0.0
  0
LINE
  8
DETAIL
  6
CONTINUOUS
 62
     5
 10
-261.50013638916698
 20
-16.835851477369829
 30
0.0
 11
-261.50013638916698
 21
-16.835851477369829
 31
0.0
  0
LINE
  8
DETAIL
  6
CONTINUOUS
 62
     5
 10
-261.50013638916698
 20
-16.835851477369829
 30
0.0
 11
-261.41480964852099
 21
-16.808385366403169
 31
0.0
  0
LINE
  8
DETAIL
  6
CONTINUOUS
 62
     5
 10
-261.41480964852099
 20
-16.808385366403169
 30
0.0
 11
-261.32961628886318
 21
-16.780483308061321
 31
0.0
  0
LINE
  8
DETAIL
  6
CONTINUOUS
 62
     5
 10
-266.33769383328939
 20
-16.780483308061321
 30
0.0
 11
-266.25252722283631
 21
-16.808376770212249
 31
0.0
  0
LINE
  8
DETAIL
  6
CONTINUOUS
 62
     5
 10
-266.25252722283631
 20
-16.808376770212249
 30
0.0
 11
-266.16722719784872
 21
-16.83583459180397
 31
0.0
  0
LINE
  8
DETAIL
  6
CONTINUOUS
 62
     5
 10
-266.16722719784872
 20
-16.83583459180397
 30
0.0
 11
-266.16722719784872
 21
-16.83583459180397
 31
0.0
  0
LINE
  8
DETAIL
  6
CONTINUOUS
 62
     5
 10
-266.16722719784872
 20
-16.83583459180397
 30
0.0
 11
-266.08167992580093
 21
-16.862509576103889
 31
0.0
  0
LINE
  8
DETAIL
  6
CONTINUOUS
 62
     5
 10
-266.08167992580093
 20
-16.862509576103889
 30
0.0
 11
-265.99584990220768
 21
-16.888408301684539
 31
0.0
  0
LINE
  8
DETAIL
  6
CONTINUOUS
 62
     5
 10
-265.99584990220768
 20
-16.888408301684539
 30
0.0
 11
-265.99584990220768
 21
-16.888408301684539
 31
0.0
  0
LINE
  8
DETAIL
  6
CONTINUOUS
 62
     5
 10
-265.99584990220768
 20
-16.888408301684539
 30
0.0
 11
-265.90975789671711
 21
-16.913592703158091
 31
0.0
  0
LINE
  8
DETAIL
  6
CONTINUOUS
 62
     5
 10
-265.90975789671711
 20
-16.913592703158091
 30
0.0
 11
-265.82357144748312
 21
-16.937992363984218
 31
0.0
  0
LINE
  8
DETAIL
  6
CONTINUOUS
 62
     5
 10
-265.82357144748312
 20
-16.937992363984218
 30
0.0
 11
-265.82357144748312
 21
-16.937992363984218
 31
0.0
  0
LINE
  8
DETAIL
  6
CONTINUOUS
 62
     5
 10
-265.82357144748312
 20
-16.937992363984218
 30
0.0
 11
-265.73732843426973
 21
-16.961547687161211
 31
0.0
  0
LINE
  8
DETAIL
  6
CONTINUOUS
 62
     5
 10
-265.73732843426973
 20
-16.961547687161211
 30
0.0
 11
-265.65040133479027
 21
-16.984374704984251
 31
0.0
  0
LINE
  8
DETAIL
  6
CONTINUOUS
 62
     5
 10
-265.65040133479027
 20
-16.984374704984251
 30
0.0
 11
-265.65040133479027
 21
-16.984374704984251
 31
0.0
  0
LINE
  8
DETAIL
  6
CONTINUOUS
 62
     5
 10
-265.65040133479027
 20
-16.984374704984251
 30
0.0
 11
-265.56262498617008
 21
-17.006490815563669
 31
0.0
  0
LINE
  8
DETAIL
  6
CONTINUOUS
 62
     5
 10
-265.56262498617008
 20
-17.006490815563669
 30
0.0
 11
-265.47634906524542
 21
-17.027343250965831
 31
0.0
  0
LINE
  8
DETAIL
  6
CONTINUOUS
 62
     5
 10
-265.47634906524542
 20
-17.027343250965831
 30
0.0
 11
-265.47634906524542
 21
-17.027343250965831
 31
0.0
  0
LINE
  8
DETAIL
  6
CONTINUOUS
 62
     5
 10
-265.47634906524542
 20
-17.027343250965831
 30
0.0
 11
-265.39356377107742
 21
-17.046471671011659
 31
0.0
  0
LINE
  8
DETAIL
  6
CONTINUOUS
 62
     5
 10
-265.39356377107742
 20
-17.046471671011659
 30
0.0
 11
-265.31230655192439
 21
-17.064355612580361
 31
0.0
  0
LINE
  8
DETAIL
  6
CONTINUOUS
 62
     5
 10
-265.31230655192439
 20
-17.064355612580361
 30
0.0
 11
-265.31230655192439
 21
-17.064355612580361
 31
0.0
  0
LINE
  8
DETAIL
  6
CONTINUOUS
 62
     5
 10
-265.31230655192439
 20
-17.064355612580361
 30
0.0
 11
-265.23024765548138
 21
-17.081554496165719
 31
0.0
  0
LINE
  8
DETAIL
  6
CONTINUOUS
 62
     5
 10
-265.23024765548138
 20
-17.081554496165719
 30
0.0
 11
-265.14754127800012
 21
-17.098007399658631
 31
0.0
  0
LINE
  8
DETAIL
  6
CONTINUOUS
 62
     5
 10
-265.14754127800012
 20
-17.098007399658631
 30
0.0
 11
-265.14754127800012
 21
-17.098007399658631
 31
0.0
  0
LINE
  8
DETAIL
  6
CONTINUOUS
 62
     5
 10
-265.14754127800012
 20
-17.098007399658631
 30
0.0
 11
-265.06481403002999
 21
-17.113537912905372
 31
0.0
  0
LINE
  8
DETAIL
  6
CONTINUOUS
 62
     5
 10
-265.06481403002999
 20
-17.113537912905372
 30
0.0
 11
-264.98209823075098
 21
-17.128128016172131
 31
0.0
  0
LINE
  8
DETAIL
  6
CONTINUOUS
 62
     5
 10
-264.98209823075098
 20
-17.128128016172131
 30
0.0
 11
-264.98209823075098
 21
-17.128128016172131
 31
0.0
  0
LINE
  8
DETAIL
  6
CONTINUOUS
 62
     5
 10
-264.98209823075098
 20
-17.128128016172131
 30
0.0
 11
-264.8992509307318
 21
-17.14179598256089
 31
0.0
  0
LINE
  8
DETAIL
  6
CONTINUOUS
 62
     5
 10
-264.8992509307318
 20
-17.14179598256089
 30
0.0
 11
-264.81602239745598
 21
-17.15454686609371
 31
0.0
  0
LINE
  8
DETAIL
  6
CONTINUOUS
 62
     5
 10
-264.81602239745598
 20
-17.15454686609371
 30
0.0
 11
-264.81602239745598
 21
-17.15454686609371
 31
0.0
  0
LINE
  8
DETAIL
  6
CONTINUOUS
 62
     5
 10
-264.81602239745598
 20
-17.15454686609371
 30
0.0
 11
-264.73239155856248
 21
-17.16635603749739
 31
0.0
  0
LINE
  8
DETAIL
  6
CONTINUOUS
 62
     5
 10
-264.73239155856248
 20
-17.16635603749739
 30
0.0
 11
-264.64935876539357
 21
-17.177093353394181
 31
0.0
  0
LINE
  8
DETAIL
  6
CONTINUOUS
 62
     5
 10
-264.64935876539357
 20
-17.177093353394181
 30
0.0
 11
-264.64935876539357
 21
-17.177093353394181
 31
0.0
  0
LINE
  8
DETAIL
  6
CONTINUOUS
 62
     5
 10
-264.64935876539357
 20
-17.177093353394181
 30
0.0
 11
-264.56776342499961
 21
-17.186656144274369
 31
0.0
  0
LINE
  8
DETAIL
  6
CONTINUOUS
 62
     5
 10
-264.56776342499961
 20
-17.186656144274369
 30
0.0
 11
-264.48677974356173
 21
-17.195157150207478
 31
0.0
  0
LINE
  8
DETAIL
  6
CONTINUOUS
 62
     5
 10
-264.48677974356173
 20
-17.195157150207478
 30
0.0
 11
-264.48677974356173
 21
-17.195157150207478
 31
0.0
  0
LINE
  8
DETAIL
  6
CONTINUOUS
 62
     5
 10
-264.48677974356173
 20
-17.195157150207478
 30
0.0
 11
-264.40543120931221
 21
-17.20272395073107
 31
0.0
  0
LINE
  8
DETAIL
  6
CONTINUOUS
 62
     5
 10
-264.40543120931221
 20
-17.20272395073107
 30
0.0
 11
-264.32380363955963
 21
-17.209328073675689
 31
0.0
  0
LINE
  8
DETAIL
  6
CONTINUOUS
 62
     5
 10
-264.32380363955963
 20
-17.209328073675689
 30
0.0
 11
-264.32380363955963
 21
-17.209328073675689
 31
0.0
  0
LINE
  8
DETAIL
  6
CONTINUOUS
 62
     5
 10
-264.32380363955963
 20
-17.209328073675689
 30
0.0
 11
-264.24217714441369
 21
-17.21492179547602
 31
0.0
  0
LINE
  8
DETAIL
  6
CONTINUOUS
 62
     5
 10
-264.24217714441369
 20
-17.21492179547602
 30
0.0
 11
-264.16054667611928
 21
-17.219536438680851
 31
0.0
  0
LINE
  8
DETAIL
  6
CONTINUOUS
 62
     5
 10
-264.16054667611928
 20
-17.219536438680851
 30
0.0
 11
-264.16054667611928
 21
-17.219536438680851
 31
0.0
  0
LINE
  8
DETAIL
  6
CONTINUOUS
 62
     5
 10
-264.16054667611928
 20
-17.219536438680851
 30
0.0
 11
-264.07885547305068
 21
-17.223183054179909
 31
0.0
  0
LINE
  8
DETAIL
  6
CONTINUOUS
 62
     5
 10
-264.07885547305068
 20
-17.223183054179909
 30
0.0
 11
-263.99712507597309
 21
-17.225712560104171
 31
0.0
  0
LINE
  8
DETAIL
  6
CONTINUOUS
 62
     5
 10
-263.99712507597309
 20
-17.225712560104171
 30
0.0
 11
-263.99712507597309
 21
-17.225712560104171
 31
0.0
  0
LINE
  8
DETAIL
  6
CONTINUOUS
 62
     5
 10
-263.99712507597309
 20
-17.225712560104171
 30
0.0
 11
-263.91538958832462
 21
-17.22707621262407
 31
0.0
  0
LINE
  8
DETAIL
  6
CONTINUOUS
 62
     5
 10
-263.91538958832462
 20
-17.22707621262407
 30
0.0
 11
-263.83365506185282
 21
-17.227786752827111
 31
0.0
  0
LINE
  8
DETAIL
  6
CONTINUOUS
 62
     5
 10
1.522735605014532
 20
-294.71080283791082
 30
0.0
 11
1.504292087406611
 21
-294.71911845819471
 31
0.0
  0
LINE
  8
DETAIL
  6
CONTINUOUS
 62
     5
 10
1.504292087406611
 20
-294.71911845819471
 30
0.0
 11
1.4858695542943681
 21
-294.72743461586248
 31
0.0
  0
LINE
  8
DETAIL
  6
CONTINUOUS
 62
     5
 10
1.4858695542943681
 20
-294.72743461586248
 30
0.0
 11
1.4858695542943681
 21
-294.72743461586248
 31
0.0
  0
LINE
  8
DETAIL
  6
CONTINUOUS
 62
     5
 10
1.4858695542943681
 20
-294.72743461586248
 30
0.0
 11
1.467469111356877
 21
-294.73575666641187
 31
0.0
  0
LINE
  8
DETAIL
  6
CONTINUOUS
 62
     5
 10
1.467469111356877
 20
-294.73575666641187
 30
0.0
 11
1.449012349010445
 21
-294.74410923778493
 31
0.0
  0
LINE
  8
DETAIL
  6
CONTINUOUS
 62
     5
 10
1.449012349010445
 20
-294.74410923778493
 30
0.0
 11
1.449012349010445
 21
-294.74410923778493
 31
0.0
  0
LINE
  8
DETAIL
  6
CONTINUOUS
 62
     5
 10
1.449012349010445
 20
-294.74410923778493
 30
0.0
 11
1.430477729939412
 21
-294.75248911486318
 31
0.0
  0
LINE
  8
DETAIL
  6
CONTINUOUS
 62
     5
 10
1.430477729939412
 20
-294.75248911486318
 30
0.0
 11
1.412150721163925
 21
-294.76076243783621
 31
0.0
  0
LINE
  8
DETAIL
  6
CONTINUOUS
 62
     5
 10
1.412150721163925
 20
-294.76076243783621
 30
0.0
 11
1.412150721163925
 21
-294.76076243783621
 31
0.0
  0
LINE
  8
DETAIL
  6
CONTINUOUS
 62
     5
 10
1.412150721163925
 20
-294.76076243783621
 30
0.0
 11
1.3941064152659239
 21
-294.76888851229887
 31
0.0
  0
LINE
  8
DETAIL
  6
CONTINUOUS
 62
     5
 10
1.3941064152659239
 20
-294.76888851229887
 30
0.0
 11
1.37527140275597
 21
-294.77732995017448
 31
0.0
  0
LINE
  8
DETAIL
  6
CONTINUOUS
 62
     5
 10
1.37527140275597
 20
-294.77732995017448
 30
0.0
 11
1.37527140275597
 21
-294.77732995017448
 31
0.0
  0
LINE
  8
DETAIL
  6
CONTINUOUS
 62
     5
 10
1.37527140275597
 20
-294.77732995017448
 30
0.0
 11
1.3553568996148899
 21
-294.78620454481222
 31
0.0
  0
LINE
  8
DETAIL
  6
CONTINUOUS
 62
     5
 10
1.3553568996148899
 20
-294.78620454481222
 30
0.0
 11
1.338361125788651
 21
-294.79374750895761
 31
0.0
  0
LINE
  8
DETAIL
  6
CONTINUOUS
 62
     5
 10
1.338361125788651
 20
-294.79374750895761
 30
0.0
 11
1.338361125788651
 21
-294.79374750895761
 31
0.0
  0
LINE
  8
DETAIL
  6
CONTINUOUS
 62
     5
 10
1.338361125788651
 20
-294.79374750895761
 30
0.0
 11
1.3276644381539879
 21
-294.79847036358478
 31
0.0
  0
LINE
  8
DETAIL
  6
CONTINUOUS
 62
     5
 10
1.3276644381539879
 20
-294.79847036358478
 30
0.0
 11
1.3198887373509931
 21
-294.80187244319421
 31
0.0
  0
LINE
  8
DETAIL
  6
CONTINUOUS
 62
     5
 10
1.3198887373509931
 20
-294.80187244319421
 30
0.0
 11
1.3198887373509931
 21
-294.80187244319421
 31
0.0
  0
LINE
  8
DETAIL
  6
CONTINUOUS
 62
     5
 10
1.3198887373509931
 20
-294.80187244319421
 30
0.0
 11
1.311036963179959
 21
-294.80572393360308
 31
0.0
  0
LINE
  8
DETAIL
  6
CONTINUOUS
 62
     5
 10
1.311036963179959
 20
-294.80572393360308
 30
0.0
 11
1.301394668309513
 21
-294.80989061237062
 31
0.0
  0
LINE
  8
DETAIL
  6
CONTINUOUS
 62
     5
 10
1.301394668309513
 20
-294.80989061237062
 30
0.0
 11
1.301394668309513
 21
-294.80989061237062
 31
0.0
  0
LINE
  8
DETAIL
  6
CONTINUOUS
 62
     5
 10
1.301394668309513
 20
-294.80989061237062
 30
0.0
 11
1.2920311779621441
 21
-294.81388972615662
 31
0.0
  0
LINE
  8
DETAIL
  6
CONTINUOUS
 62
     5
 10
1.2920311779621441
 20
-294.81388972615662
 30
0.0
 11
1.282868294698801
 21
-294.81774880627569
 31
0.0
  0
LINE
  8
DETAIL
  6
CONTINUOUS
 62
     5
 10
1.282868294698801
 20
-294.81774880627569
 30
0.0
 11
1.282868294698801
 21
-294.81774880627569
 31
0.0
  0
LINE
  8
DETAIL
  6
CONTINUOUS
 62
     5
 10
1.282868294698801
 20
-294.81774880627569
 30
0.0
 11
1.273617809859388
 21
-294.82158877261418
 31
0.0
  0
LINE
  8
DETAIL
  6
CONTINUOUS
 62
     5
 10
1.273617809859388
 20
-294.82158877261418
 30
0.0
 11
1.2642989925539041
 21
-294.82539381469883
 31
0.0
  0
LINE
  8
DETAIL
  6
CONTINUOUS
 62
     5
 10
1.2642989925539041
 20
-294.82539381469883
 30
0.0
 11
1.2642989925539041
 21
-294.82539381469883
 31
0.0
  0
LINE
  8
DETAIL
  6
CONTINUOUS
 62
     5
 10
1.2642989925539041
 20
-294.82539381469883
 30
0.0
 11
1.2549873842281161
 21
-294.82912309866208
 31
0.0
  0
LINE
  8
DETAIL
  6
CONTINUOUS
 62
     5
 10
1.2549873842281161
 20
-294.82912309866208
 30
0.0
 11
1.245676137909868
 21
-294.83277242742832
 31
0.0
  0
LINE
  8
DETAIL
  6
CONTINUOUS
 62
     5
 10
1.245676137909868
 20
-294.83277242742832
 30
0.0
 11
1.245676137909868
 21
-294.83277242742832
 31
0.0
  0
LINE
  8
DETAIL
  6
CONTINUOUS
 62
     5
 10
1.245676137909868
 20
-294.83277242742832
 30
0.0
 11
1.2363439374130389
 21
-294.83634740423167
 31
0.0
  0
LINE
  8
DETAIL
  6
CONTINUOUS
 62
     5
 10
1.2363439374130389
 20
-294.83634740423167
 30
0.0
 11
1.226993978122664
 21
-294.83985619676429
 31
0.0
  0
LINE
  8
DETAIL
  6
CONTINUOUS
 62
     5
 10
1.226993978122664
 20
-294.83985619676429
 30
0.0
 11
1.226993978122664
 21
-294.83985619676429
 31
0.0
  0
LINE
  8
DETAIL
  6
CONTINUOUS
 62
     5
 10
1.226993978122664
 20
-294.83985619676429
 30
0.0
 11
1.21763410451149
 21
-294.84330827143322
 31
0.0
  0
LINE
  8
DETAIL
  6
CONTINUOUS
 62
     5
 10
1.21763410451149
 20
-294.84330827143322
 30
0.0
 11
1.2082662458296911
 21
-294.8467157250476
 31
0.0
  0
LINE
  8
DETAIL
  6
CONTINUOUS
 62
     5
 10
1.2082662458296911
 20
-294.8467157250476
 30
0.0
 11
1.2082662458296911
 21
-294.8467157250476
 31
0.0
  0
LINE
  8
DETAIL
  6
CONTINUOUS
 62
     5
 10
1.2082662458296911
 20
-294.8467157250476
 30
0.0
 11
1.198891248765904
 21
-294.85009113581572
 31
0.0
  0
LINE
  8
DETAIL
  6
CONTINUOUS
 62
     5
 10
1.198891248765904
 20
-294.85009113581572
 30
0.0
 11
1.189511544989273
 21
-294.85344637712973
 31
0.0
  0
LINE
  8
DETAIL
  6
CONTINUOUS
 62
     5
 10
1.189511544989273
 20
-294.85344637712973
 30
0.0
 11
1.189511544989273
 21
-294.85344637712973
 31
0.0
  0
LINE
  8
DETAIL
  6
CONTINUOUS
 62
     5
 10
1.189511544989273
 20
-294.85344637712973
 30
0.0
 11
1.180129856238636
 21
-294.85679319339232
 31
0.0
  0
LINE
  8
DETAIL
  6
CONTINUOUS
 62
     5
 10
1.180129856238636
 20
-294.85679319339232
 30
0.0
 11
1.170748479560189
 21
-294.8601435178615
 31
0.0
  0
LINE
  8
DETAIL
  6
CONTINUOUS
 62
     5
 10
1.170748479560189
 20
-294.8601435178615
 30
0.0
 11
1.170748479560189
 21
-294.8601435178615
 31
0.0
  0
LINE
  8
DETAIL
  6
CONTINUOUS
 62
     5
 10
1.170748479560189
 20
-294.8601435178615
 30
0.0
 11
1.161369634274706
 21
-294.86350931835722
 31
0.0
  0
LINE
  8
DETAIL
  6
CONTINUOUS
 62
     5
 10
1.161369634274706
 20
-294.86350931835722
 30
0.0
 11
1.151995653500308
 21
-294.86690251209518
 31
0.0
  0
LINE
  8
DETAIL
  6
CONTINUOUS
 62
     5
 10
1.151995653500308
 20
-294.86690251209518
 30
0.0
 11
1.151995653500308
 21
-294.86690251209518
 31
0.0
  0
LINE
  8
DETAIL
  6
CONTINUOUS
 62
     5
 10
1.151995653500308
 20
-294.86690251209518
 30
0.0
 11
1.1426281700978509
 21
-294.87033107657322
 31
0.0
  0
LINE
  8
DETAIL
  6
CONTINUOUS
 62
     5
 10
1.1426281700978509
 20
-294.87033107657322
 30
0.0
 11
1.1332659021049949
 21
-294.87378728101021
 31
0.0
  0
LINE
  8
DETAIL
  6
CONTINUOUS
 62
     5
 10
1.1332659021049949
 20
-294.87378728101021
 30
0.0
 11
1.1332659021049949
 21
-294.87378728101021
 31
0.0
  0
LINE
  8
DETAIL
  6
CONTINUOUS
 62
     5
 10
1.1332659021049949
 20
-294.87378728101021
 30
0.0
 11
1.1239068408963251
 21
-294.87725946664767
 31
0.0
  0
LINE
  8
DETAIL
  6
CONTINUOUS
 62
     5
 10
1.1239068408963251
 20
-294.87725946664767
 30
0.0
 11
1.1145489860164159
 21
-294.88073597109462
 31
0.0
  0
LINE
  8
DETAIL
  6
CONTINUOUS
 62
     5
 10
1.1145489860164159
 20
-294.88073597109462
 30
0.0
 11
1.1145489860164159
 21
-294.88073597109462
 31
0.0
  0
LINE
  8
DETAIL
  6
CONTINUOUS
 62
     5
 10
1.1145489860164159
 20
-294.88073597109462
 30
0.0
 11
1.105190338505508
 21
-294.88420513129518
 31
0.0
  0
LINE
  8
DETAIL
  6
CONTINUOUS
 62
     5
 10
1.105190338505508
 20
-294.88420513129518
 30
0.0
 11
1.095828897213778
 21
-294.88765528516581
 31
0.0
  0
LINE
  8
DETAIL
  6
CONTINUOUS
 62
     5
 10
1.095828897213778
 20
-294.88765528516581
 30
0.0
 11
1.095828897213778
 21
-294.88765528516581
 31
0.0
  0
LINE
  8
DETAIL
  6
CONTINUOUS
 62
     5
 10
1.095828897213778
 20
-294.88765528516581
 30
0.0
 11
1.0864626605916781
 21
-294.8910747708029
 31
0.0
  0
LINE
  8
DETAIL
  6
CONTINUOUS
 62
     5
 10
1.0864626605916781
 20
-294.8910747708029
 30
0.0
 11
1.0770896276762869
 21
-294.89445192604069
 31
0.0
  0
LINE
  8
DETAIL
  6
CONTINUOUS
 62
     5
 10
1.0770896276762869
 20
-294.89445192604069
 30
0.0
 11
1.0770896276762869
 21
-294.89445192604069
 31
0.0
  0
LINE
  8
DETAIL
  6
CONTINUOUS
 62
     5
 10
1.0770896276762869
 20
-294.89445192604069
 30
0.0
 11
1.0677077976106371
 21
-294.89777508866598
 31
0.0
  0
LINE
  8
DETAIL
  6
CONTINUOUS
 62
     5
 10
1.0677077976106371
 20
-294.89777508866598
 30
0.0
 11
1.0583151693817849
 21
-294.90103259653608
 31
0.0
  0
LINE
  8
DETAIL
  6
CONTINUOUS
 62
     5
 10
1.0583151693817849
 20
-294.90103259653608
 30
0.0
 11
1.0583151693817849
 21
-294.90103259653608
 31
0.0
  0
LINE
  8
DETAIL
  6
CONTINUOUS
 62
     5
 10
1.0583151693817849
 20
-294.90103259653608
 30
0.0
 11
1.0489102211322461
 21
-294.90421555341879
 31
0.0
  0
LINE
  8
DETAIL
  6
CONTINUOUS
 62
     5
 10
1.0489102211322461
 20
-294.90421555341879
 30
0.0
 11
1.039493347777807
 21
-294.90732612666147
 31
0.0
  0
LINE
  8
DETAIL
  6
CONTINUOUS
 62
     5
 10
1.039493347777807
 20
-294.90732612666147
 30
0.0
 11
1.039493347777807
 21
-294.90732612666147
 31
0.0
  0
LINE
  8
DETAIL
  6
CONTINUOUS
 62
     5
 10
1.039493347777807
 20
-294.90732612666147
 30
0.0
 11
1.0300654234270039
 21
-294.91036924950538
 31
0.0
  0
LINE
  8
DETAIL
  6
CONTINUOUS
 62
     5
 10
1.0300654234270039
 20
-294.91036924950538
 30
0.0
 11
1.0206273221765509
 21
-294.91334985519808
 31
0.0
  0
LINE
  8
DETAIL
  6
CONTINUOUS
 62
     5
 10
1.0206273221765509
 20
-294.91334985519808
 30
0.0
 11
1.0206273221765509
 21
-294.91334985519808
 31
0.0
  0
LINE
  8
DETAIL
  6
CONTINUOUS
 62
     5
 10
1.0206273221765509
 20
-294.91334985519808
 30
0.0
 11
1.011179918119979
 21
-294.91627287698759
 31
0.0
  0
LINE
  8
DETAIL
  6
CONTINUOUS
 62
     5
 10
1.011179918119979
 20
-294.91627287698759
 30
0.0
 11
1.001724085356273
 21
-294.91914324812018
 31
0.0
  0
LINE
  8
DETAIL
  6
CONTINUOUS
 62
     5
 10
1.001724085356273
 20
-294.91914324812018
 30
0.0
 11
1.001724085356273
 21
-294.91914324812018
 31
0.0
  0
LINE
  8
DETAIL
  6
CONTINUOUS
 62
     5
 10
1.001724085356273
 20
-294.91914324812018
 30
0.0
 11
0.9922606979830562
 21
-294.92196590184278
 31
0.0
  0
LINE
  8
DETAIL
  6
CONTINUOUS
 62
     5
 10
0.9922606979830562
 20
-294.92196590184278
 30
0.0
 11
0.9827906300979521
 21
-294.92474577140217
 31
0.0
  0
LINE
  8
DETAIL
  6
CONTINUOUS
 62
     5
 10
0.9827906300979521
 20
-294.92474577140217
 30
0.0
 11
0.9827906300979521
 21
-294.92474577140217
 31
0.0
  0
LINE
  8
DETAIL
  6
CONTINUOUS
 62
     5
 10
0.9827906300979521
 20
-294.92474577140217
 30
0.0
 11
0.9733147557981283
 21
-294.92748779004438
 31
0.0
  0
LINE
  8
DETAIL
  6
CONTINUOUS
 62
     5
 10
0.9733147557981283
 20
-294.92748779004438
 30
0.0
 11
0.9638339491802981
 21
-294.930196891018
 31
0.0
  0
LINE
  8
DETAIL
  6
CONTINUOUS
 62
     5
 10
0.9638339491802981
 20
-294.930196891018
 30
0.0
 11
0.9638339491802981
 21
-294.930196891018
 31
0.0
  0
LINE
  8
DETAIL
  6
CONTINUOUS
 62
     5
 10
0.9638339491802981
 20
-294.930196891018
 30
0.0
 11
0.9543490897963238
 21
-294.93287832311552
 31
0.0
  0
LINE
  8
DETAIL
  6
CONTINUOUS
 62
     5
 10
0.9543490897963238
 20
-294.93287832311552
 30
0.0
 11
0.94486107900957
 21
-294.93553859732123
 31
0.0
  0
LINE
  8
DETAIL
  6
CONTINUOUS
 62
     5
 10
0.94486107900957
 20
-294.93553859732123
 30
0.0
 11
0.94486107900957
 21
-294.93553859732123
 31
0.0
  0
LINE
  8
DETAIL
  6
CONTINUOUS
 62
     5
 10
0.94486107900957
 20
-294.93553859732123
 30
0.0
 11
0.9353708236385501
 21
-294.9381845401673
 31
0.0
  0
LINE
  8
DETAIL
  6
CONTINUOUS
 62
     5
 10
0.9353708236385501
 20
-294.9381845401673
 30
0.0
 11
0.9258792305008683
 21
-294.94082297818443
 31
0.0
  0
LINE
  8
DETAIL
  6
CONTINUOUS
 62
     5
 10
0.9258792305008683
 20
-294.94082297818443
 30
0.0
 11
0.9258792305008683
 21
-294.94082297818443
 31
0.0
  0
LINE
  8
DETAIL
  6
CONTINUOUS
 62
     5
 10
0.9258792305008683
 20
-294.94082297818443
 30
0.0
 11
0.916387206413674
 21
-294.94346073790422
 31
0.0
  0
LINE
  8
DETAIL
  6
CONTINUOUS
 62
     5
 10
0.916387206413674
 20
-294.94346073790422
 30
0.0
 11
0.9068956581945713
 21
-294.94610464585901
 31
0.0
  0
LINE
  8
DETAIL
  6
CONTINUOUS
 62
     5
 10
0.9068956581945713
 20
-294.94610464585901
 30
0.0
 11
0.9068956581945713
 21
-294.94610464585901
 31
0.0
  0
LINE
  8
DETAIL
  6
CONTINUOUS
 62
     5
 10
0.9068956581945713
 20
-294.94610464585901
 30
0.0
 11
0.8974054926611643
 21
-294.94876152857893
 31
0.0
  0
LINE
  8
DETAIL
  6
CONTINUOUS
 62
     5
 10
0.8974054926611643
 20
-294.94876152857893
 30
0.0
 11
0.8879176166319667
 21
-294.9514382125966
 31
0.0
  0
LINE
  8
DETAIL
  6
CONTINUOUS
 62
     5
 10
0.8879176166319667
 20
-294.9514382125966
 30
0.0
 11
0.8879176166319667
 21
-294.9514382125966
 31
0.0
  0
LINE
  8
DETAIL
  6
CONTINUOUS
 62
     5
 10
0.8879176166319667
 20
-294.9514382125966
 30
0.0
 11
0.878432936923673
 21
-294.95414152444312
 31
0.0
  0
LINE
  8
DETAIL
  6
CONTINUOUS
 62
     5
 10
0.878432936923673
 20
-294.95414152444312
 30
0.0
 11
0.8689523603543421
 21
-294.9568782906498
 31
0.0
  0
LINE
  8
DETAIL
  6
CONTINUOUS
 62
     5
 10
0.8689523603543421
 20
-294.9568782906498
 30
0.0
 11
0.8689523603543421
 21
-294.9568782906498
 31
0.0
  0
LINE
  8
DETAIL
  6
CONTINUOUS
 62
     5
 10
0.8689523603543421
 20
-294.9568782906498
 30
0.0
 11
0.8594762927459669
 21
-294.95965130965862
 31
0.0
  0
LINE
  8
DETAIL
  6
CONTINUOUS
 62
     5
 10
0.8594762927459669
 20
-294.95965130965862
 30
0.0
 11
0.8500031359344575
 21
-294.96244726755572
 31
0.0
  0
LINE
  8
DETAIL
  6
CONTINUOUS
 62
     5
 10
0.8500031359344575
 20
-294.96244726755572
 30
0.0
 11
0.8500031359344575
 21
-294.96244726755572
 31
0.0
  0
LINE
  8
DETAIL
  6
CONTINUOUS
 62
     5
 10
0.8500031359344575
 20
-294.96244726755572
 30
0.0
 11
0.840530790763296
 21
-294.96524882233768
 31
0.0
  0
LINE
  8
DETAIL
  6
CONTINUOUS
 62
     5
 10
0.840530790763296
 20
-294.96524882233768
 30
0.0
 11
0.8310571580723263
 21
-294.96803863200051
 31
0.0
  0
LINE
  8
DETAIL
  6
CONTINUOUS
 62
     5
 10
0.8310571580723263
 20
-294.96803863200051
 30
0.0
 11
0.8310571580723263
 21
-294.96803863200051
 31
0.0
  0
LINE
  8
DETAIL
  6
CONTINUOUS
 62
     5
 10
0.8310571580723263
 20
-294.96803863200051
 30
0.0
 11
0.8215801387036663
 21
-294.97079935454042
 31
0.0
  0
LINE
  8
DETAIL
  6
CONTINUOUS
 62
     5
 10
0.8215801387036663
 20
-294.97079935454042
 30
0.0
 11
0.8120976334985244
 21
-294.97351364795469
 31
0.0
  0
LINE
  8
DETAIL
  6
CONTINUOUS
 62
     5
 10
0.8120976334985244
 20
-294.97351364795469
 30
0.0
 11
0.8120976334985244
 21
-294.97351364795469
 31
0.0
  0
LINE
  8
DETAIL
  6
CONTINUOUS
 62
     5
 10
0.8120976334985244
 20
-294.97351364795469
 30
0.0
 11
0.8026075432981088
 21
-294.97616417023949
 31
0.0
  0
LINE
  8
DETAIL
  6
CONTINUOUS
 62
     5
 10
0.8026075432981088
 20
-294.97616417023949
 30
0.0
 11
0.7931077689436279
 21
-294.97873357939142
 31
0.0
  0
LINE
  8
DETAIL
  6
CONTINUOUS
 62
     5
 10
0.7931077689436279
 20
-294.97873357939142
 30
0.0
 11
0.7931077689436279
 21
-294.97873357939142
 31
0.0
  0
LINE
  8
DETAIL
  6
CONTINUOUS
 62
     5
 10
0.7931077689436279
 20
-294.97873357939142
 30
0.0
 11
0.7835962112776542
 21
-294.98120453340681
 31
0.0
  0
LINE
  8
DETAIL
  6
CONTINUOUS
 62
     5
 10
0.7835962112776542
 20
-294.98120453340681
 30
0.0
 11
0.7740707711404866
 21
-294.98355969028148
 31
0.0
  0
LINE
  8
DETAIL
  6
CONTINUOUS
 62
     5
 10
0.7740707711404866
 20
-294.98355969028148
 30
0.0
 11
0.7740707711404866
 21
-294.98355969028148
 31
0.0
  0
LINE
  8
DETAIL
  6
CONTINUOUS
 62
     5
 10
0.7740707711404866
 20
-294.98355969028148
 30
0.0
 11
0.7645300423178014
 21
-294.98578749003661
 31
0.0
  0
LINE
  8
DETAIL
  6
CONTINUOUS
 62
     5
 10
0.7645300423178014
 20
-294.98578749003661
 30
0.0
 11
0.7549753903726924
 21
-294.98789950079032
 31
0.0
  0
LINE
  8
DETAIL
  6
CONTINUOUS
 62
     5
 10
0.7549753903726924
 20
-294.98789950079032
 30
0.0
 11
0.7549753903726924
 21
-294.98789950079032
 31
0.0
  0
LINE
  8
DETAIL
  6
CONTINUOUS
 62
     5
 10
0.7549753903726924
 20
-294.98789950079032
 30
0.0
 11
0.7454088738122664
 21
-294.98991307268278
 31
0.0
  0
LINE
  8
DETAIL
  6
CONTINUOUS
 62
     5
 10
0.7454088738122664
 20
-294.98991307268278
 30
0.0
 11
0.7358325511431758
 21
-294.99184555585617
 31
0.0
  0
LINE
  8
DETAIL
  6
CONTINUOUS
 62
     5
 10
0.7358325511431758
 20
-294.99184555585617
 30
0.0
 11
0.7358325511431758
 21
-294.99184555585617
 31
0.0
  0
LINE
  8
DETAIL
  6
CONTINUOUS
 62
     5
 10
0.7358325511431758
 20
-294.99184555585617
 30
0.0
 11
0.7262484808720728
 21
-294.9937143004521
 31
0.0
  0
LINE
  8
DETAIL
  6
CONTINUOUS
 62
     5
 10
0.7262484808720728
 20
-294.9937143004521
 30
0.0
 11
0.716658721506974
 21
-294.99553665661108
 31
0.0
  0
LINE
  8
DETAIL
  6
CONTINUOUS
 62
     5
 10
0.716658721506974
 20
-294.99553665661108
 30
0.0
 11
0.716658721506974
 21
-294.99553665661108
 31
0.0
  0
LINE
  8
DETAIL
  6
CONTINUOUS
 62
     5
 10
0.716658721506974
 20
-294.99553665661108
 30
0.0
 11
0.7070653315540767
 21
-294.99732997447512
 31
0.0
  0
LINE
  8
DETAIL
  6
CONTINUOUS
 62
     5
 10
0.7070653315540767
 20
-294.99732997447512
 30
0.0
 11
0.697470369520488
 21
-294.99911160418623
 31
0.0
  0
LINE
  8
DETAIL
  6
CONTINUOUS
 62
     5
 10
0.697470369520488
 20
-294.99911160418623
 30
0.0
 11
0.697470369520488
 21
-294.99911160418623
 31
0.0
  0
LINE
  8
DETAIL
  6
CONTINUOUS
 62
     5
 10
0.697470369520488
 20
-294.99911160418623
 30
0.0
 11
0.6878758939137697
 21
-295.00089889588492
 31
0.0
  0
LINE
  8
DETAIL
  6
CONTINUOUS
 62
     5
 10
0.6878758939137697
 20
-295.00089889588492
 30
0.0
 11
0.6782839632396644
 21
-295.00270919971359
 31
0.0
  0
LINE
  8
DETAIL
  6
CONTINUOUS
 62
     5
 10
0.6782839632396644
 20
-295.00270919971359
 30
0.0
 11
0.6782839632396644
 21
-295.00270919971359
 31
0.0
  0
LINE
  8
DETAIL
  6
CONTINUOUS
 62
     5
 10
0.6782839632396644
 20
-295.00270919971359
 30
0.0
 11
0.668696175662717
 21
-295.00455582958608
 31
0.0
  0
LINE
  8
DETAIL
  6
CONTINUOUS
 62
     5
 10
0.668696175662717
 20
-295.00455582958608
 30
0.0
 11
0.6591122879694922
 21
-295.00643595450907
 31
0.0
  0
LINE
  8
DETAIL
  6
CONTINUOUS
 62
     5
 10
0.6591122879694922
 20
-295.00643595450907
 30
0.0
 11
0.6591122879694922
 21
-295.00643595450907
 31
0.0
  0
LINE
  8
DETAIL
  6
CONTINUOUS
 62
     5
 10
0.6591122879694922
 20
-295.00643595450907
 30
0.0
 11
0.6495315966039925
 21
-295.00834270726261
 31
0.0
  0
LINE
  8
DETAIL
  6
CONTINUOUS
 62
     5
 10
0.6495315966039925
 20
-295.00834270726261
 30
0.0
 11
0.6399533980093111
 21
-295.01026922062613
 31
0.0
  0
LINE
  8
DETAIL
  6
CONTINUOUS
 62
     5
 10
0.6399533980093111
 20
-295.01026922062613
 30
0.0
 11
0.6399533980093111
 21
-295.01026922062613
 31
0.0
  0
LINE
  8
DETAIL
  6
CONTINUOUS
 62
     5
 10
0.6399533980093111
 20
-295.01026922062613
 30
0.0
 11
0.6303769886289956
 21
-295.01220862737881
 31
0.0
  0
LINE
  8
DETAIL
  6
CONTINUOUS
 62
     5
 10
0.6303769886289956
 20
-295.01220862737881
 30
0.0
 11
0.6208016649065939
 21
-295.01415406030088
 31
0.0
  0
LINE
  8
DETAIL
  6
CONTINUOUS
 62
     5
 10
0.6208016649065939
 20
-295.01415406030088
 30
0.0
 11
0.6208016649065939
 21
-295.01415406030088
 31
0.0
  0
LINE
  8
DETAIL
  6
CONTINUOUS
 62
     5
 10
0.6208016649065939
 20
-295.01415406030088
 30
0.0
 11
0.6112267232856539
 21
-295.01609865217199
 31
0.0
  0
LINE
  8
DETAIL
  6
CONTINUOUS
 62
     5
 10
0.6112267232856539
 20
-295.01609865217199
 30
0.0
 11
0.6016514602106327
 21
-295.01803553577167
 31
0.0
  0
LINE
  8
DETAIL
  6
CONTINUOUS
 62
     5
 10
0.6016514602106327
 20
-295.01803553577167
 30
0.0
 11
0.6016514602106327
 21
-295.01803553577167
 31
0.0
  0
LINE
  8
DETAIL
  6
CONTINUOUS
 62
     5
 10
0.6016514602106327
 20
-295.01803553577167
 30
0.0
 11
0.5920751721232591
 21
-295.01995784387952
 31
0.0
  0
LINE
  8
DETAIL
  6
CONTINUOUS
 62
     5
 10
0.5920751721232591
 20
-295.01995784387952
 30
0.0
 11
0.5824971554684453
 21
-295.02185870927508
 31
0.0
  0
LINE
  8
DETAIL
  6
CONTINUOUS
 62
     5
 10
0.5824971554684453
 20
-295.02185870927508
 30
0.0
 11
0.5824971554684453
 21
-295.02185870927508
 31
0.0
  0
LINE
  8
DETAIL
  6
CONTINUOUS
 62
     5
 10
0.5824971554684453
 20
-295.02185870927508
 30
0.0
 11
0.5729167477315968
 21
-295.02373156519559
 31
0.0
  0
LINE
  8
DETAIL
  6
CONTINUOUS
 62
     5
 10
0.5729167477315968
 20
-295.02373156519559
 30
0.0
 11
0.5633334505655512
 21
-295.02557104670728
 31
0.0
  0
LINE
  8
DETAIL
  6
CONTINUOUS
 62
     5
 10
0.5633334505655512
 20
-295.02557104670728
 30
0.0
 11
0.5633334505655512
 21
-295.02557104670728
 31
0.0
  0
LINE
  8
DETAIL
  6
CONTINUOUS
 62
     5
 10
0.5633334505655512
 20
-295.02557104670728
 30
0.0
 11
0.553746806667732
 21
-295.02737208933411
 31
0.0
  0
LINE
  8
DETAIL
  6
CONTINUOUS
 62
     5
 10
0.553746806667732
 20
-295.02737208933411
 30
0.0
 11
0.5441563587319251
 21
-295.02912962859938
 31
0.0
  0
LINE
  8
DETAIL
  6
CONTINUOUS
 62
     5
 10
0.5441563587319251
 20
-295.02912962859938
 30
0.0
 11
0.5441563587319251
 21
-295.02912962859938
 31
0.0
  0
LINE
  8
DETAIL
  6
CONTINUOUS
 62
     5
 10
0.5441563587319251
 20
-295.02912962859938
 30
0.0
 11
0.5345616494546448
 21
-295.03083860002761
 31
0.0
  0
LINE
  8
DETAIL
  6
CONTINUOUS
 62
     5
 10
0.5345616494546448
 20
-295.03083860002761
 30
0.0
 11
0.5249622215324052
 21
-295.03249393914149
 31
0.0
  0
LINE
  8
DETAIL
  6
CONTINUOUS
 62
     5
 10
0.5249622215324052
 20
-295.03249393914149
 30
0.0
 11
0.5249622215324052
 21
-295.03249393914149
 31
0.0
  0
LINE
  8
DETAIL
  6
CONTINUOUS
 62
     5
 10
0.5249622215324052
 20
-295.03249393914149
 30
0.0
 11
0.5153576176608112
 21
-295.03409058146559
 31
0.0
  0
LINE
  8
DETAIL
  6
CONTINUOUS
 62
     5
 10
0.5153576176608112
 20
-295.03409058146559
 30
0.0
 11
0.5057473805336485
 21
-295.03562346252289
 31
0.0
  0
LINE
  8
DETAIL
  6
CONTINUOUS
 62
     5
 10
0.5057473805336485
 20
-295.03562346252289
 30
0.0
 11
0.5057473805336485
 21
-295.03562346252289
 31
0.0
  0
LINE
  8
DETAIL
  6
CONTINUOUS
 62
     5
 10
0.5057473805336485
 20
-295.03562346252289
 30
0.0
 11
0.4961310528442482
 21
-295.03708751783842
 31
0.0
  0
LINE
  8
DETAIL
  6
CONTINUOUS
 62
     5
 10
0.4961310528442482
 20
-295.03708751783842
 30
0.0
 11
0.4865081773014026
 21
-295.03847768293429
 31
0.0
  0
LINE
  8
DETAIL
  6
CONTINUOUS
 62
     5
 10
0.4865081773014026
 20
-295.03847768293429
 30
0.0
 11
0.4865081773014026
 21
-295.03847768293429
 31
0.0
  0
LINE
  8
DETAIL
  6
CONTINUOUS
 62
     5
 10
0.4865081773014026
 20
-295.03847768293429
 30
0.0
 11
0.4768785927781209
 21
-295.03979172773239
 31
0.0
  0
LINE
  8
DETAIL
  6
CONTINUOUS
 62
     5
 10
0.4768785927781209
 20
-295.03979172773239
 30
0.0
 11
0.4672433228092814
 21
-295.0410387597484
 31
0.0
  0
LINE
  8
DETAIL
  6
CONTINUOUS
 62
     5
 10
0.4672433228092814
 20
-295.0410387597484
 30
0.0
 11
0.4672433228092814
 21
-295.0410387597484
 31
0.0
  0
LINE
  8
DETAIL
  6
CONTINUOUS
 62
     5
 10
0.4672433228092814
 20
-295.0410387597484
 30
0.0
 11
0.4576036871358156
 21
-295.04223072089161
 31
0.0
  0
LINE
  8
DETAIL
  6
CONTINUOUS
 62
     5
 10
0.4576036871358156
 20
-295.04223072089161
 30
0.0
 11
0.4479610056650927
 21
-295.04337955306721
 31
0.0
  0
LINE
  8
DETAIL
  6
CONTINUOUS
 62
     5
 10
0.4479610056650927
 20
-295.04337955306721
 30
0.0
 11
0.4479610056650927
 21
-295.04337955306721
 31
0.0
  0
LINE
  8
DETAIL
  6
CONTINUOUS
 62
     5
 10
0.4479610056650927
 20
-295.04337955306721
 30
0.0
 11
0.438316598190795
 21
-295.04449719818319
 31
0.0
  0
LINE
  8
DETAIL
  6
CONTINUOUS
 62
     5
 10
0.438316598190795
 20
-295.04449719818319
 30
0.0
 11
0.4286717838836012
 21
-295.04559559817778
 31
0.0
  0
LINE
  8
DETAIL
  6
CONTINUOUS
 62
     5
 10
0.4286717838836012
 20
-295.04559559817778
 30
0.0
 11
0.4286717838836012
 21
-295.04559559817778
 31
0.0
  0
LINE
  8
DETAIL
  6
CONTINUOUS
 62
     5
 10
0.4286717838836012
 20
-295.04559559817778
 30
0.0
 11
0.419027882339833
 21
-295.0466866949676
 31
0.0
  0
LINE
  8
DETAIL
  6
CONTINUOUS
 62
     5
 10
0.419027882339833
 20
-295.0466866949676
 30
0.0
 11
0.409386215480481
 21
-295.04778243036623
 31
0.0
  0
LINE
  8
DETAIL
  6
CONTINUOUS
 62
     5
 10
0.409386215480481
 20
-295.04778243036623
 30
0.0
 11
0.409386215480481
 21
-295.04778243036623
 31
0.0
  0
LINE
  8
DETAIL
  6
CONTINUOUS
 62
     5
 10
0.409386215480481
 20
-295.04778243036623
 30
0.0
 11
0.3997481036381032
 21
-295.04889474625878
 31
0.0
  0
LINE
  8
DETAIL
  6
CONTINUOUS
 62
     5
 10
0.3997481036381032
 20
-295.04889474625878
 30
0.0
 11
0.3901148584700422
 21
-295.05003558491887
 31
0.0
  0
LINE
  8
DETAIL
  6
CONTINUOUS
 62
     5
 10
0.3901148584700422
 20
-295.05003558491887
 30
0.0
 11
0.3901148584700422
 21
-295.05003558491887
 31
0.0
  0
LINE
  8
DETAIL
  6
CONTINUOUS
 62
     5
 10
0.3901148584700422
 20
-295.05003558491887
 30
0.0
 11
0.3804871783240742
 21
-295.05121284191239
 31
0.0
  0
LINE
  8
DETAIL
  6
CONTINUOUS
 62
     5
 10
0.3804871783240742
 20
-295.05121284191239
 30
0.0
 11
0.3708633169876521
 21
-295.05241822559339
 31
0.0
  0
LINE
  8
DETAIL
  6
CONTINUOUS
 62
     5
 10
0.3708633169876521
 20
-295.05241822559339
 30
0.0
 11
0.3708633169876521
 21
-295.05241822559339
 31
0.0
  0
LINE
  8
DETAIL
  6
CONTINUOUS
 62
     5
 10
0.3708633169876521
 20
-295.05241822559339
 30
0.0
 11
0.3612408868989405
 21
-295.05363939886598
 31
0.0
  0
LINE
  8
DETAIL
  6
CONTINUOUS
 62
     5
 10
0.3612408868989405
 20
-295.05363939886598
 30
0.0
 11
0.3516173796533621
 21
-295.05486403004181
 31
0.0
  0
LINE
  8
DETAIL
  6
CONTINUOUS
 62
     5
 10
0.3516173796533621
 20
-295.05486403004181
 30
0.0
 11
0.3516173796533621
 21
-295.05486403004181
 31
0.0
  0
LINE
  8
DETAIL
  6
CONTINUOUS
 62
     5
 10
0.3516173796533621
 20
-295.05486403004181
 30
0.0
 11
0.3419903693838933
 21
-295.05607978373888
 31
0.0
  0
LINE
  8
DETAIL
  6
CONTINUOUS
 62
     5
 10
0.3419903693838933
 20
-295.05607978373888
 30
0.0
 11
0.3323578812060077
 21
-295.05727430438662
 31
0.0
  0
LINE
  8
DETAIL
  6
CONTINUOUS
 62
     5
 10
0.3323578812060077
 20
-295.05727430438662
 30
0.0
 11
0.3323578812060077
 21
-295.05727430438662
 31
0.0
  0
LINE
  8
DETAIL
  6
CONTINUOUS
 62
     5
 10
0.3323578812060077
 20
-295.05727430438662
 30
0.0
 11
0.3227176322075138
 21
-295.05843525020282
 31
0.0
  0
LINE
  8
DETAIL
  6
CONTINUOUS
 62
     5
 10
0.3227176322075138
 20
-295.05843525020282
 30
0.0
 11
0.3130656563848788
 21
-295.05955035475142
 31
0.0
  0
LINE
  8
DETAIL
  6
CONTINUOUS
 62
     5
 10
0.3130656563848788
 20
-295.05955035475142
 30
0.0
 11
0.3130656563848788
 21
-295.05955035475142
 31
0.0
  0
LINE
  8
DETAIL
  6
CONTINUOUS
 62
     5
 10
0.3130656563848788
 20
-295.05955035475142
 30
0.0
 11
0.3033991373076788
 21
-295.06060730013292
 31
0.0
  0
LINE
  8
DETAIL
  6
CONTINUOUS
 62
     5
 10
0.3033991373076788
 20
-295.06060730013292
 30
0.0
 11
0.2937215399297202
 21
-295.06159348725862
 31
0.0
  0
LINE
  8
DETAIL
  6
CONTINUOUS
 62
     5
 10
0.2937215399297202
 20
-295.06159348725862
 30
0.0
 11
0.2937215399297202
 21
-295.06159348725862
 31
0.0
  0
LINE
  8
DETAIL
  6
CONTINUOUS
 62
     5
 10
0.2937215399297202
 20
-295.06159348725862
 30
0.0
 11
0.2840326799596369
 21
-295.0624997148185
 31
0.0
  0
LINE
  8
DETAIL
  6
CONTINUOUS
 62
     5
 10
0.2840326799596369
 20
-295.0624997148185
 30
0.0
 11
0.2743114947434151
 21
-295.06333065382597
 31
0.0
  0
LINE
  8
DETAIL
  6
CONTINUOUS
 62
     5
 10
0.2743114947434151
 20
-295.06333065382597
 30
0.0
 11
0.2743114947434151
 21
-295.06333065382597
 31
0.0
  0
LINE
  8
DETAIL
  6
CONTINUOUS
 62
     5
 10
0.2743114947434151
 20
-295.06333065382597
 30
0.0
 11
0.2645535741353342
 21
-295.06409346424817
 31
0.0
  0
LINE
  8
DETAIL
  6
CONTINUOUS
 62
     5
 10
0.2645535741353342
 20
-295.06409346424817
 30
0.0
 11
0.2548419963868582
 21
-295.06479138954398
 31
0.0
  0
LINE
  8
DETAIL
  6
CONTINUOUS
 62
     5
 10
0.2548419963868582
 20
-295.06479138954398
 30
0.0
 11
0.2548419963868582
 21
-295.06479138954398
 31
0.0
  0
LINE
  8
DETAIL
  6
CONTINUOUS
 62
     5
 10
0.2548419963868582
 20
-295.06479138954398
 30
0.0
 11
0.2452000840639812
 21
-295.06543034819708
 31
0.0
  0
LINE
  8
DETAIL
  6
CONTINUOUS
 62
     5
 10
0.2452000840639812
 20
-295.06543034819708
 30
0.0
 11
0.235324648583628
 21
-295.06603087529618
 31
0.0
  0
LINE
  8
DETAIL
  6
CONTINUOUS
 62
     5
 10
0.235324648583628
 20
-295.06603087529618
 30
0.0
 11
0.235324648583628
 21
-295.06603087529618
 31
0.0
  0
LINE
  8
DETAIL
  6
CONTINUOUS
 62
     5
 10
0.235324648583628
 20
-295.06603087529618
 30
0.0
 11
0.2251355126245471
 21
-295.06660352260462
 31
0.0
  0
LINE
  8
DETAIL
  6
CONTINUOUS
 62
     5
 10
0.2251355126245471
 20
-295.06660352260462
 30
0.0
 11
0.2157710550573029
 21
-295.06710429196772
 31
0.0
  0
LINE
  8
DETAIL
  6
CONTINUOUS
 62
     5
 10
0.2157710550573029
 20
-295.06710429196772
 30
0.0
 11
0.2157710550573029
 21
-295.06710429196772
 31
0.0
  0
LINE
  8
DETAIL
  6
CONTINUOUS
 62
     5
 10
0.2157710550573029
 20
-295.06710429196772
 30
0.0
 11
0.2075373653938186
 21
-295.06752644351712
 31
0.0
  0
LINE
  8
DETAIL
  6
CONTINUOUS
 62
     5
 10
0.2075373653938186
 20
-295.06752644351712
 30
0.0
 11
0.196192819531916
 21
-295.06806682044191
 31
0.0
  0
LINE
  8
DETAIL
  6
CONTINUOUS
 62
     5
 10
0.196192819531916
 20
-295.06806682044191
 30
0.0
 11
0.196192819531916
 21
-295.06806682044191
 31
0.0
  0
LINE
  8
DETAIL
  6
CONTINUOUS
 62
     5
 10
0.196192819531916
 20
-295.06806682044191
 30
0.0
 11
0.178151242992044
 21
-295.06888869882692
 31
0.0
  0
LINE
  8
DETAIL
  6
CONTINUOUS
 62
     5
 10
0.178151242992044
 20
-295.06888869882692
 30
0.0
 11
0.1569959734051736
 21
-295.06981750328572
 31
0.0
  0
LINE
  8
DETAIL
  6
CONTINUOUS
 62
     5
 10
0.1569959734051736
 20
-295.06981750328572
 30
0.0
 11
0.1569959734051736
 21
-295.06981750328572
 31
0.0
  0
LINE
  8
DETAIL
  6
CONTINUOUS
 62
     5
 10
0.1569959734051736
 20
-295.06981750328572
 30
0.0
 11
0.1369671517295501
 21
-295.07065075409452
 31
0.0
  0
LINE
  8
DETAIL
  6
CONTINUOUS
 62
     5
 10
0.1369671517295501
 20
-295.07065075409452
 30
0.0
 11
0.1177626201192652
 21
-295.07141220565018
 31
0.0
  0
LINE
  8
DETAIL
  6
CONTINUOUS
 62
     5
 10
0.1177626201192652
 20
-295.07141220565018
 30
0.0
 11
0.1177626201192652
 21
-295.07141220565018
 31
0.0
  0
LINE
  8
DETAIL
  6
CONTINUOUS
 62
     5
 10
0.1177626201192652
 20
-295.07141220565018
 30
0.0
 11
0.0982487596156716
 21
-295.07216677257941
 31
0.0
  0
LINE
  8
DETAIL
  6
CONTINUOUS
 62
     5
 10
0.0982487596156716
 20
-295.07216677257941
 30
0.0
 11
0.0785084056137748
 21
-295.07291777631019
 31
0.0
  0
LINE
  8
DETAIL
  6
CONTINUOUS
 62
     5
 10
0.0785084056137748
 20
-295.07291777631019
 30
0.0
 11
0.0785084056137748
 21
-295.07291777631019
 31
0.0
  0
LINE
  8
DETAIL
  6
CONTINUOUS
 62
     5
 10
0.0785084056137748
 20
-295.07291777631019
 30
0.0
 11
0.0588476274438108
 21
-295.07365817463949
 31
0.0
  0
LINE
  8
DETAIL
  6
CONTINUOUS
 62
     5
 10
0.0588476274438108
 20
-295.07365817463949
 30
0.0
 11
0.0392489758296506
 21
-295.0744010640384
 31
0.0
  0
LINE
  8
DETAIL
  6
CONTINUOUS
 62
     5
 10
0.0392489758296506
 20
-295.0744010640384
 30
0.0
 11
0.0392489758296506
 21
-295.0744010640384
 31
0.0
  0
LINE
  8
DETAIL
  6
CONTINUOUS
 62
     5
 10
0.0392489758296506
 20
-295.0744010640384
 30
0.0
 11
0.019633526861071
 21
-295.07515983527168
 31
0.0
  0
LINE
  8
DETAIL
  6
CONTINUOUS
 62
     5
 10
0.019633526861071
 20
-295.07515983527168
 30
0.0
 11
-0.0000000232935236
 21
-295.07592891760908
 31
0.0
  0
LINE
  8
DETAIL
  6
CONTINUOUS
 62
     5
 10
0.0
 20
-295.07592891760908
 30
0.0
 11
-0.0193509487680785
 21
-295.07518206832782
 31
0.0
  0
LINE
  8
DETAIL
  6
CONTINUOUS
 62
     5
 10
-0.0193509487680785
 20
-295.07518206832782
 30
0.0
 11
-0.0386822111122456
 21
-295.07444550858662
 31
0.0
  0
LINE
  8
DETAIL
  6
CONTINUOUS
 62
     5
 10
-0.0386822111122456
 20
-295.07444550858662
 30
0.0
 11
-0.0386822111122456
 21
-295.07444550858662
 31
0.0
  0
LINE
  8
DETAIL
  6
CONTINUOUS
 62
     5
 10
-0.0386822111122456
 20
-295.07444550858662
 30
0.0
 11
-0.0579939914282477
 21
-295.07372480996622
 31
0.0
  0
LINE
  8
DETAIL
  6
CONTINUOUS
 62
     5
 10
-0.0579939914282477
 20
-295.07372480996622
 30
0.0
 11
-0.0773660573872803
 21
-295.07300667221
 31
0.0
  0
LINE
  8
DETAIL
  6
CONTINUOUS
 62
     5
 10
-0.0773660573872803
 20
-295.07300667221
 30
0.0
 11
-0.0773660573872803
 21
-295.07300667221
 31
0.0
  0
LINE
  8
DETAIL
  6
CONTINUOUS
 62
     5
 10
-0.0773660573872803
 20
-295.07300667221
 30
0.0
 11
-0.0968179932083331
 21
-295.07227801997863
 31
0.0
  0
LINE
  8
DETAIL
  6
CONTINUOUS
 62
     5
 10
-0.0968179932083331
 20
-295.07227801997863
 30
0.0
 11
-0.1160490860288519
 21
-295.07154554942821
 31
0.0
  0
LINE
  8
DETAIL
  6
CONTINUOUS
 62
     5
 10
-0.1160490860288519
 20
-295.07154554942821
 30
0.0
 11
-0.1160490860288519
 21
-295.07154554942821
 31
0.0
  0
LINE
  8
DETAIL
  6
CONTINUOUS
 62
     5
 10
-0.1160490860288519
 20
-295.07154554942821
 30
0.0
 11
-0.1349789549794878
 21
-295.07080584605131
 31
0.0
  0
LINE
  8
DETAIL
  6
CONTINUOUS
 62
     5
 10
-0.1349789549794878
 20
-295.07080584605131
 30
0.0
 11
-0.154728844242527
 21
-295.06999528118803
 31
0.0
  0
LINE
  8
DETAIL
  6
CONTINUOUS
 62
     5
 10
-0.154728844242527
 20
-295.06999528118803
 30
0.0
 11
-0.154728844242527
 21
-295.06999528118803
 31
0.0
  0
LINE
  8
DETAIL
  6
CONTINUOUS
 62
     5
 10
-0.154728844242527
 20
-295.06999528118803
 30
0.0
 11
-0.17559885348237
 21
-295.0690904439183
 31
0.0
  0
LINE
  8
DETAIL
  6
CONTINUOUS
 62
     5
 10
-0.17559885348237
 20
-295.0690904439183
 30
0.0
 11
-0.1934028792320532
 21
-295.06828900843942
 31
0.0
  0
LINE
  8
DETAIL
  6
CONTINUOUS
 62
     5
 10
-0.1934028792320532
 20
-295.06828900843942
 30
0.0
 11
-0.1934028792320532
 21
-295.06828900843942
 31
0.0
  0
LINE
  8
DETAIL
  6
CONTINUOUS
 62
     5
 10
-0.1934028792320532
 20
-295.06828900843942
 30
0.0
 11
-0.2046025518038732
 21
-295.0677614885916
 31
0.0
  0
LINE
  8
DETAIL
  6
CONTINUOUS
 62
     5
 10
-0.2046025518038732
 20
-295.0677614885916
 30
0.0
 11
-0.2127366397589867
 21
-295.06734867167341
 31
0.0
  0
LINE
  8
DETAIL
  6
CONTINUOUS
 62
     5
 10
-0.2127366397589867
 20
-295.06734867167341
 30
0.0
 11
-0.2127366397589867
 21
-295.06734867167341
 31
0.0
  0
LINE
  8
DETAIL
  6
CONTINUOUS
 62
     5
 10
-0.2127366397589867
 20
-295.06734867167341
 30
0.0
 11
-0.2219914099468951
 21
-295.06685852095728
 31
0.0
  0
LINE
  8
DETAIL
  6
CONTINUOUS
 62
     5
 10
-0.2219914099468951
 20
-295.06685852095728
 30
0.0
 11
-0.2320659841211636
 21
-295.06629743015412
 31
0.0
  0
LINE
  8
DETAIL
  6
CONTINUOUS
 62
     5
 10
-0.2320659841211636
 20
-295.06629743015412
 30
0.0
 11
-0.2320659841211636
 21
-295.06629743015412
 31
0.0
  0
LINE
  8
DETAIL
  6
CONTINUOUS
 62
     5
 10
-0.2320659841211636
 20
-295.06629743015412
 30
0.0
 11
-0.2418382794876379
 21
-295.06570810826548
 31
0.0
  0
LINE
  8
DETAIL
  6
CONTINUOUS
 62
     5
 10
-0.2418382794876379
 20
-295.06570810826548
 30
0.0
 11
-0.2513885401576772
 21
-295.06508009501761
 31
0.0
  0
LINE
  8
DETAIL
  6
CONTINUOUS
 62
     5
 10
-0.2513885401576772
 20
-295.06508009501761
 30
0.0
 11
-0.2513885401576772
 21
-295.06508009501761
 31
0.0
  0
LINE
  8
DETAIL
  6
CONTINUOUS
 62
     5
 10
-0.2513885401576772
 20
-295.06508009501761
 30
0.0
 11
-0.2610170513362391
 21
-295.06439319948328
 31
0.0
  0
LINE
  8
DETAIL
  6
CONTINUOUS
 62
     5
 10
-0.2610170513362391
 20
-295.06439319948328
 30
0.0
 11
-0.2707019357076206
 21
-295.06364147740078
 31
0.0
  0
LINE
  8
DETAIL
  6
CONTINUOUS
 62
     5
 10
-0.2707019357076206
 20
-295.06364147740078
 30
0.0
 11
-0.2707019357076206
 21
-295.06364147740078
 31
0.0
  0
LINE
  8
DETAIL
  6
CONTINUOUS
 62
     5
 10
-0.2707019357076206
 20
-295.06364147740078
 30
0.0
 11
-0.2803623561203494
 21
-295.0628215918274
 31
0.0
  0
LINE
  8
DETAIL
  6
CONTINUOUS
 62
     5
 10
-0.2803623561203494
 20
-295.0628215918274
 30
0.0
 11
-0.2900037986114512
 21
-295.06192638844038
 31
0.0
  0
LINE
  8
DETAIL
  6
CONTINUOUS
 62
     5
 10
-0.2900037986114512
 20
-295.06192638844038
 30
0.0
 11
-0.2900037986114512
 21
-295.06192638844038
 31
0.0
  0
LINE
  8
DETAIL
  6
CONTINUOUS
 62
     5
 10
-0.2900037986114512
 20
-295.06192638844038
 30
0.0
 11
-0.2996476940375032
 21
-295.06095122045878
 31
0.0
  0
LINE
  8
DETAIL
  6
CONTINUOUS
 62
     5
 10
-0.2996476940375032
 20
-295.06095122045878
 30
0.0
 11
-0.3092929293461566
 21
-295.05990528866607
 31
0.0
  0
LINE
  8
DETAIL
  6
CONTINUOUS
 62
     5
 10
-0.3092929293461566
 20
-295.05990528866607
 30
0.0
 11
-0.3092929293461566
 21
-295.05990528866607
 31
0.0
  0
LINE
  8
DETAIL
  6
CONTINUOUS
 62
     5
 10
-0.3092929293461566
 20
-295.05990528866607
 30
0.0
 11
-0.3189343049393756
 21
-295.05880118721439
 31
0.0
  0
LINE
  8
DETAIL
  6
CONTINUOUS
 62
     5
 10
-0.3189343049393756
 20
-295.05880118721439
 30
0.0
 11
-0.3285728189439396
 21
-295.05765123618158
 31
0.0
  0
LINE
  8
DETAIL
  6
CONTINUOUS
 62
     5
 10
-0.3285728189439396
 20
-295.05765123618158
 30
0.0
 11
-0.3285728189439396
 21
-295.05765123618158
 31
0.0
  0
LINE
  8
DETAIL
  6
CONTINUOUS
 62
     5
 10
-0.3285728189439396
 20
-295.05765123618158
 30
0.0
 11
-0.3382106037502126
 21
-295.05646770548628
 31
0.0
  0
LINE
  8
DETAIL
  6
CONTINUOUS
 62
     5
 10
-0.3382106037502126
 20
-295.05646770548628
 30
0.0
 11
-0.3478481310730785
 21
-295.05526293848442
 31
0.0
  0
LINE
  8
DETAIL
  6
CONTINUOUS
 62
     5
 10
-0.3478481310730785
 20
-295.05526293848442
 30
0.0
 11
-0.3478481310730785
 21
-295.05526293848442
 31
0.0
  0
LINE
  8
DETAIL
  6
CONTINUOUS
 62
     5
 10
-0.3478481310730785
 20
-295.05526293848442
 30
0.0
 11
-0.3574855687020317
 21
-295.054049291973
 31
0.0
  0
LINE
  8
DETAIL
  6
CONTINUOUS
 62
     5
 10
-0.3574855687020317
 20
-295.054049291973
 30
0.0
 11
-0.3671235294032158
 21
-295.05283910307128
 31
0.0
  0
LINE
  8
DETAIL
  6
CONTINUOUS
 62
     5
 10
-0.3671235294032158
 20
-295.05283910307128
 30
0.0
 11
-0.3671235294032158
 21
-295.05283910307128
 31
0.0
  0
LINE
  8
DETAIL
  6
CONTINUOUS
 62
     5
 10
-0.3671235294032158
 20
-295.05283910307128
 30
0.0
 11
-0.3767627073798394
 21
-295.05164470529678
 31
0.0
  0
LINE
  8
DETAIL
  6
CONTINUOUS
 62
     5
 10
-0.3767627073798394
 20
-295.05164470529678
 30
0.0
 11
-0.3864036776039939
 21
-295.05047843743989
 31
0.0
  0
LINE
  8
DETAIL
  6
CONTINUOUS
 62
     5
 10
-0.3864036776039939
 20
-295.05047843743989
 30
0.0
 11
-0.3864036776039939
 21
-295.05047843743989
 31
0.0
  0
LINE
  8
DETAIL
  6
CONTINUOUS
 62
     5
 10
-0.3864036776039939
 20
-295.05047843743989
 30
0.0
 11
-0.3960467578867792
 21
-295.0493485923231
 31
0.0
  0
LINE
  8
DETAIL
  6
CONTINUOUS
 62
     5
 10
-0.3960467578867792
 20
-295.0493485923231
 30
0.0
 11
-0.4056913566355433
 21
-295.04824727362768
 31
0.0
  0
LINE
  8
DETAIL
  6
CONTINUOUS
 62
     5
 10
-0.4056913566355433
 20
-295.04824727362768
 30
0.0
 11
-0.4056913566355433
 21
-295.04824727362768
 31
0.0
  0
LINE
  8
DETAIL
  6
CONTINUOUS
 62
     5
 10
-0.4056913566355433
 20
-295.04824727362768
 30
0.0
 11
-0.4153366527630169
 21
-295.04716253784312
 31
0.0
  0
LINE
  8
DETAIL
  6
CONTINUOUS
 62
     5
 10
-0.4153366527630169
 20
-295.04716253784312
 30
0.0
 11
-0.4249818166235855
 21
-295.04608244183839
 31
0.0
  0
LINE
  8
DETAIL
  6
CONTINUOUS
 62
     5
 10
-0.4249818166235855
 20
-295.04608244183839
 30
0.0
 11
-0.4249818166235855
 21
-295.04608244183839
 31
0.0
  0
LINE
  8
DETAIL
  6
CONTINUOUS
 62
     5
 10
-0.4249818166235855
 20
-295.04608244183839
 30
0.0
 11
-0.4346260170041205
 21
-295.0449950425508
 31
0.0
  0
LINE
  8
DETAIL
  6
CONTINUOUS
 62
     5
 10
-0.4346260170041205
 20
-295.0449950425508
 30
0.0
 11
-0.4442684249856939
 21
-295.04388839681639
 31
0.0
  0
LINE
  8
DETAIL
  6
CONTINUOUS
 62
     5
 10
-0.4442684249856939
 20
-295.04388839681639
 30
0.0
 11
-0.4442684249856939
 21
-295.04388839681639
 31
0.0
  0
LINE
  8
DETAIL
  6
CONTINUOUS
 62
     5
 10
-0.4442684249856939
 20
-295.04388839681639
 30
0.0
 11
-0.4539082120681996
 21
-295.04275056145292
 31
0.0
  0
LINE
  8
DETAIL
  6
CONTINUOUS
 62
     5
 10
-0.4539082120681996
 20
-295.04275056145292
 30
0.0
 11
-0.4635445491385326
 21
-295.04156959330572
 31
0.0
  0
LINE
  8
DETAIL
  6
CONTINUOUS
 62
     5
 10
-0.4635445491385326
 20
-295.04156959330572
 30
0.0
 11
-0.4635445491385326
 21
-295.04156959330572
 31
0.0
  0
LINE
  8
DETAIL
  6
CONTINUOUS
 62
     5
 10
-0.4635445491385326
 20
-295.04156959330572
 30
0.0
 11
-0.4731766069689911
 21
-295.04033354922421
 31
0.0
  0
LINE
  8
DETAIL
  6
CONTINUOUS
 62
     5
 10
-0.4731766069689911
 20
-295.04033354922421
 30
0.0
 11
-0.4828035564987658
 21
-295.03903048605088
 31
0.0
  0
LINE
  8
DETAIL
  6
CONTINUOUS
 62
     5
 10
-0.4828035564987658
 20
-295.03903048605088
 30
0.0
 11
-0.4828035564987658
 21
-295.03903048605088
 31
0.0
  0
LINE
  8
DETAIL
  6
CONTINUOUS
 62
     5
 10
-0.4828035564987658
 20
-295.03903048605088
 30
0.0
 11
-0.4924247609760641
 21
-295.0376512953211
 31
0.0
  0
LINE
  8
DETAIL
  6
CONTINUOUS
 62
     5
 10
-0.4924247609760641
 20
-295.0376512953211
 30
0.0
 11
-0.5020403527255439
 21
-295.03619820734667
 31
0.0
  0
LINE
  8
DETAIL
  6
CONTINUOUS
 62
     5
 10
-0.5020403527255439
 20
-295.03619820734667
 30
0.0
 11
-0.5020403527255439
 21
-295.03619820734667
 31
0.0
  0
LINE
  8
DETAIL
  6
CONTINUOUS
 62
     5
 10
-0.5020403527255439
 20
-295.03619820734667
 30
0.0
 11
-0.5116506563445
 21
-295.03467628713418
 31
0.0
  0
LINE
  8
DETAIL
  6
CONTINUOUS
 62
     5
 10
-0.5116506563445
 20
-295.03467628713418
 30
0.0
 11
-0.5212559964411412
 21
-295.03309059968967
 31
0.0
  0
LINE
  8
DETAIL
  6
CONTINUOUS
 62
     5
 10
-0.5212559964411412
 20
-295.03309059968967
 30
0.0
 11
-0.5212559964411412
 21
-295.03309059968967
 31
0.0
  0
LINE
  8
DETAIL
  6
CONTINUOUS
 62
     5
 10
-0.5212559964411412
 20
-295.03309059968967
 30
0.0
 11
-0.5308566976277689
 21
-295.03144621001798
 31
0.0
  0
LINE
  8
DETAIL
  6
CONTINUOUS
 62
     5
 10
-0.5308566976277689
 20
-295.03144621001798
 30
0.0
 11
-0.5404530845112276
 21
-295.02974818312521
 31
0.0
  0
LINE
  8
DETAIL
  6
CONTINUOUS
 62
     5
 10
-0.5404530845112276
 20
-295.02974818312521
 30
0.0
 11
-0.5404530845112276
 21
-295.02974818312521
 31
0.0
  0
LINE
  8
DETAIL
  6
CONTINUOUS
 62
     5
 10
-0.5404530845112276
 20
-295.02974818312521
 30
0.0
 11
-0.5500454816988167
 21
-295.0280015840172
 31
0.0
  0
LINE
  8
DETAIL
  6
CONTINUOUS
 62
     5
 10
-0.5500454816988167
 20
-295.0280015840172
 30
0.0
 11
-0.5596342137987449
 21
-295.02621147769997
 31
0.0
  0
LINE
  8
DETAIL
  6
CONTINUOUS
 62
     5
 10
-0.5596342137987449
 20
-295.02621147769997
 30
0.0
 11
-0.5596342137987449
 21
-295.02621147769997
 31
0.0
  0
LINE
  8
DETAIL
  6
CONTINUOUS
 62
     5
 10
-0.5596342137987449
 20
-295.02621147769997
 30
0.0
 11
-0.5692196054196756
 21
-295.02438292917918
 31
0.0
  0
LINE
  8
DETAIL
  6
CONTINUOUS
 62
     5
 10
-0.5692196054196756
 20
-295.02438292917918
 30
0.0
 11
-0.5788019811689082
 21
-295.02252100346061
 31
0.0
  0
LINE
  8
DETAIL
  6
CONTINUOUS
 62
     5
 10
-0.5788019811689082
 20
-295.02252100346061
 30
0.0
 11
-0.5788019811689082
 21
-295.02252100346061
 31
0.0
  0
LINE
  8
DETAIL
  6
CONTINUOUS
 62
     5
 10
-0.5788019811689082
 20
-295.02252100346061
 30
0.0
 11
-0.5883817340554742
 21
-295.020631066004
 31
0.0
  0
LINE
  8
DETAIL
  6
CONTINUOUS
 62
     5
 10
-0.5883817340554742
 20
-295.020631066004
 30
0.0
 11
-0.5979595306844203
 21
-295.0187196840842
 31
0.0
  0
LINE
  8
DETAIL
  6
CONTINUOUS
 62
     5
 10
-0.5979595306844203
 20
-295.0187196840842
 30
0.0
 11
-0.5979595306844203
 21
-295.0187196840842
 31
0.0
  0
LINE
  8
DETAIL
  6
CONTINUOUS
 62
     5
 10
-0.5979595306844203
 20
-295.0187196840842
 30
0.0
 11
-0.6075361060629803
 21
-295.01679372543077
 31
0.0
  0
LINE
  8
DETAIL
  6
CONTINUOUS
 62
     5
 10
-0.6075361060629803
 20
-295.01679372543077
 30
0.0
 11
-0.617112195197933
 21
-295.01486005777178
 31
0.0
  0
LINE
  8
DETAIL
  6
CONTINUOUS
 62
     5
 10
-0.617112195197933
 20
-295.01486005777178
 30
0.0
 11
-0.617112195197933
 21
-295.01486005777178
 31
0.0
  0
LINE
  8
DETAIL
  6
CONTINUOUS
 62
     5
 10
-0.617112195197933
 20
-295.01486005777178
 30
0.0
 11
-0.6266885330956029
 21
-295.01292554883611
 31
0.0
  0
LINE
  8
DETAIL
  6
CONTINUOUS
 62
     5
 10
-0.6266885330956029
 20
-295.01292554883611
 30
0.0
 11
-0.6362658547618594
 21
-295.01099706635358
 31
0.0
  0
LINE
  8
DETAIL
  6
CONTINUOUS
 62
     5
 10
-0.6362658547618594
 20
-295.01099706635358
 30
0.0
 11
-0.6362658547618594
 21
-295.01099706635358
 31
0.0
  0
LINE
  8
DETAIL
  6
CONTINUOUS
 62
     5
 10
-0.6362658547618594
 20
-295.01099706635358
 30
0.0
 11
-0.6458448952034814
 21
-295.00908147805268
 31
0.0
  0
LINE
  8
DETAIL
  6
CONTINUOUS
 62
     5
 10
-0.6458448952034814
 20
-295.00908147805268
 30
0.0
 11
-0.6554263894267933
 21
-295.00718565166221
 31
0.0
  0
LINE
  8
DETAIL
  6
CONTINUOUS
 62
     5
 10
-0.6554263894267933
 20
-295.00718565166221
 30
0.0
 11
-0.6554263894267933
 21
-295.00718565166221
 31
0.0
  0
LINE
  8
DETAIL
  6
CONTINUOUS
 62
     5
 10
-0.6554263894267933
 20
-295.00718565166221
 30
0.0
 11
-0.6650110724381193
 21
-295.00531645491088
 31
0.0
  0
LINE
  8
DETAIL
  6
CONTINUOUS
 62
     5
 10
-0.6650110724381193
 20
-295.00531645491088
 30
0.0
 11
-0.6745996792442384
 21
-295.00348075552768
 31
0.0
  0
LINE
  8
DETAIL
  6
CONTINUOUS
 62
     5
 10
-0.6745996792442384
 20
-295.00348075552768
 30
0.0
 11
-0.6745996792442384
 21
-295.00348075552768
 31
0.0
  0
LINE
  8
DETAIL
  6
CONTINUOUS
 62
     5
 10
-0.6745996792442384
 20
-295.00348075552768
 30
0.0
 11
-0.684192478971454
 21
-295.00168138473322
 31
0.0
  0
LINE
  8
DETAIL
  6
CONTINUOUS
 62
     5
 10
-0.684192478971454
 20
-295.00168138473322
 30
0.0
 11
-0.6937878772241675
 21
-294.99990502770618
 31
0.0
  0
LINE
  8
DETAIL
  6
CONTINUOUS
 62
     5
 10
-0.6937878772241675
 20
-294.99990502770618
 30
0.0
 11
-0.6937878772241675
 21
-294.99990502770618
 31
0.0
  0
LINE
  8
DETAIL
  6
CONTINUOUS
 62
     5
 10
-0.6937878772241675
 20
-294.99990502770618
 30
0.0
 11
-0.7033838137281236
 21
-294.99813433311948
 31
0.0
  0
LINE
  8
DETAIL
  6
CONTINUOUS
 62
     5
 10
-0.7033838137281236
 20
-294.99813433311948
 30
0.0
 11
-0.7129782282081578
 21
-294.99635194964418
 31
0.0
  0
LINE
  8
DETAIL
  6
CONTINUOUS
 62
     5
 10
-0.7129782282081578
 20
-294.99635194964418
 30
0.0
 11
-0.7129782282081578
 21
-294.99635194964418
 31
0.0
  0
LINE
  8
DETAIL
  6
CONTINUOUS
 62
     5
 10
-0.7129782282081578
 20
-294.99635194964418
 30
0.0
 11
-0.72256906038956
 21
-294.99454052595149
 31
0.0
  0
LINE
  8
DETAIL
  6
CONTINUOUS
 62
     5
 10
-0.72256906038956
 20
-294.99454052595149
 30
0.0
 11
-0.7321542499971656
 21
-294.99268271071281
 31
0.0
  0
LINE
  8
DETAIL
  6
CONTINUOUS
 62
     5
 10
-0.7321542499971656
 20
-294.99268271071281
 30
0.0
 11
-0.7321542499971656
 21
-294.99268271071281
 31
0.0
  0
LINE
  8
DETAIL
  6
CONTINUOUS
 62
     5
 10
-0.7321542499971656
 20
-294.99268271071281
 30
0.0
 11
-0.7417317367562646
 21
-294.99076115259919
 31
0.0
  0
LINE
  8
DETAIL
  6
CONTINUOUS
 62
     5
 10
-0.7417317367562646
 20
-294.99076115259919
 30
0.0
 11
-0.7512994603912375
 21
-294.98875850028293
 31
0.0
  0
LINE
  8
DETAIL
  6
CONTINUOUS
 62
     5
 10
-0.7512994603912375
 20
-294.98875850028293
 30
0.0
 11
-0.7512994603912375
 21
-294.98875850028293
 31
0.0
  0
LINE
  8
DETAIL
  6
CONTINUOUS
 62
     5
 10
-0.7512994603912375
 20
-294.98875850028293
 30
0.0
 11
-0.7608553606269197
 21
-294.98665740243422
 31
0.0
  0
LINE
  8
DETAIL
  6
CONTINUOUS
 62
     5
 10
-0.7608553606269197
 20
-294.98665740243422
 30
0.0
 11
-0.7703973771899655
 21
-294.98444050772463
 31
0.0
  0
LINE
  8
DETAIL
  6
CONTINUOUS
 62
     5
 10
-0.7703973771899655
 20
-294.98444050772463
 30
0.0
 11
-0.7703973771899655
 21
-294.98444050772463
 31
0.0
  0
LINE
  8
DETAIL
  6
CONTINUOUS
 62
     5
 10
-0.7703973771899655
 20
-294.98444050772463
 30
0.0
 11
-0.7799241432753661
 21
-294.98209624672461
 31
0.0
  0
LINE
  8
DETAIL
  6
CONTINUOUS
 62
     5
 10
-0.7799241432753661
 20
-294.98209624672461
 30
0.0
 11
-0.7894370659641936
 21
-294.97963617759689
 31
0.0
  0
LINE
  8
DETAIL
  6
CONTINUOUS
 62
     5
 10
-0.7894370659641936
 20
-294.97963617759689
 30
0.0
 11
-0.7894370659641936
 21
-294.97963617759689
 31
0.0
  0
LINE
  8
DETAIL
  6
CONTINUOUS
 62
     5
 10
-0.7894370659641936
 20
-294.97963617759689
 30
0.0
 11
-0.7989382458094951
 21
-294.97707764040308
 31
0.0
  0
LINE
  8
DETAIL
  6
CONTINUOUS
 62
     5
 10
-0.7989382458094951
 20
-294.97707764040308
 30
0.0
 11
-0.8084297833629535
 21
-294.97443797520492
 31
0.0
  0
LINE
  8
DETAIL
  6
CONTINUOUS
 62
     5
 10
-0.8084297833629535
 20
-294.97443797520492
 30
0.0
 11
-0.8084297833629535
 21
-294.97443797520492
 31
0.0
  0
LINE
  8
DETAIL
  6
CONTINUOUS
 62
     5
 10
-0.8084297833629535
 20
-294.97443797520492
 30
0.0
 11
-0.8179137791771609
 21
-294.97173452206448
 31
0.0
  0
LINE
  8
DETAIL
  6
CONTINUOUS
 62
     5
 10
-0.8179137791771609
 20
-294.97173452206448
 30
0.0
 11
-0.8273923338047098
 21
-294.96898462104281
 31
0.0
  0
LINE
  8
DETAIL
  6
CONTINUOUS
 62
     5
 10
-0.8273923338047098
 20
-294.96898462104281
 30
0.0
 11
-0.8273923338047098
 21
-294.96898462104281
 31
0.0
  0
LINE
  8
DETAIL
  6
CONTINUOUS
 62
     5
 10
-0.8273923338047098
 20
-294.96898462104281
 30
0.0
 11
-0.8368675477972829
 21
-294.96620561220141
 31
0.0
  0
LINE
  8
DETAIL
  6
CONTINUOUS
 62
     5
 10
-0.8368675477972829
 20
-294.96620561220141
 30
0.0
 11
-0.8463415217074726
 21
-294.96341483560269
 31
0.0
  0
LINE
  8
DETAIL
  6
CONTINUOUS
 62
     5
 10
-0.8463415217074726
 20
-294.96341483560269
 30
0.0
 11
-0.8463415217074726
 21
-294.96341483560269
 31
0.0
  0
LINE
  8
DETAIL
  6
CONTINUOUS
 62
     5
 10
-0.8463415217074726
 20
-294.96341483560269
 30
0.0
 11
-0.8558163560874164
 21
-294.96062963130771
 31
0.0
  0
LINE
  8
DETAIL
  6
CONTINUOUS
 62
     5
 10
-0.8558163560874164
 20
-294.96062963130771
 30
0.0
 11
-0.8652941514906161
 21
-294.95786733937791
 31
0.0
  0
LINE
  8
DETAIL
  6
CONTINUOUS
 62
     5
 10
-0.8652941514906161
 20
-294.95786733937791
 30
0.0
 11
-0.8652941514906161
 21
-294.95786733937791
 31
0.0
  0
LINE
  8
DETAIL
  6
CONTINUOUS
 62
     5
 10
-0.8652941514906161
 20
-294.95786733937791
 30
0.0
 11
-0.8747765023103966
 21
-294.95514127463309
 31
0.0
  0
LINE
  8
DETAIL
  6
CONTINUOUS
 62
     5
 10
-0.8747765023103966
 20
-294.95514127463309
 30
0.0
 11
-0.8842629783125631
 21
-294.95244865092428
 31
0.0
  0
LINE
  8
DETAIL
  6
CONTINUOUS
 62
     5
 10
-0.8842629783125631
 20
-294.95244865092428
 30
0.0
 11
-0.8842629783125631
 21
-294.95244865092428
 31
0.0
  0
LINE
  8
DETAIL
  6
CONTINUOUS
 62
     5
 10
-0.8842629783125631
 20
-294.95244865092428
 30
0.0
 11
-0.8937526431045626
 21
-294.94978265685921
 31
0.0
  0
LINE
  8
DETAIL
  6
CONTINUOUS
 62
     5
 10
-0.8937526431045626
 20
-294.94978265685921
 30
0.0
 11
-0.9032445602933876
 21
-294.94713648104693
 31
0.0
  0
LINE
  8
DETAIL
  6
CONTINUOUS
 62
     5
 10
-0.9032445602933876
 20
-294.94713648104693
 30
0.0
 11
-0.9032445602933876
 21
-294.94713648104693
 31
0.0
  0
LINE
  8
DETAIL
  6
CONTINUOUS
 62
     5
 10
-0.9032445602933876
 20
-294.94713648104693
 30
0.0
 11
-0.9127377934873948
 21
-294.94450331209521
 31
0.0
  0
LINE
  8
DETAIL
  6
CONTINUOUS
 62
     5
 10
-0.9127377934873948
 20
-294.94450331209521
 30
0.0
 11
-0.9222314062935766
 21
-294.9418763386135
 31
0.0
  0
LINE
  8
DETAIL
  6
CONTINUOUS
 62
     5
 10
-0.9222314062935766
 20
-294.9418763386135
 30
0.0
 11
-0.9222314062935766
 21
-294.9418763386135
 31
0.0
  0
LINE
  8
DETAIL
  6
CONTINUOUS
 62
     5
 10
-0.9222314062935766
 20
-294.9418763386135
 30
0.0
 11
-0.9317244623189254
 21
-294.93924874920901
 31
0.0
  0
LINE
  8
DETAIL
  6
CONTINUOUS
 62
     5
 10
-0.9317244623189254
 20
-294.93924874920901
 30
0.0
 11
-0.9412160251722526
 21
-294.93661373249148
 31
0.0
  0
LINE
  8
DETAIL
  6
CONTINUOUS
 62
     5
 10
-0.9412160251722526
 20
-294.93661373249148
 30
0.0
 11
-0.9412160251722526
 21
-294.93661373249148
 31
0.0
  0
LINE
  8
DETAIL
  6
CONTINUOUS
 62
     5
 10
-0.9412160251722526
 20
-294.93661373249148
 30
0.0
 11
-0.9507051584605506
 21
-294.93396447706863
 31
0.0
  0
LINE
  8
DETAIL
  6
CONTINUOUS
 62
     5
 10
-0.9507051584605506
 20
-294.93396447706863
 30
0.0
 11
-0.9601909257908119
 21
-294.93129417154847
 31
0.0
  0
LINE
  8
DETAIL
  6
CONTINUOUS
 62
     5
 10
-0.9601909257908119
 20
-294.93129417154847
 30
0.0
 11
-0.9601909257908119
 21
-294.93129417154847
 31
0.0
  0
LINE
  8
DETAIL
  6
CONTINUOUS
 62
     5
 10
-0.9601909257908119
 20
-294.93129417154847
 30
0.0
 11
-0.9696724220543729
 21
-294.92859630733858
 31
0.0
  0
LINE
  8
DETAIL
  6
CONTINUOUS
 62
     5
 10
-0.9696724220543729
 20
-294.92859630733858
 30
0.0
 11
-0.9791488672731248
 21
-294.92586558703567
 31
0.0
  0
LINE
  8
DETAIL
  6
CONTINUOUS
 62
     5
 10
-0.9791488672731248
 20
-294.92586558703567
 30
0.0
 11
-0.9791488672731248
 21
-294.92586558703567
 31
0.0
  0
LINE
  8
DETAIL
  6
CONTINUOUS
 62
     5
 10
-0.9791488672731248
 20
-294.92586558703567
 30
0.0
 11
-0.9886195127528481
 21
-294.92309701603477
 31
0.0
  0
LINE
  8
DETAIL
  6
CONTINUOUS
 62
     5
 10
-0.9886195127528481
 20
-294.92309701603477
 30
0.0
 11
-0.9980836097993233
 21
-294.92028559973198
 31
0.0
  0
LINE
  8
DETAIL
  6
CONTINUOUS
 62
     5
 10
-0.9980836097993233
 20
-294.92028559973198
 30
0.0
 11
-0.9980836097993233
 21
-294.92028559973198
 31
0.0
  0
LINE
  8
DETAIL
  6
CONTINUOUS
 62
     5
 10
-0.9980836097993233
 20
-294.92028559973198
 30
0.0
 11
-1.0075404097187859
 21
-294.91742634352192
 31
0.0
  0
LINE
  8
DETAIL
  6
CONTINUOUS
 62
     5
 10
-1.0075404097187859
 20
-294.91742634352192
 30
0.0
 11
-1.0169891638151971
 21
-294.91451425280081
 31
0.0
  0
LINE
  8
DETAIL
  6
CONTINUOUS
 62
     5
 10
-1.0169891638151971
 20
-294.91451425280081
 30
0.0
 11
-1.0169891638151971
 21
-294.91451425280081
 31
0.0
  0
LINE
  8
DETAIL
  6
CONTINUOUS
 62
     5
 10
-1.0169891638151971
 20
-294.91451425280081
 30
0.0
 11
-1.026429123394337
 21
-294.91154433296339
 31
0.0
  0
LINE
  8
DETAIL
  6
CONTINUOUS
 62
     5
 10
-1.026429123394337
 20
-294.91154433296339
 30
0.0
 11
-1.035859539764715
 21
-294.90851158940512
 31
0.0
  0
LINE
  8
DETAIL
  6
CONTINUOUS
 62
     5
 10
-1.035859539764715
 20
-294.90851158940512
 30
0.0
 11
-1.035859539764715
 21
-294.90851158940512
 31
0.0
  0
LINE
  8
DETAIL
  6
CONTINUOUS
 62
     5
 10
-1.035859539764715
 20
-294.90851158940512
 30
0.0
 11
-1.0452796642330211
 21
-294.90541102751928
 31
0.0
  0
LINE
  8
DETAIL
  6
CONTINUOUS
 62
     5
 10
-1.0452796642330211
 20
-294.90541102751928
 30
0.0
 11
-1.054688748093213
 21
-294.90223765270741
 31
0.0
  0
LINE
  8
DETAIL
  6
CONTINUOUS
 62
     5
 10
-1.054688748093213
 20
-294.90223765270741
 30
0.0
 11
-1.054688748093213
 21
-294.90223765270741
 31
0.0
  0
LINE
  8
DETAIL
  6
CONTINUOUS
 62
     5
 10
-1.054688748093213
 20
-294.90223765270741
 30
0.0
 11
-1.064086423674325
 21
-294.8989892844171
 31
0.0
  0
LINE
  8
DETAIL
  6
CONTINUOUS
 62
     5
 10
-1.064086423674325
 20
-294.8989892844171
 30
0.0
 11
-1.073473847447985
 21
-294.8956749982857
 31
0.0
  0
LINE
  8
DETAIL
  6
CONTINUOUS
 62
     5
 10
-1.073473847447985
 20
-294.8956749982857
 30
0.0
 11
-1.073473847447985
 21
-294.8956749982857
 31
0.0
  0
LINE
  8
DETAIL
  6
CONTINUOUS
 62
     5
 10
-1.073473847447985
 20
-294.8956749982857
 30
0.0
 11
-1.0828525568817891
 21
-294.89230668401427
 31
0.0
  0
LINE
  8
DETAIL
  6
CONTINUOUS
 62
     5
 10
-1.0828525568817891
 20
-294.89230668401427
 30
0.0
 11
-1.092224089284628
 21
-294.8888962313755
 31
0.0
  0
LINE
  8
DETAIL
  6
CONTINUOUS
 62
     5
 10
-1.092224089284628
 20
-294.8888962313755
 30
0.0
 11
-1.092224089284628
 21
-294.8888962313755
 31
0.0
  0
LINE
  8
DETAIL
  6
CONTINUOUS
 62
     5
 10
-1.092224089284628
 20
-294.8888962313755
 30
0.0
 11
-1.101589982074074
 21
-294.88545553009311
 31
0.0
  0
LINE
  8
DETAIL
  6
CONTINUOUS
 62
     5
 10
-1.101589982074074
 20
-294.88545553009311
 30
0.0
 11
-1.1109517732616041
 21
-294.88199646962818
 31
0.0
  0
LINE
  8
DETAIL
  6
CONTINUOUS
 62
     5
 10
-1.1109517732616041
 20
-294.88199646962818
 30
0.0
 11
-1.1109517732616041
 21
-294.88199646962818
 31
0.0
  0
LINE
  8
DETAIL
  6
CONTINUOUS
 62
     5
 10
-1.1109517732616041
 20
-294.88199646962818
 30
0.0
 11
-1.1203110004539669
 21
-294.87853093962048
 31
0.0
  0
LINE
  8
DETAIL
  6
CONTINUOUS
 62
     5
 10
-1.1203110004539669
 20
-294.87853093962048
 30
0.0
 11
-1.1296691990373799
 21
-294.87507083069647
 31
0.0
  0
LINE
  8
DETAIL
  6
CONTINUOUS
 62
     5
 10
-1.1296691990373799
 20
-294.87507083069647
 30
0.0
 11
-1.1296691990373799
 21
-294.87507083069647
 31
0.0
  0
LINE
  8
DETAIL
  6
CONTINUOUS
 62
     5
 10
-1.1296691990373799
 20
-294.87507083069647
 30
0.0
 11
-1.1390279059146451
 21
-294.87162803280802
 31
0.0
  0
LINE
  8
DETAIL
  6
CONTINUOUS
 62
     5
 10
-1.1390279059146451
 20
-294.87162803280802
 30
0.0
 11
-1.1483886662699661
 21
-294.86821443222999
 31
0.0
  0
LINE
  8
DETAIL
  6
CONTINUOUS
 62
     5
 10
-1.1483886662699661
 20
-294.86821443222999
 30
0.0
 11
-1.1483886662699661
 21
-294.86821443222999
 31
0.0
  0
LINE
  8
DETAIL
  6
CONTINUOUS
 62
     5
 10
-1.1483886662699661
 20
-294.86821443222999
 30
0.0
 11
-1.157752661103586
 21
-294.86483780879661
 31
0.0
  0
LINE
  8
DETAIL
  6
CONTINUOUS
 62
     5
 10
-1.157752661103586
 20
-294.86483780879661
 30
0.0
 11
-1.167119606396227
 21
-294.86148952025462
 31
0.0
  0
LINE
  8
DETAIL
  6
CONTINUOUS
 62
     5
 10
-1.167119606396227
 20
-294.86148952025462
 30
0.0
 11
-1.167119606396227
 21
-294.86148952025462
 31
0.0
  0
LINE
  8
DETAIL
  6
CONTINUOUS
 62
     5
 10
-1.167119606396227
 20
-294.86148952025462
 30
0.0
 11
-1.176488880712441
 21
-294.85815680602161
 31
0.0
  0
LINE
  8
DETAIL
  6
CONTINUOUS
 62
     5
 10
-1.176488880712441
 20
-294.85815680602161
 30
0.0
 11
-1.185859977963446
 21
-294.85482685429139
 31
0.0
  0
LINE
  8
DETAIL
  6
CONTINUOUS
 62
     5
 10
-1.185859977963446
 20
-294.85482685429139
 30
0.0
 11
-1.185859977963446
 21
-294.85482685429139
 31
0.0
  0
LINE
  8
DETAIL
  6
CONTINUOUS
 62
     5
 10
-1.185859977963446
 20
-294.85482685429139
 30
0.0
 11
-1.195232313277756
 21
-294.8514868882454
 31
0.0
  0
LINE
  8
DETAIL
  6
CONTINUOUS
 62
     5
 10
-1.195232313277756
 20
-294.8514868882454
 30
0.0
 11
-1.2046048712991251
 21
-294.84812432223617
 31
0.0
  0
LINE
  8
DETAIL
  6
CONTINUOUS
 62
     5
 10
-1.2046048712991251
 20
-294.84812432223617
 30
0.0
 11
-1.2046048712991251
 21
-294.84812432223617
 31
0.0
  0
LINE
  8
DETAIL
  6
CONTINUOUS
 62
     5
 10
-1.2046048712991251
 20
-294.84812432223617
 30
0.0
 11
-1.2139769306968451
 21
-294.8447264400437
 31
0.0
  0
LINE
  8
DETAIL
  6
CONTINUOUS
 62
     5
 10
-1.2139769306968451
 20
-294.8447264400437
 30
0.0
 11
-1.2233493767275829
 21
-294.84127981198372
 31
0.0
  0
LINE
  8
DETAIL
  6
CONTINUOUS
 62
     5
 10
-1.2233493767275829
 20
-294.84127981198372
 30
0.0
 11
-1.2233493767275829
 21
-294.84127981198372
 31
0.0
  0
LINE
  8
DETAIL
  6
CONTINUOUS
 62
     5
 10
-1.2233493767275829
 20
-294.84127981198372
 30
0.0
 11
-1.232721997329463
 21
-294.83777149567811
 31
0.0
  0
LINE
  8
DETAIL
  6
CONTINUOUS
 62
     5
 10
-1.232721997329463
 20
-294.83777149567811
 30
0.0
 11
-1.2420885845763221
 21
-294.83419121142941
 31
0.0
  0
LINE
  8
DETAIL
  6
CONTINUOUS
 62
     5
 10
-1.2420885845763221
 20
-294.83419121142941
 30
0.0
 11
-1.2420885845763221
 21
-294.83419121142941
 31
0.0
  0
LINE
  8
DETAIL
  6
CONTINUOUS
 62
     5
 10
-1.2420885845763221
 20
-294.83419121142941
 30
0.0
 11
-1.2514471677955039
 21
-294.83053018627493
 31
0.0
  0
LINE
  8
DETAIL
  6
CONTINUOUS
 62
     5
 10
-1.2514471677955039
 20
-294.83053018627493
 30
0.0
 11
-1.2608187211972111
 21
-294.82678301150469
 31
0.0
  0
LINE
  8
DETAIL
  6
CONTINUOUS
 62
     5
 10
-1.2608187211972111
 20
-294.82678301150469
 30
0.0
 11
-1.2608187211972111
 21
-294.82678301150469
 31
0.0
  0
LINE
  8
DETAIL
  6
CONTINUOUS
 62
     5
 10
-1.2608187211972111
 20
-294.82678301150469
 30
0.0
 11
-1.270209077310938
 21
-294.82295439106463
 31
0.0
  0
LINE
  8
DETAIL
  6
CONTINUOUS
 62
     5
 10
-1.270209077310938
 20
-294.82295439106463
 30
0.0
 11
-1.279540557050495
 21
-294.81908611528701
 31
0.0
  0
LINE
  8
DETAIL
  6
CONTINUOUS
 62
     5
 10
-1.279540557050495
 20
-294.81908611528701
 30
0.0
 11
-1.279540557050495
 21
-294.81908611528701
 31
0.0
  0
LINE
  8
DETAIL
  6
CONTINUOUS
 62
     5
 10
-1.279540557050495
 20
-294.81908611528701
 30
0.0
 11
-1.2887925208247
 21
-294.81519464403118
 31
0.0
  0
LINE
  8
DETAIL
  6
CONTINUOUS
 62
     5
 10
-1.2887925208247
 20
-294.81519464403118
 30
0.0
 11
-1.2982559986212441
 21
-294.81115802888843
 31
0.0
  0
LINE
  8
DETAIL
  6
CONTINUOUS
 62
     5
 10
-1.2982559986212441
 20
-294.81115802888843
 30
0.0
 11
-1.2982559986212441
 21
-294.81115802888843
 31
0.0
  0
LINE
  8
DETAIL
  6
CONTINUOUS
 62
     5
 10
-1.2982559986212441
 20
-294.81115802888843
 30
0.0
 11
-1.3080091461465599
 21
-294.80694885605533
 31
0.0
  0
LINE
  8
DETAIL
  6
CONTINUOUS
 62
     5
 10
-1.3080091461465599
 20
-294.80694885605533
 30
0.0
 11
-1.3169669523958869
 21
-294.80305625842249
 31
0.0
  0
LINE
  8
DETAIL
  6
CONTINUOUS
 62
     5
 10
-1.3169669523958869
 20
-294.80305625842249
 30
0.0
 11
-1.3169669523958869
 21
-294.80305625842249
 31
0.0
  0
LINE
  8
DETAIL
  6
CONTINUOUS
 62
     5
 10
-1.3169669523958869
 20
-294.80305625842249
 30
0.0
 11
-1.324838864001322
 21
-294.79961656092757
 31
0.0
  0
LINE
  8
DETAIL
  6
CONTINUOUS
 62
     5
 10
-1.324838864001322
 20
-294.79961656092757
 30
0.0
 11
-1.3356753248590389
 21
-294.79483831000249
 31
0.0
  0
LINE
  8
DETAIL
  6
CONTINUOUS
 62
     5
 10
-1.3356753248590389
 20
-294.79483831000249
 30
0.0
 11
-1.3356753248590389
 21
-294.79483831000249
 31
0.0
  0
LINE
  8
DETAIL
  6
CONTINUOUS
 62
     5
 10
-1.3356753248590389
 20
-294.79483831000249
 30
0.0
 11
-1.35290013787926
 21
-294.78720390848042
 31
0.0
  0
LINE
  8
DETAIL
  6
CONTINUOUS
 62
     5
 10
-1.35290013787926
 20
-294.78720390848042
 30
0.0
 11
-1.373089544777031
 21
-294.77821896330232
 31
0.0
  0
LINE
  8
DETAIL
  6
CONTINUOUS
 62
     5
 10
-1.373089544777031
 20
-294.77821896330232
 30
0.0
 11
-1.373089544777031
 21
-294.77821896330232
 31
0.0
  0
LINE
  8
DETAIL
  6
CONTINUOUS
 62
     5
 10
-1.373089544777031
 20
-294.77821896330232
 30
0.0
 11
-1.392193188130022
 21
-294.76966891513678
 31
0.0
  0
LINE
  8
DETAIL
  6
CONTINUOUS
 62
     5
 10
-1.392193188130022
 20
-294.76966891513678
 30
0.0
 11
-1.4105018751606619
 21
-294.76143533544621
 31
0.0
  0
LINE
  8
DETAIL
  6
CONTINUOUS
 62
     5
 10
-1.4105018751606619
 20
-294.76143533544621
 30
0.0
 11
-1.4105018751606619
 21
-294.76143533544621
 31
0.0
  0
LINE
  8
DETAIL
  6
CONTINUOUS
 62
     5
 10
-1.4105018751606619
 20
-294.76143533544621
 30
0.0
 11
-1.4291009982512151
 21
-294.7530510577061
 31
0.0
  0
LINE
  8
DETAIL
  6
CONTINUOUS
 62
     5
 10
-1.4291009982512151
 20
-294.7530510577061
 30
0.0
 11
-1.4479131257749029
 21
-294.74455783264432
 31
0.0
  0
LINE
  8
DETAIL
  6
CONTINUOUS
 62
     5
 10
-1.4479131257749029
 20
-294.74455783264432
 30
0.0
 11
-1.4479131257749029
 21
-294.74455783264432
 31
0.0
  0
LINE
  8
DETAIL
  6
CONTINUOUS
 62
     5
 10
-1.4479131257749029
 20
-294.74455783264432
 30
0.0
 11
-1.466647652950996
 21
-294.73609169035171
 31
0.0
  0
LINE
  8
DETAIL
  6
CONTINUOUS
 62
     5
 10
-1.466647652950996
 20
-294.73609169035171
 30
0.0
 11
-1.485324106384724
 21
-294.72765686110608
 31
0.0
  0
LINE
  8
DETAIL
  6
CONTINUOUS
 62
     5
 10
-1.485324106384724
 20
-294.72765686110608
 30
0.0
 11
-1.485324106384724
 21
-294.72765686110608
 31
0.0
  0
LINE
  8
DETAIL
  6
CONTINUOUS
 62
     5
 10
-1.485324106384724
 20
-294.72765686110608
 30
0.0
 11
-1.504020120142741
 21
-294.71922919573052
 31
0.0
  0
LINE
  8
DETAIL
  6
CONTINUOUS
 62
     5
 10
-1.504020120142741
 20
-294.71922919573052
 30
0.0
 11
-1.5227356267550931
 21
-294.71080282704048
 31
0.0
  0
ARC
  8
DETAIL
  6
CONTINUOUS
 62
     5
 10
308.49757673667227
 20
-1.5024232633279551
 30
0.0
 40
1.5024232633279551
 50
270.0
 51
90.0
  0
ARC
  8
DETAIL
  6
CONTINUOUS
 62
     5
 10
293.45581583198691
 20
-82.449499170930721
 30
0.0
 40
2.0032310177707591
 50
270.0
 51
90.0
  0
ARC
  8
DETAIL
  6
CONTINUOUS
 62
     5
 10
239.30932337653849
 20
-6.4103392568659956
 30
0.0
 40
3.6058158319870008
 50
270.0
 51
0.0
  0
ARC
  8
DETAIL
  6
CONTINUOUS
 62
     5
 10
293.37318255250369
 20
-16.426494345718989
 30
0.0
 40
3.605815831986888
 50
270.0
 51
0.0
  0
ARC
  8
DETAIL
  6
CONTINUOUS
 62
     5
 10
303.38933764135709
 20
-6.4103392568659956
 30
0.0
 40
3.6058158319870008
 50
270.0
 51
0.0
  0
ARC
  8
DETAIL
  6
CONTINUOUS
 62
     5
 10
35.05654281098532
 20
-264.42649434571888
 30
0.0
 40
5.0080775444266692
 50
270.0
 51
0.0
  0
ARC
  8
DETAIL
  6
CONTINUOUS
 62
     5
 10
35.05654281098532
 20
-243.64448099958659
 30
0.0
 40
5.0080775444265564
 50
0.0
 51
79.384892149315746
  0
ARC
  8
DETAIL
  6
CONTINUOUS
 62
     5
 10
-35.056542810985768
 20
-243.64448099958659
 30
0.0
 40
5.0080775444262864
 50
100.6151078506843
 51
180.0
  0
ARC
  8
DETAIL
  6
CONTINUOUS
 62
     5
 10
-35.056542810985768
 20
-264.42649434571888
 30
0.0
 40
5.0080775444264978
 50
180.0
 51
270.0
  0
ARC
  8
DETAIL
  6
CONTINUOUS
 62
     5
 10
83.634894991922465
 20
-235.37964458804541
 30
0.0
 40
6.0096930533118211
 50
0.0
 51
90.0
  0
ARC
  8
DETAIL
  6
CONTINUOUS
 62
     5
 10
0.0
 20
-288.54289176090481
 30
0.0
 40
6.5330371567042356
 50
223.89739816709931
 51
316.10260183290058
  0
ARC
  8
DETAIL
  6
CONTINUOUS
 62
     5
 10
57.893376413569968
 20
-285.15993537964482
 30
0.0
 40
7.4119547657510321
 50
270.0
 51
0.0
  0
ARC
  8
DETAIL
  6
CONTINUOUS
 62
     5
 10
0.0
 20
-430.69466882067888
 30
0.0
 40
195.31502423263359
 50
79.384892149315746
 51
100.6151078506843
  0
ARC
  8
DETAIL
  6
CONTINUOUS
 62
     5
 10
204.13328774527551
 20
-13.02100161550891
 30
0.0
 40
3.004846526655911
 50
90.0
 51
180.0
  0
ARC
  8
DETAIL
  6
CONTINUOUS
 62
     5
 10
197.5226253866322
 20
-16.426494345718989
 30
0.0
 40
3.605815831986888
 50
270.0
 51
0.0
  0
ARC
  8
DETAIL
  6
CONTINUOUS
 62
     5
 10
20.23149406684934
 20
-119.56679039293211
 30
0.0
 40
5.0080775444264951
 50
5.000000011102494
 51
85.000000064000588
  0
ARC
  8
DETAIL
  6
CONTINUOUS
 62
     5
 10
57.893376413569968
 20
-139.8255250403877
 30
0.0
 40
7.4119547657512621
 50
0.0
 51
90.0
  0
ARC
  8
DETAIL
  6
CONTINUOUS
 62
     5
 10
-83.634894991922465
 20
-235.37964458804541
 30
0.0
 40
6.0096930533118211
 50
90.0
 51
180.0
  0
ARC
  8
DETAIL
  6
CONTINUOUS
 62
     5
 10
-57.893376413570422
 20
-285.15993537964482
 30
0.0
 40
7.4119547657512017
 50
180.0
 51
270.0
  0
ARC
  8
DETAIL
  6
CONTINUOUS
 62
     5
 10
-57.893376413570422
 20
-139.8255250403877
 30
0.0
 40
7.4119547657512621
 50
90.0
 51
180.0
  0
ARC
  8
DETAIL
  6
CONTINUOUS
 62
     5
 10
-308.49757673667182
 20
-1.5024232633279551
 30
0.0
 40
1.5024232633279551
 50
90.0
 51
270.0
  0
ARC
  8
DETAIL
  6
CONTINUOUS
 62
     5
 10
-293.45581583198691
 20
-82.449499170930721
 30
0.0
 40
2.003231017770418
 50
90.0
 51
270.0
  0
ARC
  8
DETAIL
  6
CONTINUOUS
 62
     5
 10
-204.13328774527551
 20
-13.02100161550891
 30
0.0
 40
3.004846526655911
 50
0.0
 51
90.0
  0
ARC
  8
DETAIL
  6
CONTINUOUS
 62
     5
 10
-303.38933764135709
 20
-6.4103392568659956
 30
0.0
 40
3.6058158319870008
 50
180.0
 51
270.0
  0
ARC
  8
DETAIL
  6
CONTINUOUS
 62
     5
 10
-197.5226253866326
 20
-16.426494345718989
 30
0.0
 40
3.6058158319871141
 50
180.0
 51
270.0
  0
ARC
  8
DETAIL
  6
CONTINUOUS
 62
     5
 10
-293.3731825525042
 20
-16.426494345718989
 30
0.0
 40
3.6058158319872282
 50
180.0
 51
270.0
  0
ARC
  8
DETAIL
  6
CONTINUOUS
 62
     5
 10
-239.30932337653891
 20
-6.4103392568659956
 30
0.0
 40
3.6058158319871141
 50
180.0
 51
270.0
  0
LINE
  8
DETAIL
  6
CONTINUOUS
 62
     5
 10
236.05084908411911
 20
-239.41627792107789
 30
0.0
 11
237.80367622466849
 21
-236.93740600646191
 31
0.0
  0
LINE
  8
DETAIL
  6
CONTINUOUS
 62
     5
 10
-4.7075928917611236
 20
-293.07269789983832
 30
0.0
 11
4.7075928917611236
 21
-293.07269789983832
 31
0.0
  0
LINE
  8
DETAIL
  6
CONTINUOUS
 62
     5
 10
-57.893376413570422
 20
-292.57189014539568
 30
0.0
 11
57.893376413569968
 21
-292.57189014539568
 31
0.0
  0
LINE
  8
DETAIL
  6
CONTINUOUS
 62
     5
 10
302.08171159421909
 20
-9.1782151992586023
 30
0.0
 11
303.18987090531118
 21
-5.7624822486882286
 31
0.0
  0
LINE
  8
DETAIL
  6
CONTINUOUS
 62
     5
 10
-89.644588045234286
 20
-270.43618739903093
 30
0.0
 11
89.644588045234286
 21
-270.43618739903047
 31
0.0
  0
LINE
  8
DETAIL
  6
CONTINUOUS
 62
     5
 10
35.05654281098532
 20
-269.43457189014532
 30
0.0
 11
-35.056542810985768
 21
-269.43457189014532
 31
0.0
  0
LINE
  8
DETAIL
  6
CONTINUOUS
 62
     5
 10
112.562110439093
 20
-266.42972536348941
 30
0.0
 11
180.58922905785741
 21
-266.42972536348941
 31
0.0
  0
LINE
  8
DETAIL
  6
CONTINUOUS
 62
     5
 10
89.644588045234286
 20
-266.42972536348941
 30
0.0
 11
112.562110439093
 21
-266.42972536348941
 31
0.0
  0
LINE
  8
DETAIL
  6
CONTINUOUS
 62
     5
 10
-184.8387114935567
 20
-266.42972536348941
 30
0.0
 11
-89.644588045234286
 21
-266.42972536348941
 31
0.0
  0
LINE
  8
DETAIL
  6
CONTINUOUS
 62
     5
 10
306.99515347334409
 20
-6.4103392568659956
 30
0.0
 11
306.99515347334409
 21
-3.0048465266560238
 31
0.0
  0
LINE
  8
DETAIL
  6
CONTINUOUS
 62
     5
 10
303.82456339745289
 20
-3.0048465266560238
 30
0.0
 11
303.82456339745289
 21
-4.649685047050184
 31
0.0
  0
LINE
  8
DETAIL
  6
CONTINUOUS
 62
     5
 10
-83.634894991922465
 20
-229.3699515347337
 30
0.0
 11
83.634894991922465
 21
-229.3699515347337
 31
0.0
  0
LINE
  8
DETAIL
  6
CONTINUOUS
 62
     5
 10
-83.843891088602504
 20
-229.3699515347337
 30
0.0
 11
-86.1389337641358
 21
-229.3699515347337
 31
0.0
  0
LINE
  8
DETAIL
  6
CONTINUOUS
 62
     5
 10
86.1389337641358
 20
-229.3699515347337
 30
0.0
 11
83.843891088602504
 21
-229.3699515347337
 31
0.0
  0
LINE
  8
DETAIL
  6
CONTINUOUS
 62
     5
 10
89.644588045234286
 20
-228.36833602584821
 30
0.0
 11
180.5892167830084
 21
-228.36833602584821
 31
0.0
  0
LINE
  8
DETAIL
  6
CONTINUOUS
 62
     5
 10
-180.5892167830084
 20
-228.36833602584821
 30
0.0
 11
-89.644588045234286
 21
-228.36833602584821
 31
0.0
  0
LINE
  8
DETAIL
  6
CONTINUOUS
 62
     5
 10
296.97899838449081
 20
-16.426494345718989
 30
0.0
 11
296.97899838449081
 21
-13.22132471728594
 31
0.0
  0
LINE
  8
DETAIL
  6
CONTINUOUS
 62
     5
 10
253.6124326122152
 20
-5.7624822486882286
 30
0.0
 11
252.50427330112319
 21
-9.1782151992586023
 31
0.0
  0
LINE
  8
DETAIL
  6
CONTINUOUS
 62
     5
 10
261.32961628886278
 20
-56.841680129240899
 30
0.0
 11
261.32961628886278
 21
-13.22132471728594
 31
0.0
  0
LINE
  8
DETAIL
  6
CONTINUOUS
 62
     5
 10
261.32961628886278
 20
-158.2552504038772
 30
0.0
 11
261.32961628886278
 21
-56.841680129240899
 31
0.0
  0
LINE
  8
DETAIL
  6
CONTINUOUS
 62
     5
 10
257.08012157831439
 20
-56.841680129240899
 30
0.0
 11
257.08012157831439
 21
-158.2552504038772
 31
0.0
  0
LINE
  8
DETAIL
  6
CONTINUOUS
 62
     5
 10
257.08012157831439
 20
-13.22132471728594
 30
0.0
 11
257.08012157831439
 21
-56.841680129240899
 31
0.0
  0
LINE
  8
DETAIL
  6
CONTINUOUS
 62
     5
 10
254.24712510435711
 20
-4.649685047050184
 30
0.0
 11
254.24712510435711
 21
-3.0048465266560238
 31
0.0
  0
LINE
  8
DETAIL
  6
CONTINUOUS
 62
     5
 10
242.91513920852589
 20
-3.0048465266560238
 30
0.0
 11
242.91513920852589
 21
-6.4103392568659956
 31
0.0
  0
LINE
  8
DETAIL
  6
CONTINUOUS
 62
     5
 10
235.17473262053039
 20
-13.22132471728594
 30
0.0
 11
235.17473262053039
 21
-17.227786752827111
 31
0.0
  0
LINE
  8
DETAIL
  6
CONTINUOUS
 62
     5
 10
230.16665507610421
 20
-17.227786752827111
 30
0.0
 11
230.16665507610421
 21
-158.2552504038772
 31
0.0
  0
LINE
  8
DETAIL
  6
CONTINUOUS
 62
     5
 10
230.16665507610421
 20
-13.22132471728594
 30
0.0
 11
230.16665507610421
 21
-16.780483308061321
 31
0.0
  0
LINE
  8
DETAIL
  6
CONTINUOUS
 62
     5
 10
225.15857753167759
 20
-17.227786752827111
 30
0.0
 11
225.15857753167759
 21
-13.22132471728594
 31
0.0
  0
LINE
  8
DETAIL
  6
CONTINUOUS
 62
     5
 10
213.16867623313419
 20
-13.22132471728594
 30
0.0
 11
213.16867623313419
 21
-10.016155088853109
 31
0.0
  0
LINE
  8
DETAIL
  6
CONTINUOUS
 62
     5
 10
-26.97927798386991
 20
-132.4135702746363
 30
0.0
 11
-57.893376413570422
 21
-132.4135702746363
 31
0.0
  0
LINE
  8
DETAIL
  6
CONTINUOUS
 62
     5
 10
57.893376413569968
 20
-132.4135702746363
 30
0.0
 11
23.182518709348411
 21
-132.4135702746363
 31
0.0
  0
LINE
  8
DETAIL
  6
CONTINUOUS
 62
     5
 10
14.5965878905547
 20
-128.6074313408723
 30
0.0
 11
26.049655248174531
 21
-128.6074313408723
 31
0.0
  0
LINE
  8
DETAIL
  6
CONTINUOUS
 62
     5
 10
201.1284412186196
 20
-13.02100161550891
 30
0.0
 11
201.1284412186196
 21
-16.426494345718989
 31
0.0
  0
LINE
  8
DETAIL
  6
CONTINUOUS
 62
     5
 10
-14.843781769545791
 20
-114.0840064620356
 30
0.0
 11
15.024232633279549
 21
-114.0840064620356
 31
0.0
  0
LINE
  8
DETAIL
  6
CONTINUOUS
 62
     5
 10
15.024232633279549
 20
-114.0840064620356
 30
0.0
 11
20.66797677975228
 21
-114.5777700945259
 31
0.0
  0
LINE
  8
DETAIL
  6
CONTINUOUS
 62
     5
 10
261.32961628886278
 20
-84.452730188701707
 30
0.0
 11
293.45581583198691
 21
-84.452730188701707
 31
0.0
  0
LINE
  8
DETAIL
  6
CONTINUOUS
 62
     5
 10
-230.16665507610421
 20
-84.452730188701707
 30
0.0
 11
230.16665507610421
 21
-84.452730188701707
 31
0.0
  0
LINE
  8
DETAIL
  6
CONTINUOUS
 62
     5
 10
-293.45581583198691
 20
-84.452730188701707
 30
0.0
 11
-261.32961628886318
 21
-84.452730188701707
 31
0.0
  0
LINE
  8
DETAIL
  6
CONTINUOUS
 62
     5
 10
261.32961628886278
 20
-80.446268153160418
 30
0.0
 11
293.45581583198691
 21
-80.446268153160418
 31
0.0
  0
LINE
  8
DETAIL
  6
CONTINUOUS
 62
     5
 10
-230.16665507610421
 20
-80.446268153160418
 30
0.0
 11
230.16665507610421
 21
-80.446268153160418
 31
0.0
  0
LINE
  8
DETAIL
  6
CONTINUOUS
 62
     5
 10
-293.45581583198691
 20
-80.446268153160418
 30
0.0
 11
-261.32961628886318
 21
-80.446268153160418
 31
0.0
  0
LINE
  8
DETAIL
  6
CONTINUOUS
 62
     5
 10
89.644588045234286
 20
-228.36833602584821
 30
0.0
 11
89.644588045234286
 21
-270.43618739903047
 31
0.0
  0
LINE
  8
DETAIL
  6
CONTINUOUS
 62
     5
 10
86.1389337641358
 20
-229.3699515347337
 30
0.0
 11
86.1389337641358
 21
-225.3634894991923
 31
0.0
  0
LINE
  8
DETAIL
  6
CONTINUOUS
 62
     5
 10
-184.79788458090709
 20
-20.533117932148681
 30
0.0
 11
-72.617301202614726
 21
-20.533117932148681
 31
0.0
  0
LINE
  8
DETAIL
  6
CONTINUOUS
 62
     5
 10
261.32961628886278
 20
-20.032310177705771
 30
0.0
 11
293.37318255250369
 21
-20.032310177705771
 31
0.0
  0
LINE
  8
DETAIL
  6
CONTINUOUS
 62
     5
 10
-230.16665507610421
 20
-20.032310177705771
 30
0.0
 11
230.16665507610421
 21
-20.032310177705771
 31
0.0
  0
LINE
  8
DETAIL
  6
CONTINUOUS
 62
     5
 10
-293.3731825525042
 20
-20.032310177705771
 30
0.0
 11
-261.32961628886318
 21
-20.032310177705771
 31
0.0
  0
LINE
  8
DETAIL
  6
CONTINUOUS
 62
     5
 10
225.15857753167759
 20
-17.227786752827111
 30
0.0
 11
235.17473262053039
 21
-17.227786752827111
 31
0.0
  0
LINE
  8
DETAIL
  6
CONTINUOUS
 62
     5
 10
-266.33769383328939
 20
-17.227786752827111
 30
0.0
 11
-261.32961628886318
 21
-17.227786752827111
 31
0.0
  0
LINE
  8
DETAIL
  6
CONTINUOUS
 62
     5
 10
213.16867623313419
 20
-13.22132471728594
 30
0.0
 11
297.010892596536
 21
-13.22132471728594
 31
0.0
  0
LINE
  8
DETAIL
  6
CONTINUOUS
 62
     5
 10
-297.010892596536
 20
-13.22132471728594
 30
0.0
 11
-213.16867623313439
 21
-13.22132471728594
 31
0.0
  0
LINE
  8
DETAIL
  6
CONTINUOUS
 62
     5
 10
301.74493768103088
 20
-10.016155088853109
 30
0.0
 11
303.38933764135709
 21
-10.016155088853109
 31
0.0
  0
LINE
  8
DETAIL
  6
CONTINUOUS
 62
     5
 10
239.30932337653849
 20
-10.016155088853109
 30
0.0
 11
247.43345430266339
 21
-10.016155088853109
 31
0.0
  0
LINE
  8
DETAIL
  6
CONTINUOUS
 62
     5
 10
-239.30932337653891
 20
-10.016155088853109
 30
0.0
 11
239.30932337653849
 21
-10.016155088853109
 31
0.0
  0
LINE
  8
DETAIL
  6
CONTINUOUS
 62
     5
 10
-303.38933764135709
 20
-10.016155088853109
 30
0.0
 11
-301.74493768103088
 21
-10.016155088853109
 31
0.0
  0
LINE
  8
DETAIL
  6
CONTINUOUS
 62
     5
 10
-239.30932337653891
 20
-10.016155088853109
 30
0.0
 11
-247.43345430344019
 21
-10.016155088853109
 31
0.0
  0
LINE
  8
DETAIL
  6
CONTINUOUS
 62
     5
 10
256.36215952694369
 20
-3.8061389337640321
 30
0.0
 11
303.82456339745289
 21
-3.8061389337640321
 31
0.0
  0
LINE
  8
DETAIL
  6
CONTINUOUS
 62
     5
 10
-303.82456339745249
 20
-3.8061389337640321
 30
0.0
 11
-256.36215952694369
 21
-3.8061389337640321
 31
0.0
  0
LINE
  8
DETAIL
  6
CONTINUOUS
 62
     5
 10
65.305331179321456
 20
-177.2859450726979
 30
0.0
 11
65.305331179321456
 21
-139.8255250403877
 31
0.0
  0
LINE
  8
DETAIL
  6
CONTINUOUS
 62
     5
 10
65.305331179321456
 20
-285.15993537964482
 30
0.0
 11
65.305331179321456
 21
-270.43618739903093
 31
0.0
  0
LINE
  8
DETAIL
  6
CONTINUOUS
 62
     5
 10
-308.49757673667182
 20
-3.0048465266560238
 30
0.0
 11
308.49757673667227
 21
-3.0048465266560238
 31
0.0
  0
LINE
  8
DETAIL
  6
CONTINUOUS
 62
     5
 10
-308.49757673667182
 20
0.0
 30
0.0
 11
308.49757673667227
 21
0.0
 31
0.0
  0
LINE
  8
DETAIL
  6
CONTINUOUS
 62
     5
 10
40.064620355411989
 20
-243.64448099958659
 30
0.0
 11
40.064620355411989
 21
-264.42649434571888
 31
0.0
  0
LINE
  8
DETAIL
  6
CONTINUOUS
 62
     5
 10
26.049655248174531
 20
-128.6074313408723
 30
0.0
 11
25.220514364478731
 21
-119.1303076738175
 31
0.0
  0
LINE
  8
DETAIL
  6
CONTINUOUS
 62
     5
 10
8.5137318255251557
 20
-114.0840064620356
 30
0.0
 11
8.5137318255251557
 21
-103.6672051696282
 31
0.0
  0
LINE
  8
DETAIL
  6
CONTINUOUS
 62
     5
 10
4.7075928917611236
 20
-293.07269789983832
 30
0.0
 11
4.7075928917611236
 21
-292.57189014539568
 31
0.0
  0
LINE
  8
DETAIL
  6
CONTINUOUS
 62
     5
 10
-4.7075928917611236
 20
-293.07269789983832
 30
0.0
 11
-4.7075928917611236
 21
-292.57189014539568
 31
0.0
  0
LINE
  8
DETAIL
  6
CONTINUOUS
 62
     5
 10
-8.5137318255251557
 20
-114.0840064620356
 30
0.0
 11
-8.5137318255251557
 21
-103.6672051696282
 31
0.0
  0
LINE
  8
DETAIL
  6
CONTINUOUS
 62
     5
 10
-40.064620355411989
 20
-264.42649434571888
 30
0.0
 11
-40.064620355411989
 21
-243.64448099958659
 31
0.0
  0
LINE
  8
DETAIL
  6
CONTINUOUS
 62
     5
 10
-65.305331179321456
 20
-177.2859450726979
 30
0.0
 11
-65.305331179321456
 21
-139.8255250403877
 31
0.0
  0
LINE
  8
DETAIL
  6
CONTINUOUS
 62
     5
 10
-65.305331179321456
 20
-285.15993537964482
 30
0.0
 11
-65.305331179321456
 21
-270.43618739903093
 31
0.0
  0
LINE
  8
DETAIL
  6
CONTINUOUS
 62
     5
 10
-72.617124394183975
 20
-20.032310177705771
 30
0.0
 11
-72.617124394183975
 21
-20.533117932148681
 31
0.0
  0
LINE
  8
DETAIL
  6
CONTINUOUS
 62
     5
 10
-89.644588045234286
 20
-228.36833602584821
 30
0.0
 11
-89.644588045234286
 21
-270.43618739903093
 31
0.0
  0
LINE
  8
DETAIL
  6
CONTINUOUS
 62
     5
 10
-184.79806138933779
 20
-20.032310177705771
 30
0.0
 11
-184.79806138933779
 21
-20.533117932148681
 31
0.0
  0
LINE
  8
DETAIL
  6
CONTINUOUS
 62
     5
 10
-201.1284412186196
 20
-16.426494345718989
 30
0.0
 11
-201.1284412186196
 21
-13.02100161550891
 31
0.0
  0
LINE
  8
DETAIL
  6
CONTINUOUS
 62
     5
 10
-213.16867623313439
 20
-13.22132471728594
 30
0.0
 11
-213.16867623313439
 21
-10.016155088853109
 31
0.0
  0
LINE
  8
DETAIL
  6
CONTINUOUS
 62
     5
 10
-249.88707639874289
 20
-8.0598117739288
 30
0.0
 11
-250.99523570983459
 21
-4.6440788233584271
 31
0.0
  0
LINE
  8
DETAIL
  6
CONTINUOUS
 62
     5
 10
-252.50427330112319
 20
-9.1782151992586023
 30
0.0
 11
-253.6124326122152
 21
-5.7624822486882286
 31
0.0
  0
LINE
  8
DETAIL
  6
CONTINUOUS
 62
     5
 10
-230.16665507610421
 20
-158.2552504038772
 30
0.0
 11
-230.16665507610421
 21
-13.22132471728594
 31
0.0
  0
LINE
  8
DETAIL
  6
CONTINUOUS
 62
     5
 10
-242.91513920852589
 20
-6.4103392568659956
 30
0.0
 11
-242.91513920852589
 21
-3.0048465266560238
 31
0.0
  0
LINE
  8
DETAIL
  6
CONTINUOUS
 62
     5
 10
-254.2471251043568
 20
-4.649685047050184
 30
0.0
 11
-254.2471251043568
 21
-3.0048465266560238
 31
0.0
  0
LINE
  8
DETAIL
  6
CONTINUOUS
 62
     5
 10
-257.0801215783149
 20
-158.2552504038772
 30
0.0
 11
-257.0801215783149
 21
-13.22132471728594
 31
0.0
  0
LINE
  8
DETAIL
  6
CONTINUOUS
 62
     5
 10
-261.32961628886318
 20
-13.22132471728594
 30
0.0
 11
-261.32961628886318
 21
-158.2552504038772
 31
0.0
  0
LINE
  8
DETAIL
  6
CONTINUOUS
 62
     5
 10
-266.33769383328939
 20
-17.227786752827111
 30
0.0
 11
-266.33769383328939
 21
-13.22132471728594
 31
0.0
  0
LINE
  8
DETAIL
  6
CONTINUOUS
 62
     5
 10
-303.18987090531118
 20
-5.7624822486882286
 30
0.0
 11
-302.08171159421892
 21
-9.1782151992586023
 31
0.0
  0
LINE
  8
DETAIL
  6
CONTINUOUS
 62
     5
 10
-296.97899838449121
 20
-13.22132471728594
 30
0.0
 11
-296.97899838449121
 21
-16.426494345718989
 31
0.0
  0
LINE
  8
DETAIL
  6
CONTINUOUS
 62
     5
 10
-303.82456339745249
 20
-4.649685047050184
 30
0.0
 11
-303.82456339745249
 21
-3.0048465266560238
 31
0.0
  0
LINE
  8
DETAIL
  6
CONTINUOUS
 62
     5
 10
-306.99515347334409
 20
-3.0048465266560238
 30
0.0
 11
-306.99515347334409
 21
-6.4103392568659956
 31
0.0
  0
ARC
  8
DETAIL
  6
CONTINUOUS
 62
     5
 10
275.94507269789972
 20
-39.463651050080671
 30
0.0
 40
19.43134087237479
 50
90.0
 51
138.79111123370851
  0
ARC
  8
DETAIL
  6
CONTINUOUS
 62
     5
 10
295.97738287560611
 20
-44.471728594507233
 30
0.0
 40
39.46365105008077
 50
208.58710129420029
 51
245.7438683375093
  0
ARC
  8
DETAIL
  6
CONTINUOUS
 62
     5
 10
-275.94507269789972
 20
-39.463651050080671
 30
0.0
 40
19.43134087237484
 50
41.208888766293811
 51
90.0
  0
ARC
  8
DETAIL
  6
CONTINUOUS
 62
     5
 10
-295.97738287560611
 20
-44.471728594507233
 30
0.0
 40
39.463651050080763
 50
294.25613166240481
 51
331.41289870579971
  0
LINE
  8
DETAIL
  6
CONTINUOUS
 62
     5
 10
63.549721702295763
 20
-229.3699515347337
 30
0.0
 11
63.549721702295763
 21
-225.3634894991923
 31
0.0
  0
LINE
  8
DETAIL
  6
CONTINUOUS
 62
     5
 10
-63.549721702295763
 20
-229.3699515347337
 30
0.0
 11
-63.549721702295763
 21
-225.3634894991923
 31
0.0
  0
LINE
  8
DETAIL
  6
CONTINUOUS
 62
     5
 10
-86.1389337641358
 20
-229.3699515347337
 30
0.0
 11
-86.1389337641358
 21
-225.3634894991923
 31
0.0
  0
LINE
  8
BASIS
  6
DASHDOT
 62
     6
 10
0.0
 20
-330.78918279248597
 30
0.0
 11
0.0
 21
69.505850418057889
 31
0.0
  0
LINE
  8
DETAIL
  6
CONTINUOUS
 62
     4
 10
248.06733118290811
 20
-34.006237492044313
 30
0.0
 11
246.8594003732818
 21
-27.913159251191249
 31
0.0
  0
LINE
  8
DETAIL
  6
CONTINUOUS
 62
     4
 10
246.8594003732818
 20
-27.913159251191249
 30
0.0
 11
250.95204530249339
 21
-32.585948222822822
 31
0.0
  0
LINE
  8
DETAIL
  6
CONTINUOUS
 62
     4
 10
246.8594003732818
 20
-27.913159251191249
 30
0.0
 11
252.1599761121191
 21
-38.679026463675882
 31
0.0
  0
LINE
  8
NOTE
  6
CONTINUOUS
 62
     4
 10
252.1599761121191
 20
-38.679026463676003
 30
0.0
 11
405.3908575434175
 21
-387.44842385653573
 31
0.0
  0
LINE
  8
NOTE
  6
CONTINUOUS
 62
     4
 10
405.3908575434175
 20
-387.44842385653573
 30
0.0
 11
513.46186886531814
 21
-387.78404037782002
 31
0.0
  0
TEXT
  8
NOTE
  6
CONTINUOUS
 62
     4
 10
421.49154946455519
 20
-367.27076250118478
 30
0.0
 40
64.0
  1
EL
 41
0.9
 72
     2
 11
506.52012089312672
 21
-367.27076250118478
 31
0.0
  0
ARC
  8
DETAIL
  6
CONTINUOUS
 62
     5
 10
592.12566245893686
 20
-1673.592993957335
 30
0.0
 40
1735.8494602266469
 50
114.57127301772211
 51
118.2836991324767
  0
ARC
  8
DETAIL
  6
CONTINUOUS
 62
     5
 10
188.55706423377339
 20
-142.177418681631
 30
0.0
 40
7.7826218264580289
 50
185.4373753214509
 51
279.33145107701051
  0
ARC
  8
DETAIL
  6
CONTINUOUS
 62
     5
 10
150.54089851643951
 20
-15.72874178256836
 30
0.0
 40
139.7611226000335
 50
286.32212134171789
 51
304.73122647623319
  0
ARC
  8
DETAIL
  6
CONTINUOUS
 62
     5
 10
120.09732432376769
 20
-797.71502768225582
 30
0.0
 40
738.57840322113771
 50
112.8618208195153
 51
118.3100542299898
  0
ARC
  8
DETAIL
  6
CONTINUOUS
 62
     5
 10
-35.055087746241043
 20
-778.6429620531253
 30
0.0
 40
674.48816610990252
 50
95.624058028443059
 51
101.2678937293926
  0
ARC
  8
DETAIL
  6
CONTINUOUS
 62
     5
 10
-69.776164000701101
 20
-1162.1496052942109
 30
0.0
 40
1058.694377774676
 50
87.814774373148865
 51
88.72316311256391
  0
ARC
  8
DETAIL
  6
CONTINUOUS
 62
     5
 10
36.331134110954743
 20
-168.85401564042331
 30
0.0
 40
92.13439404491794
 50
113.6411213705702
 51
135.45787590902859
  0
ARC
  8
DETAIL
  6
CONTINUOUS
 62
     5
 10
46.107763647843967
 20
-146.67958380902471
 30
0.0
 40
3.3704198905779439
 50
252.13962678107839
 51
50.070907493052907
  0
ARC
  8
DETAIL
  6
CONTINUOUS
 62
     5
 10
-170.32248585764211
 20
-171.01263129391899
 30
0.0
 40
58.267337584534779
 50
186.7830048918573
 51
259.85147573220883
  0
ARC
  8
DETAIL
  6
CONTINUOUS
 62
     5
 10
-182.89320257500609
 20
-202.57394958195209
 30
0.0
 40
63.897326975617943
 50
219.2762471949892
 51
272.0663865986549
  0
ARC
  8
DETAIL
  6
CONTINUOUS
 62
     5
 10
-177.6867293608135
 20
-200.01172833534631
 30
0.0
 40
66.48138712242536
 50
215.24333916182439
 51
267.49773784625449
  0
ARC
  8
DETAIL
  6
CONTINUOUS
 62
     5
 10
-125.1341550033075
 20
-160.91384113683031
 30
0.0
 40
131.97274794478719
 50
178.8456985585735
 51
215.94064515531389
  0
ARC
  8
DETAIL
  6
CONTINUOUS
 62
     5
 10
-131.93937841887569
 20
-161.3672120767749
 30
0.0
 40
129.42765531951241
 50
178.6222461206176
 51
219.1175083374882
  0
ARC
  8
DETAIL
  6
CONTINUOUS
 62
     5
 10
178.3637280825956
 20
-184.79300527287231
 30
0.0
 40
43.632124062288433
 50
272.92368217138687
 51
322.96504547644417
  0
ARC
  8
DETAIL
  6
CONTINUOUS
 62
     5
 10
136.40417059550319
 20
-158.63845022156099
 30
0.0
 40
93.76326753092188
 50
338.06587567421411
 51
0.234161990743794
  0
ARC
  8
DETAIL
  6
CONTINUOUS
 62
     5
 10
157.5371125762006
 20
-166.82339262161511
 30
0.0
 40
71.103289261341814
 50
321.51390313146038
 51
337.82289149900771
  0
ARC
  8
DETAIL
  6
CONTINUOUS
 62
     5
 10
182.8932025750062
 20
-202.57394958195209
 30
0.0
 40
63.897326975617943
 50
267.9336134013451
 51
320.72375280501069
  0
ARC
  8
DETAIL
  6
CONTINUOUS
 62
     5
 10
177.6867293608135
 20
-200.01172833534631
 30
0.0
 40
66.48138712242536
 50
272.50226215374551
 51
324.75666083817561
  0
ARC
  8
DETAIL
  6
CONTINUOUS
 62
     5
 10
125.1341550033075
 20
-160.91384113683031
 30
0.0
 40
131.97274794478719
 50
324.05935484468608
 51
1.1543014414264801
  0
ARC
  8
DETAIL
  6
CONTINUOUS
 62
     5
 10
131.93937841887569
 20
-161.3672120767749
 30
0.0
 40
129.42765531951241
 50
320.88249166251182
 51
1.3777538793823889
  0
ARC
  8
DETAIL
  6
CONTINUOUS
 62
     5
 10
296.80494617915122
 20
-7.7600957481802197
 30
0.0
 40
5.4640018322822401
 50
271.8254283884238
 51
344.95731322221889
  0
ARC
  8
DETAIL
  6
CONTINUOUS
 62
     5
 10
-296.79853607745628
 20
-7.7520057099437736
 30
0.0
 40
5.472295409454067
 50
195.10706929945019
 51
268.11018908991628
  0
ARC
  8
DETAIL
  6
CONTINUOUS
 62
     5
 10
-247.36368336023111
 20
-7.437103912747375
 30
0.0
 40
2.5827486921188858
 50
193.88423723366051
 51
265.88864034541348
  0
ARC
  8
DETAIL
  6
CONTINUOUS
 62
     5
 10
-265.42931202333671
 20
-11.428854100741891
 30
0.0
 40
15.91955748597181
 50
12.22870109831436
 51
31.970668691517812
  0
ARC
  8
DETAIL
  6
CONTINUOUS
 62
     5
 10
-247.02037931191381
 20
-7.5114055542298956
 30
0.0
 40
5.7316095189438521
 50
196.9064586927046
 51
264.84066342297479
  0
ARC
  8
DETAIL
  6
CONTINUOUS
 62
     5
 10
-256.27493689598708
 20
-6.5859305706226223
 30
0.0
 40
2.78693311724559
 50
17.18557629503443
 51
93.636057107880816
  0
ARC
  8
DETAIL
  6
CONTINUOUS
 62
     5
 10
-306.13529376241843
 20
-6.7050274728013619
 30
0.0
 40
3.0925567588433709
 50
17.744846489673481
 51
41.652369919884578
  0
ARC
  8
DETAIL
  6
CONTINUOUS
 62
     5
 10
247.1312202801339
 20
-7.1136099313710019
 30
0.0
 40
2.9182381320923279
 50
275.94462843483632
 51
336.87145277315852
  0
ARC
  8
DETAIL
  6
CONTINUOUS
 62
     5
 10
270.41368985832219
 20
-12.983514338994381
 30
0.0
 40
21.133446151452979
 50
151.96176465023331
 51
167.08445266794729
  0
ARC
  8
DETAIL
  6
CONTINUOUS
 62
     5
 10
247.20036817942739
 20
-7.7275562729990952
 30
0.0
 40
5.4987108362131858
 50
272.42945195644182
 51
344.70326966992809
  0
ARC
  8
DETAIL
  6
CONTINUOUS
 62
     5
 10
256.28247496924467
 20
-6.6047417254908396
 30
0.0
 40
2.7997369902539559
 50
88.369059134967983
 51
162.49222508621131
  0
ARC
  8
DETAIL
  6
CONTINUOUS
 62
     5
 10
306.10856746448439
 20
-6.6897839220312107
 30
0.0
 40
3.0624627341266319
 50
138.2284026753392
 51
162.37438091506621
  0
LINE
  8
DETAIL
  6
CONTINUOUS
 62
     5
 10
-253.61243261221469
 20
-5.7624822486900484
 30
0.0
 11
-252.47443395052139
 21
-9.2673175492747077
 31
0.0
  0
ARC
  8
OUTLINE
  6
CONTINUOUS
 62
     3
 10
-182.89320257500609
 20
-202.57394958195209
 30
0.0
 40
63.897326975617943
 50
219.2762471949892
 51
272.0663865986549
  0
ARC
  8
OUTLINE
  6
CONTINUOUS
 62
     3
 10
-131.93937841887569
 20
-161.3672120767749
 30
0.0
 40
129.42765531951241
 50
178.6222461206176
 51
219.1175083374882
  0
ARC
  8
OUTLINE
  6
CONTINUOUS
 62
     3
 10
182.8932025750062
 20
-202.57394958195209
 30
0.0
 40
63.897326975617943
 50
267.9336134013451
 51
320.72375280501069
  0
ARC
  8
OUTLINE
  6
CONTINUOUS
 62
     3
 10
131.93937841887569
 20
-161.3672120767749
 30
0.0
 40
129.42765531951241
 50
320.88249166251182
 51
1.3777538793823889
  0
ARC
  8
OUTLINE
  6
CONTINUOUS
 62
     3
 10
296.80494617915122
 20
-7.7600957481802197
 30
0.0
 40
5.4640018322822401
 50
271.8254283884238
 51
344.95731322221889
  0
ARC
  8
OUTLINE
  6
CONTINUOUS
 62
     3
 10
-296.79853607745628
 20
-7.7520057099437736
 30
0.0
 40
5.472295409454067
 50
195.10706929945019
 51
268.11018908991628
  0
LINE
  8
DETAIL
  6
CONTINUOUS
 62
     5
 10
-95.738626137380834
 20
-177.2859450726979
 30
0.0
 11
95.738626137380834
 21
-177.2859450726979
 31
0.0
  0
LINE
  8
DETAIL
  6
CONTINUOUS
 62
     5
 10
95.738626137380834
 20
-177.2859450726979
 30
0.0
 11
95.738626137380834
 21
-225.3634894991923
 31
0.0
  0
LINE
  8
DETAIL
  6
CONTINUOUS
 62
     5
 10
95.738626137380834
 20
-225.3634894991923
 30
0.0
 11
-95.738626137380834
 21
-225.3634894991923
 31
0.0
  0
LINE
  8
DETAIL
  6
CONTINUOUS
 62
     5
 10
-95.738626137380834
 20
-225.3634894991923
 30
0.0
 11
-95.738626137380834
 21
-177.2859450726979
 31
0.0
  0
LINE
  8
DETAIL
  6
CONTINUOUS
 62
     5
 10
-19.030694668820619
 20
-95.207464599773459
 30
0.0
 11
-19.030694668820619
 21
-103.6672051696282
 31
0.0
  0
LINE
  8
DETAIL
  6
CONTINUOUS
 62
     5
 10
-19.030694668820619
 20
-103.6672051696282
 30
0.0
 11
23.037156704362129
 21
-103.6672051696282
 31
0.0
  0
LINE
  8
DETAIL
  6
CONTINUOUS
 62
     5
 10
23.037156704362129
 20
-103.6672051696282
 30
0.0
 11
23.037156704362129
 21
-84.452730188701707
 31
0.0
  0
ARC
  8
DETAIL
  6
CONTINUOUS
 62
     5
 10
145.23008938140339
 20
-141.65658343095799
 30
0.0
 40
35.601615513081512
 50
357.97452375239328
 51
87.068045496901775
  0
ARC
  8
DETAIL
  6
CONTINUOUS
 62
     5
 10
97.697791028347979
 20
-565.56057935459273
 30
0.0
 40
462.10207795742662
 50
83.869015981925131
 51
91.531265806428422
  0
ARC
  8
DETAIL
  6
CONTINUOUS
 62
     5
 10
126.7753670429516
 20
-3.3884955463825581
 30
0.0
 40
108.4581956751729
 50
228.36723194368949
 51
247.54521036696599
  0
ARC
  8
DETAIL
  6
CONTINUOUS
 62
     5
 10
176.43207224266601
 20
566.52922274907178
 30
0.0
 40
728.35976766473095
 50
243.3509158207649
 51
259.60998683387379
  0
ARC
  8
DETAIL
  6
CONTINUOUS
 62
     5
 10
-387.31378893143932
 20
-1046.828547903446
 30
0.0
 40
1002.328274518193
 50
64.241872756378086
 51
73.768538992238589
  0
LINE
  8
DETAIL
  6
CONTINUOUS
 62
     5
 10
-15.024232633279549
 20
-114.0840064620356
 30
0.0
 11
-20.66797677975228
 21
-114.5777700945259
 31
0.0
  0
CIRCLE
  8
DETAIL
  6
CONTINUOUS
 62
     5
 10
246.8594003732818
 20
-27.913159251191249
 30
0.0
 40
4.5445283341516483
  0
ENDSEC
  0
EOF
