  0
SECTION
  2
HEADER
  9
$ACADVER
  1
AC1009
  9
$DWGCODEPAGE
  3
dos932
  9
$INSBASE
 10
0.0
 20
0.0
 30
0.0
  9
$EXTMIN
 10
-554.24650435364674
 20
-517.82225400421521
 30
-0.0057657274444409
  9
$EXTMAX
 10
1026.919567232158
 20
857.48291848865665
 30
0.0063054278918457
  9
$LIMMIN
 10
-2970.0
 20
-2100.0
  9
$LIMMAX
 10
2970.0
 20
2100.0
  9
$ORTHOMODE
 70
     1
  9
$REGENMODE
 70
     1
  9
$FILLMODE
 70
     1
  9
$QTEXTMODE
 70
     0
  9
$MIRRTEXT
 70
     0
  9
$LTSCALE
 40
20.0
  9
$ATTMODE
 70
     1
  9
$TEXTSIZE
 40
64.0
  9
$TRACEWID
 40
0.05
  9
$TEXTSTYLE
  7
STANDARD
  9
$CLAYER
  8
SIZE
  9
$CELTYPE
  6
CONTINUOUS
  9
$CECOLOR
 62
     7
  9
$DIMSCALE
 40
1.0
  9
$DIMASZ
 40
12.0
  9
$DIMEXO
 40
20.0
  9
$DIMDLI
 40
200.0
  9
$DIMRND
 40
0.0
  9
$DIMDLE
 40
0.0
  9
$DIMEXE
 40
20.0
  9
$DIMTP
 40
0.0
  9
$DIMTM
 40
0.0
  9
$DIMTXT
 40
64.0
  9
$DIMCEN
 40
0.09
  9
$DIMTSZ
 40
0.0
  9
$DIMTOL
 70
     0
  9
$DIMLIM
 70
     0
  9
$DIMTIH
 70
     0
  9
$DIMTOH
 70
     0
  9
$DIMSE1
 70
     0
  9
$DIMSE2
 70
     0
  9
$DIMTAD
 70
     1
  9
$DIMZIN
 70
     8
  9
$DIMBLK
  1

  9
$DIMASO
 70
     1
  9
$DIMSHO
 70
     0
  9
$DIMPOST
  1

  9
$DIMAPOST
  1

  9
$DIMALT
 70
     0
  9
$DIMALTD
 70
     2
  9
$DIMALTF
 40
25.399999999999999
  9
$DIMLFAC
 40
1.0
  9
$DIMTOFL
 70
     1
  9
$DIMTVP
 40
0.0
  9
$DIMTIX
 70
     1
  9
$DIMSOXD
 70
     0
  9
$DIMSAH
 70
     0
  9
$DIMBLK1
  1

  9
$DIMBLK2
  1

  9
$DIMSTYLE
  2
STANDARD
  9
$DIMCLRD
 70
     7
  9
$DIMCLRE
 70
     7
  9
$DIMCLRT
 70
     7
  9
$DIMTFAC
 40
1.0
  9
$DIMGAP
 40
25.0
  9
$LUNITS
 70
     2
  9
$LUPREC
 70
     4
  9
$SKETCHINC
 40
0.1
  9
$FILLETRAD
 40
3.0
  9
$AUNITS
 70
     1
  9
$AUPREC
 70
     3
  9
$MENU
  1
ACAD
  9
$ELEVATION
 40
0.0
  9
$PELEVATION
 40
0.0
  9
$THICKNESS
 40
0.0
  9
$LIMCHECK
 70
     0
  9
$CHAMFERA
 40
0.0
  9
$CHAMFERB
 40
0.0
  9
$SKPOLY
 70
     0
  9
$TDCREATE
 40
2453019.62301037
  9
$TDUPDATE
 40
2458949.450698044
  9
$TDINDWG
 40
1.7135576505
  9
$TDUSRTIMER
 40
1.7135576505
  9
$USRTIMER
 70
     1
  9
$ANGBASE
 50
0.0
  9
$ANGDIR
 70
     0
  9
$PDMODE
 70
     3
  9
$PDSIZE
 40
-2.0
  9
$PLINEWID
 40
0.0
  9
$SPLFRAME
 70
     0
  9
$SPLINETYPE
 70
     6
  9
$SPLINESEGS
 70
     8
  9
$SURFTAB1
 70
     6
  9
$SURFTAB2
 70
     6
  9
$SURFTYPE
 70
     6
  9
$SURFU
 70
     6
  9
$SURFV
 70
     6
  9
$UCSNAME
  2

  9
$UCSORG
 10
0.0
 20
0.0
 30
0.0
  9
$UCSXDIR
 10
1.0
 20
0.0
 30
0.0
  9
$UCSYDIR
 10
0.0
 20
1.0
 30
0.0
  9
$PUCSNAME
  2

  9
$PUCSORG
 10
0.0
 20
0.0
 30
0.0
  9
$PUCSXDIR
 10
1.0
 20
0.0
 30
0.0
  9
$PUCSYDIR
 10
0.0
 20
1.0
 30
0.0
  9
$USERI1
 70
     0
  9
$USERI2
 70
     0
  9
$USERI3
 70
     0
  9
$USERI4
 70
     0
  9
$USERI5
 70
     0
  9
$USERR1
 40
20.0
  9
$USERR2
 40
0.0
  9
$USERR3
 40
0.0
  9
$USERR4
 40
0.0
  9
$USERR5
 40
0.0
  9
$WORLDVIEW
 70
     1
  9
$SHADEDGE
 70
     3
  9
$SHADEDIF
 70
    70
  9
$TILEMODE
 70
     1
  9
$MAXACTVP
 70
    48
  9
$PINSBASE
 10
0.0
 20
0.0
 30
0.0
  9
$PLIMCHECK
 70
     0
  9
$PEXTMIN
 10
-100000000000000000000.0
 20
-100000000000000000000.0
 30
-100000000000000000000.0
  9
$PEXTMAX
 10
100000000000000000000.0
 20
100000000000000000000.0
 30
100000000000000000000.0
  9
$PLIMMIN
 10
0.0
 20
0.0
  9
$PLIMMAX
 10
12.0
 20
9.0
  9
$UNITMODE
 70
     0
  9
$VISRETAIN
 70
     0
  9
$PLINEGEN
 70
     0
  9
$PSLTSCALE
 70
     0
  9
$TREEDEPTH
 70
  3020
  9
$ATTDIA
 70
     0
  9
$ATTREQ
 70
     1
  9
$BLIPMODE
 70
     1
  9
$COORDS
 70
     1
  9
$DRAGMODE
 70
     2
  9
$OSMODE
 70
     0
  9
$HANDLING
 70
     0
  9
$HANDSEED
  5
1184B
  0
ENDSEC
  0
SECTION
  2
TABLES
  0
TABLE
  2
LTYPE
 70
     2
  0
LTYPE
  2
CONTINUOUS
 70
     0
  3
実線
 72
    65
 73
     0
 40
0.0
  0
LTYPE
  2
DASHDOT
 70
     0
  3
____ _ ____ _ ____ _ ____ _ ____ _ ____ _ ____
 72
    65
 73
     4
 40
5.5
 49
4.0
 49
-0.6
 49
0.3
 49
-0.6
  0
ENDTAB
  0
TABLE
  2
LAYER
 70
    12
  0
LAYER
  2
0
 70
     0
 62
     7
  6
CONTINUOUS
  0
LAYER
  2
BASIS
 70
     0
 62
     6
  6
DASHDOT
  0
LAYER
  2
OUTLINE
 70
     0
 62
     3
  6
CONTINUOUS
  0
LAYER
  2
DETAIL
 70
     0
 62
     5
  6
CONTINUOUS
  0
LAYER
  2
SIZE
 70
     0
 62
    30
  6
CONTINUOUS
  0
LAYER
  2
ARRANGE
 70
     0
 62
     1
  6
CONTINUOUS
  0
LAYER
  2
DEFPOINTS
 70
     0
 62
     7
  6
CONTINUOUS
  0
LAYER
  2
ETC
 70
     0
 62
    61
  6
CONTINUOUS
  0
LAYER
  2
FIX
 70
     0
 62
    11
  6
CONTINUOUS
  0
LAYER
  2
NOTE
 70
     0
 62
     4
  6
CONTINUOUS
  0
LAYER
  2
SERVICESPACE
 70
    64
 62
     2
  6
DASHDOT
  0
LAYER
  2
SYMBOLLINE
 70
    64
 62
    15
  6
CONTINUOUS
  0
ENDTAB
  0
TABLE
  2
STYLE
 70
     1
  0
STYLE
  2
STANDARD
 70
     0
 40
64.0
 41
0.9
 50
0.0
 71
     0
 42
64.0
  3
SIMPLEX.shx
  4
BIGFONT.shx
  0
ENDTAB
  0
TABLE
  2
APPID
 70
    19
  0
APPID
  2
ACAD
 70
     0
  0
APPID
  2
AUTOCAD_POSTSCRIPT_FIGURE
 70
     0
  0
APPID
  2
ACAD_EXEMPT_FROM_CAD_STANDARDS
 70
     0
  0
APPID
  2
ACAD_PSEXT
 70
     0
  0
APPID
  2
ACAUTHENVIRON
 70
     0
  0
APPID
  2
GENIUS_GENOENT_13
 70
     0
  0
APPID
  2
GENIUS_GENCFG_13
 70
     0
  0
APPID
  2
GENIUS_GENCFG0_13
 70
     0
  0
APPID
  2
GENIUS_GENCFG1_13
 70
     0
  0
APPID
  2
GENIUS_GENCFG2_13
 70
     0
  0
APPID
  2
GENIUS_GENCFG3_13
 70
     0
  0
APPID
  2
GENIUS_GENCFG4_13
 70
     0
  0
APPID
  2
GENIUS_GEVCFG0_13
 70
     0
  0
APPID
  2
CONTENTBLOCKICON
 70
     0
  0
APPID
  2
CONTENTBLOCKDESCRIPTION
 70
     0
  0
APPID
  2
ACAD_NAV_VCDISPLAY
 70
     0
  0
APPID
  2
ACAD_MLEADERVER
 70
     0
  0
APPID
  2
ACDBDYNAMICBLOCKTRUENAME
 70
     0
  0
APPID
  2
ACDBDYNAMICBLOCKGUID
 70
     0
  0
ENDTAB
  0
TABLE
  2
DIMSTYLE
 70
     1
  0
DIMSTYLE
  2
STANDARD
 70
     0
  3

  4

  5
_ORIGIN
  6

  7

 40
1.0
 41
12.0
 42
20.0
 43
200.0
 44
20.0
 45
0.0
 46
0.0
 47
0.0
 48
0.0
140
64.0
141
0.09
142
0.0
143
25.399999999999999
144
1.0
145
0.0
146
1.0
147
25.0
 71
     0
 72
     0
 73
     0
 74
     0
 75
     0
 76
     0
 77
     1
 78
     8
170
     0
171
     2
172
     1
173
     0
174
     1
175
     0
176
     7
177
     7
178
     7
  0
ENDTAB
  0
TABLE
  2
VIEW
 70
     1
  0
VIEW
  2
ALL
 70
     0
 40
4282.6198079999986
 10
0.0
 20
41.309904000000003
 41
5940.0
 11
0.0
 21
0.0
 31
1.0
 12
0.0
 22
0.0
 32
0.0
 42
50.0
 43
0.0
 44
0.0
 50
0.0
 71
     0
  0
ENDTAB
  0
TABLE
  2
UCS
 70
     0
  0
ENDTAB
  0
TABLE
  2
VPORT
 70
     1
  0
VPORT
  2
*ACTIVE
 70
     0
 10
0.0
 20
0.0
 11
1.0
 21
1.0
 12
236.33653143925591
 22
169.83033224222069
 13
0.0
 23
0.0
 14
1.0
 24
1.0
 15
0.0
 25
0.0
 16
0.0
 26
0.0
 36
1.0
 17
0.0
 27
0.0
 37
0.0
 40
1384.4232178353659
 41
1.747787610619469
 42
50.0
 43
0.0
 44
0.0
 50
0.0
 51
0.0
 71
     0
 72
  1000
 73
     1
 74
     3
 75
     0
 76
     0
 77
     0
 78
     0
  0
ENDTAB
  0
ENDSEC
  0
SECTION
  2
BLOCKS
  0
BLOCK
  8
0
  2
_ORIGIN
 70
     0
 10
0.0
 20
0.0
 30
0.0
  3
_ORIGIN
  1
_ORIGIN
  0
CIRCLE
  8
0
  6
CONTINUOUS
 62
     7
 10
0.0
 20
0.0
 30
0.0
 40
0.5
  0
LINE
  8
0
  6
CONTINUOUS
 62
     7
 10
0.0
 20
0.0
 30
0.0
 11
-1.0
 21
0.0
 31
0.0
  0
ENDBLK
  8
0
  0
ENDSEC
  0
SECTION
  2
ENTITIES
  0
POINT
  8
ARRANGE
  6
CONTINUOUS
 62
     1
 10
0.0
 20
0.0
 30
0.0
  0
CIRCLE
  8
ARRANGE
  6
CONTINUOUS
 62
     1
 10
0.0
 20
0.0
 30
0.0
 40
40.0
  0
LINE
  8
DETAIL
  6
CONTINUOUS
 62
     5
 10
-3.0
 20
-351.5
 30
0.0
 11
-6.4000000000000909
 21
-351.5
 31
0.0
  0
LINE
  8
DETAIL
  6
CONTINUOUS
 62
     5
 10
-5.1000000000003638
 20
-348.33452377920003
 30
0.0
 11
-3.0
 21
-348.33452377920003
 31
0.0
  0
LINE
  8
DETAIL
  6
CONTINUOUS
 62
     5
 10
-13.867637334200481
 20
-341.5
 30
0.0
 11
-16.400000000000091
 21
-341.5
 31
0.0
  0
LINE
  8
DETAIL
  6
CONTINUOUS
 62
     5
 10
-60.218687663900248
 20
-311.76445987929992
 30
0.0
 11
-164.60000000000039
 21
-311.76445987929992
 31
0.0
  0
LINE
  8
DETAIL
  6
CONTINUOUS
 62
     5
 10
-14.5
 20
-311.68161959989988
 30
0.0
 11
-19.053418012600101
 21
-311.68161959989988
 31
0.0
  0
LINE
  8
DETAIL
  6
CONTINUOUS
 62
     5
 10
-19.053418012600101
 20
271.90866718980033
 30
0.0
 11
-19.188089248900269
 21
272.40700502210012
 31
0.0
  0
LINE
  8
DETAIL
  6
CONTINUOUS
 62
     5
 10
-19.188089248900269
 20
272.40700502210012
 30
0.0
 11
-19.298912835400191
 21
272.89693492980018
 31
0.0
  0
LINE
  8
DETAIL
  6
CONTINUOUS
 62
     5
 10
-19.298912835400191
 20
272.89693492980018
 30
0.0
 11
-19.386121939700391
 21
273.37702921139999
 31
0.0
  0
LINE
  8
DETAIL
  6
CONTINUOUS
 62
     5
 10
-19.386121939700391
 20
273.37702921139999
 30
0.0
 11
-19.449017058800109
 21
273.85157097109982
 31
0.0
  0
LINE
  8
DETAIL
  6
CONTINUOUS
 62
     5
 10
-19.449017058800109
 20
273.85157097109982
 30
0.0
 11
-19.486898689699959
 21
274.32484331309979
 31
0.0
  0
LINE
  8
DETAIL
  6
CONTINUOUS
 62
     5
 10
-19.486898689699959
 20
274.32484331309979
 30
0.0
 11
-19.5
 21
274.79541853600023
 31
0.0
  0
LINE
  8
DETAIL
  6
CONTINUOUS
 62
     5
 10
-19.386798040500249
 20
269.75821338949982
 30
0.0
 11
-19.449387319400099
 21
269.99509946189983
 31
0.0
  0
LINE
  8
DETAIL
  6
CONTINUOUS
 62
     5
 10
-19.449387319400099
 20
269.99509946189983
 30
0.0
 11
-19.487072423100471
 21
270.23104882579992
 31
0.0
  0
LINE
  8
DETAIL
  6
CONTINUOUS
 62
     5
 10
-19.487072423100471
 20
270.23104882579992
 30
0.0
 11
-19.5
 21
270.46529151680028
 31
0.0
  0
LINE
  8
DETAIL
  6
CONTINUOUS
 62
     5
 10
-101.0
 20
-309.62219457579988
 30
0.0
 11
-97.5
 21
-309.62219457579988
 31
0.0
  0
LINE
  8
DETAIL
  6
CONTINUOUS
 62
     5
 10
-19.5
 20
-308.90811690800001
 30
0.0
 11
-21.400000000000091
 21
-308.90811690800001
 31
0.0
  0
LINE
  8
DETAIL
  6
CONTINUOUS
 62
     5
 10
-14.5
 20
-308.79486825399999
 30
0.0
 11
-19.053418012600101
 21
-308.79486825399999
 31
0.0
  0
LINE
  8
DETAIL
  6
CONTINUOUS
 62
     5
 10
-20.400000000000091
 20
-308.40811690800001
 30
0.0
 11
-19.5
 21
-308.40811690800001
 31
0.0
  0
LINE
  8
DETAIL
  6
CONTINUOUS
 62
     5
 10
-20.400000000000091
 20
-303.40811690800001
 30
0.0
 11
-19.5
 21
-303.40811690800001
 31
0.0
  0
LINE
  8
DETAIL
  6
CONTINUOUS
 62
     5
 10
-14.5
 20
-303.02136556209962
 30
0.0
 11
-19.053418012600101
 21
-303.02136556209962
 31
0.0
  0
LINE
  8
DETAIL
  6
CONTINUOUS
 62
     5
 10
-19.5
 20
-302.90811690800001
 30
0.0
 11
-21.400000000000091
 21
-302.90811690800001
 31
0.0
  0
LINE
  8
DETAIL
  6
CONTINUOUS
 62
     5
 10
-14.5
 20
-301.61298776979987
 30
0.0
 11
-97.5
 21
-301.61298776979987
 31
0.0
  0
LINE
  8
DETAIL
  6
CONTINUOUS
 62
     5
 10
-101.0
 20
-301.61298776979987
 30
0.0
 11
-164.60000000000039
 21
-301.61298776979987
 31
0.0
  0
LINE
  8
DETAIL
  6
CONTINUOUS
 62
     5
 10
-102.0
 20
-301.27493642330001
 30
0.0
 11
-96.5
 21
-301.27493642330001
 31
0.0
  0
LINE
  8
DETAIL
  6
CONTINUOUS
 62
     5
 10
-5.1000000000003638
 20
-298.8370490960998
 30
0.0
 11
-3.0
 21
-298.8370490960998
 31
0.0
  0
LINE
  8
DETAIL
  6
CONTINUOUS
 62
     5
 10
-102.0
 20
-296.45663146229992
 30
0.0
 11
-96.5
 21
-296.45663146229992
 31
0.0
  0
LINE
  8
DETAIL
  6
CONTINUOUS
 62
     5
 10
-101.0
 20
-295.48325802199997
 30
0.0
 11
-97.5
 21
-295.48325802199997
 31
0.0
  0
LINE
  8
DETAIL
  6
CONTINUOUS
 62
     5
 10
-102.0
 20
-293.31002950700008
 30
0.0
 11
-101.0
 21
-293.31002950700008
 31
0.0
  0
LINE
  8
DETAIL
  6
CONTINUOUS
 62
     5
 10
-97.5
 20
-293.31002950700008
 30
0.0
 11
-96.5
 21
-293.31002950700008
 31
0.0
  0
LINE
  8
DETAIL
  6
CONTINUOUS
 62
     5
 10
-6.4000000000000909
 20
-287.52334059719999
 30
0.0
 11
-3.0
 21
-287.52334059719999
 31
0.0
  0
LINE
  8
DETAIL
  6
CONTINUOUS
 62
     5
 10
-100.0
 20
-283.66422988979969
 30
0.0
 11
-98.5
 21
-283.66422988979969
 31
0.0
  0
LINE
  8
DETAIL
  6
CONTINUOUS
 62
     5
 10
0.0
 20
-353.0
 30
0.0
 11
0.0
 21
353.0
 31
0.0
  0
LINE
  8
DETAIL
  6
CONTINUOUS
 62
     5
 10
-3.0
 20
-353.0
 30
0.0
 11
-3.0
 21
353.0
 31
0.0
  0
LINE
  8
DETAIL
  6
CONTINUOUS
 62
     5
 10
-5.1000000000003638
 20
-348.33452377920003
 30
0.0
 11
-5.1000000000003638
 21
-298.43439365230017
 31
0.0
  0
LINE
  8
DETAIL
  6
CONTINUOUS
 62
     5
 10
-5.1000000000003638
 20
298.43439365220001
 30
0.0
 11
-5.1000000000003638
 21
348.33452377909998
 31
0.0
  0
LINE
  8
DETAIL
  6
CONTINUOUS
 62
     5
 10
-10.0
 20
-283.92334059720002
 30
0.0
 11
-10.0
 21
-289.53289256549999
 31
0.0
  0
LINE
  8
DETAIL
  6
CONTINUOUS
 62
     5
 10
-10.0
 20
-347.89999999999958
 30
0.0
 11
-10.0
 21
-344.6947605739997
 31
0.0
  0
LINE
  8
DETAIL
  6
CONTINUOUS
 62
     5
 10
-10.0
 20
-283.92334059720002
 30
0.0
 11
-10.0
 21
283.92334059709992
 31
0.0
  0
LINE
  8
DETAIL
  6
CONTINUOUS
 62
     5
 10
-10.0
 20
283.92334059709992
 30
0.0
 11
-10.0
 21
289.53289256540029
 31
0.0
  0
LINE
  8
DETAIL
  6
CONTINUOUS
 62
     5
 10
-10.0
 20
344.69476057390011
 30
0.0
 11
-10.0
 21
347.90000000000009
 31
0.0
  0
LINE
  8
DETAIL
  6
CONTINUOUS
 62
     5
 10
-19.5
 20
-305.90811690779992
 30
0.0
 11
-19.48630377030031
 21
-305.43081749240002
 31
0.0
  0
LINE
  8
DETAIL
  6
CONTINUOUS
 62
     5
 10
-19.48630377030031
 20
-305.43081749240002
 30
0.0
 11
-19.44786193480013
 21
-304.9535421795
 31
0.0
  0
LINE
  8
DETAIL
  6
CONTINUOUS
 62
     5
 10
-19.44786193480013
 20
-304.9535421795
 30
0.0
 11
-19.384250776300181
 21
-304.47774824369998
 31
0.0
  0
LINE
  8
DETAIL
  6
CONTINUOUS
 62
     5
 10
-19.384250776300181
 20
-304.47774824369998
 30
0.0
 11
-19.296741446600208
 21
-303.99906386139992
 31
0.0
  0
LINE
  8
DETAIL
  6
CONTINUOUS
 62
     5
 10
-19.296741446600208
 20
-303.99906386139992
 30
0.0
 11
-19.186605097800111
 21
-303.51311720939998
 31
0.0
  0
LINE
  8
DETAIL
  6
CONTINUOUS
 62
     5
 10
-19.186605097800111
 20
-303.51311720939998
 30
0.0
 11
-19.053418012600101
 21
-303.02136556209962
 31
0.0
  0
LINE
  8
DETAIL
  6
CONTINUOUS
 62
     5
 10
-19.5
 20
-310.23824392690011
 30
0.0
 11
-19.48705908689999
 21
-310.00394573039972
 31
0.0
  0
LINE
  8
DETAIL
  6
CONTINUOUS
 62
     5
 10
-19.48705908689999
 20
-310.00394573039972
 30
0.0
 11
-19.449373688400101
 21
-309.76798801000012
 31
0.0
  0
LINE
  8
DETAIL
  6
CONTINUOUS
 62
     5
 10
-19.449373688400101
 20
-309.76798801000012
 30
0.0
 11
-19.386804381100319
 21
-309.53116411779968
 31
0.0
  0
LINE
  8
DETAIL
  6
CONTINUOUS
 62
     5
 10
-19.386804381100319
 20
-309.53116411779968
 30
0.0
 11
-19.299769434900099
 21
-309.29109399729998
 31
0.0
  0
LINE
  8
DETAIL
  6
CONTINUOUS
 62
     5
 10
-19.299769434900099
 20
-309.29109399729998
 30
0.0
 11
-19.188687119900351
 21
-309.04539759199997
 31
0.0
  0
LINE
  8
DETAIL
  6
CONTINUOUS
 62
     5
 10
-19.188687119900351
 20
-309.04539759199997
 30
0.0
 11
-19.053418012600101
 21
-308.79486825399999
 31
0.0
  0
LINE
  8
DETAIL
  6
CONTINUOUS
 62
     5
 10
-14.5
 20
-269.81298776979997
 30
0.0
 11
-97.5
 21
-269.81298776979997
 31
0.0
  0
LINE
  8
DETAIL
  6
CONTINUOUS
 62
     5
 10
-101.0
 20
-269.81298776979997
 30
0.0
 11
-164.60000000000039
 21
-269.81298776979997
 31
0.0
  0
LINE
  8
DETAIL
  6
CONTINUOUS
 62
     5
 10
-101.0
 20
-268.11298776979987
 30
0.0
 11
-97.5
 21
-268.11298776979987
 31
0.0
  0
LINE
  8
DETAIL
  6
CONTINUOUS
 62
     5
 10
-14.5
 20
-257.82485578730012
 30
0.0
 11
-10.0
 21
-257.82485578730012
 31
0.0
  0
LINE
  8
DETAIL
  6
CONTINUOUS
 62
     5
 10
-16.400000000000091
 20
-245.8040405071998
 30
0.0
 11
-13.0
 21
-245.8040405071998
 31
0.0
  0
LINE
  8
DETAIL
  6
CONTINUOUS
 62
     5
 10
-14.5
 20
-339.03036724849972
 30
0.0
 11
-14.5
 21
-257.82485578730012
 31
0.0
  0
LINE
  8
DETAIL
  6
CONTINUOUS
 62
     5
 10
-14.5
 20
257.82485578720002
 30
0.0
 11
-14.5
 21
339.03036724840013
 31
0.0
  0
LINE
  8
DETAIL
  6
CONTINUOUS
 62
     5
 10
-19.5
 20
-310.90811690800001
 30
0.0
 11
-19.5
 21
-301.61298776979987
 31
0.0
  0
LINE
  8
DETAIL
  6
CONTINUOUS
 62
     5
 10
-19.5
 20
269.79541853570032
 30
0.0
 11
-19.5
 21
279.79541853570032
 31
0.0
  0
LINE
  8
DETAIL
  6
CONTINUOUS
 62
     5
 10
-20.0
 20
-337.89999999999958
 30
0.0
 11
-20.0
 21
-308.40811690800001
 31
0.0
  0
LINE
  8
DETAIL
  6
CONTINUOUS
 62
     5
 10
-20.0
 20
-303.40811690800001
 30
0.0
 11
-20.0
 21
-301.61298776979987
 31
0.0
  0
LINE
  8
DETAIL
  6
CONTINUOUS
 62
     5
 10
-20.0
 20
-269.81298776979997
 30
0.0
 11
-20.0
 21
272.29541853570032
 31
0.0
  0
LINE
  8
DETAIL
  6
CONTINUOUS
 62
     5
 10
-20.0
 20
277.29541853570032
 30
0.0
 11
-20.0
 21
279.96445987919992
 31
0.0
  0
LINE
  8
DETAIL
  6
CONTINUOUS
 62
     5
 10
-20.0
 20
311.76445987919988
 30
0.0
 11
-20.0
 21
337.90000000000009
 31
0.0
  0
LINE
  8
DETAIL
  6
CONTINUOUS
 62
     5
 10
-20.400000000000091
 20
277.29308095040028
 30
0.0
 11
-20.400000000000091
 21
272.29775612100002
 31
0.0
  0
LINE
  8
DETAIL
  6
CONTINUOUS
 62
     5
 10
-20.400000000000091
 20
-303.41045449329988
 30
0.0
 11
-20.400000000000091
 21
-308.40577932269991
 31
0.0
  0
LINE
  8
DETAIL
  6
CONTINUOUS
 62
     5
 10
-21.400000000000091
 20
277.79541853570032
 30
0.0
 11
-21.400000000000091
 21
271.79541853570032
 31
0.0
  0
LINE
  8
DETAIL
  6
CONTINUOUS
 62
     5
 10
-21.400000000000091
 20
-302.90811690800001
 30
0.0
 11
-21.400000000000091
 21
-308.90811690800001
 31
0.0
  0
LINE
  8
DETAIL
  6
CONTINUOUS
 62
     5
 10
-19.5
 20
274.79541853600023
 30
0.0
 11
-19.48630377030031
 21
275.27271795140018
 31
0.0
  0
LINE
  8
DETAIL
  6
CONTINUOUS
 62
     5
 10
-19.48630377030031
 20
275.27271795140018
 30
0.0
 11
-19.44786193480013
 21
275.74999326419987
 31
0.0
  0
LINE
  8
DETAIL
  6
CONTINUOUS
 62
     5
 10
-19.44786193480013
 20
275.74999326419987
 30
0.0
 11
-19.384250776300181
 21
276.22578720000001
 31
0.0
  0
LINE
  8
DETAIL
  6
CONTINUOUS
 62
     5
 10
-19.384250776300181
 20
276.22578720000001
 30
0.0
 11
-19.296741446600208
 21
276.70447158230007
 31
0.0
  0
LINE
  8
DETAIL
  6
CONTINUOUS
 62
     5
 10
-19.296741446600208
 20
276.70447158230007
 30
0.0
 11
-19.186605097800111
 21
277.19041823430013
 31
0.0
  0
LINE
  8
DETAIL
  6
CONTINUOUS
 62
     5
 10
-19.186605097800111
 20
277.19041823430013
 30
0.0
 11
-19.053418012600101
 21
277.68216988169979
 31
0.0
  0
LINE
  8
DETAIL
  6
CONTINUOUS
 62
     5
 10
-19.5
 20
270.46529151680028
 30
0.0
 11
-19.48705908689999
 21
270.69958971330021
 31
0.0
  0
LINE
  8
DETAIL
  6
CONTINUOUS
 62
     5
 10
-19.48705908689999
 20
270.69958971330021
 30
0.0
 11
-19.449373688400101
 21
270.93554743379991
 31
0.0
  0
LINE
  8
DETAIL
  6
CONTINUOUS
 62
     5
 10
-19.449373688400101
 20
270.93554743379991
 30
0.0
 11
-19.386804381100319
 21
271.17237132589997
 31
0.0
  0
LINE
  8
DETAIL
  6
CONTINUOUS
 62
     5
 10
-19.386804381100319
 20
271.17237132589997
 30
0.0
 11
-19.299769434900099
 21
271.41244144640018
 31
0.0
  0
LINE
  8
DETAIL
  6
CONTINUOUS
 62
     5
 10
-19.299769434900099
 20
271.41244144640018
 30
0.0
 11
-19.188687119900351
 21
271.65813785179989
 31
0.0
  0
LINE
  8
DETAIL
  6
CONTINUOUS
 62
     5
 10
-19.188687119900351
 20
271.65813785179989
 30
0.0
 11
-19.053418012600101
 21
271.90866718980033
 31
0.0
  0
LINE
  8
DETAIL
  6
CONTINUOUS
 62
     5
 10
-19.500000004400139
 20
279.12554559520032
 30
0.0
 11
-19.487059082000091
 21
279.35984379980027
 31
0.0
  0
LINE
  8
DETAIL
  6
CONTINUOUS
 62
     5
 10
-19.487059082000091
 20
279.35984379980027
 30
0.0
 11
-19.449373678000029
 21
279.59580152029997
 31
0.0
  0
LINE
  8
DETAIL
  6
CONTINUOUS
 62
     5
 10
-19.449373678000029
 20
279.59580152029997
 30
0.0
 11
-19.38680436920049
 21
279.83262540260012
 31
0.0
  0
LINE
  8
DETAIL
  6
CONTINUOUS
 62
     5
 10
-19.38680436920049
 20
279.83262540260012
 30
0.0
 11
-19.299769424800161
 21
280.07269550910001
 31
0.0
  0
LINE
  8
DETAIL
  6
CONTINUOUS
 62
     5
 10
-19.299769424800161
 20
280.07269550910001
 30
0.0
 11
-19.188687113600281
 21
280.31839190210007
 31
0.0
  0
LINE
  8
DETAIL
  6
CONTINUOUS
 62
     5
 10
-19.188687113600281
 20
280.31839190210007
 30
0.0
 11
-19.053418012600101
 21
280.56892122760019
 31
0.0
  0
LINE
  8
DETAIL
  6
CONTINUOUS
 62
     5
 10
-31.945964886800081
 20
-315.85864390149982
 30
0.0
 11
-31.676904429600199
 21
-316.03718583100022
 31
0.0
  0
LINE
  8
DETAIL
  6
CONTINUOUS
 62
     5
 10
-31.676904429600199
 20
-316.03718583100022
 30
0.0
 11
-31.410597880600559
 21
-316.21669635889998
 31
0.0
  0
LINE
  8
DETAIL
  6
CONTINUOUS
 62
     5
 10
-31.410597880600559
 20
-316.21669635889998
 30
0.0
 11
-31.1470610731003
 21
-316.39716413989993
 31
0.0
  0
LINE
  8
DETAIL
  6
CONTINUOUS
 62
     5
 10
-31.1470610731003
 20
-316.39716413989993
 30
0.0
 11
-30.886309840600461
 21
-316.5785778290998
 31
0.0
  0
LINE
  8
DETAIL
  6
CONTINUOUS
 62
     5
 10
-30.886309840600461
 20
-316.5785778290998
 30
0.0
 11
-30.628360016600251
 21
-316.76092608129977
 31
0.0
  0
LINE
  8
DETAIL
  6
CONTINUOUS
 62
     5
 10
-30.628360016600251
 20
-316.76092608129977
 30
0.0
 11
-30.373227434500219
 21
-316.94419755149988
 31
0.0
  0
LINE
  8
DETAIL
  6
CONTINUOUS
 62
     5
 10
-30.373227434500219
 20
-316.94419755149988
 30
0.0
 11
-30.12092792770045
 21
-317.12838089450003
 31
0.0
  0
LINE
  8
DETAIL
  6
CONTINUOUS
 62
     5
 10
-30.12092792770045
 20
-317.12838089450003
 30
0.0
 11
-29.871477329700159
 21
-317.31346476519968
 31
0.0
  0
LINE
  8
DETAIL
  6
CONTINUOUS
 62
     5
 10
-29.871477329700159
 20
-317.31346476519968
 30
0.0
 11
-29.62489147390033
 21
-317.49943781859997
 31
0.0
  0
LINE
  8
DETAIL
  6
CONTINUOUS
 62
     5
 10
-29.62489147390033
 20
-317.49943781859997
 30
0.0
 11
-29.3811861938002
 21
-317.68628870959992
 31
0.0
  0
LINE
  8
DETAIL
  6
CONTINUOUS
 62
     5
 10
-29.3811861938002
 20
-317.68628870959992
 30
0.0
 11
-29.140377322800301
 21
-317.87400609309998
 31
0.0
  0
LINE
  8
DETAIL
  6
CONTINUOUS
 62
     5
 10
-29.140377322800301
 20
-317.87400609309998
 30
0.0
 11
-28.902480694300269
 21
-318.06257862399991
 31
0.0
  0
LINE
  8
DETAIL
  6
CONTINUOUS
 62
     5
 10
-28.902480694300269
 20
-318.06257862399991
 30
0.0
 11
-28.66751214180022
 21
-318.25199495719983
 31
0.0
  0
LINE
  8
DETAIL
  6
CONTINUOUS
 62
     5
 10
-28.66751214180022
 20
-318.25199495719983
 30
0.0
 11
-28.4354874986002
 21
-318.44224374769988
 31
0.0
  0
LINE
  8
DETAIL
  6
CONTINUOUS
 62
     5
 10
-28.4354874986002
 20
-318.44224374769988
 30
0.0
 11
-28.206422598400419
 21
-318.63331365020008
 31
0.0
  0
LINE
  8
DETAIL
  6
CONTINUOUS
 62
     5
 10
-28.206422598400419
 20
-318.63331365020008
 30
0.0
 11
-27.980333274399982
 21
-318.82519331980012
 31
0.0
  0
LINE
  8
DETAIL
  6
CONTINUOUS
 62
     5
 10
-27.980333274399982
 20
-318.82519331980012
 30
0.0
 11
-27.757235311300061
 21
-319.01787139790008
 31
0.0
  0
LINE
  8
DETAIL
  6
CONTINUOUS
 62
     5
 10
-27.757235311300061
 20
-319.01787139790008
 30
0.0
 11
-27.537141559200339
 21
-319.2113357116001
 31
0.0
  0
LINE
  8
DETAIL
  6
CONTINUOUS
 62
     5
 10
-27.537141559200339
 20
-319.2113357116001
 30
0.0
 11
-27.32006032010031
 21
-319.40557282660012
 31
0.0
  0
LINE
  8
DETAIL
  6
CONTINUOUS
 62
     5
 10
-27.32006032010031
 20
-319.40557282660012
 30
0.0
 11
-27.105999504800369
 21
-319.60056920009993
 31
0.0
  0
LINE
  8
DETAIL
  6
CONTINUOUS
 62
     5
 10
-27.105999504800369
 20
-319.60056920009993
 30
0.0
 11
-26.89496702400038
 21
-319.79631128899968
 31
0.0
  0
LINE
  8
DETAIL
  6
CONTINUOUS
 62
     5
 10
-26.89496702400038
 20
-319.79631128899968
 30
0.0
 11
-26.686970788400231
 21
-319.99278555039967
 31
0.0
  0
LINE
  8
DETAIL
  6
CONTINUOUS
 62
     5
 10
-26.686970788400231
 20
-319.99278555039967
 30
0.0
 11
-26.482018708900341
 21
-320.18997844140011
 31
0.0
  0
LINE
  8
DETAIL
  6
CONTINUOUS
 62
     5
 10
-26.482018708900341
 20
-320.18997844140011
 30
0.0
 11
-26.280118696100089
 21
-320.38787641900001
 31
0.0
  0
LINE
  8
DETAIL
  6
CONTINUOUS
 62
     5
 10
-26.280118696100089
 20
-320.38787641900001
 30
0.0
 11
-26.081278660800312
 21
-320.58646594039988
 31
0.0
  0
LINE
  8
DETAIL
  6
CONTINUOUS
 62
     5
 10
-26.081278660800312
 20
-320.58646594039988
 30
0.0
 11
-25.88550651380001
 21
-320.78573346249971
 31
0.0
  0
LINE
  8
DETAIL
  6
CONTINUOUS
 62
     5
 10
-25.88550651380001
 20
-320.78573346249971
 30
0.0
 11
-25.69281016579998
 21
-320.98566544249991
 31
0.0
  0
LINE
  8
DETAIL
  6
CONTINUOUS
 62
     5
 10
-25.69281016579998
 20
-320.98566544249991
 30
0.0
 11
-25.503197527500109
 21
-321.18624833749982
 31
0.0
  0
LINE
  8
DETAIL
  6
CONTINUOUS
 62
     5
 10
-25.503197527500109
 20
-321.18624833749982
 30
0.0
 11
-25.316676509700301
 21
-321.38746860440028
 31
0.0
  0
LINE
  8
DETAIL
  6
CONTINUOUS
 62
     5
 10
-25.316676509700301
 20
-321.38746860440028
 30
0.0
 11
-25.13325502310045
 21
-321.58931270030018
 31
0.0
  0
LINE
  8
DETAIL
  6
CONTINUOUS
 62
     5
 10
-25.13325502310045
 20
-321.58931270030018
 30
0.0
 11
-24.952940978600051
 21
-321.79176708239999
 31
0.0
  0
LINE
  8
DETAIL
  6
CONTINUOUS
 62
     5
 10
-24.952940978600051
 20
-321.79176708239999
 30
0.0
 11
-24.775742286700279
 21
-321.99481820769972
 31
0.0
  0
LINE
  8
DETAIL
  6
CONTINUOUS
 62
     5
 10
-24.775742286700279
 20
-321.99481820769972
 30
0.0
 11
-24.601666858300181
 21
-322.1984525332
 31
0.0
  0
LINE
  8
DETAIL
  6
CONTINUOUS
 62
     5
 10
-24.601666858300181
 20
-322.1984525332
 30
0.0
 11
-24.430722604200131
 21
-322.40265651599998
 31
0.0
  0
LINE
  8
DETAIL
  6
CONTINUOUS
 62
     5
 10
-24.430722604200131
 20
-322.40265651599998
 30
0.0
 11
-24.262917434999959
 21
-322.60741661319992
 31
0.0
  0
LINE
  8
DETAIL
  6
CONTINUOUS
 62
     5
 10
-24.262917434999959
 20
-322.60741661319992
 30
0.0
 11
-24.098259261500061
 21
-322.81271928189972
 31
0.0
  0
LINE
  8
DETAIL
  6
CONTINUOUS
 62
     5
 10
-24.098259261500061
 20
-322.81271928189972
 30
0.0
 11
-23.936755994500341
 21
-323.01855097909993
 31
0.0
  0
LINE
  8
DETAIL
  6
CONTINUOUS
 62
     5
 10
-23.936755994500341
 20
-323.01855097909993
 30
0.0
 11
-23.778415544700241
 21
-323.22489816179962
 31
0.0
  0
LINE
  8
DETAIL
  6
CONTINUOUS
 62
     5
 10
-23.778415544700241
 20
-323.22489816179962
 30
0.0
 11
-23.62324582290012
 21
-323.4317472872001
 31
0.0
  0
LINE
  8
DETAIL
  6
CONTINUOUS
 62
     5
 10
-23.62324582290012
 20
-323.4317472872001
 30
0.0
 11
-23.471254739800319
 21
-323.6390848123998
 31
0.0
  0
LINE
  8
DETAIL
  6
CONTINUOUS
 62
     5
 10
-23.471254739800319
 20
-323.6390848123998
 30
0.0
 11
-23.32245020610026
 21
-323.84689719429991
 31
0.0
  0
LINE
  8
DETAIL
  6
CONTINUOUS
 62
     5
 10
-23.32245020610026
 20
-323.84689719429991
 30
0.0
 11
-23.176840132600319
 21
-324.05517088999989
 31
0.0
  0
LINE
  8
DETAIL
  6
CONTINUOUS
 62
     5
 10
-23.176840132600319
 20
-324.05517088999989
 30
0.0
 11
-23.034432430000379
 21
-324.26389235669973
 31
0.0
  0
LINE
  8
DETAIL
  6
CONTINUOUS
 62
     5
 10
-23.034432430000379
 20
-324.26389235669973
 30
0.0
 11
-22.895235009200409
 21
-324.4730480513
 31
0.0
  0
LINE
  8
DETAIL
  6
CONTINUOUS
 62
     5
 10
-22.895235009200409
 20
-324.4730480513
 30
0.0
 11
-22.75925578070019
 21
-324.68262443099968
 31
0.0
  0
LINE
  8
DETAIL
  6
CONTINUOUS
 62
     5
 10
-22.75925578070019
 20
-324.68262443099968
 30
0.0
 11
-22.62650265550019
 21
-324.89260795280018
 31
0.0
  0
LINE
  8
DETAIL
  6
CONTINUOUS
 62
     5
 10
-22.62650265550019
 20
-324.89260795280018
 30
0.0
 11
-22.496983544200251
 21
-325.10298507379969
 31
0.0
  0
LINE
  8
DETAIL
  6
CONTINUOUS
 62
     5
 10
-22.496983544200251
 20
-325.10298507379969
 30
0.0
 11
-22.37070635760028
 21
-325.31374225110011
 31
0.0
  0
LINE
  8
DETAIL
  6
CONTINUOUS
 62
     5
 10
-22.37070635760028
 20
-325.31374225110011
 30
0.0
 11
-22.24767900640018
 21
-325.52486594159973
 31
0.0
  0
LINE
  8
DETAIL
  6
CONTINUOUS
 62
     5
 10
-22.24767900640018
 20
-325.52486594159973
 30
0.0
 11
-22.127909401300261
 21
-325.73634260249992
 31
0.0
  0
LINE
  8
DETAIL
  6
CONTINUOUS
 62
     5
 10
-22.127909401300261
 20
-325.73634260249992
 30
0.0
 11
-22.011405453200041
 21
-325.94815869089962
 31
0.0
  0
LINE
  8
DETAIL
  6
CONTINUOUS
 62
     5
 10
-22.011405453200041
 20
-325.94815869089962
 30
0.0
 11
-21.898174698700132
 21
-326.16030087479987
 31
0.0
  0
LINE
  8
DETAIL
  6
CONTINUOUS
 62
     5
 10
-21.898174698700132
 20
-326.16030087479987
 30
0.0
 11
-21.788220325800008
 21
-326.37275827499991
 31
0.0
  0
LINE
  8
DETAIL
  6
CONTINUOUS
 62
     5
 10
-21.788220325800008
 20
-326.37275827499991
 30
0.0
 11
-21.681542717100001
 21
-326.5855215949997
 31
0.0
  0
LINE
  8
DETAIL
  6
CONTINUOUS
 62
     5
 10
-21.681542717100001
 20
-326.5855215949997
 30
0.0
 11
-21.578142208400099
 21
-326.7985815643998
 31
0.0
  0
LINE
  8
DETAIL
  6
CONTINUOUS
 62
     5
 10
-21.578142208400099
 20
-326.7985815643998
 30
0.0
 11
-21.47801913550029
 21
-327.01192891289998
 31
0.0
  0
LINE
  8
DETAIL
  6
CONTINUOUS
 62
     5
 10
-21.47801913550029
 20
-327.01192891289998
 30
0.0
 11
-21.381173834100078
 21
-327.22555437019997
 31
0.0
  0
LINE
  8
DETAIL
  6
CONTINUOUS
 62
     5
 10
-21.381173834100078
 20
-327.22555437019997
 30
0.0
 11
-21.287606639900329
 21
-327.43944866610002
 31
0.0
  0
LINE
  8
DETAIL
  6
CONTINUOUS
 62
     5
 10
-21.287606639900329
 20
-327.43944866610002
 30
0.0
 11
-21.197317888800171
 21
-327.65360253019992
 31
0.0
  0
LINE
  8
DETAIL
  6
CONTINUOUS
 62
     5
 10
-21.197317888800171
 20
-327.65360253019992
 30
0.0
 11
-21.11030791660005
 21
-327.86800669220003
 31
0.0
  0
LINE
  8
DETAIL
  6
CONTINUOUS
 62
     5
 10
-21.11030791660005
 20
-327.86800669220003
 30
0.0
 11
-21.02657705890033
 21
-328.08265188190001
 31
0.0
  0
LINE
  8
DETAIL
  6
CONTINUOUS
 62
     5
 10
-21.02657705890033
 20
-328.08265188190001
 30
0.0
 11
-20.946125651700189
 21
-328.29752882899999
 31
0.0
  0
LINE
  8
DETAIL
  6
CONTINUOUS
 62
     5
 10
-20.946125651700189
 20
-328.29752882899999
 30
0.0
 11
-20.868954030600431
 21
-328.51262826310011
 31
0.0
  0
LINE
  8
DETAIL
  6
CONTINUOUS
 62
     5
 10
-20.868954030600431
 20
-328.51262826310011
 30
0.0
 11
-20.795062531400159
 21
-328.72794091399987
 31
0.0
  0
LINE
  8
DETAIL
  6
CONTINUOUS
 62
     5
 10
-20.795062531400159
 20
-328.72794091399987
 30
0.0
 11
-20.724451489900279
 21
-328.94345751130032
 31
0.0
  0
LINE
  8
DETAIL
  6
CONTINUOUS
 62
     5
 10
-20.724451489900279
 20
-328.94345751130032
 30
0.0
 11
-20.65712124190031
 21
-329.15916878489998
 31
0.0
  0
LINE
  8
DETAIL
  6
CONTINUOUS
 62
     5
 10
-20.65712124190031
 20
-329.15916878489998
 30
0.0
 11
-20.593072123100232
 21
-329.37506546430012
 31
0.0
  0
LINE
  8
DETAIL
  6
CONTINUOUS
 62
     5
 10
-20.593072123100232
 20
-329.37506546430012
 30
0.0
 11
-20.53230446940006
 21
-329.5911382792998
 31
0.0
  0
LINE
  8
DETAIL
  6
CONTINUOUS
 62
     5
 10
-20.53230446940006
 20
-329.5911382792998
 30
0.0
 11
-20.474818616400171
 21
-329.80737795959988
 31
0.0
  0
LINE
  8
DETAIL
  6
CONTINUOUS
 62
     5
 10
-20.474818616400171
 20
-329.80737795959988
 30
0.0
 11
-20.42061490000015
 21
-330.02377523490009
 31
0.0
  0
LINE
  8
DETAIL
  6
CONTINUOUS
 62
     5
 10
-20.42061490000015
 20
-330.02377523490009
 30
0.0
 11
-20.369693655900392
 21
-330.24032083489988
 31
0.0
  0
LINE
  8
DETAIL
  6
CONTINUOUS
 62
     5
 10
-20.369693655900392
 20
-330.24032083489988
 30
0.0
 11
-20.32205521989999
 21
-330.45700548939988
 31
0.0
  0
LINE
  8
DETAIL
  6
CONTINUOUS
 62
     5
 10
-20.32205521989999
 20
-330.45700548939988
 30
0.0
 11
-20.277699927900361
 21
-330.67381992789979
 31
0.0
  0
LINE
  8
DETAIL
  6
CONTINUOUS
 62
     5
 10
-20.277699927900361
 20
-330.67381992789979
 30
0.0
 11
-20.236628115400439
 21
-330.89075488030011
 31
0.0
  0
LINE
  8
DETAIL
  6
CONTINUOUS
 62
     5
 10
-20.236628115400439
 20
-330.89075488030011
 30
0.0
 11
-20.198840118400309
 21
-331.10780107620002
 31
0.0
  0
LINE
  8
DETAIL
  6
CONTINUOUS
 62
     5
 10
-20.198840118400309
 20
-331.10780107620002
 30
0.0
 11
-20.164336272600391
 21
-331.32494924529988
 31
0.0
  0
LINE
  8
DETAIL
  6
CONTINUOUS
 62
     5
 10
-20.164336272600391
 20
-331.32494924529988
 30
0.0
 11
-20.133116913700182
 21
-331.54219011740008
 31
0.0
  0
LINE
  8
DETAIL
  6
CONTINUOUS
 62
     5
 10
-20.133116913700182
 20
-331.54219011740008
 30
0.0
 11
-20.105182377600158
 21
-331.75951442219969
 31
0.0
  0
LINE
  8
DETAIL
  6
CONTINUOUS
 62
     5
 10
-20.105182377600158
 20
-331.75951442219969
 30
0.0
 11
-20.08053300000029
 21
-331.97691288919998
 31
0.0
  0
LINE
  8
DETAIL
  6
CONTINUOUS
 62
     5
 10
-20.08053300000029
 20
-331.97691288919998
 30
0.0
 11
-20.059169116700101
 21
-332.19437624839998
 31
0.0
  0
LINE
  8
DETAIL
  6
CONTINUOUS
 62
     5
 10
-20.059169116700101
 20
-332.19437624839998
 30
0.0
 11
-20.041091063400469
 21
-332.41189522929972
 31
0.0
  0
LINE
  8
DETAIL
  6
CONTINUOUS
 62
     5
 10
-20.041091063400469
 20
-332.41189522929972
 30
0.0
 11
-20.026299176000069
 21
-332.62946056170011
 31
0.0
  0
LINE
  8
DETAIL
  6
CONTINUOUS
 62
     5
 10
-20.026299176000069
 20
-332.62946056170011
 30
0.0
 11
-20.01479379010016
 21
-332.84706297520017
 31
0.0
  0
LINE
  8
DETAIL
  6
CONTINUOUS
 62
     5
 10
-20.01479379010016
 20
-332.84706297520017
 30
0.0
 11
-20.006575241700379
 21
-333.06469319969972
 31
0.0
  0
LINE
  8
DETAIL
  6
CONTINUOUS
 62
     5
 10
-20.006575241700379
 20
-333.06469319969972
 30
0.0
 11
-20.001643866400169
 21
-333.28234196469998
 31
0.0
  0
LINE
  8
DETAIL
  6
CONTINUOUS
 62
     5
 10
-20.001643866400169
 20
-333.28234196469998
 30
0.0
 11
-20.0
 21
-333.5
 31
0.0
  0
LINE
  8
DETAIL
  6
CONTINUOUS
 62
     5
 10
-9.6170301934002964
 20
-295.32882079289988
 30
0.0
 11
-7.0531879226000456
 21
-296.11602236129988
 31
0.0
  0
LINE
  8
DETAIL
  6
CONTINUOUS
 62
     5
 10
-8.0468120774003182
 20
-291.8512638563999
 30
0.0
 11
-5.4829698066000674
 21
-292.63846542480007
 31
0.0
  0
LINE
  8
DETAIL
  6
CONTINUOUS
 62
     5
 10
-19.053418012600101
 20
-308.79486825399999
 30
0.0
 11
-19.188089248900269
 21
-308.29653042159958
 31
0.0
  0
LINE
  8
DETAIL
  6
CONTINUOUS
 62
     5
 10
-19.188089248900269
 20
-308.29653042159958
 30
0.0
 11
-19.298912835400191
 21
-307.80660051400002
 31
0.0
  0
LINE
  8
DETAIL
  6
CONTINUOUS
 62
     5
 10
-19.298912835400191
 20
-307.80660051400002
 30
0.0
 11
-19.386121939700391
 21
-307.32650623229978
 31
0.0
  0
LINE
  8
DETAIL
  6
CONTINUOUS
 62
     5
 10
-19.386121939700391
 20
-307.32650623229978
 30
0.0
 11
-19.449017058800109
 21
-306.85196447259989
 31
0.0
  0
LINE
  8
DETAIL
  6
CONTINUOUS
 62
     5
 10
-19.449017058800109
 20
-306.85196447259989
 30
0.0
 11
-19.486898689699959
 21
-306.37869213059997
 31
0.0
  0
LINE
  8
DETAIL
  6
CONTINUOUS
 62
     5
 10
-19.486898689699959
 20
-306.37869213059997
 30
0.0
 11
-19.5
 21
-305.90811690779992
 31
0.0
  0
LINE
  8
DETAIL
  6
CONTINUOUS
 62
     5
 10
-19.386798040500249
 20
-310.94532205430028
 30
0.0
 11
-19.449387319400099
 21
-310.70843598180011
 31
0.0
  0
LINE
  8
DETAIL
  6
CONTINUOUS
 62
     5
 10
-19.449387319400099
 20
-310.70843598180011
 30
0.0
 11
-19.487072423100471
 21
-310.47248661790002
 31
0.0
  0
LINE
  8
DETAIL
  6
CONTINUOUS
 62
     5
 10
-19.487072423100471
 20
-310.47248661790002
 30
0.0
 11
-19.5
 21
-310.23824392690011
 31
0.0
  0
LINE
  8
DETAIL
  6
CONTINUOUS
 62
     5
 10
-96.5
 20
-293.31002950700008
 30
0.0
 11
-96.5
 21
-301.27493642330001
 31
0.0
  0
LINE
  8
DETAIL
  6
CONTINUOUS
 62
     5
 10
-97.5
 20
-268.11326074059991
 30
0.0
 11
-97.5
 21
-295.48325802199997
 31
0.0
  0
LINE
  8
DETAIL
  6
CONTINUOUS
 62
     5
 10
-97.5
 20
-301.27493642330001
 30
0.0
 11
-97.5
 21
-309.62189701650033
 31
0.0
  0
LINE
  8
DETAIL
  6
CONTINUOUS
 62
     5
 10
-101.0
 20
-268.11326074059991
 30
0.0
 11
-101.0
 21
-295.48325802199997
 31
0.0
  0
LINE
  8
DETAIL
  6
CONTINUOUS
 62
     5
 10
-101.0
 20
-301.27493642330001
 30
0.0
 11
-101.0
 21
-309.62189701650033
 31
0.0
  0
LINE
  8
DETAIL
  6
CONTINUOUS
 62
     5
 10
-102.0
 20
-293.31002950700008
 30
0.0
 11
-102.0
 21
-301.27493642330001
 31
0.0
  0
LINE
  8
DETAIL
  6
CONTINUOUS
 62
     5
 10
-183.74658198740011
 20
69.283953659600229
 30
0.0
 11
-183.6111320864002
 21
68.801426734699817
 31
0.0
  0
LINE
  8
DETAIL
  6
CONTINUOUS
 62
     5
 10
-183.6111320864002
 20
68.801426734699817
 30
0.0
 11
-183.49999835390011
 21
68.328856506500188
 31
0.0
  0
LINE
  8
DETAIL
  6
CONTINUOUS
 62
     5
 10
-183.49999835390011
 20
68.328856506500188
 30
0.0
 11
-183.41309485950021
 21
67.868062499800089
 31
0.0
  0
LINE
  8
DETAIL
  6
CONTINUOUS
 62
     5
 10
-183.41309485950021
 20
67.868062499800089
 30
0.0
 11
-183.35067939490051
 21
67.413586140400184
 31
0.0
  0
LINE
  8
DETAIL
  6
CONTINUOUS
 62
     5
 10
-183.35067939490051
 20
67.413586140400184
 30
0.0
 11
-183.31300975190021
 21
66.959968853800092
 31
0.0
  0
LINE
  8
DETAIL
  6
CONTINUOUS
 62
     5
 10
-183.31300975190021
 20
66.959968853800092
 30
0.0
 11
-183.30000000000021
 21
66.50903016500024
 31
0.0
  0
LINE
  8
DETAIL
  6
CONTINUOUS
 62
     5
 10
-186.85341801260029
 20
-71.24101522010028
 30
0.0
 11
-186.98840467620039
 21
-71.60057446439987
 31
0.0
  0
LINE
  8
DETAIL
  6
CONTINUOUS
 62
     5
 10
-186.98840467620039
 20
-71.60057446439987
 30
0.0
 11
-187.09934282910041
 21
-71.953425532699839
 31
0.0
  0
LINE
  8
DETAIL
  6
CONTINUOUS
 62
     5
 10
-187.09934282910041
 20
-71.953425532699839
 30
0.0
 11
-187.18639561740019
 21
-72.298329530299725
 31
0.0
  0
LINE
  8
DETAIL
  6
CONTINUOUS
 62
     5
 10
-187.18639561740019
 20
-72.298329530299725
 30
0.0
 11
-187.24907360310041
 21
-72.639003140900286
 31
0.0
  0
LINE
  8
DETAIL
  6
CONTINUOUS
 62
     5
 10
-187.24907360310041
 20
-72.639003140900286
 30
0.0
 11
-187.2868873487005
 21
-72.979163047999918
 31
0.0
  0
LINE
  8
DETAIL
  6
CONTINUOUS
 62
     5
 10
-187.2868873487005
 20
-72.979163047999918
 30
0.0
 11
-187.30000000000021
 21
-73.317570356999568
 31
0.0
  0
LINE
  8
DETAIL
  6
CONTINUOUS
 62
     5
 10
-187.21177090440011
 20
-64.691205459299908
 30
0.0
 11
-187.24932150960009
 21
-64.765151224100009
 31
0.0
  0
LINE
  8
DETAIL
  6
CONTINUOUS
 62
     5
 10
-187.24932150960009
 20
-64.765151224100009
 30
0.0
 11
-187.28699183730029
 21
-64.879314201899888
 31
0.0
  0
LINE
  8
DETAIL
  6
CONTINUOUS
 62
     5
 10
-187.28699183730029
 20
-64.879314201899888
 30
0.0
 11
-187.30000000000021
 21
-64.9927998733001
 31
0.0
  0
LINE
  8
DETAIL
  6
CONTINUOUS
 62
     5
 10
-183.3883739357002
 20
-74.997346651399766
 30
0.0
 11
-183.30000000000021
 21
-74.844278504700014
 31
0.0
  0
LINE
  8
DETAIL
  6
CONTINUOUS
 62
     5
 10
-187.30000000000021
 20
-64.844278504700242
 30
0.0
 11
-187.21162606430019
 21
-64.69121035789999
 31
0.0
  0
LINE
  8
DETAIL
  6
CONTINUOUS
 62
     5
 10
-183.74658198740011
 20
-75.394125493799947
 30
0.0
 11
-183.6111320864002
 21
-75.272687357999985
 31
0.0
  0
LINE
  8
DETAIL
  6
CONTINUOUS
 62
     5
 10
-183.6111320864002
 20
-75.272687357999985
 30
0.0
 11
-183.49999835390011
 21
-75.153755036199982
 31
0.0
  0
LINE
  8
DETAIL
  6
CONTINUOUS
 62
     5
 10
-183.49999835390011
 20
-75.153755036199982
 30
0.0
 11
-183.41309485950021
 21
-75.037786450299791
 31
0.0
  0
LINE
  8
DETAIL
  6
CONTINUOUS
 62
     5
 10
-183.41309485950021
 20
-75.037786450299791
 30
0.0
 11
-183.3882281555002
 21
-74.997351581799649
 31
0.0
  0
LINE
  8
DETAIL
  6
CONTINUOUS
 62
     5
 10
-188.30000000000021
 20
-87.653415357399808
 30
0.0
 11
-190.60000000000039
 21
-87.653415357399808
 31
0.0
  0
LINE
  8
DETAIL
  6
CONTINUOUS
 62
     5
 10
-300.90000000000009
 20
-87.653415357399808
 30
0.0
 11
-298.60000000000042
 21
-87.653415357399808
 31
0.0
  0
LINE
  8
DETAIL
  6
CONTINUOUS
 62
     5
 10
-298.60000000000042
 20
-86.5
 30
0.0
 11
-300.90000000000009
 21
-86.5
 31
0.0
  0
LINE
  8
DETAIL
  6
CONTINUOUS
 62
     5
 10
-190.60000000000039
 20
-86.5
 30
0.0
 11
-188.30000000000021
 21
-86.5
 31
0.0
  0
LINE
  8
DETAIL
  6
CONTINUOUS
 62
     5
 10
-188.30000000000021
 20
-85.507299330499791
 30
0.0
 11
-190.60000000000039
 21
-85.507299330499791
 31
0.0
  0
LINE
  8
DETAIL
  6
CONTINUOUS
 62
     5
 10
-300.90000000000009
 20
-85.507299330499791
 30
0.0
 11
-298.60000000000042
 21
-85.507299330499791
 31
0.0
  0
LINE
  8
DETAIL
  6
CONTINUOUS
 62
     5
 10
-303.20000000000027
 20
-83.899999999999636
 30
0.0
 11
-303.5
 21
-83.899999999999636
 31
0.0
  0
LINE
  8
DETAIL
  6
CONTINUOUS
 62
     5
 10
-330.5
 20
-83.899999999999636
 30
0.0
 11
-330.80000000000018
 21
-83.899999999999636
 31
0.0
  0
LINE
  8
DETAIL
  6
CONTINUOUS
 62
     5
 10
-186.0
 20
-83.899999999999636
 30
0.0
 11
-175.0
 21
-83.899999999999636
 31
0.0
  0
LINE
  8
DETAIL
  6
CONTINUOUS
 62
     5
 10
-301.40000000000009
 20
-78.91743931919973
 30
0.0
 11
-300.90000000000009
 21
-78.91743931919973
 31
0.0
  0
LINE
  8
DETAIL
  6
CONTINUOUS
 62
     5
 10
-188.30000000000021
 20
-78.844278504700014
 30
0.0
 11
-187.30000000000021
 21
-78.844278504700014
 31
0.0
  0
LINE
  8
DETAIL
  6
CONTINUOUS
 62
     5
 10
-186.85341801260029
 20
-75.394125493799947
 30
0.0
 11
-183.74658198740011
 21
-75.394125493799947
 31
0.0
  0
LINE
  8
DETAIL
  6
CONTINUOUS
 62
     5
 10
-317.0
 20
-79.793109755899877
 30
0.0
 11
-317.36460827570039
 21
-79.782910781699911
 31
0.0
  0
LINE
  8
DETAIL
  6
CONTINUOUS
 62
     5
 10
-317.36460827570039
 20
-79.782910781699911
 30
0.0
 11
-317.71985431240051
 21
-79.753264768999543
 31
0.0
  0
LINE
  8
DETAIL
  6
CONTINUOUS
 62
     5
 10
-317.71985431240051
 20
-79.753264768999543
 30
0.0
 11
-318.08444453030012
 21
-79.702326913899924
 31
0.0
  0
LINE
  8
DETAIL
  6
CONTINUOUS
 62
     5
 10
-318.08444453030012
 20
-79.702326913899924
 30
0.0
 11
-318.46361168480053
 21
-79.626775824099695
 31
0.0
  0
LINE
  8
DETAIL
  6
CONTINUOUS
 62
     5
 10
-318.46361168480053
 20
-79.626775824099695
 30
0.0
 11
-318.85924125040037
 21
-79.522507289100076
 31
0.0
  0
LINE
  8
DETAIL
  6
CONTINUOUS
 62
     5
 10
-318.85924125040037
 20
-79.522507289100076
 30
0.0
 11
-319.26058082200052
 21
-79.388843209899733
 31
0.0
  0
LINE
  8
DETAIL
  6
CONTINUOUS
 62
     5
 10
-319.26058082200052
 20
-79.388843209899733
 30
0.0
 11
-319.64605327470008
 21
-79.232271011099783
 31
0.0
  0
LINE
  8
DETAIL
  6
CONTINUOUS
 62
     5
 10
-319.64605327470008
 20
-79.232271011099783
 30
0.0
 11
-320.02588222200029
 21
-79.048761971699832
 31
0.0
  0
LINE
  8
DETAIL
  6
CONTINUOUS
 62
     5
 10
-320.02588222200029
 20
-79.048761971699832
 30
0.0
 11
-320.40276193940008
 21
-78.83515972089981
 31
0.0
  0
LINE
  8
DETAIL
  6
CONTINUOUS
 62
     5
 10
-320.40276193940008
 20
-78.83515972089981
 30
0.0
 11
-320.77700286280009
 21
-78.588246037599674
 31
0.0
  0
LINE
  8
DETAIL
  6
CONTINUOUS
 62
     5
 10
-320.77700286280009
 20
-78.588246037599674
 30
0.0
 11
-321.15115303650009
 21
-78.301606562700044
 31
0.0
  0
LINE
  8
DETAIL
  6
CONTINUOUS
 62
     5
 10
-321.15115303650009
 20
-78.301606562700044
 30
0.0
 11
-321.51755400410048
 21
-77.975363954599743
 31
0.0
  0
LINE
  8
DETAIL
  6
CONTINUOUS
 62
     5
 10
-292.07158408400028
 20
-106.2410596903003
 30
0.0
 11
-289.69489762480038
 21
-106.5829994809003
 31
0.0
  0
LINE
  8
DETAIL
  6
CONTINUOUS
 62
     5
 10
-289.69489762480038
 20
-106.5829994809003
 30
0.0
 11
-288.51241621909998
 21
-106.7559292861997
 31
0.0
  0
LINE
  8
DETAIL
  6
CONTINUOUS
 62
     5
 10
-288.51241621909998
 20
-106.7559292861997
 30
0.0
 11
-287.33515636680022
 21
-106.93365658099989
 31
0.0
  0
LINE
  8
DETAIL
  6
CONTINUOUS
 62
     5
 10
-287.33515636680022
 20
-106.93365658099989
 30
0.0
 11
-286.16410332110041
 21
-107.1187995273001
 31
0.0
  0
LINE
  8
DETAIL
  6
CONTINUOUS
 62
     5
 10
-286.16410332110041
 20
-107.1187995273001
 30
0.0
 11
-285.00024233500022
 21
-107.31397628729999
 31
0.0
  0
LINE
  8
DETAIL
  6
CONTINUOUS
 62
     5
 10
-285.00024233500022
 20
-107.31397628729999
 30
0.0
 11
-283.84455866180042
 21
-107.5218050230999
 31
0.0
  0
LINE
  8
DETAIL
  6
CONTINUOUS
 62
     5
 10
-318.52027957950031
 20
-79.609069395499773
 30
0.0
 11
-318.27484344510049
 21
-79.647555276599633
 31
0.0
  0
LINE
  8
DETAIL
  6
CONTINUOUS
 62
     5
 10
-318.27484344510049
 20
-79.647555276599633
 30
0.0
 11
-318.02543174750008
 21
-79.666154834099871
 31
0.0
  0
LINE
  8
DETAIL
  6
CONTINUOUS
 62
     5
 10
-318.02543174750008
 20
-79.666154834099871
 30
0.0
 11
-317.77282227010028
 21
-79.664810065600022
 31
0.0
  0
LINE
  8
DETAIL
  6
CONTINUOUS
 62
     5
 10
-317.77282227010028
 20
-79.664810065600022
 30
0.0
 11
-317.51780276840049
 21
-79.643525164799939
 31
0.0
  0
LINE
  8
DETAIL
  6
CONTINUOUS
 62
     5
 10
-317.51780276840049
 20
-79.643525164799939
 30
0.0
 11
-317.26116851350031
 21
-79.602366508099749
 31
0.0
  0
LINE
  8
DETAIL
  6
CONTINUOUS
 62
     5
 10
-317.26116851350031
 20
-79.602366508099749
 30
0.0
 11
-316.99999997680021
 21
-79.540439161299673
 31
0.0
  0
LINE
  8
DETAIL
  6
CONTINUOUS
 62
     5
 10
-283.84455866180042
 20
-107.5218050230999
 30
0.0
 11
-283.04519093450023
 21
-107.6725172969002
 31
0.0
  0
LINE
  8
DETAIL
  6
CONTINUOUS
 62
     5
 10
-283.04519093450023
 20
-107.6725172969002
 30
0.0
 11
-282.23424898820031
 21
-107.82840999279961
 31
0.0
  0
LINE
  8
DETAIL
  6
CONTINUOUS
 62
     5
 10
-282.23424898820031
 20
-107.82840999279961
 30
0.0
 11
-281.41262410490032
 21
-107.98961273899999
 31
0.0
  0
LINE
  8
DETAIL
  6
CONTINUOUS
 62
     5
 10
-281.41262410490032
 20
-107.98961273899999
 30
0.0
 11
-280.58120756680051
 21
-108.1562551636998
 31
0.0
  0
LINE
  8
DETAIL
  6
CONTINUOUS
 62
     5
 10
-280.58120756680051
 20
-108.1562551636998
 30
0.0
 11
-279.74089065610042
 21
-108.3284668947999
 31
0.0
  0
LINE
  8
DETAIL
  6
CONTINUOUS
 62
     5
 10
-279.74089065610042
 20
-108.3284668947999
 30
0.0
 11
-278.89256465490013
 21
-108.5063775604999
 31
0.0
  0
LINE
  8
DETAIL
  6
CONTINUOUS
 62
     5
 10
-278.89256465490013
 20
-108.5063775604999
 30
0.0
 11
-278.03712084550028
 21
-108.6901167889
 31
0.0
  0
LINE
  8
DETAIL
  6
CONTINUOUS
 62
     5
 10
-278.03712084550028
 20
-108.6901167889
 30
0.0
 11
-277.17545051000002
 21
-108.8798142080998
 31
0.0
  0
LINE
  8
DETAIL
  6
CONTINUOUS
 62
     5
 10
-277.17545051000002
 20
-108.8798142080998
 30
0.0
 11
-276.30844493060022
 21
-109.0755994460999
 31
0.0
  0
LINE
  8
DETAIL
  6
CONTINUOUS
 62
     5
 10
-276.30844493060022
 20
-109.0755994460999
 30
0.0
 11
-275.43699538940018
 21
-109.27760213110039
 31
0.0
  0
LINE
  8
DETAIL
  6
CONTINUOUS
 62
     5
 10
-275.43699538940018
 20
-109.27760213110039
 30
0.0
 11
-274.56199316870021
 21
-109.4859518912001
 31
0.0
  0
LINE
  8
DETAIL
  6
CONTINUOUS
 62
     5
 10
-274.56199316870021
 20
-109.4859518912001
 30
0.0
 11
-273.68432955050002
 21
-109.7007783544002
 31
0.0
  0
LINE
  8
DETAIL
  6
CONTINUOUS
 62
     5
 10
-273.68432955050002
 20
-109.7007783544002
 30
0.0
 11
-272.80489581710032
 21
-109.92221114889981
 31
0.0
  0
LINE
  8
DETAIL
  6
CONTINUOUS
 62
     5
 10
-272.80489581710032
 20
-109.92221114889981
 30
0.0
 11
-271.92458325070038
 21
-110.1503799026998
 31
0.0
  0
LINE
  8
DETAIL
  6
CONTINUOUS
 62
     5
 10
-271.92458325070038
 20
-110.1503799026998
 30
0.0
 11
-271.04428313340031
 21
-110.3854142439998
 31
0.0
  0
LINE
  8
DETAIL
  6
CONTINUOUS
 62
     5
 10
-271.04428313340031
 20
-110.3854142439998
 30
0.0
 11
-270.16488674740049
 21
-110.62744380080019
 31
0.0
  0
LINE
  8
DETAIL
  6
CONTINUOUS
 62
     5
 10
-270.16488674740049
 20
-110.62744380080019
 30
0.0
 11
-269.28728537480038
 21
-110.8765982012003
 31
0.0
  0
LINE
  8
DETAIL
  6
CONTINUOUS
 62
     5
 10
-269.28728537480038
 20
-110.8765982012003
 30
0.0
 11
-268.41237029790051
 21
-111.13300707339999
 31
0.0
  0
LINE
  8
DETAIL
  6
CONTINUOUS
 62
     5
 10
-268.41237029790051
 20
-111.13300707339999
 30
0.0
 11
-267.54103279880019
 21
-111.3968000452999
 31
0.0
  0
LINE
  8
DETAIL
  6
CONTINUOUS
 62
     5
 10
-267.54103279880019
 20
-111.3968000452999
 30
0.0
 11
-266.67416415970001
 21
-111.66810674520001
 31
0.0
  0
LINE
  8
DETAIL
  6
CONTINUOUS
 62
     5
 10
-266.67416415970001
 20
-111.66810674520001
 30
0.0
 11
-265.76495779150042
 21
-111.9627686091999
 31
0.0
  0
LINE
  8
DETAIL
  6
CONTINUOUS
 62
     5
 10
-265.76495779150042
 20
-111.9627686091999
 30
0.0
 11
-264.86286839720009
 21
-112.2659726837999
 31
0.0
  0
LINE
  8
DETAIL
  6
CONTINUOUS
 62
     5
 10
-264.86286839720009
 20
-112.2659726837999
 30
0.0
 11
-263.96904033279998
 21
-112.57774445689979
 31
0.0
  0
LINE
  8
DETAIL
  6
CONTINUOUS
 62
     5
 10
-263.96904033279998
 20
-112.57774445689979
 30
0.0
 11
-263.08461795430048
 21
-112.8981094159999
 31
0.0
  0
LINE
  8
DETAIL
  6
CONTINUOUS
 62
     5
 10
-263.08461795430048
 20
-112.8981094159999
 30
0.0
 11
-262.21074561750038
 21
-113.22709304909949
 31
0.0
  0
LINE
  8
DETAIL
  6
CONTINUOUS
 62
     5
 10
-262.21074561750038
 20
-113.22709304909949
 30
0.0
 11
-261.34856767860038
 21
-113.56472084379951
 31
0.0
  0
LINE
  8
DETAIL
  6
CONTINUOUS
 62
     5
 10
-261.34856767860038
 20
-113.56472084379951
 30
0.0
 11
-260.49922849330011
 21
-113.91101828779981
 31
0.0
  0
LINE
  8
DETAIL
  6
CONTINUOUS
 62
     5
 10
-317.0
 20
-79.540439167700015
 30
0.0
 11
-316.7425454146005
 21
-79.601627126199674
 31
0.0
  0
LINE
  8
DETAIL
  6
CONTINUOUS
 62
     5
 10
-316.7425454146005
 20
-79.601627126199674
 30
0.0
 11
-316.48589369410053
 21
-79.643071986699852
 31
0.0
  0
LINE
  8
DETAIL
  6
CONTINUOUS
 62
     5
 10
-316.48589369410053
 20
-79.643071986699852
 30
0.0
 11
-316.23084519950038
 21
-79.664644504399803
 31
0.0
  0
LINE
  8
DETAIL
  6
CONTINUOUS
 62
     5
 10
-316.23084519950038
 20
-79.664644504399803
 30
0.0
 11
-315.97819529230043
 21
-79.666277406199697
 31
0.0
  0
LINE
  8
DETAIL
  6
CONTINUOUS
 62
     5
 10
-315.97819529230043
 20
-79.666277406199697
 30
0.0
 11
-315.72873185410032
 21
-79.647965599700001
 31
0.0
  0
LINE
  8
DETAIL
  6
CONTINUOUS
 62
     5
 10
-315.72873185410032
 20
-79.647965599700001
 30
0.0
 11
-315.47972039850038
 21
-79.609069391100093
 31
0.0
  0
LINE
  8
DETAIL
  6
CONTINUOUS
 62
     5
 10
-323.06079051630007
 20
-86.842037547899963
 30
0.0
 11
-322.82028728610021
 21
-86.952727221999794
 31
0.0
  0
LINE
  8
DETAIL
  6
CONTINUOUS
 62
     5
 10
-322.82028728610021
 20
-86.952727221999794
 30
0.0
 11
-322.41088527690039
 21
-87.104770759699932
 31
0.0
  0
LINE
  8
DETAIL
  6
CONTINUOUS
 62
     5
 10
-322.41088527690039
 20
-87.104770759699932
 30
0.0
 11
-321.9497474683003
 21
-87.245111156099938
 31
0.0
  0
LINE
  8
DETAIL
  6
CONTINUOUS
 62
     5
 10
-321.9497474683003
 20
-87.245111156099938
 30
0.0
 11
-321.44059878640019
 21
-87.372217962300283
 31
0.0
  0
LINE
  8
DETAIL
  6
CONTINUOUS
 62
     5
 10
-321.44059878640019
 20
-87.372217962300283
 30
0.0
 11
-320.98901639860009
 21
-87.464601619200039
 31
0.0
  0
LINE
  8
DETAIL
  6
CONTINUOUS
 62
     5
 10
-318.5
 20
-75.875381246100005
 30
0.0
 11
-318.62700263940042
 21
-75.815345169899956
 31
0.0
  0
LINE
  8
DETAIL
  6
CONTINUOUS
 62
     5
 10
-318.62700263940042
 20
-75.815345169899956
 30
0.0
 11
-318.8252906718003
 21
-75.692436978300293
 31
0.0
  0
LINE
  8
DETAIL
  6
CONTINUOUS
 62
     5
 10
-318.8252906718003
 20
-75.692436978300293
 30
0.0
 11
-318.9926807218003
 21
-75.555964701299672
 31
0.0
  0
LINE
  8
DETAIL
  6
CONTINUOUS
 62
     5
 10
-318.9926807218003
 20
-75.555964701299672
 30
0.0
 11
-319.12545031640002
 21
-75.407678325899724
 31
0.0
  0
LINE
  8
DETAIL
  6
CONTINUOUS
 62
     5
 10
-319.12545031640002
 20
-75.407678325899724
 30
0.0
 11
-319.22223124510037
 21
-75.250495422899803
 31
0.0
  0
LINE
  8
DETAIL
  6
CONTINUOUS
 62
     5
 10
-319.22223124510037
 20
-75.250495422899803
 30
0.0
 11
-319.28008834360031
 21
-75.088542580399917
 31
0.0
  0
LINE
  8
DETAIL
  6
CONTINUOUS
 62
     5
 10
-319.28008834360031
 20
-75.088542580399917
 30
0.0
 11
-319.30000000000018
 21
-74.920315659899643
 31
0.0
  0
LINE
  8
DETAIL
  6
CONTINUOUS
 62
     5
 10
-318.5
 20
-73.844949791699946
 30
0.0
 11
-318.52475216620041
 21
-73.831985662599891
 31
0.0
  0
LINE
  8
DETAIL
  6
CONTINUOUS
 62
     5
 10
-318.52475216620041
 20
-73.831985662599891
 30
0.0
 11
-318.63214784730047
 21
-73.764505416199881
 31
0.0
  0
LINE
  8
DETAIL
  6
CONTINUOUS
 62
     5
 10
-318.63214784730047
 20
-73.764505416199881
 30
0.0
 11
-318.72735016310031
 21
-73.692334444999915
 31
0.0
  0
LINE
  8
DETAIL
  6
CONTINUOUS
 62
     5
 10
-318.72735016310031
 20
-73.692334444999915
 30
0.0
 11
-318.80900609290029
 21
-73.61618713109965
 31
0.0
  0
LINE
  8
DETAIL
  6
CONTINUOUS
 62
     5
 10
-318.80900609290029
 20
-73.61618713109965
 30
0.0
 11
-318.87686913279998
 21
-73.536369718299738
 31
0.0
  0
LINE
  8
DETAIL
  6
CONTINUOUS
 62
     5
 10
-318.87686913279998
 20
-73.536369718299738
 30
0.0
 11
-318.93041181300032
 21
-73.453134734099876
 31
0.0
  0
LINE
  8
DETAIL
  6
CONTINUOUS
 62
     5
 10
-318.93041181300032
 20
-73.453134734099876
 30
0.0
 11
-318.96912401000009
 21
-73.367386648999855
 31
0.0
  0
LINE
  8
DETAIL
  6
CONTINUOUS
 62
     5
 10
-318.96912401000009
 20
-73.367386648999855
 30
0.0
 11
-318.99230372490052
 21
-73.279936330799956
 31
0.0
  0
LINE
  8
DETAIL
  6
CONTINUOUS
 62
     5
 10
-318.99230372490052
 20
-73.279936330799956
 30
0.0
 11
-319.00000019510031
 21
-73.192329024299852
 31
0.0
  0
LINE
  8
DETAIL
  6
CONTINUOUS
 62
     5
 10
-329.70282096049999
 20
-85.070210898999903
 30
0.0
 11
-330.05098359930031
 21
-84.825209393299701
 31
0.0
  0
LINE
  8
DETAIL
  6
CONTINUOUS
 62
     5
 10
-330.05098359930031
 20
-84.825209393299701
 30
0.0
 11
-330.2999009854002
 21
-84.558641209399866
 31
0.0
  0
LINE
  8
DETAIL
  6
CONTINUOUS
 62
     5
 10
-330.2999009854002
 20
-84.558641209399866
 30
0.0
 11
-330.44977418220009
 21
-84.268919504299902
 31
0.0
  0
LINE
  8
DETAIL
  6
CONTINUOUS
 62
     5
 10
-330.44977418220009
 20
-84.268919504299902
 30
0.0
 11
-330.5
 21
-83.958252460100084
 31
0.0
  0
LINE
  8
DETAIL
  6
CONTINUOUS
 62
     5
 10
-318.52027957950031
 20
-78.770977708699775
 30
0.0
 11
-318.27484344510049
 21
-78.944766324099874
 31
0.0
  0
LINE
  8
DETAIL
  6
CONTINUOUS
 62
     5
 10
-318.27484344510049
 20
-78.944766324099874
 30
0.0
 11
-318.02543174750008
 21
-79.100860243199804
 31
0.0
  0
LINE
  8
DETAIL
  6
CONTINUOUS
 62
     5
 10
-318.02543174750008
 20
-79.100860243199804
 30
0.0
 11
-317.77282227010028
 21
-79.238772691499889
 31
0.0
  0
LINE
  8
DETAIL
  6
CONTINUOUS
 62
     5
 10
-317.77282227010028
 20
-79.238772691499889
 30
0.0
 11
-317.51780276840049
 21
-79.358073592999972
 31
0.0
  0
LINE
  8
DETAIL
  6
CONTINUOUS
 62
     5
 10
-317.51780276840049
 20
-79.358073592999972
 30
0.0
 11
-317.26116851350031
 21
-79.458390911099968
 31
0.0
  0
LINE
  8
DETAIL
  6
CONTINUOUS
 62
     5
 10
-317.26116851350031
 20
-79.458390911099968
 30
0.0
 11
-316.99999997680021
 21
-79.540439174099902
 31
0.0
  0
LINE
  8
DETAIL
  6
CONTINUOUS
 62
     5
 10
-321.51755400410048
 20
-77.975363954599743
 30
0.0
 11
-321.62859643920052
 21
-77.842876221099687
 31
0.0
  0
LINE
  8
DETAIL
  6
CONTINUOUS
 62
     5
 10
-321.62859643920052
 20
-77.842876221099687
 30
0.0
 11
-321.70000000000027
 21
-77.617915775799702
 31
0.0
  0
LINE
  8
DETAIL
  6
CONTINUOUS
 62
     5
 10
-319.04746987610042
 20
-91.826876989099674
 30
0.0
 11
-318.56490387610029
 21
-92.682072292799603
 31
0.0
  0
LINE
  8
DETAIL
  6
CONTINUOUS
 62
     5
 10
-318.56490387610029
 20
-92.682072292799603
 30
0.0
 11
-318.05804718439998
 21
-93.506313489500144
 31
0.0
  0
LINE
  8
DETAIL
  6
CONTINUOUS
 62
     5
 10
-318.05804718439998
 20
-93.506313489500144
 30
0.0
 11
-317.52762413660048
 21
-94.299418834199969
 31
0.0
  0
LINE
  8
DETAIL
  6
CONTINUOUS
 62
     5
 10
-317.52762413660048
 20
-94.299418834199969
 30
0.0
 11
-316.97435906800052
 21
-95.061206582199702
 31
0.0
  0
LINE
  8
DETAIL
  6
CONTINUOUS
 62
     5
 10
-316.97435906800052
 20
-95.061206582199702
 30
0.0
 11
-316.39897631400032
 21
-95.791494988499835
 31
0.0
  0
LINE
  8
DETAIL
  6
CONTINUOUS
 62
     5
 10
-316.39897631400032
 20
-95.791494988499835
 30
0.0
 11
-315.80220021010018
 21
-96.490102308199766
 31
0.0
  0
LINE
  8
DETAIL
  6
CONTINUOUS
 62
     5
 10
-315.80220021010018
 20
-96.490102308199766
 30
0.0
 11
-315.18486681980039
 21
-97.156930951899994
 31
0.0
  0
LINE
  8
DETAIL
  6
CONTINUOUS
 62
     5
 10
-315.18486681980039
 20
-97.156930951899994
 30
0.0
 11
-314.54825911880022
 21
-97.792219951000106
 31
0.0
  0
LINE
  8
DETAIL
  6
CONTINUOUS
 62
     5
 10
-314.54825911880022
 20
-97.792219951000106
 30
0.0
 11
-313.89377181080039
 21
-98.396292492599969
 31
0.0
  0
LINE
  8
DETAIL
  6
CONTINUOUS
 62
     5
 10
-313.89377181080039
 20
-98.396292492599969
 30
0.0
 11
-313.22279959970001
 21
-98.969471763399952
 31
0.0
  0
LINE
  8
DETAIL
  6
CONTINUOUS
 62
     5
 10
-313.22279959970001
 20
-98.969471763399952
 30
0.0
 11
-312.53673718910022
 21
-99.512080950499694
 31
0.0
  0
LINE
  8
DETAIL
  6
CONTINUOUS
 62
     5
 10
-312.53673718910022
 20
-99.512080950499694
 30
0.0
 11
-311.8369792829003
 21
-100.0244432407999
 31
0.0
  0
LINE
  8
DETAIL
  6
CONTINUOUS
 62
     5
 10
-311.8369792829003
 20
-100.0244432407999
 30
0.0
 11
-311.1248734112005
 21
-100.50701583690009
 31
0.0
  0
LINE
  8
DETAIL
  6
CONTINUOUS
 62
     5
 10
-311.1248734112005
 20
-100.50701583690009
 30
0.0
 11
-310.40157840920028
 21
-100.96079200440001
 31
0.0
  0
LINE
  8
DETAIL
  6
CONTINUOUS
 62
     5
 10
-310.40157840920028
 20
-100.96079200440001
 30
0.0
 11
-309.66820593880038
 21
-101.3868990249
 31
0.0
  0
LINE
  8
DETAIL
  6
CONTINUOUS
 62
     5
 10
-309.66820593880038
 20
-101.3868990249
 30
0.0
 11
-308.92586766160048
 21
-101.78646417959951
 31
0.0
  0
LINE
  8
DETAIL
  6
CONTINUOUS
 62
     5
 10
-308.92586766160048
 20
-101.78646417959951
 30
0.0
 11
-308.17567523940028
 21
-102.1606147501
 31
0.0
  0
LINE
  8
DETAIL
  6
CONTINUOUS
 62
     5
 10
-308.17567523940028
 20
-102.1606147501
 30
0.0
 11
-307.41874033380009
 21
-102.5104780178001
 31
0.0
  0
LINE
  8
DETAIL
  6
CONTINUOUS
 62
     5
 10
-307.41874033380009
 20
-102.5104780178001
 30
0.0
 11
-306.50291666380008
 21
-102.89990511389991
 31
0.0
  0
LINE
  8
DETAIL
  6
CONTINUOUS
 62
     5
 10
-306.50291666380008
 20
-102.89990511389991
 30
0.0
 11
-305.57990401310047
 21
-103.25830893609989
 31
0.0
  0
LINE
  8
DETAIL
  6
CONTINUOUS
 62
     5
 10
-305.57990401310047
 20
-103.25830893609989
 30
0.0
 11
-304.65062178410022
 21
-103.58801664160021
 31
0.0
  0
LINE
  8
DETAIL
  6
CONTINUOUS
 62
     5
 10
-304.65062178410022
 20
-103.58801664160021
 30
0.0
 11
-303.71598937930048
 21
-103.8913553872999
 31
0.0
  0
LINE
  8
DETAIL
  6
CONTINUOUS
 62
     5
 10
-303.71598937930048
 20
-103.8913553872999
 30
0.0
 11
-302.77692620100021
 21
-104.1706523301
 31
0.0
  0
LINE
  8
DETAIL
  6
CONTINUOUS
 62
     5
 10
-302.77692620100021
 20
-104.1706523301
 30
0.0
 11
-301.59810880100031
 21
-104.4893410882996
 31
0.0
  0
LINE
  8
DETAIL
  6
CONTINUOUS
 62
     5
 10
-301.59810880100031
 20
-104.4893410882996
 30
0.0
 11
-300.41465076610029
 21
-104.77763245919959
 31
0.0
  0
LINE
  8
DETAIL
  6
CONTINUOUS
 62
     5
 10
-300.41465076610029
 20
-104.77763245919959
 30
0.0
 11
-299.22739797870048
 21
-105.03905819000011
 31
0.0
  0
LINE
  8
DETAIL
  6
CONTINUOUS
 62
     5
 10
-299.22739797870048
 20
-105.03905819000011
 30
0.0
 11
-298.03719632090042
 21
-105.2771500273
 31
0.0
  0
LINE
  8
DETAIL
  6
CONTINUOUS
 62
     5
 10
-298.03719632090042
 20
-105.2771500273
 30
0.0
 11
-296.84489167500033
 21
-105.4954397182
 31
0.0
  0
LINE
  8
DETAIL
  6
CONTINUOUS
 62
     5
 10
-296.84489167500033
 20
-105.4954397182
 30
0.0
 11
-295.65132992320008
 21
-105.69745900949989
 31
0.0
  0
LINE
  8
DETAIL
  6
CONTINUOUS
 62
     5
 10
-295.65132992320008
 20
-105.69745900949989
 30
0.0
 11
-294.45735694790028
 21
-105.886739648
 31
0.0
  0
LINE
  8
DETAIL
  6
CONTINUOUS
 62
     5
 10
-294.45735694790028
 20
-105.886739648
 30
0.0
 11
-293.26381863130018
 21
-106.0668133807001
 31
0.0
  0
LINE
  8
DETAIL
  6
CONTINUOUS
 62
     5
 10
-293.26381863130018
 20
-106.0668133807001
 30
0.0
 11
-292.07158408400028
 21
-106.2410596903003
 31
0.0
  0
LINE
  8
DETAIL
  6
CONTINUOUS
 62
     5
 10
-183.74658198740011
 20
-65.691168230999665
 30
0.0
 11
-183.6111320864002
 21
-66.17369515589985
 31
0.0
  0
LINE
  8
DETAIL
  6
CONTINUOUS
 62
     5
 10
-183.6111320864002
 20
-66.17369515589985
 30
0.0
 11
-183.49999835390011
 21
-66.646265384099934
 31
0.0
  0
LINE
  8
DETAIL
  6
CONTINUOUS
 62
     5
 10
-183.49999835390011
 20
-66.646265384099934
 30
0.0
 11
-183.41309485950021
 21
-67.107059390799805
 31
0.0
  0
LINE
  8
DETAIL
  6
CONTINUOUS
 62
     5
 10
-183.41309485950021
 20
-67.107059390799805
 30
0.0
 11
-183.35067939490051
 21
-67.56153575019971
 31
0.0
  0
LINE
  8
DETAIL
  6
CONTINUOUS
 62
     5
 10
-183.35067939490051
 20
-67.56153575019971
 30
0.0
 11
-183.31300975190021
 21
-68.015153036799802
 31
0.0
  0
LINE
  8
DETAIL
  6
CONTINUOUS
 62
     5
 10
-183.31300975190021
 20
-68.015153036799802
 30
0.0
 11
-183.30000000000021
 21
-68.466091725599881
 31
0.0
  0
LINE
  8
DETAIL
  6
CONTINUOUS
 62
     5
 10
-187.30000000000021
 20
69.982322017300248
 30
0.0
 11
-187.2869534166002
 21
69.868750257400279
 31
0.0
  0
LINE
  8
DETAIL
  6
CONTINUOUS
 62
     5
 10
-187.2869534166002
 20
69.868750257400279
 30
0.0
 11
-187.24927143410011
 21
69.754559946899917
 31
0.0
  0
LINE
  8
DETAIL
  6
CONTINUOUS
 62
     5
 10
-187.24927143410011
 20
69.754559946899917
 30
0.0
 11
-187.1868772711
 21
69.640229806900152
 31
0.0
  0
LINE
  8
DETAIL
  6
CONTINUOUS
 62
     5
 10
-187.1868772711
 20
69.640229806900152
 30
0.0
 11
-187.10000127140029
 21
69.524323673900199
 31
0.0
  0
LINE
  8
DETAIL
  6
CONTINUOUS
 62
     5
 10
-187.10000127140029
 20
69.524323673900199
 30
0.0
 11
-186.9888737791002
 21
69.405405384400183
 31
0.0
  0
LINE
  8
DETAIL
  6
CONTINUOUS
 62
     5
 10
-186.9888737791002
 20
69.405405384400183
 30
0.0
 11
-186.85341801260029
 21
69.283953659600229
 31
0.0
  0
LINE
  8
DETAIL
  6
CONTINUOUS
 62
     5
 10
-187.30000000000021
 20
-64.9927998733001
 30
0.0
 11
-187.2869534166002
 21
-65.106371633199615
 31
0.0
  0
LINE
  8
DETAIL
  6
CONTINUOUS
 62
     5
 10
-187.2869534166002
 20
-65.106371633199615
 30
0.0
 11
-187.24927143410011
 21
-65.220561943699977
 31
0.0
  0
LINE
  8
DETAIL
  6
CONTINUOUS
 62
     5
 10
-187.24927143410011
 20
-65.220561943699977
 30
0.0
 11
-187.1868772711
 21
-65.334892083699742
 31
0.0
  0
LINE
  8
DETAIL
  6
CONTINUOUS
 62
     5
 10
-187.1868772711
 20
-65.334892083699742
 30
0.0
 11
-187.10000127140029
 21
-65.450798216699695
 31
0.0
  0
LINE
  8
DETAIL
  6
CONTINUOUS
 62
     5
 10
-187.10000127140029
 20
-65.450798216699695
 30
0.0
 11
-186.9888737791002
 21
-65.569716506199711
 31
0.0
  0
LINE
  8
DETAIL
  6
CONTINUOUS
 62
     5
 10
-186.9888737791002
 20
-65.569716506199711
 30
0.0
 11
-186.85341801260029
 21
-65.691168230999665
 31
0.0
  0
LINE
  8
DETAIL
  6
CONTINUOUS
 62
     5
 10
-187.30000000000021
 20
61.657551533600099
 30
0.0
 11
-187.28658813410041
 21
61.316763825299859
 31
0.0
  0
LINE
  8
DETAIL
  6
CONTINUOUS
 62
     5
 10
-187.28658813410041
 20
61.316763825299859
 30
0.0
 11
-187.24851812680029
 21
60.975261108000041
 31
0.0
  0
LINE
  8
DETAIL
  6
CONTINUOUS
 62
     5
 10
-187.24851812680029
 20
60.975261108000041
 30
0.0
 11
-187.18555489520031
 21
60.634362366299911
 31
0.0
  0
LINE
  8
DETAIL
  6
CONTINUOUS
 62
     5
 10
-187.18555489520031
 20
60.634362366299911
 30
0.0
 11
-187.0984036883001
 21
60.290110646499897
 31
0.0
  0
LINE
  8
DETAIL
  6
CONTINUOUS
 62
     5
 10
-187.0984036883001
 20
60.290110646499897
 30
0.0
 11
-186.98776975510009
 21
59.938548995200108
 31
0.0
  0
LINE
  8
DETAIL
  6
CONTINUOUS
 62
     5
 10
-186.98776975510009
 20
59.938548995200108
 30
0.0
 11
-186.85341801260029
 21
59.580996396799947
 31
0.0
  0
LINE
  8
DETAIL
  6
CONTINUOUS
 62
     5
 10
-187.30000000000021
 20
-73.317570356999568
 30
0.0
 11
-187.28658813410041
 21
-73.658358065299808
 31
0.0
  0
LINE
  8
DETAIL
  6
CONTINUOUS
 62
     5
 10
-187.28658813410041
 20
-73.658358065299808
 30
0.0
 11
-187.24851812680029
 21
-73.999860782600081
 31
0.0
  0
LINE
  8
DETAIL
  6
CONTINUOUS
 62
     5
 10
-187.24851812680029
 20
-73.999860782600081
 30
0.0
 11
-187.18555489520031
 21
-74.340759524299983
 31
0.0
  0
LINE
  8
DETAIL
  6
CONTINUOUS
 62
     5
 10
-187.18555489520031
 20
-74.340759524299983
 30
0.0
 11
-187.0984036883001
 21
-74.685011244099769
 31
0.0
  0
LINE
  8
DETAIL
  6
CONTINUOUS
 62
     5
 10
-187.0984036883001
 20
-74.685011244099769
 30
0.0
 11
-186.98776975510009
 21
-75.036572895399786
 31
0.0
  0
LINE
  8
DETAIL
  6
CONTINUOUS
 62
     5
 10
-186.98776975510009
 20
-75.036572895399786
 30
0.0
 11
-186.85341801260029
 21
-75.394125493799947
 31
0.0
  0
LINE
  8
DETAIL
  6
CONTINUOUS
 62
     5
 10
-187.30000000000021
 20
66.50903016500024
 30
0.0
 11
-187.2869534166002
 21
66.057759798400184
 31
0.0
  0
LINE
  8
DETAIL
  6
CONTINUOUS
 62
     5
 10
-187.2869534166002
 20
66.057759798400184
 30
0.0
 11
-187.24927143410011
 21
65.604031659100201
 31
0.0
  0
LINE
  8
DETAIL
  6
CONTINUOUS
 62
     5
 10
-187.24927143410011
 20
65.604031659100201
 30
0.0
 11
-187.1868772711
 21
65.149747915900207
 31
0.0
  0
LINE
  8
DETAIL
  6
CONTINUOUS
 62
     5
 10
-187.1868772711
 20
65.149747915900207
 30
0.0
 11
-187.10000127140029
 21
64.689202062100321
 31
0.0
  0
LINE
  8
DETAIL
  6
CONTINUOUS
 62
     5
 10
-187.10000127140029
 20
64.689202062100321
 30
0.0
 11
-186.9888737791002
 21
64.216687590600031
 31
0.0
  0
LINE
  8
DETAIL
  6
CONTINUOUS
 62
     5
 10
-186.9888737791002
 20
64.216687590600031
 30
0.0
 11
-186.85341801260029
 21
63.734106670400251
 31
0.0
  0
LINE
  8
DETAIL
  6
CONTINUOUS
 62
     5
 10
-187.30000000000021
 20
-68.466091725599881
 30
0.0
 11
-187.2869534166002
 21
-68.91736209219971
 31
0.0
  0
LINE
  8
DETAIL
  6
CONTINUOUS
 62
     5
 10
-187.2869534166002
 20
-68.91736209219971
 30
0.0
 11
-187.24927143410011
 21
-69.37109023149992
 31
0.0
  0
LINE
  8
DETAIL
  6
CONTINUOUS
 62
     5
 10
-187.24927143410011
 20
-69.37109023149992
 30
0.0
 11
-187.1868772711
 21
-69.825373974699687
 31
0.0
  0
LINE
  8
DETAIL
  6
CONTINUOUS
 62
     5
 10
-187.1868772711
 20
-69.825373974699687
 30
0.0
 11
-187.10000127140029
 21
-70.285919828499573
 31
0.0
  0
LINE
  8
DETAIL
  6
CONTINUOUS
 62
     5
 10
-187.10000127140029
 20
-70.285919828499573
 30
0.0
 11
-186.9888737791002
 21
-70.758434299999863
 31
0.0
  0
LINE
  8
DETAIL
  6
CONTINUOUS
 62
     5
 10
-186.9888737791002
 20
-70.758434299999863
 30
0.0
 11
-186.85341801260029
 21
-71.24101522010028
 31
0.0
  0
LINE
  8
DETAIL
  6
CONTINUOUS
 62
     5
 10
-171.0
 20
279.7445413933001
 30
0.0
 11
-171.0
 21
-269.60157224509987
 31
0.0
  0
LINE
  8
DETAIL
  6
CONTINUOUS
 62
     5
 10
-171.0
 20
-302.13051181259561
 30
0.0
 11
-171.0
 21
-310.0
 31
0.0
  0
LINE
  8
DETAIL
  6
CONTINUOUS
 62
     5
 10
-175.0
 20
279.38661284210002
 30
0.0
 11
-175.0
 21
-269.25806107939991
 31
0.0
  0
LINE
  8
DETAIL
  6
CONTINUOUS
 62
     5
 10
-175.0
 20
-302.21359984695118
 30
0.0
 11
-175.0
 21
-310.0
 31
0.0
  0
LINE
  8
DETAIL
  6
CONTINUOUS
 62
     5
 10
-183.30000000000021
 20
70.130830248000166
 30
0.0
 11
-183.30000000000021
 21
60.130856523899872
 31
0.0
  0
LINE
  8
DETAIL
  6
CONTINUOUS
 62
     5
 10
-183.30000000000021
 20
-64.844291642599728
 30
0.0
 11
-183.30000000000021
 21
-74.844265366699801
 31
0.0
  0
LINE
  8
DETAIL
  6
CONTINUOUS
 62
     5
 10
-187.30000000000021
 20
74.130765950299974
 30
0.0
 11
-187.30000000000021
 21
56.13092082150024
 31
0.0
  0
LINE
  8
DETAIL
  6
CONTINUOUS
 62
     5
 10
-187.30000000000021
 20
-60.84435594029992
 30
0.0
 11
-187.30000000000021
 21
-78.844201069099881
 31
0.0
  0
LINE
  8
DETAIL
  6
CONTINUOUS
 62
     5
 10
-188.30000000000021
 20
87.653363541399813
 30
0.0
 11
-188.30000000000021
 21
-85.507261269699939
 31
0.0
  0
LINE
  8
DETAIL
  6
CONTINUOUS
 62
     5
 10
-188.30000000000021
 20
-85.515500591799764
 30
0.0
 11
-188.30000000000021
 21
-87.653363541499857
 31
0.0
  0
LINE
  8
DETAIL
  6
CONTINUOUS
 62
     5
 10
-183.30000000000021
 20
-68.466091725599881
 30
0.0
 11
-183.31304817040021
 21
-68.91737221439962
 31
0.0
  0
LINE
  8
DETAIL
  6
CONTINUOUS
 62
     5
 10
-183.31304817040021
 20
-68.91737221439962
 30
0.0
 11
-183.35072939140039
 21
-69.37109765949981
 31
0.0
  0
LINE
  8
DETAIL
  6
CONTINUOUS
 62
     5
 10
-183.35072939140039
 20
-69.37109765949981
 30
0.0
 11
-183.41311883750041
 21
-69.825357672399605
 31
0.0
  0
LINE
  8
DETAIL
  6
CONTINUOUS
 62
     5
 10
-183.41311883750041
 20
-69.825357672399605
 30
0.0
 11
-183.4999909850003
 21
-70.285883418699996
 31
0.0
  0
LINE
  8
DETAIL
  6
CONTINUOUS
 62
     5
 10
-183.4999909850003
 20
-70.285883418699996
 30
0.0
 11
-183.6111203101004
 21
-70.758406064199789
 31
0.0
  0
LINE
  8
DETAIL
  6
CONTINUOUS
 62
     5
 10
-183.6111203101004
 20
-70.758406064199789
 30
0.0
 11
-183.74658198740011
 21
-71.24101522010028
 31
0.0
  0
LINE
  8
DETAIL
  6
CONTINUOUS
 62
     5
 10
-183.30000000000021
 20
66.50903016500024
 30
0.0
 11
-183.31304817040021
 21
66.057749676200274
 31
0.0
  0
LINE
  8
DETAIL
  6
CONTINUOUS
 62
     5
 10
-183.31304817040021
 20
66.057749676200274
 30
0.0
 11
-183.35072939140039
 21
65.604024231100084
 31
0.0
  0
LINE
  8
DETAIL
  6
CONTINUOUS
 62
     5
 10
-183.35072939140039
 20
65.604024231100084
 30
0.0
 11
-183.41311883750041
 21
65.149764218200289
 31
0.0
  0
LINE
  8
DETAIL
  6
CONTINUOUS
 62
     5
 10
-183.41311883750041
 20
65.149764218200289
 30
0.0
 11
-183.4999909850003
 21
64.689238471899898
 31
0.0
  0
LINE
  8
DETAIL
  6
CONTINUOUS
 62
     5
 10
-183.4999909850003
 20
64.689238471899898
 30
0.0
 11
-183.6111203101004
 21
64.216715826400105
 31
0.0
  0
LINE
  8
DETAIL
  6
CONTINUOUS
 62
     5
 10
-183.6111203101004
 20
64.216715826400105
 30
0.0
 11
-183.74658198740011
 21
63.734106670400251
 31
0.0
  0
LINE
  8
DETAIL
  6
CONTINUOUS
 62
     5
 10
-183.30000000000021
 20
-73.317570356999568
 30
0.0
 11
-183.31341237710009
 21
-73.658357500899911
 31
0.0
  0
LINE
  8
DETAIL
  6
CONTINUOUS
 62
     5
 10
-183.31341237710009
 20
-73.658357500899911
 30
0.0
 11
-183.3514808848004
 21
-73.999854175499877
 31
0.0
  0
LINE
  8
DETAIL
  6
CONTINUOUS
 62
     5
 10
-183.3514808848004
 20
-73.999854175499877
 30
0.0
 11
-183.41443891310021
 21
-74.340736048799954
 31
0.0
  0
LINE
  8
DETAIL
  6
CONTINUOUS
 62
     5
 10
-183.41443891310021
 20
-74.340736048799954
 30
0.0
 11
-183.50158629250021
 21
-74.684976116899634
 31
0.0
  0
LINE
  8
DETAIL
  6
CONTINUOUS
 62
     5
 10
-183.50158629250021
 20
-74.684976116899634
 30
0.0
 11
-183.61222285410031
 21
-75.036547375899772
 31
0.0
  0
LINE
  8
DETAIL
  6
CONTINUOUS
 62
     5
 10
-183.61222285410031
 20
-75.036547375899772
 30
0.0
 11
-183.74658198740011
 21
-75.394125493799947
 31
0.0
  0
LINE
  8
DETAIL
  6
CONTINUOUS
 62
     5
 10
-183.30000000000021
 20
61.657551533600099
 30
0.0
 11
-183.31341237710009
 21
61.316764389699983
 31
0.0
  0
LINE
  8
DETAIL
  6
CONTINUOUS
 62
     5
 10
-183.31341237710009
 20
61.316764389699983
 30
0.0
 11
-183.3514808848004
 21
60.975267715100237
 31
0.0
  0
LINE
  8
DETAIL
  6
CONTINUOUS
 62
     5
 10
-183.3514808848004
 20
60.975267715100237
 30
0.0
 11
-183.41443891310021
 21
60.63438584179994
 31
0.0
  0
LINE
  8
DETAIL
  6
CONTINUOUS
 62
     5
 10
-183.41443891310021
 20
60.63438584179994
 30
0.0
 11
-183.50158629250021
 21
60.29014577370026
 31
0.0
  0
LINE
  8
DETAIL
  6
CONTINUOUS
 62
     5
 10
-183.50158629250021
 20
60.29014577370026
 30
0.0
 11
-183.61222285410031
 21
59.938574514700122
 31
0.0
  0
LINE
  8
DETAIL
  6
CONTINUOUS
 62
     5
 10
-183.61222285410031
 20
59.938574514700122
 30
0.0
 11
-183.74658198740011
 21
59.580996396799947
 31
0.0
  0
LINE
  8
DETAIL
  6
CONTINUOUS
 62
     5
 10
-183.30000000000021
 20
-64.9927998733001
 30
0.0
 11
-183.31304817040021
 21
-65.106374180599687
 31
0.0
  0
LINE
  8
DETAIL
  6
CONTINUOUS
 62
     5
 10
-183.31304817040021
 20
-65.106374180599687
 30
0.0
 11
-183.35072939140039
 21
-65.220563813099943
 31
0.0
  0
LINE
  8
DETAIL
  6
CONTINUOUS
 62
     5
 10
-183.35072939140039
 20
-65.220563813099943
 30
0.0
 11
-183.41311883750041
 21
-65.334887980900248
 31
0.0
  0
LINE
  8
DETAIL
  6
CONTINUOUS
 62
     5
 10
-183.41311883750041
 20
-65.334887980900248
 30
0.0
 11
-183.4999909850003
 21
-65.450789053399603
 31
0.0
  0
LINE
  8
DETAIL
  6
CONTINUOUS
 62
     5
 10
-183.4999909850003
 20
-65.450789053399603
 30
0.0
 11
-183.6111203101004
 21
-65.569709400099782
 31
0.0
  0
LINE
  8
DETAIL
  6
CONTINUOUS
 62
     5
 10
-183.6111203101004
 20
-65.569709400099782
 30
0.0
 11
-183.74658198740011
 21
-65.691168230999665
 31
0.0
  0
LINE
  8
DETAIL
  6
CONTINUOUS
 62
     5
 10
-183.30000000000021
 20
69.982322017300248
 30
0.0
 11
-183.31304817040021
 21
69.868747710000207
 31
0.0
  0
LINE
  8
DETAIL
  6
CONTINUOUS
 62
     5
 10
-183.31304817040021
 20
69.868747710000207
 30
0.0
 11
-183.35072939140039
 21
69.754558077499951
 31
0.0
  0
LINE
  8
DETAIL
  6
CONTINUOUS
 62
     5
 10
-183.35072939140039
 20
69.754558077499951
 30
0.0
 11
-183.41311883750041
 21
69.640233909699873
 31
0.0
  0
LINE
  8
DETAIL
  6
CONTINUOUS
 62
     5
 10
-183.41311883750041
 20
69.640233909699873
 30
0.0
 11
-183.4999909850003
 21
69.524332837199836
 31
0.0
  0
LINE
  8
DETAIL
  6
CONTINUOUS
 62
     5
 10
-183.4999909850003
 20
69.524332837199836
 30
0.0
 11
-183.6111203101004
 21
69.405412490500112
 31
0.0
  0
LINE
  8
DETAIL
  6
CONTINUOUS
 62
     5
 10
-183.6111203101004
 20
69.405412490500112
 30
0.0
 11
-183.74658198740011
 21
69.283953659600229
 31
0.0
  0
LINE
  8
DETAIL
  6
CONTINUOUS
 62
     5
 10
-186.85341801260029
 20
-65.691168230999665
 30
0.0
 11
-186.98886233499999
 21
-66.173668439599624
 31
0.0
  0
LINE
  8
DETAIL
  6
CONTINUOUS
 62
     5
 10
-186.98886233499999
 20
-66.173668439599624
 30
0.0
 11
-187.0999943586003
 21
-66.646231119299955
 31
0.0
  0
LINE
  8
DETAIL
  6
CONTINUOUS
 62
     5
 10
-187.0999943586003
 20
-66.646231119299955
 30
0.0
 11
-187.1869015501002
 21
-67.107044696599587
 31
0.0
  0
LINE
  8
DETAIL
  6
CONTINUOUS
 62
     5
 10
-187.1869015501002
 20
-67.107044696599587
 30
0.0
 11
-187.24932150960009
 21
-67.561543891999918
 31
0.0
  0
LINE
  8
DETAIL
  6
CONTINUOUS
 62
     5
 10
-187.24932150960009
 20
-67.561543891999918
 30
0.0
 11
-187.28699183730029
 21
-68.015163426199706
 31
0.0
  0
LINE
  8
DETAIL
  6
CONTINUOUS
 62
     5
 10
-187.28699183730029
 20
-68.015163426199706
 30
0.0
 11
-187.30000000000021
 21
-68.466091725599881
 31
0.0
  0
LINE
  8
DETAIL
  6
CONTINUOUS
 62
     5
 10
-186.85341801260029
 20
69.283953659600229
 30
0.0
 11
-186.98886233499999
 21
68.80145345100027
 31
0.0
  0
LINE
  8
DETAIL
  6
CONTINUOUS
 62
     5
 10
-186.98886233499999
 20
68.80145345100027
 30
0.0
 11
-187.0999943586003
 21
68.328890771299939
 31
0.0
  0
LINE
  8
DETAIL
  6
CONTINUOUS
 62
     5
 10
-187.0999943586003
 20
68.328890771299939
 30
0.0
 11
-187.1869015501002
 21
67.868077194000307
 31
0.0
  0
LINE
  8
DETAIL
  6
CONTINUOUS
 62
     5
 10
-187.1869015501002
 20
67.868077194000307
 30
0.0
 11
-187.24932150960009
 21
67.413577998599976
 31
0.0
  0
LINE
  8
DETAIL
  6
CONTINUOUS
 62
     5
 10
-187.24932150960009
 20
67.413577998599976
 30
0.0
 11
-187.28699183730029
 21
66.959958464400188
 31
0.0
  0
LINE
  8
DETAIL
  6
CONTINUOUS
 62
     5
 10
-187.28699183730029
 20
66.959958464400188
 30
0.0
 11
-187.30000000000021
 21
66.50903016500024
 31
0.0
  0
LINE
  8
DETAIL
  6
CONTINUOUS
 62
     5
 10
-19.053418012600101
 20
280.56892122760019
 30
0.0
 11
-19.5
 21
279.79541853570032
 31
0.0
  0
LINE
  8
DETAIL
  6
CONTINUOUS
 62
     5
 10
-186.85341801260029
 20
-64.294431515600309
 30
0.0
 11
-186.98886233499999
 21
-64.415862927599846
 31
0.0
  0
LINE
  8
DETAIL
  6
CONTINUOUS
 62
     5
 10
-186.98886233499999
 20
-64.415862927599846
 30
0.0
 11
-187.0999943586003
 21
-64.534793349699612
 31
0.0
  0
LINE
  8
DETAIL
  6
CONTINUOUS
 62
     5
 10
-187.0999943586003
 20
-64.534793349699612
 30
0.0
 11
-187.1869015501002
 21
-64.650766860999738
 31
0.0
  0
LINE
  8
DETAIL
  6
CONTINUOUS
 62
     5
 10
-187.1869015501002
 20
-64.650766860999738
 30
0.0
 11
-187.21177090440011
 21
-64.691205459299908
 31
0.0
  0
LINE
  8
DETAIL
  6
CONTINUOUS
 62
     5
 10
-300.90000000000009
 20
-71.653637268599596
 30
0.0
 11
-301.90000000000009
 21
-71.653637268599596
 31
0.0
  0
LINE
  8
DETAIL
  6
CONTINUOUS
 62
     5
 10
-186.85341801260029
 20
-71.24101522010028
 30
0.0
 11
-183.74658198740011
 21
-71.24101522010028
 31
0.0
  0
LINE
  8
DETAIL
  6
CONTINUOUS
 62
     5
 10
-302.34658198740038
 20
-68.255642256199735
 30
0.0
 11
-305.4534180126002
 21
-68.255642256199735
 31
0.0
  0
LINE
  8
DETAIL
  6
CONTINUOUS
 62
     5
 10
-302.34658198740038
 20
-66.66424924039984
 30
0.0
 11
-305.4534180126002
 21
-66.66424924039984
 31
0.0
  0
LINE
  8
DETAIL
  6
CONTINUOUS
 62
     5
 10
-186.85341801260029
 20
-65.691168230999665
 30
0.0
 11
-183.74658198740011
 21
-65.691168230999665
 31
0.0
  0
LINE
  8
DETAIL
  6
CONTINUOUS
 62
     5
 10
-186.85341801260029
 20
-64.294431515600309
 30
0.0
 11
-183.74658198740011
 21
-64.294431515600309
 31
0.0
  0
LINE
  8
DETAIL
  6
CONTINUOUS
 62
     5
 10
-302.34658198740038
 20
-61.062244252799701
 30
0.0
 11
-305.4534180126002
 21
-61.062244252799701
 31
0.0
  0
LINE
  8
DETAIL
  6
CONTINUOUS
 62
     5
 10
-188.30000000000021
 20
-60.844278504700242
 30
0.0
 11
-187.30000000000021
 21
-60.844278504700242
 31
0.0
  0
LINE
  8
DETAIL
  6
CONTINUOUS
 62
     5
 10
-302.34658198740038
 20
-57.051632280999911
 30
0.0
 11
-305.4534180126002
 21
-57.051632280999911
 31
0.0
  0
LINE
  8
DETAIL
  6
CONTINUOUS
 62
     5
 10
-300.90000000000009
 20
-53.653637268599603
 30
0.0
 11
-301.90000000000009
 21
-53.653637268599603
 31
0.0
  0
LINE
  8
DETAIL
  6
CONTINUOUS
 62
     5
 10
-317.0
 20
-72.162861983799758
 30
0.0
 11
-316.82853717620043
 21
-72.166742653099845
 31
0.0
  0
LINE
  8
DETAIL
  6
CONTINUOUS
 62
     5
 10
-316.82853717620043
 20
-72.166742653099845
 30
0.0
 11
-316.65923023950018
 21
-72.178277649400115
 31
0.0
  0
LINE
  8
DETAIL
  6
CONTINUOUS
 62
     5
 10
-316.65923023950018
 20
-72.178277649400115
 30
0.0
 11
-316.49142879540022
 21
-72.197527678299593
 31
0.0
  0
LINE
  8
DETAIL
  6
CONTINUOUS
 62
     5
 10
-316.49142879540022
 20
-72.197527678299593
 30
0.0
 11
-316.32708402780008
 21
-72.22426189359976
 31
0.0
  0
LINE
  8
DETAIL
  6
CONTINUOUS
 62
     5
 10
-316.32708402780008
 20
-72.22426189359976
 30
0.0
 11
-316.16763589350012
 21
-72.258335961400007
 31
0.0
  0
LINE
  8
DETAIL
  6
CONTINUOUS
 62
     5
 10
-316.16763589350012
 20
-72.258335961400007
 30
0.0
 11
-316.0139676792005
 21
-72.299513980799929
 31
0.0
  0
LINE
  8
DETAIL
  6
CONTINUOUS
 62
     5
 10
-316.0139676792005
 20
-72.299513980799929
 30
0.0
 11
-315.8669612659005
 21
-72.347684847200071
 31
0.0
  0
LINE
  8
DETAIL
  6
CONTINUOUS
 62
     5
 10
-315.8669612659005
 20
-72.347684847200071
 30
0.0
 11
-315.72806082670007
 21
-72.402299562400003
 31
0.0
  0
LINE
  8
DETAIL
  6
CONTINUOUS
 62
     5
 10
-315.72806082670007
 20
-72.402299562400003
 30
0.0
 11
-315.59881132120017
 21
-72.462875357499797
 31
0.0
  0
LINE
  8
DETAIL
  6
CONTINUOUS
 62
     5
 10
-315.59881132120017
 20
-72.462875357499797
 30
0.0
 11
-315.47979227050018
 21
-72.529090862200064
 31
0.0
  0
LINE
  8
DETAIL
  6
CONTINUOUS
 62
     5
 10
-315.47979227050018
 20
-72.529090862200064
 30
0.0
 11
-315.37167453200033
 21
-72.60077837999961
 31
0.0
  0
LINE
  8
DETAIL
  6
CONTINUOUS
 62
     5
 10
-315.37167453200033
 20
-72.60077837999961
 30
0.0
 11
-315.2757290565005
 21
-72.676988629699963
 31
0.0
  0
LINE
  8
DETAIL
  6
CONTINUOUS
 62
     5
 10
-315.2757290565005
 20
-72.676988629699963
 30
0.0
 11
-315.19335807200008
 21
-72.756879247699544
 31
0.0
  0
LINE
  8
DETAIL
  6
CONTINUOUS
 62
     5
 10
-315.19335807200008
 20
-72.756879247699544
 30
0.0
 11
-315.12483860350039
 21
-72.839995793599883
 31
0.0
  0
LINE
  8
DETAIL
  6
CONTINUOUS
 62
     5
 10
-315.12483860350039
 20
-72.839995793599883
 30
0.0
 11
-315.07075658090031
 21
-72.925948014599953
 31
0.0
  0
LINE
  8
DETAIL
  6
CONTINUOUS
 62
     5
 10
-315.07075658090031
 20
-72.925948014599953
 30
0.0
 11
-315.03158751700039
 21
-73.013732865099882
 31
0.0
  0
LINE
  8
DETAIL
  6
CONTINUOUS
 62
     5
 10
-315.03158751700039
 20
-73.013732865099882
 30
0.0
 11
-315.00803322920052
 21
-73.102460235799754
 31
0.0
  0
LINE
  8
DETAIL
  6
CONTINUOUS
 62
     5
 10
-315.00803322920052
 20
-73.102460235799754
 30
0.0
 11
-314.99999987170031
 21
-73.192329024299852
 31
0.0
  0
LINE
  8
DETAIL
  6
CONTINUOUS
 62
     5
 10
-305.4534180126002
 20
-68.255642256199735
 30
0.0
 11
-305.5888679136001
 21
-68.117279886999768
 31
0.0
  0
LINE
  8
DETAIL
  6
CONTINUOUS
 62
     5
 10
-305.5888679136001
 20
-68.117279886999768
 30
0.0
 11
-305.70000164610019
 21
-67.981772554599956
 31
0.0
  0
LINE
  8
DETAIL
  6
CONTINUOUS
 62
     5
 10
-305.70000164610019
 20
-67.981772554599956
 30
0.0
 11
-305.78374155840038
 21
-67.855137793899758
 31
0.0
  0
LINE
  8
DETAIL
  6
CONTINUOUS
 62
     5
 10
-302.34658198740038
 20
-57.051632280999911
 30
0.0
 11
-302.21113766500002
 21
-57.18998698949963
 31
0.0
  0
LINE
  8
DETAIL
  6
CONTINUOUS
 62
     5
 10
-302.21113766500002
 20
-57.18998698949963
 30
0.0
 11
-302.1000056414
 21
-57.325492157400049
 31
0.0
  0
LINE
  8
DETAIL
  6
CONTINUOUS
 62
     5
 10
-302.1000056414
 20
-57.325492157400049
 30
0.0
 11
-302.01625959430021
 21
-57.45213679419976
 31
0.0
  0
LINE
  8
DETAIL
  6
CONTINUOUS
 62
     5
 10
-304.29717903950041
 20
-82.550678014800042
 30
0.0
 11
-303.9490164007002
 21
-82.922849002199882
 31
0.0
  0
LINE
  8
DETAIL
  6
CONTINUOUS
 62
     5
 10
-303.9490164007002
 20
-82.922849002199882
 30
0.0
 11
-303.70009901450021
 21
-83.282034447699516
 31
0.0
  0
LINE
  8
DETAIL
  6
CONTINUOUS
 62
     5
 10
-303.70009901450021
 20
-83.282034447699516
 30
0.0
 11
-303.55022581780031
 21
-83.628506739899876
 31
0.0
  0
LINE
  8
DETAIL
  6
CONTINUOUS
 62
     5
 10
-303.55022581780031
 20
-83.628506739899876
 30
0.0
 11
-303.5
 21
-83.958252460100084
 31
0.0
  0
LINE
  8
DETAIL
  6
CONTINUOUS
 62
     5
 10
-305.78366554930022
 20
-67.855134447899673
 30
0.0
 11
-305.90000000000009
 21
-67.653637268599596
 31
0.0
  0
LINE
  8
DETAIL
  6
CONTINUOUS
 62
     5
 10
-301.90000000000009
 20
-57.653637268599603
 30
0.0
 11
-302.01633445070053
 21
-57.452140089300201
 31
0.0
  0
LINE
  8
DETAIL
  6
CONTINUOUS
 62
     5
 10
-310.95253012389998
 20
-87.455155313699834
 30
0.0
 11
-310.63808285530013
 21
-88.012904592899758
 31
0.0
  0
LINE
  8
DETAIL
  6
CONTINUOUS
 62
     5
 10
-310.63808285530013
 20
-88.012904592899758
 30
0.0
 11
-310.31443891049997
 21
-88.539868676599781
 31
0.0
  0
LINE
  8
DETAIL
  6
CONTINUOUS
 62
     5
 10
-310.31443891049997
 20
-88.539868676599781
 30
0.0
 11
-309.98156951310062
 21
-89.037879318899741
 31
0.0
  0
LINE
  8
DETAIL
  6
CONTINUOUS
 62
     5
 10
-309.98156951310062
 20
-89.037879318899741
 30
0.0
 11
-309.63944588670029
 21
-89.50876827419961
 31
0.0
  0
LINE
  8
DETAIL
  6
CONTINUOUS
 62
     5
 10
-309.63944588670029
 20
-89.50876827419961
 30
0.0
 11
-309.28803925470038
 21
-89.954367296400051
 31
0.0
  0
LINE
  8
DETAIL
  6
CONTINUOUS
 62
     5
 10
-309.28803925470038
 20
-89.954367296400051
 30
0.0
 11
-308.92732084060032
 21
-90.37650813989967
 31
0.0
  0
LINE
  8
DETAIL
  6
CONTINUOUS
 62
     5
 10
-308.92732084060032
 20
-90.37650813989967
 30
0.0
 11
-308.48193360820051
 21
-90.854546045599818
 31
0.0
  0
LINE
  8
DETAIL
  6
CONTINUOUS
 62
     5
 10
-308.48193360820051
 20
-90.854546045599818
 30
0.0
 11
-308.02188784930007
 21
-91.303734649099624
 31
0.0
  0
LINE
  8
DETAIL
  6
CONTINUOUS
 62
     5
 10
-308.02188784930007
 20
-91.303734649099624
 30
0.0
 11
-307.54597544160009
 21
-91.726366699299888
 31
0.0
  0
LINE
  8
DETAIL
  6
CONTINUOUS
 62
     5
 10
-307.54597544160009
 20
-91.726366699299888
 30
0.0
 11
-307.05298826310042
 21
-92.124734945399723
 31
0.0
  0
LINE
  8
DETAIL
  6
CONTINUOUS
 62
     5
 10
-307.05298826310042
 20
-92.124734945399723
 30
0.0
 11
-306.54171819140038
 21
-92.501132136500019
 31
0.0
  0
LINE
  8
DETAIL
  6
CONTINUOUS
 62
     5
 10
-306.54171819140038
 20
-92.501132136500019
 30
0.0
 11
-306.01103862040009
 21
-92.857619442499981
 31
0.0
  0
LINE
  8
DETAIL
  6
CONTINUOUS
 62
     5
 10
-306.01103862040009
 20
-92.857619442499981
 30
0.0
 11
-305.46014900850008
 21
-93.195331716299734
 31
0.0
  0
LINE
  8
DETAIL
  6
CONTINUOUS
 62
     5
 10
-305.46014900850008
 20
-93.195331716299734
 30
0.0
 11
-304.88833033010042
 21
-93.515172231899669
 31
0.0
  0
LINE
  8
DETAIL
  6
CONTINUOUS
 62
     5
 10
-304.88833033010042
 20
-93.515172231899669
 30
0.0
 11
-304.29486355970039
 21
-93.81804426290023
 31
0.0
  0
LINE
  8
DETAIL
  6
CONTINUOUS
 62
     5
 10
-304.29486355970039
 20
-93.81804426290023
 30
0.0
 11
-303.67902967170039
 21
-94.104851083099675
 31
0.0
  0
LINE
  8
DETAIL
  6
CONTINUOUS
 62
     5
 10
-303.67902967170039
 20
-94.104851083099675
 30
0.0
 11
-303.04027656550028
 21
-94.376432763999674
 31
0.0
  0
LINE
  8
DETAIL
  6
CONTINUOUS
 62
     5
 10
-303.04027656550028
 20
-94.376432763999674
 30
0.0
 11
-302.37871983970041
 21
-94.633376566899642
 31
0.0
  0
LINE
  8
DETAIL
  6
CONTINUOUS
 62
     5
 10
-302.37871983970041
 20
-94.633376566899642
 30
0.0
 11
-301.69464201760047
 21
-94.87620655110004
 31
0.0
  0
LINE
  8
DETAIL
  6
CONTINUOUS
 62
     5
 10
-301.69464201760047
 20
-94.87620655110004
 30
0.0
 11
-300.98832562260031
 21
-95.105446775399741
 31
0.0
  0
LINE
  8
DETAIL
  6
CONTINUOUS
 62
     5
 10
-300.98832562260031
 20
-95.105446775399741
 30
0.0
 11
-300.26005317840048
 21
-95.321621299099661
 31
0.0
  0
LINE
  8
DETAIL
  6
CONTINUOUS
 62
     5
 10
-300.26005317840048
 20
-95.321621299099661
 30
0.0
 11
-299.31942563960052
 21
-95.57443309700011
 31
0.0
  0
LINE
  8
DETAIL
  6
CONTINUOUS
 62
     5
 10
-311.35433402360007
 20
-86.669145150500071
 30
0.0
 11
-311.30513589300023
 21
-86.770061525900019
 31
0.0
  0
LINE
  8
DETAIL
  6
CONTINUOUS
 62
     5
 10
-311.30513589300023
 20
-86.770061525900019
 30
0.0
 11
-311.25564239690038
 21
-86.870226453999749
 31
0.0
  0
LINE
  8
DETAIL
  6
CONTINUOUS
 62
     5
 10
-311.25564239690038
 20
-86.870226453999749
 30
0.0
 11
-311.20585445280039
 21
-86.969634929099811
 31
0.0
  0
LINE
  8
DETAIL
  6
CONTINUOUS
 62
     5
 10
-311.20585445280039
 20
-86.969634929099811
 30
0.0
 11
-311.15577297820028
 21
-87.068281945599892
 31
0.0
  0
LINE
  8
DETAIL
  6
CONTINUOUS
 62
     5
 10
-311.15577297820028
 20
-87.068281945599892
 30
0.0
 11
-311.10539889050011
 21
-87.166162497999721
 31
0.0
  0
LINE
  8
DETAIL
  6
CONTINUOUS
 62
     5
 10
-311.10539889050011
 20
-87.166162497999721
 30
0.0
 11
-311.05473310730031
 21
-87.263271580499804
 31
0.0
  0
LINE
  8
DETAIL
  6
CONTINUOUS
 62
     5
 10
-311.05473310730031
 20
-87.263271580499804
 30
0.0
 11
-311.00377654590011
 21
-87.359604187599871
 31
0.0
  0
LINE
  8
DETAIL
  6
CONTINUOUS
 62
     5
 10
-311.00377654590011
 20
-87.359604187599871
 30
0.0
 11
-310.95253012389998
 21
-87.455155313699834
 31
0.0
  0
LINE
  8
DETAIL
  6
CONTINUOUS
 62
     5
 10
-305.78374155840038
 20
-67.855137793899758
 30
0.0
 11
-305.84932060510027
 21
-67.719323000399527
 31
0.0
  0
LINE
  8
DETAIL
  6
CONTINUOUS
 62
     5
 10
-305.84932060510027
 20
-67.719323000399527
 30
0.0
 11
-305.88699024810012
 21
-67.589250336599889
 31
0.0
  0
LINE
  8
DETAIL
  6
CONTINUOUS
 62
     5
 10
-305.88699024810012
 20
-67.589250336599889
 30
0.0
 11
-305.90000000000009
 21
-67.459945748300015
 31
0.0
  0
LINE
  8
DETAIL
  6
CONTINUOUS
 62
     5
 10
-305.4534180126002
 20
-61.062244252799701
 30
0.0
 11
-305.58841816450013
 21
-60.714977297099949
 31
0.0
  0
LINE
  8
DETAIL
  6
CONTINUOUS
 62
     5
 10
-305.58841816450013
 20
-60.714977297099949
 30
0.0
 11
-305.69936130210039
 21
-60.374214934199699
 31
0.0
  0
LINE
  8
DETAIL
  6
CONTINUOUS
 62
     5
 10
-305.69936130210039
 20
-60.374214934199699
 30
0.0
 11
-305.78640765720002
 21
-60.041161735700143
 31
0.0
  0
LINE
  8
DETAIL
  6
CONTINUOUS
 62
     5
 10
-305.78640765720002
 20
-60.041161735700143
 30
0.0
 11
-305.84907653430042
 21
-59.712203987000073
 31
0.0
  0
LINE
  8
DETAIL
  6
CONTINUOUS
 62
     5
 10
-305.84907653430042
 20
-59.712203987000073
 30
0.0
 11
-305.88688723800033
 21
-59.383727973599889
 31
0.0
  0
LINE
  8
DETAIL
  6
CONTINUOUS
 62
     5
 10
-305.88688723800033
 20
-59.383727973599889
 30
0.0
 11
-305.90000000000009
 21
-59.056938266900033
 31
0.0
  0
LINE
  8
DETAIL
  6
CONTINUOUS
 62
     5
 10
-319.28008866990012
 20
-73.454732938999769
 30
0.0
 11
-319.22223043110012
 21
-73.616490734899799
 31
0.0
  0
LINE
  8
DETAIL
  6
CONTINUOUS
 62
     5
 10
-319.22223043110012
 20
-73.616490734899799
 30
0.0
 11
-319.12544677150032
 21
-73.773454491400116
 31
0.0
  0
LINE
  8
DETAIL
  6
CONTINUOUS
 62
     5
 10
-319.12544677150032
 20
-73.773454491400116
 30
0.0
 11
-318.99267322750029
 21
-73.921505519999982
 31
0.0
  0
LINE
  8
DETAIL
  6
CONTINUOUS
 62
     5
 10
-318.99267322750029
 20
-73.921505519999982
 30
0.0
 11
-318.82527778720032
 21
-74.05773543009991
 31
0.0
  0
LINE
  8
DETAIL
  6
CONTINUOUS
 62
     5
 10
-318.82527778720032
 20
-74.05773543009991
 30
0.0
 11
-318.62698458350042
 21
-74.180403441999943
 31
0.0
  0
LINE
  8
DETAIL
  6
CONTINUOUS
 62
     5
 10
-318.62698458350042
 20
-74.180403441999943
 30
0.0
 11
-318.5
 21
-74.240302635999797
 31
0.0
  0
LINE
  8
DETAIL
  6
CONTINUOUS
 62
     5
 10
-303.03546283280002
 20
-76.367111863799892
 30
0.0
 11
-303.0576395236003
 21
-76.302518959799727
 31
0.0
  0
LINE
  8
DETAIL
  6
CONTINUOUS
 62
     5
 10
-303.0576395236003
 20
-76.302518959799727
 30
0.0
 11
-303.07913849250008
 21
-76.237697403399807
 31
0.0
  0
LINE
  8
DETAIL
  6
CONTINUOUS
 62
     5
 10
-303.07913849250008
 20
-76.237697403399807
 30
0.0
 11
-303.09995738190042
 21
-76.1726543028999
 31
0.0
  0
LINE
  8
DETAIL
  6
CONTINUOUS
 62
     5
 10
-303.09995738190042
 20
-76.1726543028999
 30
0.0
 11
-303.12665406430051
 21
-76.085597876399788
 31
0.0
  0
LINE
  8
DETAIL
  6
CONTINUOUS
 62
     5
 10
-303.12665406430051
 20
-76.085597876399788
 30
0.0
 11
-303.14587735230037
 21
-76.020065618599801
 31
0.0
  0
LINE
  8
DETAIL
  6
CONTINUOUS
 62
     5
 10
-303.14587735230037
 20
-76.020065618599801
 30
0.0
 11
-303.16764086630019
 21
-75.942613900999731
 31
0.0
  0
LINE
  8
DETAIL
  6
CONTINUOUS
 62
     5
 10
-321.39305287360003
 20
-86.302692664999995
 30
0.0
 11
-321.27249448130033
 21
-86.66259243659988
 31
0.0
  0
LINE
  8
DETAIL
  6
CONTINUOUS
 62
     5
 10
-321.27249448130033
 20
-86.66259243659988
 30
0.0
 11
-321.14876297040018
 21
-87.020775932899596
 31
0.0
  0
LINE
  8
DETAIL
  6
CONTINUOUS
 62
     5
 10
-321.14876297040018
 20
-87.020775932899596
 30
0.0
 11
-321.02179427920049
 21
-87.377192691599703
 31
0.0
  0
LINE
  8
DETAIL
  6
CONTINUOUS
 62
     5
 10
-321.02179427920049
 20
-87.377192691599703
 30
0.0
 11
-320.89152434610008
 21
-87.731792250099943
 31
0.0
  0
LINE
  8
DETAIL
  6
CONTINUOUS
 62
     5
 10
-320.89152434610008
 20
-87.731792250099943
 30
0.0
 11
-320.75788910969999
 21
-88.084524145999694
 31
0.0
  0
LINE
  8
DETAIL
  6
CONTINUOUS
 62
     5
 10
-320.75788910969999
 20
-88.084524145999694
 30
0.0
 11
-320.6208245083003
 21
-88.435337916699609
 31
0.0
  0
LINE
  8
DETAIL
  6
CONTINUOUS
 62
     5
 10
-320.6208245083003
 20
-88.435337916699609
 30
0.0
 11
-320.48026648040008
 21
-88.784183099699931
 31
0.0
  0
LINE
  8
DETAIL
  6
CONTINUOUS
 62
     5
 10
-320.48026648040008
 20
-88.784183099699931
 30
0.0
 11
-320.33615096440008
 21
-89.131009232499764
 31
0.0
  0
LINE
  8
DETAIL
  6
CONTINUOUS
 62
     5
 10
-320.33615096440008
 20
-89.131009232499764
 30
0.0
 11
-320.18841389870022
 21
-89.475765852699624
 31
0.0
  0
LINE
  8
DETAIL
  6
CONTINUOUS
 62
     5
 10
-320.18841389870022
 20
-89.475765852699624
 30
0.0
 11
-320.03699122180018
 21
-89.818402497699935
 31
0.0
  0
LINE
  8
DETAIL
  6
CONTINUOUS
 62
     5
 10
-320.03699122180018
 20
-89.818402497699935
 30
0.0
 11
-319.88181887200022
 21
-90.158868705000032
 31
0.0
  0
LINE
  8
DETAIL
  6
CONTINUOUS
 62
     5
 10
-319.88181887200022
 20
-90.158868705000032
 30
0.0
 11
-319.72283278790019
 21
-90.497114012199745
 31
0.0
  0
LINE
  8
DETAIL
  6
CONTINUOUS
 62
     5
 10
-319.72283278790019
 20
-90.497114012199745
 30
0.0
 11
-319.55996890780028
 21
-90.833087956699728
 31
0.0
  0
LINE
  8
DETAIL
  6
CONTINUOUS
 62
     5
 10
-319.55996890780028
 20
-90.833087956699728
 30
0.0
 11
-319.3931631702003
 21
-91.166740075999769
 31
0.0
  0
LINE
  8
DETAIL
  6
CONTINUOUS
 62
     5
 10
-319.3931631702003
 20
-91.166740075999769
 30
0.0
 11
-319.22235151350009
 21
-91.498019907699927
 31
0.0
  0
LINE
  8
DETAIL
  6
CONTINUOUS
 62
     5
 10
-319.22235151350009
 20
-91.498019907699927
 30
0.0
 11
-319.04746987610042
 21
-91.826876989099674
 31
0.0
  0
LINE
  8
DETAIL
  6
CONTINUOUS
 62
     5
 10
-312.30000000000018
 20
-77.617915775799702
 30
0.0
 11
-312.37140356080039
 21
-77.392955330499717
 31
0.0
  0
LINE
  8
DETAIL
  6
CONTINUOUS
 62
     5
 10
-312.37140356080039
 20
-77.392955330499717
 30
0.0
 11
-312.58344468230052
 21
-77.174830194400101
 31
0.0
  0
LINE
  8
DETAIL
  6
CONTINUOUS
 62
     5
 10
-312.58344468230052
 20
-77.174830194400101
 30
0.0
 11
-312.92968060220028
 21
-76.970167989599759
 31
0.0
  0
LINE
  8
DETAIL
  6
CONTINUOUS
 62
     5
 10
-312.92968060220028
 20
-76.970167989599759
 30
0.0
 11
-313.39959111730008
 21
-76.785187273500014
 31
0.0
  0
LINE
  8
DETAIL
  6
CONTINUOUS
 62
     5
 10
-313.39959111730008
 20
-76.785187273500014
 30
0.0
 11
-313.97889823450032
 21
-76.625508591499965
 31
0.0
  0
LINE
  8
DETAIL
  6
CONTINUOUS
 62
     5
 10
-313.97889823450032
 20
-76.625508591499965
 30
0.0
 11
-314.65000000000009
 21
-76.495983699599492
 31
0.0
  0
LINE
  8
DETAIL
  6
CONTINUOUS
 62
     5
 10
-314.65000000000009
 20
-76.495983699599492
 30
0.0
 11
-315.39250532640023
 21
-76.400548146199981
 31
0.0
  0
LINE
  8
DETAIL
  6
CONTINUOUS
 62
     5
 10
-315.39250532640023
 20
-76.400548146199981
 30
0.0
 11
-316.18385356500039
 21
-76.342101692099732
 31
0.0
  0
LINE
  8
DETAIL
  6
CONTINUOUS
 62
     5
 10
-316.18385356500039
 20
-76.342101692099732
 30
0.0
 11
-317.0
 21
-76.322420203399815
 31
0.0
  0
LINE
  8
DETAIL
  6
CONTINUOUS
 62
     5
 10
-312.30161893070039
 20
-77.13728492780001
 30
0.0
 11
-312.37140356080039
 21
-76.912324482500026
 31
0.0
  0
LINE
  8
DETAIL
  6
CONTINUOUS
 62
     5
 10
-312.37140356080039
 20
-76.912324482500026
 30
0.0
 11
-312.58496597950028
 21
-76.694351968799992
 31
0.0
  0
LINE
  8
DETAIL
  6
CONTINUOUS
 62
     5
 10
-312.58496597950028
 20
-76.694351968799992
 30
0.0
 11
-312.92968060220028
 21
-76.489537141599612
 31
0.0
  0
LINE
  8
DETAIL
  6
CONTINUOUS
 62
     5
 10
-312.92968060220028
 20
-76.489537141599612
 30
0.0
 11
-313.40083129020007
 21
-76.304843261599672
 31
0.0
  0
LINE
  8
DETAIL
  6
CONTINUOUS
 62
     5
 10
-313.40083129020007
 20
-76.304843261599672
 30
0.0
 11
-313.97889823450032
 21
-76.144877743499819
 31
0.0
  0
LINE
  8
DETAIL
  6
CONTINUOUS
 62
     5
 10
-313.97889823450032
 20
-76.144877743499819
 30
0.0
 11
-314.65080946530043
 21
-76.015739304899853
 31
0.0
  0
LINE
  8
DETAIL
  6
CONTINUOUS
 62
     5
 10
-314.65080946530043
 20
-76.015739304899853
 30
0.0
 11
-315.39250532640023
 21
-75.919917298199834
 31
0.0
  0
LINE
  8
DETAIL
  6
CONTINUOUS
 62
     5
 10
-315.39250532640023
 20
-75.919917298199834
 30
0.0
 11
-316.17201671550038
 21
-75.86249926399978
 31
0.0
  0
LINE
  8
DETAIL
  6
CONTINUOUS
 62
     5
 10
-316.17201671550038
 20
-75.86249926399978
 30
0.0
 11
-317.0
 21
-75.841789355499714
 31
0.0
  0
LINE
  8
DETAIL
  6
CONTINUOUS
 62
     5
 10
-341.54705825790052
 20
68.43957473340015
 30
0.0
 11
-341.55521470020039
 21
68.466278197499832
 31
0.0
  0
LINE
  8
DETAIL
  6
CONTINUOUS
 62
     5
 10
-341.55521470020039
 20
68.466278197499832
 30
0.0
 11
-341.57124765750041
 21
68.519769712700281
 31
0.0
  0
LINE
  8
DETAIL
  6
CONTINUOUS
 62
     5
 10
-341.57124765750041
 20
68.519769712700281
 30
0.0
 11
-341.58690672900048
 21
68.573371837499963
 31
0.0
  0
LINE
  8
DETAIL
  6
CONTINUOUS
 62
     5
 10
-341.58690672900048
 20
68.573371837499963
 30
0.0
 11
-341.59459581840019
 21
68.600213562399858
 31
0.0
  0
LINE
  8
DETAIL
  6
CONTINUOUS
 62
     5
 10
-341.59459581840019
 20
68.600213562399858
 30
0.0
 11
-341.6096926359005
 21
68.653976701600186
 31
0.0
  0
LINE
  8
DETAIL
  6
CONTINUOUS
 62
     5
 10
-341.6096926359005
 20
68.653976701600186
 30
0.0
 11
-341.62615656650041
 21
68.714320914300288
 31
0.0
  0
LINE
  8
DETAIL
  6
CONTINUOUS
 62
     5
 10
-228.7000000000003
 20
238.31727585210001
 30
0.0
 11
-228.7000000000003
 21
82.004737238600228
 31
0.0
  0
LINE
  8
DETAIL
  6
CONTINUOUS
 62
     5
 10
-228.7000000000003
 20
-230.1403181330999
 30
0.0
 11
-228.7000000000003
 21
-217.66434396289981
 31
0.0
  0
LINE
  8
DETAIL
  6
CONTINUOUS
 62
     5
 10
-228.7000000000003
 20
-217.66434396289981
 30
0.0
 11
-228.7000000000003
 21
-134.33108706929991
 31
0.0
  0
LINE
  8
DETAIL
  6
CONTINUOUS
 62
     5
 10
-228.7000000000003
 20
-134.33108706929991
 30
0.0
 11
-228.7000000000003
 21
-79.191054232399892
 31
0.0
  0
LINE
  8
DETAIL
  6
CONTINUOUS
 62
     5
 10
-186.85341801260029
 20
63.734106670400251
 30
0.0
 11
-186.98840467620039
 21
63.374547426200252
 31
0.0
  0
LINE
  8
DETAIL
  6
CONTINUOUS
 62
     5
 10
-186.98840467620039
 20
63.374547426200252
 30
0.0
 11
-187.09934282910041
 21
63.021696357900048
 31
0.0
  0
LINE
  8
DETAIL
  6
CONTINUOUS
 62
     5
 10
-187.09934282910041
 20
63.021696357900048
 30
0.0
 11
-187.18639561740019
 21
62.676792360300169
 31
0.0
  0
LINE
  8
DETAIL
  6
CONTINUOUS
 62
     5
 10
-187.18639561740019
 20
62.676792360300169
 30
0.0
 11
-187.24907360310041
 21
62.336118749699843
 31
0.0
  0
LINE
  8
DETAIL
  6
CONTINUOUS
 62
     5
 10
-187.24907360310041
 20
62.336118749699843
 30
0.0
 11
-187.2868873487005
 21
61.995958842600203
 31
0.0
  0
LINE
  8
DETAIL
  6
CONTINUOUS
 62
     5
 10
-187.2868873487005
 20
61.995958842600203
 30
0.0
 11
-187.30000000000021
 21
61.657551533600099
 31
0.0
  0
LINE
  8
DETAIL
  6
CONTINUOUS
 62
     5
 10
-187.21177090440011
 20
70.283916431299986
 30
0.0
 11
-187.24932150960009
 21
70.20997066650034
 31
0.0
  0
LINE
  8
DETAIL
  6
CONTINUOUS
 62
     5
 10
-187.24932150960009
 20
70.20997066650034
 30
0.0
 11
-187.28699183730029
 21
70.095807688700006
 31
0.0
  0
LINE
  8
DETAIL
  6
CONTINUOUS
 62
     5
 10
-187.28699183730029
 20
70.095807688700006
 30
0.0
 11
-187.30000000000021
 21
69.982322017300248
 31
0.0
  0
LINE
  8
DETAIL
  6
CONTINUOUS
 62
     5
 10
-183.3883739357002
 20
59.9777752391999
 30
0.0
 11
-183.30000000000021
 21
60.130843385900327
 31
0.0
  0
LINE
  8
DETAIL
  6
CONTINUOUS
 62
     5
 10
-187.30000000000021
 20
70.130843385900334
 30
0.0
 11
-187.21162606430019
 21
70.283911532700131
 31
0.0
  0
LINE
  8
DETAIL
  6
CONTINUOUS
 62
     5
 10
-302.34658198740038
 20
-68.255642256199735
 30
0.0
 11
-302.21113766500002
 21
-68.117287547799606
 31
0.0
  0
LINE
  8
DETAIL
  6
CONTINUOUS
 62
     5
 10
-302.21113766500002
 20
-68.117287547799606
 30
0.0
 11
-302.1000056414
 21
-67.981782379899869
 31
0.0
  0
LINE
  8
DETAIL
  6
CONTINUOUS
 62
     5
 10
-302.1000056414
 20
-67.981782379899869
 30
0.0
 11
-302.01625959430021
 21
-67.855137743099931
 31
0.0
  0
LINE
  8
DETAIL
  6
CONTINUOUS
 62
     5
 10
-312.48244599590038
 20
-77.975363954599743
 30
0.0
 11
-312.85394063790051
 21
-78.305804505199831
 31
0.0
  0
LINE
  8
DETAIL
  6
CONTINUOUS
 62
     5
 10
-312.85394063790051
 20
-78.305804505199831
 30
0.0
 11
-313.2384853548001
 21
-78.599213121099638
 31
0.0
  0
LINE
  8
DETAIL
  6
CONTINUOUS
 62
     5
 10
-313.2384853548001
 20
-78.599213121099638
 30
0.0
 11
-313.63054381570009
 21
-78.85539004309976
 31
0.0
  0
LINE
  8
DETAIL
  6
CONTINUOUS
 62
     5
 10
-313.63054381570009
 20
-78.85539004309976
 30
0.0
 11
-314.02695026970008
 21
-79.076122786699671
 31
0.0
  0
LINE
  8
DETAIL
  6
CONTINUOUS
 62
     5
 10
-314.02695026970008
 20
-79.076122786699671
 30
0.0
 11
-314.42329176130028
 21
-79.262569363899729
 31
0.0
  0
LINE
  8
DETAIL
  6
CONTINUOUS
 62
     5
 10
-314.42329176130028
 20
-79.262569363899729
 30
0.0
 11
-314.81902058150041
 21
-79.417668810900295
 31
0.0
  0
LINE
  8
DETAIL
  6
CONTINUOUS
 62
     5
 10
-314.81902058150041
 20
-79.417668810900295
 30
0.0
 11
-315.21910617640009
 21
-79.545274526299636
 31
0.0
  0
LINE
  8
DETAIL
  6
CONTINUOUS
 62
     5
 10
-315.21910617640009
 20
-79.545274526299636
 30
0.0
 11
-315.60648087049998
 21
-79.642509840299681
 31
0.0
  0
LINE
  8
DETAIL
  6
CONTINUOUS
 62
     5
 10
-315.60648087049998
 20
-79.642509840299681
 30
0.0
 11
-315.97332891670021
 21
-79.711801586799993
 31
0.0
  0
LINE
  8
DETAIL
  6
CONTINUOUS
 62
     5
 10
-315.97332891670021
 20
-79.711801586799993
 30
0.0
 11
-316.32248534540031
 21
-79.757826427399777
 31
0.0
  0
LINE
  8
DETAIL
  6
CONTINUOUS
 62
     5
 10
-316.32248534540031
 20
-79.757826427399777
 30
0.0
 11
-316.65878446750003
 21
-79.784178531199814
 31
0.0
  0
LINE
  8
DETAIL
  6
CONTINUOUS
 62
     5
 10
-316.65878446750003
 20
-79.784178531199814
 30
0.0
 11
-317.0
 21
-79.793109755899877
 31
0.0
  0
LINE
  8
DETAIL
  6
CONTINUOUS
 62
     5
 10
-310.38388565100013
 20
-88.42679398889959
 30
0.0
 11
-310.30165025450009
 21
-88.363372901000048
 31
0.0
  0
LINE
  8
DETAIL
  6
CONTINUOUS
 62
     5
 10
-310.30165025450009
 20
-88.363372901000048
 30
0.0
 11
-310.13450303720037
 21
-88.179718507399912
 31
0.0
  0
LINE
  8
DETAIL
  6
CONTINUOUS
 62
     5
 10
-310.13450303720037
 20
-88.179718507399912
 30
0.0
 11
-310.03427186880032
 21
-87.99331707329975
 31
0.0
  0
LINE
  8
DETAIL
  6
CONTINUOUS
 62
     5
 10
-310.03427186880032
 20
-87.99331707329975
 30
0.0
 11
-310.0
 21
-87.803299243799984
 31
0.0
  0
LINE
  8
DETAIL
  6
CONTINUOUS
 62
     5
 10
-303.40000000000009
 20
-74.217439319199912
 30
0.0
 11
-303.38982988440011
 21
-74.211084971900164
 31
0.0
  0
LINE
  8
DETAIL
  6
CONTINUOUS
 62
     5
 10
-303.38982988440011
 20
-74.211084971900164
 30
0.0
 11
-303.35935125270038
 21
-74.204750440399948
 31
0.0
  0
LINE
  8
DETAIL
  6
CONTINUOUS
 62
     5
 10
-303.35935125270038
 20
-74.204750440399948
 30
0.0
 11
-303.30865915180038
 21
-74.198455478899632
 31
0.0
  0
LINE
  8
DETAIL
  6
CONTINUOUS
 62
     5
 10
-303.30865915180038
 20
-74.198455478899632
 30
0.0
 11
-303.2379116635002
 21
-74.192219717899661
 31
0.0
  0
LINE
  8
DETAIL
  6
CONTINUOUS
 62
     5
 10
-303.2379116635002
 20
-74.192219717899661
 30
0.0
 11
-303.14732941180051
 21
-74.186062603600021
 31
0.0
  0
LINE
  8
DETAIL
  6
CONTINUOUS
 62
     5
 10
-303.14732941180051
 20
-74.186062603600021
 30
0.0
 11
-303.03546282200023
 21
-74.17991664479996
 31
0.0
  0
LINE
  8
DETAIL
  6
CONTINUOUS
 62
     5
 10
-315.5
 20
-74.240308729099752
 30
0.0
 11
-315.37244911900052
 21
-74.180097480699942
 31
0.0
  0
LINE
  8
DETAIL
  6
CONTINUOUS
 62
     5
 10
-315.37244911900052
 20
-74.180097480699942
 30
0.0
 11
-315.17427212120037
 21
-74.057417162400043
 31
0.0
  0
LINE
  8
DETAIL
  6
CONTINUOUS
 62
     5
 10
-315.17427212120037
 20
-74.057417162400043
 30
0.0
 11
-315.00698649110018
 21
-73.921183319799638
 31
0.0
  0
LINE
  8
DETAIL
  6
CONTINUOUS
 62
     5
 10
-315.00698649110018
 20
-73.921183319799638
 30
0.0
 11
-314.87431258760012
 21
-73.773117430800085
 31
0.0
  0
LINE
  8
DETAIL
  6
CONTINUOUS
 62
     5
 10
-314.87431258760012
 20
-73.773117430800085
 30
0.0
 11
-314.77761912240021
 21
-73.616179114799706
 31
0.0
  0
LINE
  8
DETAIL
  6
CONTINUOUS
 62
     5
 10
-314.77761912240021
 20
-73.616179114799706
 30
0.0
 11
-314.7198410304004
 21
-73.454538733200025
 31
0.0
  0
LINE
  8
DETAIL
  6
CONTINUOUS
 62
     5
 10
-310.10610898690038
 20
-88.851554039900066
 30
0.0
 11
-309.83077385140041
 21
-88.74120758609979
 31
0.0
  0
LINE
  8
DETAIL
  6
CONTINUOUS
 62
     5
 10
-309.83077385140041
 20
-88.74120758609979
 30
0.0
 11
-309.34923754530018
 21
-88.505477175399847
 31
0.0
  0
LINE
  8
DETAIL
  6
CONTINUOUS
 62
     5
 10
-309.34923754530018
 20
-88.505477175399847
 30
0.0
 11
-308.92237190120022
 21
-88.249833887399973
 31
0.0
  0
LINE
  8
DETAIL
  6
CONTINUOUS
 62
     5
 10
-308.92237190120022
 20
-88.249833887399973
 30
0.0
 11
-308.54191978930021
 21
-87.969433977199969
 31
0.0
  0
LINE
  8
DETAIL
  6
CONTINUOUS
 62
     5
 10
-308.54191978930021
 20
-87.969433977199969
 30
0.0
 11
-308.2081429693003
 21
-87.663747777499793
 31
0.0
  0
LINE
  8
DETAIL
  6
CONTINUOUS
 62
     5
 10
-308.2081429693003
 20
-87.663747777499793
 30
0.0
 11
-307.92222784170048
 21
-87.333863659199778
 31
0.0
  0
LINE
  8
DETAIL
  6
CONTINUOUS
 62
     5
 10
-307.92222784170048
 20
-87.333863659199778
 30
0.0
 11
-307.68438675140033
 21
-86.980308964200049
 31
0.0
  0
LINE
  8
DETAIL
  6
CONTINUOUS
 62
     5
 10
-307.68438675140033
 20
-86.980308964200049
 30
0.0
 11
-307.49738415500042
 21
-86.608084074399812
 31
0.0
  0
LINE
  8
DETAIL
  6
CONTINUOUS
 62
     5
 10
-307.49738415500042
 20
-86.608084074399812
 30
0.0
 11
-307.3613560304002
 21
-86.218180783699609
 31
0.0
  0
LINE
  8
DETAIL
  6
CONTINUOUS
 62
     5
 10
-307.3613560304002
 20
-86.218180783699609
 30
0.0
 11
-307.27808392370031
 21
-85.813292699999693
 31
0.0
  0
LINE
  8
DETAIL
  6
CONTINUOUS
 62
     5
 10
-307.27808392370031
 20
-85.813292699999693
 30
0.0
 11
-307.25
 21
-85.400145003999796
 31
0.0
  0
LINE
  8
DETAIL
  6
CONTINUOUS
 62
     5
 10
-311.20888736920051
 20
-86.963562092599659
 30
0.0
 11
-311.17971271390019
 21
-86.952727221999794
 31
0.0
  0
LINE
  8
DETAIL
  6
CONTINUOUS
 62
     5
 10
-311.17971271390019
 20
-86.952727221999794
 30
0.0
 11
-310.93920948370032
 21
-86.842037547899963
 31
0.0
  0
LINE
  8
DETAIL
  6
CONTINUOUS
 62
     5
 10
-317.0
 20
-79.540439167700015
 30
0.0
 11
-316.7425454146005
 21
-79.45969892389985
 31
0.0
  0
LINE
  8
DETAIL
  6
CONTINUOUS
 62
     5
 10
-316.7425454146005
 20
-79.45969892389985
 30
0.0
 11
-316.48589369410053
 21
-79.359658181099803
 31
0.0
  0
LINE
  8
DETAIL
  6
CONTINUOUS
 62
     5
 10
-316.48589369410053
 20
-79.359658181099803
 30
0.0
 11
-316.23084519950038
 21
-79.240628913599721
 31
0.0
  0
LINE
  8
DETAIL
  6
CONTINUOUS
 62
     5
 10
-316.23084519950038
 20
-79.240628913599721
 30
0.0
 11
-315.97819529230043
 21
-79.102982310600282
 31
0.0
  0
LINE
  8
DETAIL
  6
CONTINUOUS
 62
     5
 10
-315.97819529230043
 20
-79.102982310600282
 30
0.0
 11
-315.72873185410032
 21
-78.947147619199768
 31
0.0
  0
LINE
  8
DETAIL
  6
CONTINUOUS
 62
     5
 10
-315.72873185410032
 20
-78.947147619199768
 30
0.0
 11
-315.47972039850038
 21
-78.770977692199722
 31
0.0
  0
LINE
  8
DETAIL
  6
CONTINUOUS
 62
     5
 10
-338.90000000000009
 20
-33.199999999999818
 30
0.0
 11
-338.60000000000042
 21
-33.199999999999818
 31
0.0
  0
LINE
  8
DETAIL
  6
CONTINUOUS
 62
     5
 10
-341.80000000000018
 20
-25.799999999999731
 30
0.0
 11
-341.60000000000042
 21
-25.799999999999731
 31
0.0
  0
LINE
  8
DETAIL
  6
CONTINUOUS
 62
     5
 10
-305.4534180126002
 20
66.52491792210003
 30
0.0
 11
-305.58841816450013
 21
66.884523381700092
 31
0.0
  0
LINE
  8
DETAIL
  6
CONTINUOUS
 62
     5
 10
-305.58841816450013
 20
66.884523381700092
 30
0.0
 11
-305.69936130210039
 21
67.237393138299922
 31
0.0
  0
LINE
  8
DETAIL
  6
CONTINUOUS
 62
     5
 10
-305.69936130210039
 20
67.237393138299922
 30
0.0
 11
-305.78640765720002
 21
67.582279821499924
 31
0.0
  0
LINE
  8
DETAIL
  6
CONTINUOUS
 62
     5
 10
-305.78640765720002
 20
67.582279821499924
 30
0.0
 11
-305.84907653430042
 21
67.922925542200119
 31
0.0
  0
LINE
  8
DETAIL
  6
CONTINUOUS
 62
     5
 10
-305.84907653430042
 20
67.922925542200119
 30
0.0
 11
-305.88688723800033
 21
68.263072411500161
 31
0.0
  0
LINE
  8
DETAIL
  6
CONTINUOUS
 62
     5
 10
-305.88688723800033
 20
68.263072411500161
 30
0.0
 11
-305.90000000000009
 21
68.601473058899956
 31
0.0
  0
LINE
  8
DETAIL
  6
CONTINUOUS
 62
     5
 10
-305.4534180126002
 20
70.678028195800152
 30
0.0
 11
-305.5888679136001
 21
71.160555120599838
 31
0.0
  0
LINE
  8
DETAIL
  6
CONTINUOUS
 62
     5
 10
-305.5888679136001
 20
71.160555120599838
 30
0.0
 11
-305.70000164610019
 21
71.633125348800149
 31
0.0
  0
LINE
  8
DETAIL
  6
CONTINUOUS
 62
     5
 10
-305.70000164610019
 20
71.633125348800149
 30
0.0
 11
-305.78690514049998
 21
72.09391935550002
 31
0.0
  0
LINE
  8
DETAIL
  6
CONTINUOUS
 62
     5
 10
-305.78690514049998
 20
72.09391935550002
 30
0.0
 11
-305.84932060510027
 21
72.54839571499997
 31
0.0
  0
LINE
  8
DETAIL
  6
CONTINUOUS
 62
     5
 10
-305.84932060510027
 20
72.54839571499997
 30
0.0
 11
-305.88699024810012
 21
73.002013001500018
 31
0.0
  0
LINE
  8
DETAIL
  6
CONTINUOUS
 62
     5
 10
-305.88699024810012
 20
73.002013001500018
 30
0.0
 11
-305.90000000000009
 21
73.452951690299869
 31
0.0
  0
LINE
  8
DETAIL
  6
CONTINUOUS
 62
     5
 10
-260.5
 20
238.31727585210001
 30
0.0
 11
-260.5
 21
82.004737238600228
 31
0.0
  0
LINE
  8
DETAIL
  6
CONTINUOUS
 62
     5
 10
-260.50000000000142
 20
-230.14031813307921
 30
0.0
 11
-260.5
 21
-217.7004445378
 31
0.0
  0
LINE
  8
DETAIL
  6
CONTINUOUS
 62
     5
 10
-260.5
 20
-209.89395926830011
 30
0.0
 11
-260.5
 21
-134.3445255386996
 31
0.0
  0
LINE
  8
DETAIL
  6
CONTINUOUS
 62
     5
 10
-260.5
 20
-128.31143726159959
 30
0.0
 11
-260.5
 21
-79.191054232399892
 31
0.0
  0
LINE
  8
DETAIL
  6
CONTINUOUS
 62
     5
 10
-302.34658198740038
 20
-66.66424924039984
 30
0.0
 11
-302.21113766500002
 21
-66.177214448199948
 31
0.0
  0
LINE
  8
DETAIL
  6
CONTINUOUS
 62
     5
 10
-302.21113766500002
 20
-66.177214448199948
 30
0.0
 11
-302.1000056414
 21
-65.70021057879967
 31
0.0
  0
LINE
  8
DETAIL
  6
CONTINUOUS
 62
     5
 10
-302.1000056414
 20
-65.70021057879967
 30
0.0
 11
-302.0130984499001
 21
-65.235066231000019
 31
0.0
  0
LINE
  8
DETAIL
  6
CONTINUOUS
 62
     5
 10
-302.0130984499001
 20
-65.235066231000019
 30
0.0
 11
-301.95067849040021
 21
-64.776295608199689
 31
0.0
  0
LINE
  8
DETAIL
  6
CONTINUOUS
 62
     5
 10
-301.95067849040021
 20
-64.776295608199689
 30
0.0
 11
-301.91300816270041
 21
-64.318412913799875
 31
0.0
  0
LINE
  8
DETAIL
  6
CONTINUOUS
 62
     5
 10
-301.91300816270041
 20
-64.318412913799875
 30
0.0
 11
-301.90000000000009
 21
-63.863246746599543
 31
0.0
  0
LINE
  8
DETAIL
  6
CONTINUOUS
 62
     5
 10
-302.34658198740038
 20
-61.062244252799701
 30
0.0
 11
-302.21159532380028
 21
-60.715021926699819
 31
0.0
  0
LINE
  8
DETAIL
  6
CONTINUOUS
 62
     5
 10
-302.21159532380028
 20
-60.715021926699819
 30
0.0
 11
-302.10065717090038
 21
-60.374277610999798
 31
0.0
  0
LINE
  8
DETAIL
  6
CONTINUOUS
 62
     5
 10
-302.10065717090038
 20
-60.374277610999798
 30
0.0
 11
-302.01360438260048
 21
-60.041207692099761
 31
0.0
  0
LINE
  8
DETAIL
  6
CONTINUOUS
 62
     5
 10
-302.01360438260048
 20
-60.041207692099761
 30
0.0
 11
-301.95092639690029
 21
-59.712223010399612
 31
0.0
  0
LINE
  8
DETAIL
  6
CONTINUOUS
 62
     5
 10
-301.95092639690029
 20
-59.712223010399612
 30
0.0
 11
-301.91311265130031
 21
-59.383734406599608
 31
0.0
  0
LINE
  8
DETAIL
  6
CONTINUOUS
 62
     5
 10
-301.91311265130031
 20
-59.383734406599608
 30
0.0
 11
-301.90000000000009
 21
-59.056938266900033
 31
0.0
  0
LINE
  8
DETAIL
  6
CONTINUOUS
 62
     5
 10
-302.01625959430021
 20
-67.855137743099931
 30
0.0
 11
-301.95067849040021
 21
-67.719320665799842
 31
0.0
  0
LINE
  8
DETAIL
  6
CONTINUOUS
 62
     5
 10
-301.95067849040021
 20
-67.719320665799842
 30
0.0
 11
-301.91300816270041
 21
-67.589247357500199
 31
0.0
  0
LINE
  8
DETAIL
  6
CONTINUOUS
 62
     5
 10
-301.91300816270041
 20
-67.589247357500199
 30
0.0
 11
-301.90000000000009
 21
-67.459945748300015
 31
0.0
  0
LINE
  8
DETAIL
  6
CONTINUOUS
 62
     5
 10
-301.90000000000009
 20
-67.653637268599596
 30
0.0
 11
-302.01633445070053
 21
-67.855134447899673
 31
0.0
  0
LINE
  8
DETAIL
  6
CONTINUOUS
 62
     5
 10
-305.78366554930022
 20
-57.452140089300201
 30
0.0
 11
-305.90000000000009
 21
-57.653637268599603
 31
0.0
  0
LINE
  8
DETAIL
  6
CONTINUOUS
 62
     5
 10
-322.64569820470018
 20
-73.018121919899841
 30
0.0
 11
-322.42817589480052
 21
-72.678427519099841
 31
0.0
  0
LINE
  8
DETAIL
  6
CONTINUOUS
 62
     5
 10
-322.42817589480052
 20
-72.678427519099841
 30
0.0
 11
-322.16227697770051
 21
-72.3504121072001
 31
0.0
  0
LINE
  8
DETAIL
  6
CONTINUOUS
 62
     5
 10
-322.16227697770051
 20
-72.3504121072001
 30
0.0
 11
-321.84619969380037
 21
-72.032564579899827
 31
0.0
  0
LINE
  8
DETAIL
  6
CONTINUOUS
 62
     5
 10
-321.84619969380037
 20
-72.032564579899827
 30
0.0
 11
-321.48534932170008
 21
-71.731366731599792
 31
0.0
  0
LINE
  8
DETAIL
  6
CONTINUOUS
 62
     5
 10
-321.48534932170008
 20
-71.731366731599792
 30
0.0
 11
-321.08283383440039
 21
-71.452019962899612
 31
0.0
  0
LINE
  8
DETAIL
  6
CONTINUOUS
 62
     5
 10
-321.08283383440039
 20
-71.452019962899612
 30
0.0
 11
-320.64374338860029
 21
-71.197503397299897
 31
0.0
  0
LINE
  8
DETAIL
  6
CONTINUOUS
 62
     5
 10
-320.64374338860029
 20
-71.197503397299897
 30
0.0
 11
-320.17144281690031
 21
-70.971708988899991
 31
0.0
  0
LINE
  8
DETAIL
  6
CONTINUOUS
 62
     5
 10
-320.17144281690031
 20
-70.971708988899991
 30
0.0
 11
-319.67421606490012
 21
-70.777225244599776
 31
0.0
  0
LINE
  8
DETAIL
  6
CONTINUOUS
 62
     5
 10
-319.67421606490012
 20
-70.777225244599776
 30
0.0
 11
-319.16101598260047
 21
-70.618064871900287
 31
0.0
  0
LINE
  8
DETAIL
  6
CONTINUOUS
 62
     5
 10
-319.16101598260047
 20
-70.618064871900287
 30
0.0
 11
-318.63320068930028
 21
-70.493612308499905
 31
0.0
  0
LINE
  8
DETAIL
  6
CONTINUOUS
 62
     5
 10
-318.63320068930028
 20
-70.493612308499905
 30
0.0
 11
-318.09315068400019
 21
-70.404239412499919
 31
0.0
  0
LINE
  8
DETAIL
  6
CONTINUOUS
 62
     5
 10
-318.09315068400019
 20
-70.404239412499919
 30
0.0
 11
-317.54675167760018
 21
-70.350380484099787
 31
0.0
  0
LINE
  8
DETAIL
  6
CONTINUOUS
 62
     5
 10
-317.54675167760018
 20
-70.350380484099787
 30
0.0
 11
-317.00092226810062
 21
-70.332382208000126
 31
0.0
  0
LINE
  8
DETAIL
  6
CONTINUOUS
 62
     5
 10
-317.00092226810062
 20
-70.332382208000126
 30
0.0
 11
-316.45494429350038
 21
-70.350270100399939
 31
0.0
  0
LINE
  8
DETAIL
  6
CONTINUOUS
 62
     5
 10
-316.45494429350038
 20
-70.350270100399939
 30
0.0
 11
-315.90802953480028
 21
-70.404096672000151
 31
0.0
  0
LINE
  8
DETAIL
  6
CONTINUOUS
 62
     5
 10
-315.90802953480028
 20
-70.404096672000151
 30
0.0
 11
-315.36730676060051
 21
-70.493510604399944
 31
0.0
  0
LINE
  8
DETAIL
  6
CONTINUOUS
 62
     5
 10
-315.36730676060051
 20
-70.493510604399944
 30
0.0
 11
-314.83883806370022
 21
-70.618111053299799
 31
0.0
  0
LINE
  8
DETAIL
  6
CONTINUOUS
 62
     5
 10
-314.83883806370022
 20
-70.618111053299799
 30
0.0
 11
-314.32503525170023
 21
-70.777486650599712
 31
0.0
  0
LINE
  8
DETAIL
  6
CONTINUOUS
 62
     5
 10
-314.32503525170023
 20
-70.777486650599712
 30
0.0
 11
-313.8273153250002
 21
-70.972262550900041
 31
0.0
  0
LINE
  8
DETAIL
  6
CONTINUOUS
 62
     5
 10
-313.8273153250002
 20
-70.972262550900041
 30
0.0
 11
-313.35472479810051
 21
-71.198311630199896
 31
0.0
  0
LINE
  8
DETAIL
  6
CONTINUOUS
 62
     5
 10
-313.35472479810051
 20
-71.198311630199896
 30
0.0
 11
-312.9157259591002
 21
-71.452924329699727
 31
0.0
  0
LINE
  8
DETAIL
  6
CONTINUOUS
 62
     5
 10
-312.9157259591002
 20
-71.452924329699727
 30
0.0
 11
-312.51348848770022
 21
-71.732251078599802
 31
0.0
  0
LINE
  8
DETAIL
  6
CONTINUOUS
 62
     5
 10
-312.51348848770022
 20
-71.732251078599802
 30
0.0
 11
-312.15298691040022
 21
-72.033295399000053
 31
0.0
  0
LINE
  8
DETAIL
  6
CONTINUOUS
 62
     5
 10
-312.15298691040022
 20
-72.033295399000053
 30
0.0
 11
-311.83726897450009
 21
-72.350917607999691
 31
0.0
  0
LINE
  8
DETAIL
  6
CONTINUOUS
 62
     5
 10
-311.83726897450009
 20
-72.350917607999691
 30
0.0
 11
-311.57162884310043
 21
-72.678695377800068
 31
0.0
  0
LINE
  8
DETAIL
  6
CONTINUOUS
 62
     5
 10
-311.57162884310043
 20
-72.678695377800068
 30
0.0
 11
-311.35430179530022
 21
-73.018121919899841
 31
0.0
  0
LINE
  8
DETAIL
  6
CONTINUOUS
 62
     5
 10
-322.64569820470018
 20
-70.956568474099868
 30
0.0
 11
-322.39243449580039
 21
-70.562407215799794
 31
0.0
  0
LINE
  8
DETAIL
  6
CONTINUOUS
 62
     5
 10
-322.39243449580039
 20
-70.562407215799794
 30
0.0
 11
-322.08403760720012
 21
-70.188782446999994
 31
0.0
  0
LINE
  8
DETAIL
  6
CONTINUOUS
 62
     5
 10
-322.08403760720012
 20
-70.188782446999994
 30
0.0
 11
-321.7172286662003
 21
-69.834598680699855
 31
0.0
  0
LINE
  8
DETAIL
  6
CONTINUOUS
 62
     5
 10
-321.7172286662003
 20
-69.834598680699855
 30
0.0
 11
-321.30184429020028
 21
-69.506707684399771
 31
0.0
  0
LINE
  8
DETAIL
  6
CONTINUOUS
 62
     5
 10
-321.30184429020028
 20
-69.506707684399771
 30
0.0
 11
-320.84429051530009
 21
-69.211002746199938
 31
0.0
  0
LINE
  8
DETAIL
  6
CONTINUOUS
 62
     5
 10
-320.84429051530009
 20
-69.211002746199938
 30
0.0
 11
-320.35158021220008
 21
-68.949688188599794
 31
0.0
  0
LINE
  8
DETAIL
  6
CONTINUOUS
 62
     5
 10
-320.35158021220008
 20
-68.949688188599794
 30
0.0
 11
-319.83105291300012
 21
-68.72658867149994
 31
0.0
  0
LINE
  8
DETAIL
  6
CONTINUOUS
 62
     5
 10
-319.83105291300012
 20
-68.72658867149994
 30
0.0
 11
-319.28813467050031
 21
-68.542417418600053
 31
0.0
  0
LINE
  8
DETAIL
  6
CONTINUOUS
 62
     5
 10
-319.28813467050031
 20
-68.542417418600053
 30
0.0
 11
-318.72939457760049
 21
-68.398892376999811
 31
0.0
  0
LINE
  8
DETAIL
  6
CONTINUOUS
 62
     5
 10
-318.72939457760049
 20
-68.398892376999811
 30
0.0
 11
-318.15874304510038
 21
-68.296101938999527
 31
0.0
  0
LINE
  8
DETAIL
  6
CONTINUOUS
 62
     5
 10
-318.15874304510038
 20
-68.296101938999527
 30
0.0
 11
-317.58120895280041
 21
-68.234409458999835
 31
0.0
  0
LINE
  8
DETAIL
  6
CONTINUOUS
 62
     5
 10
-317.58120895280041
 20
-68.234409458999835
 30
0.0
 11
-317.00000598629998
 21
-68.213884429899736
 31
0.0
  0
LINE
  8
DETAIL
  6
CONTINUOUS
 62
     5
 10
-317.00000598629998
 20
-68.213884429899736
 30
0.0
 11
-316.41880078930012
 21
-68.234408944299503
 31
0.0
  0
LINE
  8
DETAIL
  6
CONTINUOUS
 62
     5
 10
-316.41880078930012
 20
-68.234408944299503
 30
0.0
 11
-315.84126336830008
 21
-68.296101021599497
 31
0.0
  0
LINE
  8
DETAIL
  6
CONTINUOUS
 62
     5
 10
-315.84126336830008
 20
-68.296101021599497
 30
0.0
 11
-315.27061004130019
 21
-68.398891343799733
 31
0.0
  0
LINE
  8
DETAIL
  6
CONTINUOUS
 62
     5
 10
-315.27061004130019
 20
-68.398891343799733
 30
0.0
 11
-314.71186851700031
 21
-68.542416471699653
 31
0.0
  0
LINE
  8
DETAIL
  6
CONTINUOUS
 62
     5
 10
-314.71186851700031
 20
-68.542416471699653
 30
0.0
 11
-314.16894873849992
 21
-68.726588083399747
 31
0.0
  0
LINE
  8
DETAIL
  6
CONTINUOUS
 62
     5
 10
-314.16894873849992
 20
-68.726588083399747
 30
0.0
 11
-313.64842031970011
 21
-68.949687934599751
 31
0.0
  0
LINE
  8
DETAIL
  6
CONTINUOUS
 62
     5
 10
-313.64842031970011
 20
-68.949687934599751
 30
0.0
 11
-313.1557099331003
 21
-69.211002415299845
 31
0.0
  0
LINE
  8
DETAIL
  6
CONTINUOUS
 62
     5
 10
-313.1557099331003
 20
-69.211002415299845
 30
0.0
 11
-312.69815634560018
 21
-69.506707230600114
 31
0.0
  0
LINE
  8
DETAIL
  6
CONTINUOUS
 62
     5
 10
-312.69815634560018
 20
-69.506707230600114
 30
0.0
 11
-312.2827717416003
 21
-69.834598352499597
 31
0.0
  0
LINE
  8
DETAIL
  6
CONTINUOUS
 62
     5
 10
-312.2827717416003
 20
-69.834598352499597
 30
0.0
 11
-311.91596254110033
 21
-70.188782287299546
 31
0.0
  0
LINE
  8
DETAIL
  6
CONTINUOUS
 62
     5
 10
-311.91596254110033
 20
-70.188782287299546
 30
0.0
 11
-311.60756553590039
 21
-70.562407152300011
 31
0.0
  0
LINE
  8
DETAIL
  6
CONTINUOUS
 62
     5
 10
-311.60756553590039
 20
-70.562407152300011
 30
0.0
 11
-311.35430179530022
 21
-70.956568474099868
 31
0.0
  0
LINE
  8
DETAIL
  6
CONTINUOUS
 62
     5
 10
-312.48244599590038
 20
-77.975363954599743
 30
0.0
 11
-312.37140356080039
 21
-77.842876221099687
 31
0.0
  0
LINE
  8
DETAIL
  6
CONTINUOUS
 62
     5
 10
-312.37140356080039
 20
-77.842876221099687
 30
0.0
 11
-312.30000000000018
 21
-77.617915775799702
 31
0.0
  0
LINE
  8
DETAIL
  6
CONTINUOUS
 62
     5
 10
-329.70282096049999
 20
-80.623664973899849
 30
0.0
 11
-330.05101393460018
 21
-80.997823750199586
 31
0.0
  0
LINE
  8
DETAIL
  6
CONTINUOUS
 62
     5
 10
-330.05101393460018
 20
-80.997823750199586
 30
0.0
 11
-330.29994143250042
 21
-81.358433303199945
 31
0.0
  0
LINE
  8
DETAIL
  6
CONTINUOUS
 62
     5
 10
-330.29994143250042
 20
-81.358433303199945
 30
0.0
 11
-330.44979440670022
 21
-81.705736591099594
 31
0.0
  0
LINE
  8
DETAIL
  6
CONTINUOUS
 62
     5
 10
-330.44979440670022
 20
-81.705736591099594
 30
0.0
 11
-330.5
 21
-82.035729068199544
 31
0.0
  0
LINE
  8
DETAIL
  6
CONTINUOUS
 62
     5
 10
-305.4534180126002
 20
-57.051632280999911
 30
0.0
 11
-305.5888679136001
 21
-57.189994650299923
 31
0.0
  0
LINE
  8
DETAIL
  6
CONTINUOUS
 62
     5
 10
-305.5888679136001
 20
-57.189994650299923
 30
0.0
 11
-305.70000164610019
 21
-57.32550198259969
 31
0.0
  0
LINE
  8
DETAIL
  6
CONTINUOUS
 62
     5
 10
-305.70000164610019
 20
-57.32550198259969
 30
0.0
 11
-305.78374155840038
 21
-57.452136743399933
 31
0.0
  0
LINE
  8
DETAIL
  6
CONTINUOUS
 62
     5
 10
-183.74658198740011
 20
59.580996396799947
 30
0.0
 11
-183.6111320864002
 21
59.702434532599909
 31
0.0
  0
LINE
  8
DETAIL
  6
CONTINUOUS
 62
     5
 10
-183.6111320864002
 20
59.702434532599909
 30
0.0
 11
-183.49999835390011
 21
59.821366854400139
 31
0.0
  0
LINE
  8
DETAIL
  6
CONTINUOUS
 62
     5
 10
-183.49999835390011
 20
59.821366854400139
 30
0.0
 11
-183.41309485950021
 21
59.937335440300103
 31
0.0
  0
LINE
  8
DETAIL
  6
CONTINUOUS
 62
     5
 10
-183.41309485950021
 20
59.937335440300103
 30
0.0
 11
-183.3882281555002
 21
59.977770308800253
 31
0.0
  0
LINE
  8
DETAIL
  6
CONTINUOUS
 62
     5
 10
-186.85341801260029
 20
70.680690374999813
 30
0.0
 11
-186.98886233499999
 21
70.559258963000048
 31
0.0
  0
LINE
  8
DETAIL
  6
CONTINUOUS
 62
     5
 10
-186.98886233499999
 20
70.559258963000048
 30
0.0
 11
-187.0999943586003
 21
70.440328540900282
 31
0.0
  0
LINE
  8
DETAIL
  6
CONTINUOUS
 62
     5
 10
-187.0999943586003
 20
70.440328540900282
 30
0.0
 11
-187.1869015501002
 21
70.324355029600156
 31
0.0
  0
LINE
  8
DETAIL
  6
CONTINUOUS
 62
     5
 10
-187.1869015501002
 20
70.324355029600156
 30
0.0
 11
-187.21177090440011
 21
70.283916431299986
 31
0.0
  0
LINE
  8
DETAIL
  6
CONTINUOUS
 62
     5
 10
-341.80000000000018
 20
25.800000000000178
 30
0.0
 11
-341.60000000000042
 21
25.800000000000178
 31
0.0
  0
LINE
  8
DETAIL
  6
CONTINUOUS
 62
     5
 10
-338.90000000000009
 20
33.199999999999818
 30
0.0
 11
-338.60000000000042
 21
33.199999999999818
 31
0.0
  0
LINE
  8
DETAIL
  6
CONTINUOUS
 62
     5
 10
-186.85341801260029
 20
-75.394125493799947
 30
0.0
 11
-186.98886233499999
 21
-75.272694081699683
 31
0.0
  0
LINE
  8
DETAIL
  6
CONTINUOUS
 62
     5
 10
-186.98886233499999
 20
-75.272694081699683
 30
0.0
 11
-187.0999943586003
 21
-75.153763659599917
 31
0.0
  0
LINE
  8
DETAIL
  6
CONTINUOUS
 62
     5
 10
-187.0999943586003
 20
-75.153763659599917
 30
0.0
 11
-187.1869015501002
 21
-75.037790148399836
 31
0.0
  0
LINE
  8
DETAIL
  6
CONTINUOUS
 62
     5
 10
-187.1869015501002
 20
-75.037790148399836
 30
0.0
 11
-187.21177090440011
 21
-74.997351550099893
 31
0.0
  0
LINE
  8
DETAIL
  6
CONTINUOUS
 62
     5
 10
-183.74658198740011
 20
-64.294431515600309
 30
0.0
 11
-183.6111320864002
 21
-64.415869651299545
 31
0.0
  0
LINE
  8
DETAIL
  6
CONTINUOUS
 62
     5
 10
-183.6111320864002
 20
-64.415869651299545
 30
0.0
 11
-183.49999835390011
 21
-64.534801973200047
 31
0.0
  0
LINE
  8
DETAIL
  6
CONTINUOUS
 62
     5
 10
-183.49999835390011
 20
-64.534801973200047
 30
0.0
 11
-183.41309485950021
 21
-64.650770559099783
 31
0.0
  0
LINE
  8
DETAIL
  6
CONTINUOUS
 62
     5
 10
-183.41309485950021
 20
-64.650770559099783
 30
0.0
 11
-183.3882281555002
 21
-64.691205427599925
 31
0.0
  0
LINE
  8
DETAIL
  6
CONTINUOUS
 62
     5
 10
-305.4534180126002
 20
76.227875184899858
 30
0.0
 11
-305.5888679136001
 21
76.349313320599776
 31
0.0
  0
LINE
  8
DETAIL
  6
CONTINUOUS
 62
     5
 10
-305.5888679136001
 20
76.349313320599776
 30
0.0
 11
-305.70000164610019
 21
76.468245642499824
 31
0.0
  0
LINE
  8
DETAIL
  6
CONTINUOUS
 62
     5
 10
-305.70000164610019
 20
76.468245642499824
 30
0.0
 11
-305.78690514049998
 21
76.584214228400015
 31
0.0
  0
LINE
  8
DETAIL
  6
CONTINUOUS
 62
     5
 10
-305.78690514049998
 20
76.584214228400015
 30
0.0
 11
-305.84932060510027
 21
76.698592844400082
 31
0.0
  0
LINE
  8
DETAIL
  6
CONTINUOUS
 62
     5
 10
-305.84932060510027
 20
76.698592844400082
 30
0.0
 11
-305.88699024810012
 21
76.812755256499941
 31
0.0
  0
LINE
  8
DETAIL
  6
CONTINUOUS
 62
     5
 10
-305.88699024810012
 20
76.812755256499941
 30
0.0
 11
-305.90000000000009
 21
76.926243542600332
 31
0.0
  0
LINE
  8
DETAIL
  6
CONTINUOUS
 62
     5
 10
-305.81178452920022
 20
66.921691406000264
 30
0.0
 11
-305.78688116250032
 21
66.881198172200129
 31
0.0
  0
LINE
  8
DETAIL
  6
CONTINUOUS
 62
     5
 10
-305.78688116250032
 20
66.881198172200129
 30
0.0
 11
-305.70000901500038
 21
66.765297099700092
 31
0.0
  0
LINE
  8
DETAIL
  6
CONTINUOUS
 62
     5
 10
-305.70000901500038
 20
66.765297099700092
 30
0.0
 11
-305.5888796899003
 21
66.646376753099958
 31
0.0
  0
LINE
  8
DETAIL
  6
CONTINUOUS
 62
     5
 10
-305.5888796899003
 20
66.646376753099958
 30
0.0
 11
-305.4534180126002
 21
66.52491792210003
 31
0.0
  0
LINE
  8
DETAIL
  6
CONTINUOUS
 62
     5
 10
-301.98821643590048
 20
77.227838383900234
 30
0.0
 11
-302.01312272890033
 21
77.268335753000201
 31
0.0
  0
LINE
  8
DETAIL
  6
CONTINUOUS
 62
     5
 10
-302.01312272890033
 20
77.268335753000201
 30
0.0
 11
-302.09999872850022
 21
77.384241885999927
 31
0.0
  0
LINE
  8
DETAIL
  6
CONTINUOUS
 62
     5
 10
-302.09999872850022
 20
77.384241885999927
 30
0.0
 11
-302.2111262209005
 21
77.503160175499943
 31
0.0
  0
LINE
  8
DETAIL
  6
CONTINUOUS
 62
     5
 10
-302.2111262209005
 20
77.503160175499943
 30
0.0
 11
-302.34658198740038
 21
77.624611900299897
 31
0.0
  0
LINE
  8
DETAIL
  6
CONTINUOUS
 62
     5
 10
-305.81162606430013
 20
66.921696764500211
 30
0.0
 11
-305.90000000000009
 21
67.074764911199964
 31
0.0
  0
LINE
  8
DETAIL
  6
CONTINUOUS
 62
     5
 10
-301.90000000000009
 20
77.074764911199964
 30
0.0
 11
-301.98837393570011
 21
77.227833058000215
 31
0.0
  0
LINE
  8
DETAIL
  6
CONTINUOUS
 62
     5
 10
-305.4534180126002
 20
-66.66424924039984
 30
0.0
 11
-305.5888679136001
 21
-66.177187480900102
 31
0.0
  0
LINE
  8
DETAIL
  6
CONTINUOUS
 62
     5
 10
-305.5888679136001
 20
-66.177187480900102
 30
0.0
 11
-305.70000164610019
 21
-65.700175991999913
 31
0.0
  0
LINE
  8
DETAIL
  6
CONTINUOUS
 62
     5
 10
-305.70000164610019
 20
-65.700175991999913
 30
0.0
 11
-305.78690514049998
 21
-65.235051398699852
 31
0.0
  0
LINE
  8
DETAIL
  6
CONTINUOUS
 62
     5
 10
-305.78690514049998
 20
-65.235051398699852
 30
0.0
 11
-305.84932060510027
 21
-64.776303826499998
 31
0.0
  0
LINE
  8
DETAIL
  6
CONTINUOUS
 62
     5
 10
-305.84932060510027
 20
-64.776303826499998
 30
0.0
 11
-305.88699024810012
 21
-64.318423400900201
 31
0.0
  0
LINE
  8
DETAIL
  6
CONTINUOUS
 62
     5
 10
-305.88699024810012
 20
-64.318423400900201
 30
0.0
 11
-305.90000000000009
 21
-63.863246746599543
 31
0.0
  0
LINE
  8
DETAIL
  6
CONTINUOUS
 62
     5
 10
-341.62615656280008
 20
68.71432090050007
 30
0.0
 11
-341.62852841350008
 21
68.723170345399922
 31
0.0
  0
LINE
  8
DETAIL
  6
CONTINUOUS
 62
     5
 10
-303.16764086060022
 20
-75.942613921499742
 30
0.0
 11
-303.20239616320032
 21
-75.810524854399773
 31
0.0
  0
LINE
  8
DETAIL
  6
CONTINUOUS
 62
     5
 10
-303.20239616320032
 20
-75.810524854399773
 30
0.0
 11
-303.23437715730051
 21
-75.677737007299584
 31
0.0
  0
LINE
  8
DETAIL
  6
CONTINUOUS
 62
     5
 10
-303.23437715730051
 20
-75.677737007299584
 30
0.0
 11
-303.26816325260052
 21
-75.522012393099885
 31
0.0
  0
LINE
  8
DETAIL
  6
CONTINUOUS
 62
     5
 10
-303.26816325260052
 20
-75.522012393099885
 30
0.0
 11
-303.29408675330018
 21
-75.387910709399875
 31
0.0
  0
LINE
  8
DETAIL
  6
CONTINUOUS
 62
     5
 10
-303.29408675330018
 20
-75.387910709399875
 30
0.0
 11
-303.32077285830019
 21
-75.23081399809962
 31
0.0
  0
LINE
  8
DETAIL
  6
CONTINUOUS
 62
     5
 10
-303.32077285830019
 20
-75.23081399809962
 30
0.0
 11
-303.3418341685001
 21
-75.086438701199768
 31
0.0
  0
LINE
  8
DETAIL
  6
CONTINUOUS
 62
     5
 10
-341.62852841360018
 20
68.723170345499966
 30
0.0
 11
-341.6701080232001
 21
68.885452899600295
 31
0.0
  0
LINE
  8
DETAIL
  6
CONTINUOUS
 62
     5
 10
-341.6701080232001
 20
68.885452899600295
 30
0.0
 11
-341.70827940670051
 21
69.048570507500244
 31
0.0
  0
LINE
  8
DETAIL
  6
CONTINUOUS
 62
     5
 10
-341.70827940670051
 20
69.048570507500244
 30
0.0
 11
-341.7430258207005
 21
69.212451620299817
 31
0.0
  0
LINE
  8
DETAIL
  6
CONTINUOUS
 62
     5
 10
-341.7430258207005
 20
69.212451620299817
 30
0.0
 11
-341.77433202440028
 21
69.377024354500008
 31
0.0
  0
LINE
  8
DETAIL
  6
CONTINUOUS
 62
     5
 10
-341.77433202440028
 20
69.377024354500008
 30
0.0
 11
-341.80648964940019
 21
69.56980368980021
 31
0.0
  0
LINE
  8
DETAIL
  6
CONTINUOUS
 62
     5
 10
-341.80648964940019
 20
69.56980368980021
 30
0.0
 11
-341.83190422820007
 21
69.747792374199889
 31
0.0
  0
LINE
  8
DETAIL
  6
CONTINUOUS
 62
     5
 10
-310.0
 20
-87.803299243799984
 30
0.0
 11
-310.03427186880032
 21
-87.613281414400035
 31
0.0
  0
LINE
  8
DETAIL
  6
CONTINUOUS
 62
     5
 10
-310.03427186880032
 20
-87.613281414400035
 30
0.0
 11
-310.13450303720037
 21
-87.426879980299873
 31
0.0
  0
LINE
  8
DETAIL
  6
CONTINUOUS
 62
     5
 10
-310.13450303720037
 20
-87.426879980299873
 30
0.0
 11
-310.30165025450009
 21
-87.243225586699737
 31
0.0
  0
LINE
  8
DETAIL
  6
CONTINUOUS
 62
     5
 10
-310.30165025450009
 20
-87.243225586699737
 30
0.0
 11
-310.53284327240038
 21
-87.064926298000046
 31
0.0
  0
LINE
  8
DETAIL
  6
CONTINUOUS
 62
     5
 10
-310.53284327240038
 20
-87.064926298000046
 30
0.0
 11
-310.82676551920031
 21
-86.893788976599808
 31
0.0
  0
LINE
  8
DETAIL
  6
CONTINUOUS
 62
     5
 10
-310.82676551920031
 20
-86.893788976599808
 30
0.0
 11
-311.17971271390019
 21
-86.731347873799905
 31
0.0
  0
LINE
  8
DETAIL
  6
CONTINUOUS
 62
     5
 10
-311.17971271390019
 20
-86.731347873799905
 30
0.0
 11
-311.58911472310052
 21
-86.579304336099995
 31
0.0
  0
LINE
  8
DETAIL
  6
CONTINUOUS
 62
     5
 10
-311.58911472310052
 20
-86.579304336099995
 30
0.0
 11
-312.05025253170021
 21
-86.438963939699988
 31
0.0
  0
LINE
  8
DETAIL
  6
CONTINUOUS
 62
     5
 10
-312.05025253170021
 20
-86.438963939699988
 30
0.0
 11
-312.55940121360032
 21
-86.311857133499871
 31
0.0
  0
LINE
  8
DETAIL
  6
CONTINUOUS
 62
     5
 10
-312.55940121360032
 20
-86.311857133499871
 30
0.0
 11
-313.1110083689
 21
-86.199010646199895
 31
0.0
  0
LINE
  8
DETAIL
  6
CONTINUOUS
 62
     5
 10
-313.1110083689
 20
-86.199010646199895
 30
0.0
 11
-313.70033742520042
 21
-86.101725214699854
 31
0.0
  0
LINE
  8
DETAIL
  6
CONTINUOUS
 62
     5
 10
-313.70033742520042
 20
-86.101725214699854
 30
0.0
 11
-314.32121597340029
 21
-86.020709263799972
 31
0.0
  0
LINE
  8
DETAIL
  6
CONTINUOUS
 62
     5
 10
-314.32121597340029
 20
-86.020709263799972
 30
0.0
 11
-314.96807781910047
 21
-85.956983831699972
 31
0.0
  0
LINE
  8
DETAIL
  6
CONTINUOUS
 62
     5
 10
-314.96807781910047
 20
-85.956983831699972
 30
0.0
 11
-315.63436774590042
 21
-85.910911814600013
 31
0.0
  0
LINE
  8
DETAIL
  6
CONTINUOUS
 62
     5
 10
-315.63436774590042
 20
-85.910911814600013
 30
0.0
 11
-316.3139038428003
 21
-85.883195314499972
 31
0.0
  0
LINE
  8
DETAIL
  6
CONTINUOUS
 62
     5
 10
-316.3139038428003
 20
-85.883195314499972
 30
0.0
 11
-317.0
 21
-85.873837753099906
 31
0.0
  0
LINE
  8
DETAIL
  6
CONTINUOUS
 62
     5
 10
-317.0
 20
-85.873837753099906
 30
0.0
 11
-317.68609615720021
 21
-85.883195314499972
 31
0.0
  0
LINE
  8
DETAIL
  6
CONTINUOUS
 62
     5
 10
-317.68609615720021
 20
-85.883195314499972
 30
0.0
 11
-318.36563225410009
 21
-85.910911814600013
 31
0.0
  0
LINE
  8
DETAIL
  6
CONTINUOUS
 62
     5
 10
-318.36563225410009
 20
-85.910911814600013
 30
0.0
 11
-319.03192218090038
 21
-85.956983831699972
 31
0.0
  0
LINE
  8
DETAIL
  6
CONTINUOUS
 62
     5
 10
-319.03192218090038
 20
-85.956983831699972
 30
0.0
 11
-319.67878402660023
 21
-86.020709263799972
 31
0.0
  0
LINE
  8
DETAIL
  6
CONTINUOUS
 62
     5
 10
-319.67878402660023
 20
-86.020709263799972
 30
0.0
 11
-320.29966257480049
 21
-86.101725214699854
 31
0.0
  0
LINE
  8
DETAIL
  6
CONTINUOUS
 62
     5
 10
-320.29966257480049
 20
-86.101725214699854
 30
0.0
 11
-320.8889916311
 21
-86.199010646199895
 31
0.0
  0
LINE
  8
DETAIL
  6
CONTINUOUS
 62
     5
 10
-320.8889916311
 20
-86.199010646199895
 30
0.0
 11
-321.44059878640019
 21
-86.311857133499871
 31
0.0
  0
LINE
  8
DETAIL
  6
CONTINUOUS
 62
     5
 10
-321.44059878640019
 20
-86.311857133499871
 30
0.0
 11
-321.9497474683003
 21
-86.438963939699988
 31
0.0
  0
LINE
  8
DETAIL
  6
CONTINUOUS
 62
     5
 10
-321.9497474683003
 20
-86.438963939699988
 30
0.0
 11
-322.41088527690039
 21
-86.579304336099995
 31
0.0
  0
LINE
  8
DETAIL
  6
CONTINUOUS
 62
     5
 10
-322.41088527690039
 20
-86.579304336099995
 30
0.0
 11
-322.82028728610021
 21
-86.731347873799905
 31
0.0
  0
LINE
  8
DETAIL
  6
CONTINUOUS
 62
     5
 10
-322.82028728610021
 20
-86.731347873799905
 30
0.0
 11
-323.17323448080009
 21
-86.893788976599808
 31
0.0
  0
LINE
  8
DETAIL
  6
CONTINUOUS
 62
     5
 10
-323.17323448080009
 20
-86.893788976599808
 30
0.0
 11
-323.46715672760052
 21
-87.064926298000046
 31
0.0
  0
LINE
  8
DETAIL
  6
CONTINUOUS
 62
     5
 10
-323.46715672760052
 20
-87.064926298000046
 30
0.0
 11
-323.69834974550031
 21
-87.243225586699737
 31
0.0
  0
LINE
  8
DETAIL
  6
CONTINUOUS
 62
     5
 10
-323.69834974550031
 20
-87.243225586699737
 30
0.0
 11
-323.86549696280008
 21
-87.426879980299873
 31
0.0
  0
LINE
  8
DETAIL
  6
CONTINUOUS
 62
     5
 10
-323.86549696280008
 20
-87.426879980299873
 30
0.0
 11
-323.96572813120019
 21
-87.613281414400035
 31
0.0
  0
LINE
  8
DETAIL
  6
CONTINUOUS
 62
     5
 10
-323.96572813120019
 20
-87.613281414400035
 30
0.0
 11
-324.0
 21
-87.803299243799984
 31
0.0
  0
LINE
  8
DETAIL
  6
CONTINUOUS
 62
     5
 10
-303.5
 20
-82.035729068199544
 30
0.0
 11
-303.55020559799999
 21
-81.705736586299963
 31
0.0
  0
LINE
  8
DETAIL
  6
CONTINUOUS
 62
     5
 10
-303.55020559799999
 20
-81.705736586299963
 30
0.0
 11
-303.70005857500018
 21
-81.358433289999994
 31
0.0
  0
LINE
  8
DETAIL
  6
CONTINUOUS
 62
     5
 10
-303.70005857500018
 20
-81.358433289999994
 30
0.0
 11
-303.94898607100049
 21
-80.997823739299747
 31
0.0
  0
LINE
  8
DETAIL
  6
CONTINUOUS
 62
     5
 10
-303.94898607100049
 20
-80.997823739299747
 30
0.0
 11
-304.29717903950041
 21
-80.623664973899849
 31
0.0
  0
LINE
  8
DETAIL
  6
CONTINUOUS
 62
     5
 10
-303.34183416920041
 20
-75.086438695899915
 30
0.0
 11
-303.35861815600038
 21
-74.950889928400102
 31
0.0
  0
LINE
  8
DETAIL
  6
CONTINUOUS
 62
     5
 10
-303.35861815600038
 20
-74.950889928400102
 30
0.0
 11
-303.37255931010031
 21
-74.815019445199596
 31
0.0
  0
LINE
  8
DETAIL
  6
CONTINUOUS
 62
     5
 10
-303.37255931010031
 20
-74.815019445199596
 30
0.0
 11
-303.38522287660038
 21
-74.65617678429976
 31
0.0
  0
LINE
  8
DETAIL
  6
CONTINUOUS
 62
     5
 10
-303.38522287660038
 20
-74.65617678429976
 30
0.0
 11
-303.39298524930018
 21
-74.519813854200038
 31
0.0
  0
LINE
  8
DETAIL
  6
CONTINUOUS
 62
     5
 10
-303.39298524930018
 20
-74.519813854200038
 30
0.0
 11
-303.39788971480039
 21
-74.383318292600052
 31
0.0
  0
LINE
  8
DETAIL
  6
CONTINUOUS
 62
     5
 10
-303.39788971480039
 20
-74.383318292600052
 30
0.0
 11
-303.40000000000009
 21
-74.217439302299681
 31
0.0
  0
LINE
  8
DETAIL
  6
CONTINUOUS
 62
     5
 10
-319.29793973130018
 20
-73.304065028200284
 30
0.0
 11
-319.28008866990012
 21
-73.454732938999769
 31
0.0
  0
LINE
  8
DETAIL
  6
CONTINUOUS
 62
     5
 10
-301.90000000000009
 20
76.926243542600332
 30
0.0
 11
-301.91304658330051
 21
77.039815302499846
 31
0.0
  0
LINE
  8
DETAIL
  6
CONTINUOUS
 62
     5
 10
-301.91304658330051
 20
77.039815302499846
 30
0.0
 11
-301.95072856590008
 21
77.154005613000209
 31
0.0
  0
LINE
  8
DETAIL
  6
CONTINUOUS
 62
     5
 10
-301.95072856590008
 20
77.154005613000209
 30
0.0
 11
-301.98821643590048
 21
77.227838383900234
 31
0.0
  0
LINE
  8
DETAIL
  6
CONTINUOUS
 62
     5
 10
-301.90000000000009
 20
-67.459945748300015
 30
0.0
 11
-301.91304658330051
 21
-67.330546053000035
 31
0.0
  0
LINE
  8
DETAIL
  6
CONTINUOUS
 62
     5
 10
-301.91304658330051
 20
-67.330546053000035
 30
0.0
 11
-301.95072856590008
 21
-67.200441602599767
 31
0.0
  0
LINE
  8
DETAIL
  6
CONTINUOUS
 62
     5
 10
-301.95072856590008
 20
-67.200441602599767
 30
0.0
 11
-302.01312272890033
 21
-67.070177835499635
 31
0.0
  0
LINE
  8
DETAIL
  6
CONTINUOUS
 62
     5
 10
-302.01312272890033
 20
-67.070177835499635
 30
0.0
 11
-302.09999872850022
 21
-66.938118436899913
 31
0.0
  0
LINE
  8
DETAIL
  6
CONTINUOUS
 62
     5
 10
-302.09999872850022
 20
-66.938118436899913
 30
0.0
 11
-302.2111262209005
 21
-66.802627092499733
 31
0.0
  0
LINE
  8
DETAIL
  6
CONTINUOUS
 62
     5
 10
-302.2111262209005
 20
-66.802627092499733
 30
0.0
 11
-302.34658198740038
 21
-66.66424924039984
 31
0.0
  0
LINE
  8
DETAIL
  6
CONTINUOUS
 62
     5
 10
-301.90000000000009
 20
-59.056938266900033
 30
0.0
 11
-301.91341186590029
 21
-58.727843402399692
 31
0.0
  0
LINE
  8
DETAIL
  6
CONTINUOUS
 62
     5
 10
-301.91341186590029
 20
-58.727843402399692
 30
0.0
 11
-301.95148187320052
 21
-58.398058061799929
 31
0.0
  0
LINE
  8
DETAIL
  6
CONTINUOUS
 62
     5
 10
-301.95148187320052
 20
-58.398058061799929
 30
0.0
 11
-302.01444510480042
 21
-58.068855973500149
 31
0.0
  0
LINE
  8
DETAIL
  6
CONTINUOUS
 62
     5
 10
-302.01444510480042
 20
-58.068855973500149
 30
0.0
 11
-302.10159631170018
 21
-57.736415951999788
 31
0.0
  0
LINE
  8
DETAIL
  6
CONTINUOUS
 62
     5
 10
-302.10159631170018
 20
-57.736415951999788
 30
0.0
 11
-302.21223024490018
 21
-57.396916811700073
 31
0.0
  0
LINE
  8
DETAIL
  6
CONTINUOUS
 62
     5
 10
-302.21223024490018
 20
-57.396916811700073
 30
0.0
 11
-302.34658198740038
 21
-57.051632280999911
 31
0.0
  0
LINE
  8
DETAIL
  6
CONTINUOUS
 62
     5
 10
-301.90000000000009
 20
68.601473058899956
 30
0.0
 11
-301.91341186590029
 21
68.942260767300013
 31
0.0
  0
LINE
  8
DETAIL
  6
CONTINUOUS
 62
     5
 10
-301.91341186590029
 20
68.942260767300013
 30
0.0
 11
-301.95148187320052
 21
69.283763484500014
 31
0.0
  0
LINE
  8
DETAIL
  6
CONTINUOUS
 62
     5
 10
-301.95148187320052
 20
69.283763484500014
 30
0.0
 11
-302.01444510480042
 21
69.624662226300188
 31
0.0
  0
LINE
  8
DETAIL
  6
CONTINUOUS
 62
     5
 10
-302.01444510480042
 20
69.624662226300188
 30
0.0
 11
-302.10159631170018
 21
69.968913946100201
 31
0.0
  0
LINE
  8
DETAIL
  6
CONTINUOUS
 62
     5
 10
-302.10159631170018
 20
69.968913946100201
 30
0.0
 11
-302.21223024490018
 21
70.320475597400218
 31
0.0
  0
LINE
  8
DETAIL
  6
CONTINUOUS
 62
     5
 10
-302.21223024490018
 20
70.320475597400218
 30
0.0
 11
-302.34658198740038
 21
70.678028195800152
 31
0.0
  0
LINE
  8
DETAIL
  6
CONTINUOUS
 62
     5
 10
-301.90000000000009
 20
73.452951690299869
 30
0.0
 11
-301.91304658330051
 21
73.904222056899926
 31
0.0
  0
LINE
  8
DETAIL
  6
CONTINUOUS
 62
     5
 10
-301.91304658330051
 20
73.904222056899926
 30
0.0
 11
-301.95072856590008
 21
74.357950196199909
 31
0.0
  0
LINE
  8
DETAIL
  6
CONTINUOUS
 62
     5
 10
-301.95072856590008
 20
74.357950196199909
 30
0.0
 11
-302.01312272890033
 21
74.812233939399903
 31
0.0
  0
LINE
  8
DETAIL
  6
CONTINUOUS
 62
     5
 10
-302.01312272890033
 20
74.812233939399903
 30
0.0
 11
-302.09999872850022
 21
75.272779793299833
 31
0.0
  0
LINE
  8
DETAIL
  6
CONTINUOUS
 62
     5
 10
-302.09999872850022
 20
75.272779793299833
 30
0.0
 11
-302.2111262209005
 21
75.745294264700078
 31
0.0
  0
LINE
  8
DETAIL
  6
CONTINUOUS
 62
     5
 10
-302.2111262209005
 20
75.745294264700078
 30
0.0
 11
-302.34658198740038
 21
76.227875184899858
 31
0.0
  0
LINE
  8
DETAIL
  6
CONTINUOUS
 62
     5
 10
-301.90000000000009
 20
-63.863246746599543
 30
0.0
 11
-301.91304658330051
 21
-63.407735297500039
 31
0.0
  0
LINE
  8
DETAIL
  6
CONTINUOUS
 62
     5
 10
-301.91304658330051
 20
-63.407735297500039
 30
0.0
 11
-301.95072856590008
 21
-62.949742977300048
 31
0.0
  0
LINE
  8
DETAIL
  6
CONTINUOUS
 62
     5
 10
-301.95072856590008
 20
-62.949742977300048
 30
0.0
 11
-302.01312272890033
 21
-62.491189831599513
 31
0.0
  0
LINE
  8
DETAIL
  6
CONTINUOUS
 62
     5
 10
-302.01312272890033
 20
-62.491189831599513
 30
0.0
 11
-302.09999872850022
 21
-62.026315723299831
 31
0.0
  0
LINE
  8
DETAIL
  6
CONTINUOUS
 62
     5
 10
-302.09999872850022
 20
-62.026315723299831
 30
0.0
 11
-302.2111262209005
 21
-61.549360515099579
 31
0.0
  0
LINE
  8
DETAIL
  6
CONTINUOUS
 62
     5
 10
-302.2111262209005
 20
-61.549360515099579
 30
0.0
 11
-302.34658198740038
 21
-61.062244252799701
 31
0.0
  0
LINE
  8
DETAIL
  6
CONTINUOUS
 62
     5
 10
-300.90000000000009
 20
-87.653363541499857
 30
0.0
 11
-300.90000000000009
 21
-85.515542545099834
 31
0.0
  0
LINE
  8
DETAIL
  6
CONTINUOUS
 62
     5
 10
-300.90000000000009
 20
-85.507261269699939
 30
0.0
 11
-300.90000000000009
 21
87.653363541399813
 31
0.0
  0
LINE
  8
DETAIL
  6
CONTINUOUS
 62
     5
 10
-301.40000000000009
 20
-78.91743931919973
 30
0.0
 11
-301.40000000000009
 21
-71.653637268599596
 31
0.0
  0
LINE
  8
DETAIL
  6
CONTINUOUS
 62
     5
 10
-301.90000000000009
 20
-71.653559833000372
 30
0.0
 11
-301.90000000000009
 21
-53.653714704199963
 31
0.0
  0
LINE
  8
DETAIL
  6
CONTINUOUS
 62
     5
 10
-301.90000000000009
 20
63.074842346800317
 30
0.0
 11
-301.90000000000009
 21
81.074687475600058
 31
0.0
  0
LINE
  8
DETAIL
  6
CONTINUOUS
 62
     5
 10
-303.5
 20
-82.035729068199544
 30
0.0
 11
-303.5
 21
-83.958252460100084
 31
0.0
  0
LINE
  8
DETAIL
  6
CONTINUOUS
 62
     5
 10
-305.90000000000009
 20
-67.653602921899619
 30
0.0
 11
-305.90000000000009
 21
-57.6536716152998
 31
0.0
  0
LINE
  8
DETAIL
  6
CONTINUOUS
 62
     5
 10
-305.90000000000009
 20
67.074778049200177
 30
0.0
 11
-305.90000000000009
 21
77.074751773300022
 31
0.0
  0
LINE
  8
DETAIL
  6
CONTINUOUS
 62
     5
 10
-307.25
 20
-84.438883308099776
 30
0.0
 11
-307.25
 21
-85.400145003999796
 31
0.0
  0
LINE
  8
DETAIL
  6
CONTINUOUS
 62
     5
 10
-312.30000000000018
 20
-77.617915775799702
 30
0.0
 11
-312.30000000000018
 21
-77.13728492780001
 31
0.0
  0
LINE
  8
DETAIL
  6
CONTINUOUS
 62
     5
 10
-314.70000000000027
 20
-73.304309127799797
 30
0.0
 11
-314.70000000000027
 21
-74.920315659899643
 31
0.0
  0
LINE
  8
DETAIL
  6
CONTINUOUS
 62
     5
 10
-315.0
 20
-73.913386300199818
 30
0.0
 11
-315.0
 21
-73.192327588699754
 31
0.0
  0
LINE
  8
DETAIL
  6
CONTINUOUS
 62
     5
 10
-315.5
 20
-75.911999347399615
 30
0.0
 11
-315.5
 21
-72.517848418199719
 31
0.0
  0
LINE
  8
DETAIL
  6
CONTINUOUS
 62
     5
 10
-318.5
 20
-75.911999347399615
 30
0.0
 11
-318.5
 21
-72.517836831199929
 31
0.0
  0
LINE
  8
DETAIL
  6
CONTINUOUS
 62
     5
 10
-319.0
 20
-73.913335698099672
 30
0.0
 11
-319.0
 21
-73.192326844499803
 31
0.0
  0
LINE
  8
DETAIL
  6
CONTINUOUS
 62
     5
 10
-319.30000000000018
 20
-73.304309127799797
 30
0.0
 11
-319.30000000000018
 21
-74.920315659899643
 31
0.0
  0
LINE
  8
DETAIL
  6
CONTINUOUS
 62
     5
 10
-321.70000000000027
 20
-77.617915775799702
 30
0.0
 11
-321.70000000000027
 21
-77.13728492780001
 31
0.0
  0
LINE
  8
DETAIL
  6
CONTINUOUS
 62
     5
 10
-326.75
 20
-84.438883308099776
 30
0.0
 11
-326.75
 21
-85.400145003999796
 31
0.0
  0
LINE
  8
DETAIL
  6
CONTINUOUS
 62
     5
 10
-303.40000000000009
 20
-74.217439319199912
 30
0.0
 11
-303.39856950799998
 21
-74.080863189899901
 31
0.0
  0
LINE
  8
DETAIL
  6
CONTINUOUS
 62
     5
 10
-303.39856950799998
 20
-74.080863189899901
 30
0.0
 11
-303.3942786593002
 21
-73.944346967399952
 31
0.0
  0
LINE
  8
DETAIL
  6
CONTINUOUS
 62
     5
 10
-303.3942786593002
 20
-73.944346967399952
 30
0.0
 11
-303.38566007690042
 21
-73.785233640899833
 31
0.0
  0
LINE
  8
DETAIL
  6
CONTINUOUS
 62
     5
 10
-303.38566007690042
 20
-73.785233640899833
 30
0.0
 11
-303.37517991830009
 21
-73.649052568399838
 31
0.0
  0
LINE
  8
DETAIL
  6
CONTINUOUS
 62
     5
 10
-303.37517991830009
 20
-73.649052568399838
 30
0.0
 11
-303.36184966250039
 21
-73.513120809099746
 31
0.0
  0
LINE
  8
DETAIL
  6
CONTINUOUS
 62
     5
 10
-303.36184966250039
 20
-73.513120809099746
 30
0.0
 11
-303.34183416700012
 21
-73.348439925699722
 31
0.0
  0
LINE
  8
DETAIL
  6
CONTINUOUS
 62
     5
 10
-305.90000000000009
 20
-63.863246746599543
 30
0.0
 11
-305.8869518295005
 21
-63.407725080199953
 31
0.0
  0
LINE
  8
DETAIL
  6
CONTINUOUS
 62
     5
 10
-305.8869518295005
 20
-63.407725080199953
 30
0.0
 11
-305.84927060860042
 21
-62.94973547949985
 31
0.0
  0
LINE
  8
DETAIL
  6
CONTINUOUS
 62
     5
 10
-305.84927060860042
 20
-62.94973547949985
 30
0.0
 11
-305.78688116250032
 21
-62.491206287099892
 31
0.0
  0
LINE
  8
DETAIL
  6
CONTINUOUS
 62
     5
 10
-305.78688116250032
 20
-62.491206287099892
 30
0.0
 11
-305.70000901500038
 21
-62.026352475199928
 31
0.0
  0
LINE
  8
DETAIL
  6
CONTINUOUS
 62
     5
 10
-305.70000901500038
 20
-62.026352475199928
 30
0.0
 11
-305.5888796899003
 21
-61.549389016299763
 31
0.0
  0
LINE
  8
DETAIL
  6
CONTINUOUS
 62
     5
 10
-305.5888796899003
 20
-61.549389016299763
 30
0.0
 11
-305.4534180126002
 21
-61.062244252799701
 31
0.0
  0
LINE
  8
DETAIL
  6
CONTINUOUS
 62
     5
 10
-305.90000000000009
 20
73.452951690299869
 30
0.0
 11
-305.88695182949999
 21
73.904232179100291
 31
0.0
  0
LINE
  8
DETAIL
  6
CONTINUOUS
 62
     5
 10
-305.88695182949999
 20
73.904232179100291
 30
0.0
 11
-305.84927060860042
 21
74.357957624200026
 31
0.0
  0
LINE
  8
DETAIL
  6
CONTINUOUS
 62
     5
 10
-305.84927060860042
 20
74.357957624200026
 30
0.0
 11
-305.78688116250032
 21
74.812217637100048
 31
0.0
  0
LINE
  8
DETAIL
  6
CONTINUOUS
 62
     5
 10
-305.78688116250032
 20
74.812217637100048
 30
0.0
 11
-305.70000901499998
 21
75.272743383500256
 31
0.0
  0
LINE
  8
DETAIL
  6
CONTINUOUS
 62
     5
 10
-305.70000901499998
 20
75.272743383500256
 30
0.0
 11
-305.5888796899003
 21
75.745266028900232
 31
0.0
  0
LINE
  8
DETAIL
  6
CONTINUOUS
 62
     5
 10
-305.5888796899003
 20
75.745266028900232
 30
0.0
 11
-305.4534180126002
 21
76.227875184899858
 31
0.0
  0
LINE
  8
DETAIL
  6
CONTINUOUS
 62
     5
 10
-305.90000000000009
 20
68.601473058899956
 30
0.0
 11
-305.88658762290021
 21
68.942260202799844
 31
0.0
  0
LINE
  8
DETAIL
  6
CONTINUOUS
 62
     5
 10
-305.88658762290021
 20
68.942260202799844
 30
0.0
 11
-305.84851911520042
 21
69.283756877499854
 31
0.0
  0
LINE
  8
DETAIL
  6
CONTINUOUS
 62
     5
 10
-305.84851911520042
 20
69.283756877499854
 30
0.0
 11
-305.78556108690009
 21
69.624638750699887
 31
0.0
  0
LINE
  8
DETAIL
  6
CONTINUOUS
 62
     5
 10
-305.78556108690009
 20
69.624638750699887
 30
0.0
 11
-305.69841370740011
 21
69.968878818800249
 31
0.0
  0
LINE
  8
DETAIL
  6
CONTINUOUS
 62
     5
 10
-305.69841370740011
 20
69.968878818800249
 30
0.0
 11
-305.58777714590042
 21
70.32045007780016
 31
0.0
  0
LINE
  8
DETAIL
  6
CONTINUOUS
 62
     5
 10
-305.58777714590042
 20
70.32045007780016
 30
0.0
 11
-305.4534180126002
 21
70.678028195800152
 31
0.0
  0
LINE
  8
DETAIL
  6
CONTINUOUS
 62
     5
 10
-305.90000000000009
 20
-59.056938266900033
 30
0.0
 11
-305.88658762290021
 21
-58.727843947499878
 31
0.0
  0
LINE
  8
DETAIL
  6
CONTINUOUS
 62
     5
 10
-305.88658762290021
 20
-58.727843947499878
 30
0.0
 11
-305.84851911520042
 21
-58.398064442199939
 31
0.0
  0
LINE
  8
DETAIL
  6
CONTINUOUS
 62
     5
 10
-305.84851911520042
 20
-58.398064442199939
 30
0.0
 11
-305.78556108690009
 21
-58.068878643600101
 31
0.0
  0
LINE
  8
DETAIL
  6
CONTINUOUS
 62
     5
 10
-305.78556108690009
 20
-58.068878643600101
 30
0.0
 11
-305.69841370740011
 21
-57.736449873999852
 31
0.0
  0
LINE
  8
DETAIL
  6
CONTINUOUS
 62
     5
 10
-305.69841370740011
 20
-57.736449873999852
 30
0.0
 11
-305.58777714590042
 21
-57.396941455600199
 31
0.0
  0
LINE
  8
DETAIL
  6
CONTINUOUS
 62
     5
 10
-305.58777714590042
 20
-57.396941455600199
 30
0.0
 11
-305.4534180126002
 21
-57.051632280999911
 31
0.0
  0
LINE
  8
DETAIL
  6
CONTINUOUS
 62
     5
 10
-314.99999987170031
 20
-73.192329024299852
 30
0.0
 11
-315.00771665330012
 21
-73.280042797699934
 31
0.0
  0
LINE
  8
DETAIL
  6
CONTINUOUS
 62
     5
 10
-315.00771665330012
 20
-73.280042797699934
 30
0.0
 11
-315.03092398020038
 21
-73.367520995999712
 31
0.0
  0
LINE
  8
DETAIL
  6
CONTINUOUS
 62
     5
 10
-315.03092398020038
 20
-73.367520995999712
 30
0.0
 11
-315.06967951690012
 21
-73.453297782499703
 31
0.0
  0
LINE
  8
DETAIL
  6
CONTINUOUS
 62
     5
 10
-315.06967951690012
 20
-73.453297782499703
 30
0.0
 11
-315.12326844930021
 21
-73.536554167699705
 31
0.0
  0
LINE
  8
DETAIL
  6
CONTINUOUS
 62
     5
 10
-315.12326844930021
 20
-73.536554167699705
 30
0.0
 11
-315.1911578187005
 21
-73.616364969800088
 31
0.0
  0
LINE
  8
DETAIL
  6
CONTINUOUS
 62
     5
 10
-315.1911578187005
 20
-73.616364969800088
 30
0.0
 11
-315.27285886170063
 21
-73.692509814800133
 31
0.0
  0
LINE
  8
DETAIL
  6
CONTINUOUS
 62
     5
 10
-315.27285886170063
 20
-73.692509814800133
 30
0.0
 11
-315.36819115760039
 21
-73.764728272200045
 31
0.0
  0
LINE
  8
DETAIL
  6
CONTINUOUS
 62
     5
 10
-315.36819115760039
 20
-73.764728272200045
 30
0.0
 11
-315.4756967190001
 21
-73.83224270519986
 31
0.0
  0
LINE
  8
DETAIL
  6
CONTINUOUS
 62
     5
 10
-315.4756967190001
 20
-73.83224270519986
 30
0.0
 11
-315.5
 21
-73.844967216999976
 31
0.0
  0
LINE
  8
DETAIL
  6
CONTINUOUS
 62
     5
 10
-319.00000019510031
 20
-73.192329024299852
 30
0.0
 11
-318.99194994780009
 21
-73.10237474709993
 31
0.0
  0
LINE
  8
DETAIL
  6
CONTINUOUS
 62
     5
 10
-318.99194994780009
 20
-73.10237474709993
 30
0.0
 11
-318.96837937950022
 21
-73.013639645500007
 31
0.0
  0
LINE
  8
DETAIL
  6
CONTINUOUS
 62
     5
 10
-318.96837937950022
 20
-73.013639645500007
 30
0.0
 11
-318.92918619140028
 21
-72.92584511719997
 31
0.0
  0
LINE
  8
DETAIL
  6
CONTINUOUS
 62
     5
 10
-318.92918619140028
 20
-72.92584511719997
 30
0.0
 11
-318.87508326330038
 21
-72.839888191799673
 31
0.0
  0
LINE
  8
DETAIL
  6
CONTINUOUS
 62
     5
 10
-318.87508326330038
 20
-72.839888191799673
 30
0.0
 11
-318.80656750700018
 21
-72.756791777899707
 31
0.0
  0
LINE
  8
DETAIL
  6
CONTINUOUS
 62
     5
 10
-318.80656750700018
 20
-72.756791777899707
 30
0.0
 11
-318.72418560880033
 21
-72.676913875500077
 31
0.0
  0
LINE
  8
DETAIL
  6
CONTINUOUS
 62
     5
 10
-318.72418560880033
 20
-72.676913875500077
 30
0.0
 11
-318.62814671690012
 21
-72.600660360999882
 31
0.0
  0
LINE
  8
DETAIL
  6
CONTINUOUS
 62
     5
 10
-318.62814671690012
 20
-72.600660360999882
 30
0.0
 11
-318.5199603562005
 21
-72.528940862199761
 31
0.0
  0
LINE
  8
DETAIL
  6
CONTINUOUS
 62
     5
 10
-318.5199603562005
 20
-72.528940862199761
 30
0.0
 11
-318.40104723320019
 21
-72.462788986100122
 31
0.0
  0
LINE
  8
DETAIL
  6
CONTINUOUS
 62
     5
 10
-318.40104723320019
 20
-72.462788986100122
 30
0.0
 11
-318.2718829511
 21
-72.402275398699885
 31
0.0
  0
LINE
  8
DETAIL
  6
CONTINUOUS
 62
     5
 10
-318.2718829511
 20
-72.402275398699885
 30
0.0
 11
-318.13281125650019
 21
-72.347617550499763
 31
0.0
  0
LINE
  8
DETAIL
  6
CONTINUOUS
 62
     5
 10
-318.13281125650019
 20
-72.347617550499763
 30
0.0
 11
-317.98564842520051
 21
-72.299400012100023
 31
0.0
  0
LINE
  8
DETAIL
  6
CONTINUOUS
 62
     5
 10
-317.98564842520051
 20
-72.299400012100023
 30
0.0
 11
-317.83213879540023
 21
-72.258268064700133
 31
0.0
  0
LINE
  8
DETAIL
  6
CONTINUOUS
 62
     5
 10
-317.83213879540023
 20
-72.258268064700133
 30
0.0
 11
-317.67284192570008
 21
-72.224247983000396
 31
0.0
  0
LINE
  8
DETAIL
  6
CONTINUOUS
 62
     5
 10
-317.67284192570008
 20
-72.224247983000396
 30
0.0
 11
-317.50829463960008
 21
-72.197503441199842
 31
0.0
  0
LINE
  8
DETAIL
  6
CONTINUOUS
 62
     5
 10
-317.50829463960008
 20
-72.197503441199842
 30
0.0
 11
-317.34030948080039
 21
-72.178235740199852
 31
0.0
  0
LINE
  8
DETAIL
  6
CONTINUOUS
 62
     5
 10
-317.34030948080039
 20
-72.178235740199852
 30
0.0
 11
-317.17112686990049
 21
-72.166712949700013
 31
0.0
  0
LINE
  8
DETAIL
  6
CONTINUOUS
 62
     5
 10
-317.17112686990049
 20
-72.166712949700013
 30
0.0
 11
-317.0
 21
-72.162861983799758
 31
0.0
  0
LINE
  8
DETAIL
  6
CONTINUOUS
 62
     5
 10
-305.90000000000009
 20
-67.459945748300015
 30
0.0
 11
-305.8869518295005
 21
-67.330543150500034
 31
0.0
  0
LINE
  8
DETAIL
  6
CONTINUOUS
 62
     5
 10
-305.8869518295005
 20
-67.330543150500034
 30
0.0
 11
-305.84927060860042
 21
-67.2004394726996
 31
0.0
  0
LINE
  8
DETAIL
  6
CONTINUOUS
 62
     5
 10
-305.84927060860042
 20
-67.2004394726996
 30
0.0
 11
-305.78688116250032
 21
-67.070182510099812
 31
0.0
  0
LINE
  8
DETAIL
  6
CONTINUOUS
 62
     5
 10
-305.78688116250032
 20
-67.070182510099812
 30
0.0
 11
-305.70000901500038
 21
-66.938128877299732
 31
0.0
  0
LINE
  8
DETAIL
  6
CONTINUOUS
 62
     5
 10
-305.70000901500038
 20
-66.938128877299732
 30
0.0
 11
-305.5888796899003
 21
-66.80263518899983
 31
0.0
  0
LINE
  8
DETAIL
  6
CONTINUOUS
 62
     5
 10
-305.5888796899003
 20
-66.80263518899983
 30
0.0
 11
-305.4534180126002
 21
-66.66424924039984
 31
0.0
  0
LINE
  8
DETAIL
  6
CONTINUOUS
 62
     5
 10
-319.30000000000018
 20
-73.304309127799797
 30
0.0
 11
-319.28015867320028
 21
-73.125070209299793
 31
0.0
  0
LINE
  8
DETAIL
  6
CONTINUOUS
 62
     5
 10
-319.28015867320028
 20
-73.125070209299793
 30
0.0
 11
-319.22238179760052
 21
-72.950295732899576
 31
0.0
  0
LINE
  8
DETAIL
  6
CONTINUOUS
 62
     5
 10
-319.22238179760052
 20
-72.950295732899576
 30
0.0
 11
-319.12569121370052
 21
-72.778518374600026
 31
0.0
  0
LINE
  8
DETAIL
  6
CONTINUOUS
 62
     5
 10
-319.12569121370052
 20
-72.778518374600026
 30
0.0
 11
-318.99302139940028
 21
-72.614528937099749
 31
0.0
  0
LINE
  8
DETAIL
  6
CONTINUOUS
 62
     5
 10
-318.99302139940028
 20
-72.614528937099749
 30
0.0
 11
-318.82574119210039
 21
-72.461962369199682
 31
0.0
  0
LINE
  8
DETAIL
  6
CONTINUOUS
 62
     5
 10
-318.82574119210039
 20
-72.461962369199682
 30
0.0
 11
-318.62756935400012
 21
-72.323170375500013
 31
0.0
  0
LINE
  8
DETAIL
  6
CONTINUOUS
 62
     5
 10
-318.62756935400012
 20
-72.323170375500013
 30
0.0
 11
-318.40116627420048
 21
-72.201154776099884
 31
0.0
  0
LINE
  8
DETAIL
  6
CONTINUOUS
 62
     5
 10
-318.40116627420048
 20
-72.201154776099884
 30
0.0
 11
-318.15107590980051
 21
-72.097746674400014
 31
0.0
  0
LINE
  8
DETAIL
  6
CONTINUOUS
 62
     5
 10
-318.15107590980051
 20
-72.097746674400014
 30
0.0
 11
-317.88104262780013
 21
-72.015423627799919
 31
0.0
  0
LINE
  8
DETAIL
  6
CONTINUOUS
 62
     5
 10
-317.88104262780013
 20
-72.015423627799919
 30
0.0
 11
-317.59612558769999
 21
-71.95520200619967
 31
0.0
  0
LINE
  8
DETAIL
  6
CONTINUOUS
 62
     5
 10
-317.59612558769999
 20
-71.95520200619967
 30
0.0
 11
-317.30088805760028
 21
-71.918822492199979
 31
0.0
  0
LINE
  8
DETAIL
  6
CONTINUOUS
 62
     5
 10
-317.30088805760028
 20
-71.918822492199979
 30
0.0
 11
-317.00056207780023
 21
-71.906380211999931
 31
0.0
  0
LINE
  8
DETAIL
  6
CONTINUOUS
 62
     5
 10
-317.00056207780023
 20
-71.906380211999931
 30
0.0
 11
-316.70020867500028
 21
-71.918733392999911
 31
0.0
  0
LINE
  8
DETAIL
  6
CONTINUOUS
 62
     5
 10
-316.70020867500028
 20
-71.918733392999911
 30
0.0
 11
-316.40490415880049
 21
-71.955030641999656
 31
0.0
  0
LINE
  8
DETAIL
  6
CONTINUOUS
 62
     5
 10
-316.40490415880049
 20
-71.955030641999656
 30
0.0
 11
-316.11988522960019
 21
-72.015186762699841
 31
0.0
  0
LINE
  8
DETAIL
  6
CONTINUOUS
 62
     5
 10
-316.11988522960019
 20
-72.015186762699841
 30
0.0
 11
-315.84973174260023
 21
-72.097458312199706
 31
0.0
  0
LINE
  8
DETAIL
  6
CONTINUOUS
 62
     5
 10
-315.84973174260023
 20
-72.097458312199706
 30
0.0
 11
-315.59952115570007
 21
-72.20082992639982
 31
0.0
  0
LINE
  8
DETAIL
  6
CONTINUOUS
 62
     5
 10
-315.59952115570007
 20
-72.20082992639982
 30
0.0
 11
-315.37299736060049
 21
-72.322822285399752
 31
0.0
  0
LINE
  8
DETAIL
  6
CONTINUOUS
 62
     5
 10
-315.37299736060049
 20
-72.322822285399752
 30
0.0
 11
-315.17470932820021
 21
-72.46160366749973
 31
0.0
  0
LINE
  8
DETAIL
  6
CONTINUOUS
 62
     5
 10
-315.17470932820021
 20
-72.46160366749973
 30
0.0
 11
-315.00731927820021
 21
-72.614169593100087
 31
0.0
  0
LINE
  8
DETAIL
  6
CONTINUOUS
 62
     5
 10
-315.00731927820021
 20
-72.614169593100087
 30
0.0
 11
-314.87454968360038
 21
-72.778146836000133
 31
0.0
  0
LINE
  8
DETAIL
  6
CONTINUOUS
 62
     5
 10
-314.87454968360038
 20
-72.778146836000133
 30
0.0
 11
-314.77776875490008
 21
-72.949956453699997
 31
0.0
  0
LINE
  8
DETAIL
  6
CONTINUOUS
 62
     5
 10
-314.77776875490008
 20
-72.949956453699997
 30
0.0
 11
-314.7199116564002
 21
-73.124861387299916
 31
0.0
  0
LINE
  8
DETAIL
  6
CONTINUOUS
 62
     5
 10
-314.7199116564002
 20
-73.124861387299916
 30
0.0
 11
-314.70000000000027
 21
-73.304309127799797
 31
0.0
  0
LINE
  8
DETAIL
  6
CONTINUOUS
 62
     5
 10
-305.90000000000009
 20
76.926243542600332
 30
0.0
 11
-305.88695182949999
 21
77.039817849999963
 31
0.0
  0
LINE
  8
DETAIL
  6
CONTINUOUS
 62
     5
 10
-305.88695182949999
 20
77.039817849999963
 30
0.0
 11
-305.84927060860042
 21
77.154007482400175
 31
0.0
  0
LINE
  8
DETAIL
  6
CONTINUOUS
 62
     5
 10
-305.84927060860042
 20
77.154007482400175
 30
0.0
 11
-305.81178452920022
 21
77.227838416400118
 31
0.0
  0
LINE
  8
DETAIL
  6
CONTINUOUS
 62
     5
 10
-314.70000000000027
 20
-74.920315659899643
 30
0.0
 11
-314.71984132670008
 21
-75.088348040099845
 31
0.0
  0
LINE
  8
DETAIL
  6
CONTINUOUS
 62
     5
 10
-314.71984132670008
 20
-75.088348040099845
 30
0.0
 11
-314.77761820240022
 21
-75.250183171599929
 31
0.0
  0
LINE
  8
DETAIL
  6
CONTINUOUS
 62
     5
 10
-314.77761820240022
 20
-75.250183171599929
 30
0.0
 11
-314.87430878630039
 21
-75.407340430499971
 31
0.0
  0
LINE
  8
DETAIL
  6
CONTINUOUS
 62
     5
 10
-314.87430878630039
 20
-75.407340430499971
 30
0.0
 11
-315.00697860060018
 21
-75.55564157129993
 31
0.0
  0
LINE
  8
DETAIL
  6
CONTINUOUS
 62
     5
 10
-315.00697860060018
 20
-75.55564157129993
 30
0.0
 11
-315.17425880790051
 21
-75.692117787699772
 31
0.0
  0
LINE
  8
DETAIL
  6
CONTINUOUS
 62
     5
 10
-315.17425880790051
 20
-75.692117787699772
 30
0.0
 11
-315.37243064600028
 21
-75.81503834959949
 31
0.0
  0
LINE
  8
DETAIL
  6
CONTINUOUS
 62
     5
 10
-315.37243064600028
 20
-75.81503834959949
 30
0.0
 11
-315.5
 21
-75.875387353299629
 31
0.0
  0
LINE
  8
DETAIL
  6
CONTINUOUS
 62
     5
 10
-314.7198410304004
 20
-73.454538733200025
 30
0.0
 11
-314.70205550490027
 21
-73.30406617169956
 31
0.0
  0
LINE
  8
DETAIL
  6
CONTINUOUS
 62
     5
 10
-330.5
 20
-83.958252460100084
 30
0.0
 11
-330.44977418720009
 21
-83.628506745199957
 31
0.0
  0
LINE
  8
DETAIL
  6
CONTINUOUS
 62
     5
 10
-330.44977418720009
 20
-83.628506745199957
 30
0.0
 11
-330.29990099350022
 21
-83.282034461799867
 31
0.0
  0
LINE
  8
DETAIL
  6
CONTINUOUS
 62
     5
 10
-330.29990099350022
 20
-83.282034461799867
 30
0.0
 11
-330.05098360530019
 21
-82.922849013699761
 31
0.0
  0
LINE
  8
DETAIL
  6
CONTINUOUS
 62
     5
 10
-330.05098360530019
 20
-82.922849013699761
 30
0.0
 11
-329.70282096049999
 21
-82.550678014800042
 31
0.0
  0
LINE
  8
DETAIL
  6
CONTINUOUS
 62
     5
 10
-303.5
 20
-83.958252460100084
 30
0.0
 11
-303.55022581280042
 21
-84.268919499599633
 31
0.0
  0
LINE
  8
DETAIL
  6
CONTINUOUS
 62
     5
 10
-303.55022581280042
 20
-84.268919499599633
 30
0.0
 11
-303.7000990065003
 21
-84.558641198199894
 31
0.0
  0
LINE
  8
DETAIL
  6
CONTINUOUS
 62
     5
 10
-303.7000990065003
 20
-84.558641198199894
 30
0.0
 11
-303.94901639470032
 21
-84.825209385199742
 31
0.0
  0
LINE
  8
DETAIL
  6
CONTINUOUS
 62
     5
 10
-303.94901639470032
 20
-84.825209385199742
 30
0.0
 11
-304.29717903950041
 21
-85.070210898999903
 31
0.0
  0
LINE
  8
DETAIL
  6
CONTINUOUS
 62
     5
 10
-302.34658198740038
 20
70.678028195800152
 30
0.0
 11
-302.21113766500002
 21
71.160528404399884
 31
0.0
  0
LINE
  8
DETAIL
  6
CONTINUOUS
 62
     5
 10
-302.21113766500002
 20
71.160528404399884
 30
0.0
 11
-302.1000056414
 21
71.633091084000171
 31
0.0
  0
LINE
  8
DETAIL
  6
CONTINUOUS
 62
     5
 10
-302.1000056414
 20
71.633091084000171
 30
0.0
 11
-302.0130984499001
 21
72.093904661300257
 31
0.0
  0
LINE
  8
DETAIL
  6
CONTINUOUS
 62
     5
 10
-302.0130984499001
 20
72.093904661300257
 30
0.0
 11
-301.95067849040021
 21
72.548403856700133
 31
0.0
  0
LINE
  8
DETAIL
  6
CONTINUOUS
 62
     5
 10
-301.95067849040021
 20
72.548403856700133
 30
0.0
 11
-301.91300816270041
 21
73.002023390899922
 31
0.0
  0
LINE
  8
DETAIL
  6
CONTINUOUS
 62
     5
 10
-301.91300816270041
 20
73.002023390899922
 30
0.0
 11
-301.90000000000009
 21
73.452951690299869
 31
0.0
  0
LINE
  8
DETAIL
  6
CONTINUOUS
 62
     5
 10
-321.69838106930052
 20
-77.13728492780001
 30
0.0
 11
-321.62859643920052
 21
-76.912324482500026
 31
0.0
  0
LINE
  8
DETAIL
  6
CONTINUOUS
 62
     5
 10
-321.62859643920052
 20
-76.912324482500026
 30
0.0
 11
-321.41503402050012
 21
-76.694351968799992
 31
0.0
  0
LINE
  8
DETAIL
  6
CONTINUOUS
 62
     5
 10
-321.41503402050012
 20
-76.694351968799992
 30
0.0
 11
-321.07031939780018
 21
-76.489537141599612
 31
0.0
  0
LINE
  8
DETAIL
  6
CONTINUOUS
 62
     5
 10
-321.07031939780018
 20
-76.489537141599612
 30
0.0
 11
-320.59916870980032
 21
-76.304843261599672
 31
0.0
  0
LINE
  8
DETAIL
  6
CONTINUOUS
 62
     5
 10
-320.59916870980032
 20
-76.304843261599672
 30
0.0
 11
-320.02110176550008
 21
-76.144877743499819
 31
0.0
  0
LINE
  8
DETAIL
  6
CONTINUOUS
 62
     5
 10
-320.02110176550008
 20
-76.144877743499819
 30
0.0
 11
-319.34919053470003
 21
-76.015739304899853
 31
0.0
  0
LINE
  8
DETAIL
  6
CONTINUOUS
 62
     5
 10
-319.34919053470003
 20
-76.015739304899853
 30
0.0
 11
-318.60749467360029
 21
-75.919917298199834
 31
0.0
  0
LINE
  8
DETAIL
  6
CONTINUOUS
 62
     5
 10
-318.60749467360029
 20
-75.919917298199834
 30
0.0
 11
-317.82798328450048
 21
-75.86249926399978
 31
0.0
  0
LINE
  8
DETAIL
  6
CONTINUOUS
 62
     5
 10
-317.82798328450048
 20
-75.86249926399978
 30
0.0
 11
-317.0
 21
-75.841789355499714
 31
0.0
  0
LINE
  8
DETAIL
  6
CONTINUOUS
 62
     5
 10
-321.70000000000027
 20
-77.617915775799702
 30
0.0
 11
-321.62859643920052
 21
-77.392955330499717
 31
0.0
  0
LINE
  8
DETAIL
  6
CONTINUOUS
 62
     5
 10
-321.62859643920052
 20
-77.392955330499717
 30
0.0
 11
-321.41655531770039
 21
-77.174830194400101
 31
0.0
  0
LINE
  8
DETAIL
  6
CONTINUOUS
 62
     5
 10
-321.41655531770039
 20
-77.174830194400101
 30
0.0
 11
-321.07031939780018
 21
-76.970167989599759
 31
0.0
  0
LINE
  8
DETAIL
  6
CONTINUOUS
 62
     5
 10
-321.07031939780018
 20
-76.970167989599759
 30
0.0
 11
-320.60040888270032
 21
-76.785187273500014
 31
0.0
  0
LINE
  8
DETAIL
  6
CONTINUOUS
 62
     5
 10
-320.60040888270032
 20
-76.785187273500014
 30
0.0
 11
-320.02110176550008
 21
-76.625508591499965
 31
0.0
  0
LINE
  8
DETAIL
  6
CONTINUOUS
 62
     5
 10
-320.02110176550008
 20
-76.625508591499965
 30
0.0
 11
-319.35000000000042
 21
-76.495983699599492
 31
0.0
  0
LINE
  8
DETAIL
  6
CONTINUOUS
 62
     5
 10
-319.35000000000042
 20
-76.495983699599492
 30
0.0
 11
-318.60749467360029
 21
-76.400548146199981
 31
0.0
  0
LINE
  8
DETAIL
  6
CONTINUOUS
 62
     5
 10
-318.60749467360029
 20
-76.400548146199981
 30
0.0
 11
-317.81614643500012
 21
-76.342101692099732
 31
0.0
  0
LINE
  8
DETAIL
  6
CONTINUOUS
 62
     5
 10
-317.81614643500012
 20
-76.342101692099732
 30
0.0
 11
-317.0
 21
-76.322420203399815
 31
0.0
  0
LINE
  8
DETAIL
  6
CONTINUOUS
 62
     5
 10
-302.34658198740038
 20
66.52491792210003
 30
0.0
 11
-302.21159532380028
 21
66.884477166399847
 31
0.0
  0
LINE
  8
DETAIL
  6
CONTINUOUS
 62
     5
 10
-302.21159532380028
 20
66.884477166399847
 30
0.0
 11
-302.10065717090038
 21
67.2373282346
 31
0.0
  0
LINE
  8
DETAIL
  6
CONTINUOUS
 62
     5
 10
-302.10065717090038
 20
67.2373282346
 30
0.0
 11
-302.01360438260048
 21
67.582232232300157
 31
0.0
  0
LINE
  8
DETAIL
  6
CONTINUOUS
 62
     5
 10
-302.01360438260048
 20
67.582232232300157
 30
0.0
 11
-301.95092639690029
 21
67.922905842900036
 31
0.0
  0
LINE
  8
DETAIL
  6
CONTINUOUS
 62
     5
 10
-301.95092639690029
 20
67.922905842900036
 30
0.0
 11
-301.91311265130031
 21
68.263065749900306
 31
0.0
  0
LINE
  8
DETAIL
  6
CONTINUOUS
 62
     5
 10
-301.91311265130031
 20
68.263065749900306
 30
0.0
 11
-301.90000000000009
 21
68.601473058899956
 31
0.0
  0
LINE
  8
DETAIL
  6
CONTINUOUS
 62
     5
 10
-188.30000000000021
 20
56.130843385900327
 30
0.0
 11
-187.30000000000021
 21
56.130843385900327
 31
0.0
  0
LINE
  8
DETAIL
  6
CONTINUOUS
 62
     5
 10
-186.85341801260029
 20
59.580996396799947
 30
0.0
 11
-183.74658198740011
 21
59.580996396799947
 31
0.0
  0
LINE
  8
DETAIL
  6
CONTINUOUS
 62
     5
 10
-300.90000000000009
 20
63.074764911199964
 30
0.0
 11
-301.90000000000009
 21
63.074764911199964
 31
0.0
  0
LINE
  8
DETAIL
  6
CONTINUOUS
 62
     5
 10
-186.85341801260029
 20
63.734106670400251
 30
0.0
 11
-183.74658198740011
 21
63.734106670400251
 31
0.0
  0
LINE
  8
DETAIL
  6
CONTINUOUS
 62
     5
 10
-339.96217782650052
 20
66.289216817000124
 30
0.0
 11
-338.60000000000042
 21
66.289216817000124
 31
0.0
  0
LINE
  8
DETAIL
  6
CONTINUOUS
 62
     5
 10
-302.34658198740038
 20
66.52491792210003
 30
0.0
 11
-305.4534180126002
 21
66.52491792210003
 31
0.0
  0
LINE
  8
DETAIL
  6
CONTINUOUS
 62
     5
 10
-186.85341801260029
 20
69.283953659600229
 30
0.0
 11
-183.74658198740011
 21
69.283953659600229
 31
0.0
  0
LINE
  8
DETAIL
  6
CONTINUOUS
 62
     5
 10
-302.34658198740038
 20
70.678028195800152
 30
0.0
 11
-305.4534180126002
 21
70.678028195800152
 31
0.0
  0
LINE
  8
DETAIL
  6
CONTINUOUS
 62
     5
 10
-186.85341801260029
 20
70.680690374999813
 30
0.0
 11
-183.74658198740011
 21
70.680690374999813
 31
0.0
  0
LINE
  8
DETAIL
  6
CONTINUOUS
 62
     5
 10
-188.30000000000021
 20
74.130843385900334
 30
0.0
 11
-187.30000000000021
 21
74.130843385900334
 31
0.0
  0
LINE
  8
DETAIL
  6
CONTINUOUS
 62
     5
 10
-339.96217782650052
 20
75.289216817000124
 30
0.0
 11
-338.59999999999991
 21
75.289216817000124
 31
0.0
  0
LINE
  8
DETAIL
  6
CONTINUOUS
 62
     5
 10
-302.34658198740038
 20
76.227875184899858
 30
0.0
 11
-305.4534180126002
 21
76.227875184899858
 31
0.0
  0
LINE
  8
DETAIL
  6
CONTINUOUS
 62
     5
 10
-302.34658198740038
 20
77.624611900299897
 30
0.0
 11
-305.4534180126002
 21
77.624611900299897
 31
0.0
  0
LINE
  8
DETAIL
  6
CONTINUOUS
 62
     5
 10
-300.90000000000009
 20
81.074764911199964
 30
0.0
 11
-301.90000000000009
 21
81.074764911199964
 31
0.0
  0
LINE
  8
DETAIL
  6
CONTINUOUS
 62
     5
 10
-303.20000000000027
 20
83.900000000000091
 30
0.0
 11
-330.80000000000018
 21
83.900000000000091
 31
0.0
  0
LINE
  8
DETAIL
  6
CONTINUOUS
 62
     5
 10
-186.0
 20
83.900000000000091
 30
0.0
 11
-175.0
 21
83.900000000000091
 31
0.0
  0
LINE
  8
DETAIL
  6
CONTINUOUS
 62
     5
 10
-187.30000000000021
 20
-74.844278504700014
 30
0.0
 11
-187.21162606430019
 21
-74.997346651399766
 31
0.0
  0
LINE
  8
DETAIL
  6
CONTINUOUS
 62
     5
 10
-183.3883739357002
 20
-64.69121035789999
 30
0.0
 11
-183.30000000000021
 21
-64.844278504700242
 31
0.0
  0
LINE
  8
DETAIL
  6
CONTINUOUS
 62
     5
 10
-19.053418012600101
 20
-311.68161959989988
 30
0.0
 11
-19.5
 21
-310.90811690800001
 31
0.0
  0
LINE
  8
DETAIL
  6
CONTINUOUS
 62
     5
 10
-183.3882281555002
 20
-64.691205427599925
 30
0.0
 11
-183.35067939490051
 21
-64.76514917509985
 31
0.0
  0
LINE
  8
DETAIL
  6
CONTINUOUS
 62
     5
 10
-183.35067939490051
 20
-64.76514917509985
 30
0.0
 11
-183.31300975190021
 21
-64.879311587199936
 31
0.0
  0
LINE
  8
DETAIL
  6
CONTINUOUS
 62
     5
 10
-183.31300975190021
 20
-64.879311587199936
 30
0.0
 11
-183.30000000000021
 21
-64.9927998733001
 31
0.0
  0
LINE
  8
DETAIL
  6
CONTINUOUS
 62
     5
 10
-183.74658198740011
 20
-71.24101522010028
 30
0.0
 11
-183.61158183550009
 21
-71.600620679799704
 31
0.0
  0
LINE
  8
DETAIL
  6
CONTINUOUS
 62
     5
 10
-183.61158183550009
 20
-71.600620679799704
 30
0.0
 11
-183.50063869790031
 21
-71.953490436299944
 31
0.0
  0
LINE
  8
DETAIL
  6
CONTINUOUS
 62
     5
 10
-183.50063869790031
 20
-71.953490436299944
 30
0.0
 11
-183.41359234280051
 21
-72.298377119499946
 31
0.0
  0
LINE
  8
DETAIL
  6
CONTINUOUS
 62
     5
 10
-183.41359234280051
 20
-72.298377119499946
 30
0.0
 11
-183.35092346570039
 21
-72.639022840299731
 31
0.0
  0
LINE
  8
DETAIL
  6
CONTINUOUS
 62
     5
 10
-183.35092346570039
 20
-72.639022840299731
 30
0.0
 11
-183.3131127620004
 21
-72.979169709499729
 31
0.0
  0
LINE
  8
DETAIL
  6
CONTINUOUS
 62
     5
 10
-183.3131127620004
 20
-72.979169709499729
 30
0.0
 11
-183.30000000000021
 21
-73.317570356999568
 31
0.0
  0
LINE
  8
DETAIL
  6
CONTINUOUS
 62
     5
 10
-324.0
 20
-87.803299243799984
 30
0.0
 11
-323.96572813120019
 21
-87.99331707329975
 31
0.0
  0
LINE
  8
DETAIL
  6
CONTINUOUS
 62
     5
 10
-323.96572813120019
 20
-87.99331707329975
 30
0.0
 11
-323.86549696280008
 21
-88.179718507399912
 31
0.0
  0
LINE
  8
DETAIL
  6
CONTINUOUS
 62
     5
 10
-323.86549696280008
 20
-88.179718507399912
 30
0.0
 11
-323.69834974550031
 21
-88.363372901000048
 31
0.0
  0
LINE
  8
DETAIL
  6
CONTINUOUS
 62
     5
 10
-323.69834974550031
 20
-88.363372901000048
 30
0.0
 11
-323.46715672760052
 21
-88.541672189699966
 31
0.0
  0
LINE
  8
DETAIL
  6
CONTINUOUS
 62
     5
 10
-323.46715672760052
 20
-88.541672189699966
 30
0.0
 11
-323.17323448080009
 21
-88.712809510999705
 31
0.0
  0
LINE
  8
DETAIL
  6
CONTINUOUS
 62
     5
 10
-323.17323448080009
 20
-88.712809510999705
 30
0.0
 11
-322.82028728610021
 21
-88.875250613799835
 31
0.0
  0
LINE
  8
DETAIL
  6
CONTINUOUS
 62
     5
 10
-322.82028728610021
 20
-88.875250613799835
 30
0.0
 11
-322.41088527690039
 21
-89.027294151599563
 31
0.0
  0
LINE
  8
DETAIL
  6
CONTINUOUS
 62
     5
 10
-322.41088527690039
 20
-89.027294151599563
 30
0.0
 11
-321.9497474683003
 21
-89.167634548000024
 31
0.0
  0
LINE
  8
DETAIL
  6
CONTINUOUS
 62
     5
 10
-321.9497474683003
 20
-89.167634548000024
 30
0.0
 11
-321.44059878640019
 21
-89.294741354199687
 31
0.0
  0
LINE
  8
DETAIL
  6
CONTINUOUS
 62
     5
 10
-321.44059878640019
 20
-89.294741354199687
 30
0.0
 11
-320.8889916311
 21
-89.40758784149989
 31
0.0
  0
LINE
  8
DETAIL
  6
CONTINUOUS
 62
     5
 10
-320.8889916311
 20
-89.40758784149989
 30
0.0
 11
-320.29966257480049
 21
-89.504873272899886
 31
0.0
  0
LINE
  8
DETAIL
  6
CONTINUOUS
 62
     5
 10
-320.29966257480049
 20
-89.504873272899886
 30
0.0
 11
-320.16669175470042
 21
-89.52222410180002
 31
0.0
  0
LINE
  8
DETAIL
  6
CONTINUOUS
 62
     5
 10
-341.83190422080042
 20
69.747792317600215
 30
0.0
 11
-341.85197789450012
 21
69.914108687999942
 31
0.0
  0
LINE
  8
DETAIL
  6
CONTINUOUS
 62
     5
 10
-341.85197789450012
 20
69.914108687999942
 30
0.0
 11
-341.86856356790031
 21
70.080808909799998
 31
0.0
  0
LINE
  8
DETAIL
  6
CONTINUOUS
 62
     5
 10
-341.86856356790031
 20
70.080808909799998
 30
0.0
 11
-341.88165396600021
 21
70.247819862699998
 31
0.0
  0
LINE
  8
DETAIL
  6
CONTINUOUS
 62
     5
 10
-341.88165396600021
 20
70.247819862699998
 30
0.0
 11
-341.89124334690041
 21
70.415068290199997
 31
0.0
  0
LINE
  8
DETAIL
  6
CONTINUOUS
 62
     5
 10
-341.89124334690041
 20
70.415068290199997
 30
0.0
 11
-341.89800053500039
 21
70.610393721899982
 31
0.0
  0
LINE
  8
DETAIL
  6
CONTINUOUS
 62
     5
 10
-341.89800053500039
 20
70.610393721899982
 30
0.0
 11
-341.90000000000009
 21
70.789216783000029
 31
0.0
  0
LINE
  8
DETAIL
  6
CONTINUOUS
 62
     5
 10
-326.75
 20
-85.400145003999796
 30
0.0
 11
-326.72064343720012
 21
-85.822501819500076
 31
0.0
  0
LINE
  8
DETAIL
  6
CONTINUOUS
 62
     5
 10
-326.72064343720012
 20
-85.822501819500076
 30
0.0
 11
-326.63012409250041
 21
-86.248402626299594
 31
0.0
  0
LINE
  8
DETAIL
  6
CONTINUOUS
 62
     5
 10
-326.63012409250041
 20
-86.248402626299594
 30
0.0
 11
-326.47480282620018
 21
-86.671743595099542
 31
0.0
  0
LINE
  8
DETAIL
  6
CONTINUOUS
 62
     5
 10
-326.47480282620018
 20
-86.671743595099542
 30
0.0
 11
-326.25529630350047
 21
-87.079447573599737
 31
0.0
  0
LINE
  8
DETAIL
  6
CONTINUOUS
 62
     5
 10
-326.25529630350047
 20
-87.079447573599737
 30
0.0
 11
-325.97379636790038
 21
-87.463189955899907
 31
0.0
  0
LINE
  8
DETAIL
  6
CONTINUOUS
 62
     5
 10
-325.97379636790038
 20
-87.463189955899907
 30
0.0
 11
-325.63453981550037
 21
-87.816352378399642
 31
0.0
  0
LINE
  8
DETAIL
  6
CONTINUOUS
 62
     5
 10
-325.63453981550037
 20
-87.816352378399642
 30
0.0
 11
-325.24106918680042
 21
-88.13658516849955
 31
0.0
  0
LINE
  8
DETAIL
  6
CONTINUOUS
 62
     5
 10
-325.24106918680042
 20
-88.13658516849955
 30
0.0
 11
-324.79240704620042
 21
-88.42630111949984
 31
0.0
  0
LINE
  8
DETAIL
  6
CONTINUOUS
 62
     5
 10
-324.79240704620042
 20
-88.42630111949984
 30
0.0
 11
-324.28754216490012
 21
-88.687533779299883
 31
0.0
  0
LINE
  8
DETAIL
  6
CONTINUOUS
 62
     5
 10
-324.28754216490012
 20
-88.687533779299883
 30
0.0
 11
-323.7136534473002
 21
-88.926703390299735
 31
0.0
  0
LINE
  8
DETAIL
  6
CONTINUOUS
 62
     5
 10
-323.7136534473002
 20
-88.926703390299735
 30
0.0
 11
-323.04688478520029
 21
-89.149811595799747
 31
0.0
  0
LINE
  8
DETAIL
  6
CONTINUOUS
 62
     5
 10
-323.04688478520029
 20
-89.149811595799747
 30
0.0
 11
-322.31005021600049
 21
-89.346415175199581
 31
0.0
  0
LINE
  8
DETAIL
  6
CONTINUOUS
 62
     5
 10
-322.31005021600049
 20
-89.346415175199581
 30
0.0
 11
-321.53622911130009
 21
-89.510063575800132
 31
0.0
  0
LINE
  8
DETAIL
  6
CONTINUOUS
 62
     5
 10
-321.53622911130009
 20
-89.510063575800132
 30
0.0
 11
-320.73071639600039
 21
-89.643346140799622
 31
0.0
  0
LINE
  8
DETAIL
  6
CONTINUOUS
 62
     5
 10
-320.73071639600039
 20
-89.643346140799622
 30
0.0
 11
-320.07729244610027
 21
-89.725747292399774
 31
0.0
  0
LINE
  8
DETAIL
  6
CONTINUOUS
 62
     5
 10
-330.5
 20
-82.035729068199544
 30
0.0
 11
-330.5
 21
-83.958252460100084
 31
0.0
  0
LINE
  8
DETAIL
  6
CONTINUOUS
 62
     5
 10
-338.59999999999991
 20
76.099999512499835
 30
0.0
 11
-338.60000000000042
 21
-76.099999512599879
 31
0.0
  0
LINE
  8
DETAIL
  6
CONTINUOUS
 62
     5
 10
-341.60000000000042
 20
30.499996277500031
 30
0.0
 11
-341.60000000000042
 21
-30.4999962776003
 31
0.0
  0
LINE
  8
DETAIL
  6
CONTINUOUS
 62
     5
 10
-345.60000000000042
 20
-21.999950830999751
 30
0.0
 11
-345.60000000000042
 21
21.999950830900161
 31
0.0
  0
LINE
  8
DETAIL
  6
CONTINUOUS
 62
     5
 10
-301.90000000000009
 20
67.074764911199964
 30
0.0
 11
-301.98837393570011
 21
66.921696764500211
 31
0.0
  0
LINE
  8
DETAIL
  6
CONTINUOUS
 62
     5
 10
-305.81162606430013
 20
77.227833058000215
 30
0.0
 11
-305.90000000000009
 21
77.074764911199964
 31
0.0
  0
LINE
  8
DETAIL
  6
CONTINUOUS
 62
     5
 10
-301.98821643590048
 20
66.921691438600192
 30
0.0
 11
-302.01312272890033
 21
66.881194069399953
 31
0.0
  0
LINE
  8
DETAIL
  6
CONTINUOUS
 62
     5
 10
-302.01312272890033
 20
66.881194069399953
 30
0.0
 11
-302.09999872850022
 21
66.7652879364
 31
0.0
  0
LINE
  8
DETAIL
  6
CONTINUOUS
 62
     5
 10
-302.09999872850022
 20
66.7652879364
 30
0.0
 11
-302.2111262209005
 21
66.646369646899984
 31
0.0
  0
LINE
  8
DETAIL
  6
CONTINUOUS
 62
     5
 10
-302.2111262209005
 20
66.646369646899984
 30
0.0
 11
-302.34658198740038
 21
66.52491792210003
 31
0.0
  0
LINE
  8
DETAIL
  6
CONTINUOUS
 62
     5
 10
-305.81178452920022
 20
77.227838416400118
 30
0.0
 11
-305.78688116250032
 21
77.268331650200253
 31
0.0
  0
LINE
  8
DETAIL
  6
CONTINUOUS
 62
     5
 10
-305.78688116250032
 20
77.268331650200253
 30
0.0
 11
-305.70000901499998
 21
77.38423272270029
 31
0.0
  0
LINE
  8
DETAIL
  6
CONTINUOUS
 62
     5
 10
-305.70000901499998
 20
77.38423272270029
 30
0.0
 11
-305.5888796899003
 21
77.503153069400014
 31
0.0
  0
LINE
  8
DETAIL
  6
CONTINUOUS
 62
     5
 10
-305.5888796899003
 20
77.503153069400014
 30
0.0
 11
-305.4534180126002
 21
77.624611900299897
 31
0.0
  0
LINE
  8
DETAIL
  6
CONTINUOUS
 62
     5
 10
-302.34658198740038
 20
76.227875184899858
 30
0.0
 11
-302.21113766500002
 21
76.349306596900078
 31
0.0
  0
LINE
  8
DETAIL
  6
CONTINUOUS
 62
     5
 10
-302.21113766500002
 20
76.349306596900078
 30
0.0
 11
-302.1000056414
 21
76.468237019000298
 31
0.0
  0
LINE
  8
DETAIL
  6
CONTINUOUS
 62
     5
 10
-302.1000056414
 20
76.468237019000298
 30
0.0
 11
-302.0130984499001
 21
76.58421053029997
 31
0.0
  0
LINE
  8
DETAIL
  6
CONTINUOUS
 62
     5
 10
-302.0130984499001
 20
76.58421053029997
 30
0.0
 11
-301.95067849040021
 21
76.698594893500285
 31
0.0
  0
LINE
  8
DETAIL
  6
CONTINUOUS
 62
     5
 10
-301.95067849040021
 20
76.698594893500285
 30
0.0
 11
-301.91300816270041
 21
76.81275787120012
 31
0.0
  0
LINE
  8
DETAIL
  6
CONTINUOUS
 62
     5
 10
-301.91300816270041
 20
76.81275787120012
 30
0.0
 11
-301.90000000000009
 21
76.926243542600332
 31
0.0
  0
LINE
  8
DETAIL
  6
CONTINUOUS
 62
     5
 10
-188.30000000000021
 20
87.653415357299991
 30
0.0
 11
-190.60000000000039
 21
87.653415357299991
 31
0.0
  0
LINE
  8
DETAIL
  6
CONTINUOUS
 62
     5
 10
-300.90000000000009
 20
87.653415357299991
 30
0.0
 11
-298.60000000000042
 21
87.653415357299991
 31
0.0
  0
LINE
  8
DETAIL
  6
CONTINUOUS
 62
     5
 10
-186.85341801260029
 20
59.580996396799947
 30
0.0
 11
-186.98886233499999
 21
59.702427808900211
 31
0.0
  0
LINE
  8
DETAIL
  6
CONTINUOUS
 62
     5
 10
-186.98886233499999
 20
59.702427808900211
 30
0.0
 11
-187.0999943586003
 21
59.821358230999977
 31
0.0
  0
LINE
  8
DETAIL
  6
CONTINUOUS
 62
     5
 10
-187.0999943586003
 20
59.821358230999977
 30
0.0
 11
-187.1869015501002
 21
59.937331742199831
 31
0.0
  0
LINE
  8
DETAIL
  6
CONTINUOUS
 62
     5
 10
-187.1869015501002
 20
59.937331742199831
 30
0.0
 11
-187.21177090440011
 21
59.977770340500001
 31
0.0
  0
LINE
  8
DETAIL
  6
CONTINUOUS
 62
     5
 10
-183.74658198740011
 20
70.680690374999813
 30
0.0
 11
-183.6111320864002
 21
70.559252239299894
 31
0.0
  0
LINE
  8
DETAIL
  6
CONTINUOUS
 62
     5
 10
-183.6111320864002
 20
70.559252239299894
 30
0.0
 11
-183.49999835390011
 21
70.440319917400302
 31
0.0
  0
LINE
  8
DETAIL
  6
CONTINUOUS
 62
     5
 10
-183.49999835390011
 20
70.440319917400302
 30
0.0
 11
-183.41309485950021
 21
70.324351331500111
 31
0.0
  0
LINE
  8
DETAIL
  6
CONTINUOUS
 62
     5
 10
-183.41309485950021
 20
70.324351331500111
 30
0.0
 11
-183.3882281555002
 21
70.283916462999969
 31
0.0
  0
LINE
  8
DETAIL
  6
CONTINUOUS
 62
     5
 10
-187.30000000000021
 20
60.130843385900327
 30
0.0
 11
-187.21162606430019
 21
59.9777752391999
 31
0.0
  0
LINE
  8
DETAIL
  6
CONTINUOUS
 62
     5
 10
-183.3883739357002
 20
70.283911532700131
 30
0.0
 11
-183.30000000000021
 21
70.130843385900334
 31
0.0
  0
LINE
  8
DETAIL
  6
CONTINUOUS
 62
     5
 10
-19.053418012600101
 20
-311.68161959989988
 30
0.0
 11
-19.188666738600201
 21
-311.43114389879997
 31
0.0
  0
LINE
  8
DETAIL
  6
CONTINUOUS
 62
     5
 10
-19.188666738600201
 20
-311.43114389879997
 30
0.0
 11
-19.299744531800119
 21
-311.18545472869982
 31
0.0
  0
LINE
  8
DETAIL
  6
CONTINUOUS
 62
     5
 10
-19.299744531800119
 20
-311.18545472869982
 30
0.0
 11
-19.386798040500249
 21
-310.94532205430028
 31
0.0
  0
LINE
  8
DETAIL
  6
CONTINUOUS
 62
     5
 10
-19.053418012600101
 20
-303.02136556209962
 30
0.0
 11
-19.188666738600201
 21
-302.77088986090013
 31
0.0
  0
LINE
  8
DETAIL
  6
CONTINUOUS
 62
     5
 10
-19.188666738600201
 20
-302.77088986090013
 30
0.0
 11
-19.299744531800119
 21
-302.52520069090008
 31
0.0
  0
LINE
  8
DETAIL
  6
CONTINUOUS
 62
     5
 10
-19.299744531800119
 20
-302.52520069090008
 30
0.0
 11
-19.386798040200119
 21
-302.28506801890001
 31
0.0
  0
LINE
  8
DETAIL
  6
CONTINUOUS
 62
     5
 10
-19.386798040200119
 20
-302.28506801890001
 30
0.0
 11
-19.449387319400099
 21
-302.04818194399968
 31
0.0
  0
LINE
  8
DETAIL
  6
CONTINUOUS
 62
     5
 10
-19.449387319400099
 20
-302.04818194399968
 30
0.0
 11
-19.487072424700269
 21
-301.81223256480018
 31
0.0
  0
LINE
  8
DETAIL
  6
CONTINUOUS
 62
     5
 10
-19.487072424700269
 20
-301.81223256480018
 30
0.0
 11
-19.498068510300069
 21
-301.61298776979987
 31
0.0
  0
LINE
  8
DETAIL
  6
CONTINUOUS
 62
     5
 10
-183.3882281555002
 20
70.283916462999969
 30
0.0
 11
-183.35067939490051
 21
70.209972715500044
 31
0.0
  0
LINE
  8
DETAIL
  6
CONTINUOUS
 62
     5
 10
-183.35067939490051
 20
70.209972715500044
 30
0.0
 11
-183.31300975190021
 21
70.095810303399958
 31
0.0
  0
LINE
  8
DETAIL
  6
CONTINUOUS
 62
     5
 10
-183.31300975190021
 20
70.095810303399958
 30
0.0
 11
-183.30000000000021
 21
69.982322017300248
 31
0.0
  0
LINE
  8
DETAIL
  6
CONTINUOUS
 62
     5
 10
-183.74658198740011
 20
63.734106670400251
 30
0.0
 11
-183.61158183550009
 21
63.37450121080019
 31
0.0
  0
LINE
  8
DETAIL
  6
CONTINUOUS
 62
     5
 10
-183.61158183550009
 20
63.37450121080019
 30
0.0
 11
-183.50063869790031
 21
63.02163145429995
 31
0.0
  0
LINE
  8
DETAIL
  6
CONTINUOUS
 62
     5
 10
-183.50063869790031
 20
63.02163145429995
 30
0.0
 11
-183.41359234280051
 21
62.676744771099948
 31
0.0
  0
LINE
  8
DETAIL
  6
CONTINUOUS
 62
     5
 10
-183.41359234280051
 20
62.676744771099948
 30
0.0
 11
-183.35092346570039
 21
62.336099050299943
 31
0.0
  0
LINE
  8
DETAIL
  6
CONTINUOUS
 62
     5
 10
-183.35092346570039
 20
62.336099050299943
 30
0.0
 11
-183.3131127620004
 21
61.995952181099938
 31
0.0
  0
LINE
  8
DETAIL
  6
CONTINUOUS
 62
     5
 10
-183.3131127620004
 20
61.995952181099938
 30
0.0
 11
-183.30000000000021
 21
61.657551533600099
 31
0.0
  0
LINE
  8
DETAIL
  6
CONTINUOUS
 62
     5
 10
-341.90000000000009
 20
70.789216817000124
 30
0.0
 11
-341.89044909870017
 21
70.796037185300065
 31
0.0
  0
LINE
  8
DETAIL
  6
CONTINUOUS
 62
     5
 10
-341.89044909870017
 20
70.796037185300065
 30
0.0
 11
-341.86181919990031
 21
70.802841268500288
 31
0.0
  0
LINE
  8
DETAIL
  6
CONTINUOUS
 62
     5
 10
-341.86181919990031
 20
70.802841268500288
 30
0.0
 11
-341.8141786637002
 21
70.809612820100028
 31
0.0
  0
LINE
  8
DETAIL
  6
CONTINUOUS
 62
     5
 10
-341.8141786637002
 20
70.809612820100028
 30
0.0
 11
-341.7476412428
 21
70.816335671800289
 31
0.0
  0
LINE
  8
DETAIL
  6
CONTINUOUS
 62
     5
 10
-341.7476412428
 20
70.816335671800289
 30
0.0
 11
-341.6555627992002
 21
70.823466450600108
 31
0.0
  0
LINE
  8
DETAIL
  6
CONTINUOUS
 62
     5
 10
-341.6555627992002
 20
70.823466450600108
 30
0.0
 11
-341.54705826700052
 21
70.830229971600147
 31
0.0
  0
LINE
  8
DETAIL
  6
CONTINUOUS
 62
     5
 10
-39.473319506800181
 20
311.76445987919988
 30
0.0
 11
-39.188243975600471
 21
311.89360678069988
 31
0.0
  0
LINE
  8
DETAIL
  6
CONTINUOUS
 62
     5
 10
-39.188243975600471
 20
311.89360678069988
 30
0.0
 11
-38.857914485100537
 21
312.0455441268
 31
0.0
  0
LINE
  8
DETAIL
  6
CONTINUOUS
 62
     5
 10
-38.857914485100537
 20
312.0455441268
 30
0.0
 11
-38.529934263900032
 21
312.19870741849991
 31
0.0
  0
LINE
  8
DETAIL
  6
CONTINUOUS
 62
     5
 10
-38.529934263900032
 20
312.19870741849991
 30
0.0
 11
-38.204324072700267
 21
312.3530882977002
 31
0.0
  0
LINE
  8
DETAIL
  6
CONTINUOUS
 62
     5
 10
-38.204324072700267
 20
312.3530882977002
 30
0.0
 11
-37.881104672200308
 21
312.50867840630008
 31
0.0
  0
LINE
  8
DETAIL
  6
CONTINUOUS
 62
     5
 10
-37.881104672200308
 20
312.50867840630008
 30
0.0
 11
-37.560296823100089
 21
312.66546938610009
 31
0.0
  0
LINE
  8
DETAIL
  6
CONTINUOUS
 62
     5
 10
-37.560296823100089
 20
312.66546938610009
 30
0.0
 11
-37.241921286100023
 21
312.82345287900029
 31
0.0
  0
LINE
  8
DETAIL
  6
CONTINUOUS
 62
     5
 10
-37.241921286100023
 20
312.82345287900029
 30
0.0
 11
-36.925998000700467
 21
312.98262002899992
 31
0.0
  0
LINE
  8
DETAIL
  6
CONTINUOUS
 62
     5
 10
-36.925998000700467
 20
312.98262002899992
 30
0.0
 11
-36.612543621500208
 21
313.14295998900002
 31
0.0
  0
LINE
  8
DETAIL
  6
CONTINUOUS
 62
     5
 10
-36.612543621500208
 20
313.14295998900002
 30
0.0
 11
-36.301573981900219
 21
313.30446141370021
 31
0.0
  0
LINE
  8
DETAIL
  6
CONTINUOUS
 62
     5
 10
-36.301573981900219
 20
313.30446141370021
 30
0.0
 11
-35.993104915500233
 21
313.4671129582
 31
0.0
  0
LINE
  8
DETAIL
  6
CONTINUOUS
 62
     5
 10
-35.993104915500233
 20
313.4671129582
 30
0.0
 11
-35.687152255500223
 21
313.63090327729992
 31
0.0
  0
LINE
  8
DETAIL
  6
CONTINUOUS
 62
     5
 10
-35.687152255500223
 20
313.63090327729992
 30
0.0
 11
-35.383731835600429
 21
313.7958210259003
 31
0.0
  0
LINE
  8
DETAIL
  6
CONTINUOUS
 62
     5
 10
-35.383731835600429
 20
313.7958210259003
 30
0.0
 11
-35.082859489100429
 21
313.96185485900008
 31
0.0
  0
LINE
  8
DETAIL
  6
CONTINUOUS
 62
     5
 10
-35.082859489100429
 20
313.96185485900008
 30
0.0
 11
-34.784551049400307
 21
314.12899343150002
 31
0.0
  0
LINE
  8
DETAIL
  6
CONTINUOUS
 62
     5
 10
-34.784551049400307
 20
314.12899343150002
 30
0.0
 11
-34.488822350100243
 21
314.2972253982
 31
0.0
  0
LINE
  8
DETAIL
  6
CONTINUOUS
 62
     5
 10
-34.488822350100243
 20
314.2972253982
 30
0.0
 11
-34.195689224400212
 21
314.4665394141
 31
0.0
  0
LINE
  8
DETAIL
  6
CONTINUOUS
 62
     5
 10
-34.195689224400212
 20
314.4665394141
 30
0.0
 11
-33.905167506000453
 21
314.6369241340999
 31
0.0
  0
LINE
  8
DETAIL
  6
CONTINUOUS
 62
     5
 10
-33.905167506000453
 20
314.6369241340999
 30
0.0
 11
-33.617273028200088
 21
314.80836821320008
 31
0.0
  0
LINE
  8
DETAIL
  6
CONTINUOUS
 62
     5
 10
-33.617273028200088
 20
314.80836821320008
 30
0.0
 11
-33.332021624400113
 21
314.98086030610011
 31
0.0
  0
LINE
  8
DETAIL
  6
CONTINUOUS
 62
     5
 10
-33.332021624400113
 20
314.98086030610011
 30
0.0
 11
-33.049429128100201
 21
315.15438906780008
 31
0.0
  0
LINE
  8
DETAIL
  6
CONTINUOUS
 62
     5
 10
-33.049429128100201
 20
315.15438906780008
 30
0.0
 11
-32.769511372800032
 21
315.32894315330009
 31
0.0
  0
LINE
  8
DETAIL
  6
CONTINUOUS
 62
     5
 10
-32.769511372800032
 20
315.32894315330009
 30
0.0
 11
-32.492284191800081
 21
315.50451121750012
 31
0.0
  0
LINE
  8
DETAIL
  6
CONTINUOUS
 62
     5
 10
-32.492284191800081
 20
315.50451121750012
 30
0.0
 11
-32.217763418700542
 21
315.68108191520008
 31
0.0
  0
LINE
  8
DETAIL
  6
CONTINUOUS
 62
     5
 10
-32.217763418700542
 20
315.68108191520008
 30
0.0
 11
-31.945964886800081
 21
315.8586439014
 31
0.0
  0
LINE
  8
DETAIL
  6
CONTINUOUS
 62
     5
 10
-31.945964886800081
 20
315.8586439014
 30
0.0
 11
-31.676904429600199
 21
316.03718583089989
 31
0.0
  0
LINE
  8
DETAIL
  6
CONTINUOUS
 62
     5
 10
-31.676904429600199
 20
316.03718583089989
 30
0.0
 11
-31.410597880600559
 21
316.21669635879988
 31
0.0
  0
LINE
  8
DETAIL
  6
CONTINUOUS
 62
     5
 10
-31.410597880600559
 20
316.21669635879988
 30
0.0
 11
-31.1470610731003
 21
316.39716413990033
 31
0.0
  0
LINE
  8
DETAIL
  6
CONTINUOUS
 62
     5
 10
-31.1470610731003
 20
316.39716413990033
 30
0.0
 11
-30.886309840600461
 21
316.5785778290001
 31
0.0
  0
LINE
  8
DETAIL
  6
CONTINUOUS
 62
     5
 10
-30.886309840600461
 20
316.5785778290001
 30
0.0
 11
-30.628360016600251
 21
316.76092608120013
 31
0.0
  0
LINE
  8
DETAIL
  6
CONTINUOUS
 62
     5
 10
-30.628360016600251
 20
316.76092608120013
 30
0.0
 11
-30.373227434500219
 21
316.94419755140012
 31
0.0
  0
LINE
  8
DETAIL
  6
CONTINUOUS
 62
     5
 10
-30.373227434500219
 20
316.94419755140012
 30
0.0
 11
-30.12092792770045
 21
317.12838089439992
 31
0.0
  0
LINE
  8
DETAIL
  6
CONTINUOUS
 62
     5
 10
-30.12092792770045
 20
317.12838089439992
 30
0.0
 11
-29.871477329700159
 21
317.31346476509998
 31
0.0
  0
LINE
  8
DETAIL
  6
CONTINUOUS
 62
     5
 10
-29.871477329700159
 20
317.31346476509998
 30
0.0
 11
-29.62489147390033
 21
317.49943781849993
 31
0.0
  0
LINE
  8
DETAIL
  6
CONTINUOUS
 62
     5
 10
-29.62489147390033
 20
317.49943781849993
 30
0.0
 11
-29.3811861938002
 21
317.68628870949988
 31
0.0
  0
LINE
  8
DETAIL
  6
CONTINUOUS
 62
     5
 10
-29.3811861938002
 20
317.68628870949988
 30
0.0
 11
-29.140377322800301
 21
317.87400609299988
 31
0.0
  0
LINE
  8
DETAIL
  6
CONTINUOUS
 62
     5
 10
-29.140377322800301
 20
317.87400609299988
 30
0.0
 11
-28.902480694300269
 21
318.06257862390021
 31
0.0
  0
LINE
  8
DETAIL
  6
CONTINUOUS
 62
     5
 10
-28.902480694300269
 20
318.06257862390021
 30
0.0
 11
-28.66751214180022
 21
318.25199495710012
 31
0.0
  0
LINE
  8
DETAIL
  6
CONTINUOUS
 62
     5
 10
-28.66751214180022
 20
318.25199495710012
 30
0.0
 11
-28.4354874986002
 21
318.44224374760012
 31
0.0
  0
LINE
  8
DETAIL
  6
CONTINUOUS
 62
     5
 10
-28.4354874986002
 20
318.44224374760012
 30
0.0
 11
-28.206422598400419
 21
318.63331365009998
 31
0.0
  0
LINE
  8
DETAIL
  6
CONTINUOUS
 62
     5
 10
-28.206422598400419
 20
318.63331365009998
 30
0.0
 11
-27.980333274399982
 21
318.82519331980029
 31
0.0
  0
LINE
  8
DETAIL
  6
CONTINUOUS
 62
     5
 10
-27.980333274399982
 20
318.82519331980029
 30
0.0
 11
-27.757235311300061
 21
319.01787139779981
 31
0.0
  0
LINE
  8
DETAIL
  6
CONTINUOUS
 62
     5
 10
-27.757235311300061
 20
319.01787139779981
 30
0.0
 11
-27.537141559200339
 21
319.21133571149988
 31
0.0
  0
LINE
  8
DETAIL
  6
CONTINUOUS
 62
     5
 10
-27.537141559200339
 20
319.21133571149988
 30
0.0
 11
-27.32006032010031
 21
319.40557282650002
 31
0.0
  0
LINE
  8
DETAIL
  6
CONTINUOUS
 62
     5
 10
-27.32006032010031
 20
319.40557282650002
 30
0.0
 11
-27.105999504800369
 21
319.60056919999988
 31
0.0
  0
LINE
  8
DETAIL
  6
CONTINUOUS
 62
     5
 10
-27.105999504800369
 20
319.60056919999988
 30
0.0
 11
-26.89496702400038
 21
319.79631128889991
 31
0.0
  0
LINE
  8
DETAIL
  6
CONTINUOUS
 62
     5
 10
-26.89496702400038
 20
319.79631128889991
 30
0.0
 11
-26.686970788400231
 21
319.99278555030008
 31
0.0
  0
LINE
  8
DETAIL
  6
CONTINUOUS
 62
     5
 10
-26.686970788400231
 20
319.99278555030008
 30
0.0
 11
-26.482018708900341
 21
320.1899784412999
 31
0.0
  0
LINE
  8
DETAIL
  6
CONTINUOUS
 62
     5
 10
-26.482018708900341
 20
320.1899784412999
 30
0.0
 11
-26.280118696100089
 21
320.38787641890008
 31
0.0
  0
LINE
  8
DETAIL
  6
CONTINUOUS
 62
     5
 10
-26.280118696100089
 20
320.38787641890008
 30
0.0
 11
-26.081278660800312
 21
320.58646594029977
 31
0.0
  0
LINE
  8
DETAIL
  6
CONTINUOUS
 62
     5
 10
-26.081278660800312
 20
320.58646594029977
 30
0.0
 11
-25.88550651380001
 21
320.78573346249982
 31
0.0
  0
LINE
  8
DETAIL
  6
CONTINUOUS
 62
     5
 10
-25.88550651380001
 20
320.78573346249982
 30
0.0
 11
-25.69281016579998
 21
320.98566544250002
 31
0.0
  0
LINE
  8
DETAIL
  6
CONTINUOUS
 62
     5
 10
-25.69281016579998
 20
320.98566544250002
 30
0.0
 11
-25.503197527500109
 21
321.1862483374
 31
0.0
  0
LINE
  8
DETAIL
  6
CONTINUOUS
 62
     5
 10
-25.503197527500109
 20
321.1862483374
 30
0.0
 11
-25.316676509700301
 21
321.38746860430001
 31
0.0
  0
LINE
  8
DETAIL
  6
CONTINUOUS
 62
     5
 10
-25.316676509700301
 20
321.38746860430001
 30
0.0
 11
-25.13325502310045
 21
321.58931270030013
 31
0.0
  0
LINE
  8
DETAIL
  6
CONTINUOUS
 62
     5
 10
-25.13325502310045
 20
321.58931270030013
 30
0.0
 11
-24.952940978600051
 21
321.79176708230028
 31
0.0
  0
LINE
  8
DETAIL
  6
CONTINUOUS
 62
     5
 10
-24.952940978600051
 20
321.79176708230028
 30
0.0
 11
-24.775742286700279
 21
321.99481820760002
 31
0.0
  0
LINE
  8
DETAIL
  6
CONTINUOUS
 62
     5
 10
-24.775742286700279
 20
321.99481820760002
 30
0.0
 11
-24.601666858300181
 21
322.19845253310001
 31
0.0
  0
LINE
  8
DETAIL
  6
CONTINUOUS
 62
     5
 10
-24.601666858300181
 20
322.19845253310001
 30
0.0
 11
-24.430722604200131
 21
322.40265651589988
 31
0.0
  0
LINE
  8
DETAIL
  6
CONTINUOUS
 62
     5
 10
-24.430722604200131
 20
322.40265651589988
 30
0.0
 11
-24.262917434999959
 21
322.60741661310021
 31
0.0
  0
LINE
  8
DETAIL
  6
CONTINUOUS
 62
     5
 10
-24.262917434999959
 20
322.60741661310021
 30
0.0
 11
-24.098259261500061
 21
322.81271928180013
 31
0.0
  0
LINE
  8
DETAIL
  6
CONTINUOUS
 62
     5
 10
-24.098259261500061
 20
322.81271928180013
 30
0.0
 11
-23.936755994500341
 21
323.01855097900028
 31
0.0
  0
LINE
  8
DETAIL
  6
CONTINUOUS
 62
     5
 10
-23.936755994500341
 20
323.01855097900028
 30
0.0
 11
-23.778415544700241
 21
323.22489816170008
 31
0.0
  0
LINE
  8
DETAIL
  6
CONTINUOUS
 62
     5
 10
-23.778415544700241
 20
323.22489816170008
 30
0.0
 11
-23.62324582290012
 21
323.4317472872001
 31
0.0
  0
LINE
  8
DETAIL
  6
CONTINUOUS
 62
     5
 10
-23.62324582290012
 20
323.4317472872001
 30
0.0
 11
-23.471254739800319
 21
323.6390848123001
 31
0.0
  0
LINE
  8
DETAIL
  6
CONTINUOUS
 62
     5
 10
-23.471254739800319
 20
323.6390848123001
 30
0.0
 11
-23.32245020610026
 21
323.84689719420021
 31
0.0
  0
LINE
  8
DETAIL
  6
CONTINUOUS
 62
     5
 10
-23.32245020610026
 20
323.84689719420021
 30
0.0
 11
-23.176840132600319
 21
324.05517088990018
 31
0.0
  0
LINE
  8
DETAIL
  6
CONTINUOUS
 62
     5
 10
-23.176840132600319
 20
324.05517088990018
 30
0.0
 11
-23.034432430000379
 21
324.26389235660008
 31
0.0
  0
LINE
  8
DETAIL
  6
CONTINUOUS
 62
     5
 10
-23.034432430000379
 20
324.26389235660008
 30
0.0
 11
-22.895235009200409
 21
324.47304805120029
 31
0.0
  0
LINE
  8
DETAIL
  6
CONTINUOUS
 62
     5
 10
-22.895235009200409
 20
324.47304805120029
 30
0.0
 11
-22.75925578070019
 21
324.68262443089998
 31
0.0
  0
LINE
  8
DETAIL
  6
CONTINUOUS
 62
     5
 10
-22.75925578070019
 20
324.68262443089998
 30
0.0
 11
-22.62650265550019
 21
324.89260795270002
 31
0.0
  0
LINE
  8
DETAIL
  6
CONTINUOUS
 62
     5
 10
-22.62650265550019
 20
324.89260795270002
 30
0.0
 11
-22.496983544200251
 21
325.10298507370021
 31
0.0
  0
LINE
  8
DETAIL
  6
CONTINUOUS
 62
     5
 10
-22.496983544200251
 20
325.10298507370021
 30
0.0
 11
-22.37070635760028
 21
325.31374225099989
 31
0.0
  0
LINE
  8
DETAIL
  6
CONTINUOUS
 62
     5
 10
-22.37070635760028
 20
325.31374225099989
 30
0.0
 11
-22.24767900640018
 21
325.52486594150008
 31
0.0
  0
LINE
  8
DETAIL
  6
CONTINUOUS
 62
     5
 10
-22.24767900640018
 20
325.52486594150008
 30
0.0
 11
-22.127909401300261
 21
325.7363426024001
 31
0.0
  0
LINE
  8
DETAIL
  6
CONTINUOUS
 62
     5
 10
-22.127909401300261
 20
325.7363426024001
 30
0.0
 11
-22.011405453200041
 21
325.94815869080003
 31
0.0
  0
LINE
  8
DETAIL
  6
CONTINUOUS
 62
     5
 10
-22.011405453200041
 20
325.94815869080003
 30
0.0
 11
-21.898174698700132
 21
326.16030087470023
 31
0.0
  0
LINE
  8
DETAIL
  6
CONTINUOUS
 62
     5
 10
-21.898174698700132
 20
326.16030087470023
 30
0.0
 11
-21.788220325800008
 21
326.37275827489998
 31
0.0
  0
LINE
  8
DETAIL
  6
CONTINUOUS
 62
     5
 10
-21.788220325800008
 20
326.37275827489998
 30
0.0
 11
-21.681542717100001
 21
326.5855215949
 31
0.0
  0
LINE
  8
DETAIL
  6
CONTINUOUS
 62
     5
 10
-21.681542717100001
 20
326.5855215949
 30
0.0
 11
-21.578142208400099
 21
326.79858156430009
 31
0.0
  0
LINE
  8
DETAIL
  6
CONTINUOUS
 62
     5
 10
-21.578142208400099
 20
326.79858156430009
 30
0.0
 11
-21.47801913550029
 21
327.01192891279987
 31
0.0
  0
LINE
  8
DETAIL
  6
CONTINUOUS
 62
     5
 10
-21.47801913550029
 20
327.01192891279987
 30
0.0
 11
-21.381173834100078
 21
327.2255543701001
 31
0.0
  0
LINE
  8
DETAIL
  6
CONTINUOUS
 62
     5
 10
-21.381173834100078
 20
327.2255543701001
 30
0.0
 11
-21.287606639900329
 21
327.43944866599992
 31
0.0
  0
LINE
  8
DETAIL
  6
CONTINUOUS
 62
     5
 10
-21.287606639900329
 20
327.43944866599992
 30
0.0
 11
-21.197317888800171
 21
327.65360253010022
 31
0.0
  0
LINE
  8
DETAIL
  6
CONTINUOUS
 62
     5
 10
-21.197317888800171
 20
327.65360253010022
 30
0.0
 11
-21.11030791660005
 21
327.86800669209993
 31
0.0
  0
LINE
  8
DETAIL
  6
CONTINUOUS
 62
     5
 10
-21.11030791660005
 20
327.86800669209993
 30
0.0
 11
-21.02657705890033
 21
328.0826518818003
 31
0.0
  0
LINE
  8
DETAIL
  6
CONTINUOUS
 62
     5
 10
-21.02657705890033
 20
328.0826518818003
 30
0.0
 11
-20.946125651700189
 21
328.29752882889989
 31
0.0
  0
LINE
  8
DETAIL
  6
CONTINUOUS
 62
     5
 10
-20.946125651700189
 20
328.29752882889989
 30
0.0
 11
-20.868954030600431
 21
328.5126282629999
 31
0.0
  0
LINE
  8
DETAIL
  6
CONTINUOUS
 62
     5
 10
-20.868954030600431
 20
328.5126282629999
 30
0.0
 11
-20.795062531400159
 21
328.72794091389977
 31
0.0
  0
LINE
  8
DETAIL
  6
CONTINUOUS
 62
     5
 10
-20.795062531400159
 20
328.72794091389977
 30
0.0
 11
-20.724451489900279
 21
328.94345751119999
 31
0.0
  0
LINE
  8
DETAIL
  6
CONTINUOUS
 62
     5
 10
-20.724451489900279
 20
328.94345751119999
 30
0.0
 11
-20.65712124190031
 21
329.15916878479987
 31
0.0
  0
LINE
  8
DETAIL
  6
CONTINUOUS
 62
     5
 10
-20.65712124190031
 20
329.15916878479987
 30
0.0
 11
-20.593072123100232
 21
329.37506546419991
 31
0.0
  0
LINE
  8
DETAIL
  6
CONTINUOUS
 62
     5
 10
-20.593072123100232
 20
329.37506546419991
 30
0.0
 11
-20.53230446940006
 21
329.59113827920009
 31
0.0
  0
LINE
  8
DETAIL
  6
CONTINUOUS
 62
     5
 10
-20.53230446940006
 20
329.59113827920009
 30
0.0
 11
-20.474818616400171
 21
329.80737795950017
 31
0.0
  0
LINE
  8
DETAIL
  6
CONTINUOUS
 62
     5
 10
-20.474818616400171
 20
329.80737795950017
 30
0.0
 11
-20.42061490000015
 21
330.02377523480033
 31
0.0
  0
LINE
  8
DETAIL
  6
CONTINUOUS
 62
     5
 10
-20.42061490000015
 20
330.02377523480033
 30
0.0
 11
-20.369693655900392
 21
330.24032083480012
 31
0.0
  0
LINE
  8
DETAIL
  6
CONTINUOUS
 62
     5
 10
-20.369693655900392
 20
330.24032083480012
 30
0.0
 11
-20.32205521989999
 21
330.45700548930017
 31
0.0
  0
LINE
  8
DETAIL
  6
CONTINUOUS
 62
     5
 10
-20.32205521989999
 20
330.45700548930017
 30
0.0
 11
-20.277699927900361
 21
330.6738199278002
 31
0.0
  0
LINE
  8
DETAIL
  6
CONTINUOUS
 62
     5
 10
-20.277699927900361
 20
330.6738199278002
 30
0.0
 11
-20.236628115400439
 21
330.89075488019989
 31
0.0
  0
LINE
  8
DETAIL
  6
CONTINUOUS
 62
     5
 10
-20.236628115400439
 20
330.89075488019989
 30
0.0
 11
-20.198840118400309
 21
331.10780107609997
 31
0.0
  0
LINE
  8
DETAIL
  6
CONTINUOUS
 62
     5
 10
-20.198840118400309
 20
331.10780107609997
 30
0.0
 11
-20.164336272600391
 21
331.32494924520012
 31
0.0
  0
LINE
  8
DETAIL
  6
CONTINUOUS
 62
     5
 10
-20.164336272600391
 20
331.32494924520012
 30
0.0
 11
-20.133116913700182
 21
331.54219011729992
 31
0.0
  0
LINE
  8
DETAIL
  6
CONTINUOUS
 62
     5
 10
-20.133116913700182
 20
331.54219011729992
 30
0.0
 11
-20.105182377600158
 21
331.75951442210021
 31
0.0
  0
LINE
  8
DETAIL
  6
CONTINUOUS
 62
     5
 10
-20.105182377600158
 20
331.75951442210021
 30
0.0
 11
-20.08053300000029
 21
331.97691288910028
 31
0.0
  0
LINE
  8
DETAIL
  6
CONTINUOUS
 62
     5
 10
-20.08053300000029
 20
331.97691288910028
 30
0.0
 11
-20.059169116700101
 21
332.19437624830022
 31
0.0
  0
LINE
  8
DETAIL
  6
CONTINUOUS
 62
     5
 10
-20.059169116700101
 20
332.19437624830022
 30
0.0
 11
-20.041091063400469
 21
332.4118952291999
 31
0.0
  0
LINE
  8
DETAIL
  6
CONTINUOUS
 62
     5
 10
-20.041091063400469
 20
332.4118952291999
 30
0.0
 11
-20.026299176000069
 21
332.6294605615999
 31
0.0
  0
LINE
  8
DETAIL
  6
CONTINUOUS
 62
     5
 10
-20.026299176000069
 20
332.6294605615999
 30
0.0
 11
-20.01479379010016
 21
332.84706297520012
 31
0.0
  0
LINE
  8
DETAIL
  6
CONTINUOUS
 62
     5
 10
-20.01479379010016
 20
332.84706297520012
 30
0.0
 11
-20.006575241700379
 21
333.06469319960001
 31
0.0
  0
LINE
  8
DETAIL
  6
CONTINUOUS
 62
     5
 10
-20.006575241700379
 20
333.06469319960001
 30
0.0
 11
-20.001643866400169
 21
333.28234196460022
 31
0.0
  0
LINE
  8
DETAIL
  6
CONTINUOUS
 62
     5
 10
-20.001643866400169
 20
333.28234196460022
 30
0.0
 11
-20.0
 21
333.5
 31
0.0
  0
LINE
  8
DETAIL
  6
CONTINUOUS
 62
     5
 10
-8.0468120774003182
 20
291.85126385640001
 30
0.0
 11
-5.4829698066000674
 21
292.63846542469992
 31
0.0
  0
LINE
  8
DETAIL
  6
CONTINUOUS
 62
     5
 10
-7.0531879226000456
 20
296.11602236120012
 30
0.0
 11
-9.6170301934002964
 21
295.32882079279989
 31
0.0
  0
LINE
  8
DETAIL
  6
CONTINUOUS
 62
     5
 10
-13.0
 20
245.8040405070999
 30
0.0
 11
-16.400000000000091
 21
245.8040405070999
 31
0.0
  0
LINE
  8
DETAIL
  6
CONTINUOUS
 62
     5
 10
-14.5
 20
257.82485578720002
 30
0.0
 11
-10.0
 21
257.82485578720002
 31
0.0
  0
LINE
  8
DETAIL
  6
CONTINUOUS
 62
     5
 10
-14.5
 20
269.02191584379989
 30
0.0
 11
-19.053418012600101
 21
269.02191584379989
 31
0.0
  0
LINE
  8
DETAIL
  6
CONTINUOUS
 62
     5
 10
-19.5
 20
271.79541853570032
 30
0.0
 11
-21.400000000000091
 21
271.79541853570032
 31
0.0
  0
LINE
  8
DETAIL
  6
CONTINUOUS
 62
     5
 10
-14.5
 20
271.90866718980033
 30
0.0
 11
-19.053418012600101
 21
271.90866718980033
 31
0.0
  0
LINE
  8
DETAIL
  6
CONTINUOUS
 62
     5
 10
-20.400000000000091
 20
272.29541853570032
 30
0.0
 11
-19.5
 21
272.29541853570032
 31
0.0
  0
LINE
  8
DETAIL
  6
CONTINUOUS
 62
     5
 10
-20.400000000000091
 20
277.29541853570032
 30
0.0
 11
-19.5
 21
277.29541853570032
 31
0.0
  0
LINE
  8
DETAIL
  6
CONTINUOUS
 62
     5
 10
-14.5
 20
277.68216988169979
 30
0.0
 11
-19.053418012600101
 21
277.68216988169979
 31
0.0
  0
LINE
  8
DETAIL
  6
CONTINUOUS
 62
     5
 10
-19.5
 20
277.79541853570032
 30
0.0
 11
-21.400000000000091
 21
277.79541853570032
 31
0.0
  0
LINE
  8
DETAIL
  6
CONTINUOUS
 62
     5
 10
-19.402403934800081
 20
279.96445987919992
 30
0.0
 11
-164.59999999999991
 21
279.96445987919992
 31
0.0
  0
LINE
  8
DETAIL
  6
CONTINUOUS
 62
     5
 10
-14.5
 20
280.56892122760019
 30
0.0
 11
-19.053418012600101
 21
280.56892122760019
 31
0.0
  0
LINE
  8
DETAIL
  6
CONTINUOUS
 62
     5
 10
-3.0
 20
287.52334059710029
 30
0.0
 11
-6.4000000000000909
 21
287.52334059710029
 31
0.0
  0
LINE
  8
DETAIL
  6
CONTINUOUS
 62
     5
 10
-5.1000000000003638
 20
298.83704909610009
 30
0.0
 11
-3.0
 21
298.83704909610009
 31
0.0
  0
LINE
  8
DETAIL
  6
CONTINUOUS
 62
     5
 10
-14.5
 20
311.76445987919988
 30
0.0
 11
-164.59999999999991
 21
311.76445987919988
 31
0.0
  0
LINE
  8
DETAIL
  6
CONTINUOUS
 62
     5
 10
-16.400000000000091
 20
341.5
 30
0.0
 11
-13.867637334200481
 21
341.5
 31
0.0
  0
LINE
  8
DETAIL
  6
CONTINUOUS
 62
     5
 10
-3.0
 20
348.33452377909998
 30
0.0
 11
-5.1000000000003638
 21
348.33452377909998
 31
0.0
  0
LINE
  8
DETAIL
  6
CONTINUOUS
 62
     5
 10
-6.4000000000000909
 20
351.5
 30
0.0
 11
-3.0
 21
351.5
 31
0.0
  0
LINE
  8
DETAIL
  6
CONTINUOUS
 62
     5
 10
-19.053418012600101
 20
269.02191584379989
 30
0.0
 11
-19.5
 21
269.79541853570032
 31
0.0
  0
LINE
  8
DETAIL
  6
CONTINUOUS
 62
     5
 10
-19.053418012600101
 20
269.02191584379989
 30
0.0
 11
-19.188666738600201
 21
269.27239154490007
 31
0.0
  0
LINE
  8
DETAIL
  6
CONTINUOUS
 62
     5
 10
-19.188666738600201
 20
269.27239154490007
 30
0.0
 11
-19.299744531800119
 21
269.518080715
 31
0.0
  0
LINE
  8
DETAIL
  6
CONTINUOUS
 62
     5
 10
-19.299744531800119
 20
269.518080715
 30
0.0
 11
-19.386798040500249
 21
269.75821338949982
 31
0.0
  0
LINE
  8
DETAIL
  6
CONTINUOUS
 62
     5
 10
-19.053418012600101
 20
277.68216988169979
 30
0.0
 11
-19.188666738600201
 21
277.93264558279998
 31
0.0
  0
LINE
  8
DETAIL
  6
CONTINUOUS
 62
     5
 10
-19.188666738600201
 20
277.93264558279998
 30
0.0
 11
-19.299744531800119
 21
278.1783347528999
 31
0.0
  0
LINE
  8
DETAIL
  6
CONTINUOUS
 62
     5
 10
-19.299744531800119
 20
278.1783347528999
 30
0.0
 11
-19.386798040200119
 21
278.41846742479993
 31
0.0
  0
LINE
  8
DETAIL
  6
CONTINUOUS
 62
     5
 10
-19.386798040200119
 20
278.41846742479993
 30
0.0
 11
-19.449387319400099
 21
278.65535349970008
 31
0.0
  0
LINE
  8
DETAIL
  6
CONTINUOUS
 62
     5
 10
-19.449387319400099
 20
278.65535349970008
 30
0.0
 11
-19.487072424700269
 21
278.89130287890021
 31
0.0
  0
LINE
  8
DETAIL
  6
CONTINUOUS
 62
     5
 10
-19.487072424700269
 20
278.89130287890021
 30
0.0
 11
-19.500000004400139
 21
279.12554559520032
 31
0.0
  0
ARC
  8
DETAIL
  6
CONTINUOUS
 62
     5
 10
-333.90000000000009
 20
70.789216817000124
 30
0.0
 40
8.0
 50
150.0000000000027
 51
209.99999999999719
  0
ARC
  8
DETAIL
  6
CONTINUOUS
 62
     5
 10
-330.80000000000018
 20
-76.099999999999909
 30
0.0
 40
7.7999999999999998
 50
180.0
 51
270.0
  0
ARC
  8
DETAIL
  6
CONTINUOUS
 62
     5
 10
-330.80000000000018
 20
76.099999999999909
 30
0.0
 40
7.7999999999999998
 50
90.0
 51
180.0
  0
ARC
  8
DETAIL
  6
CONTINUOUS
 62
     5
 10
-296.87750000000011
 20
-74.217439319199912
 30
0.0
 40
6.5225
 50
140.43334259011351
 51
226.10260183290981
  0
ARC
  8
DETAIL
  6
CONTINUOUS
 62
     5
 10
-341.80000000000018
 20
-22.0
 30
0.0
 40
3.7999999999999998
 50
180.0
 51
270.0
  0
ARC
  8
DETAIL
  6
CONTINUOUS
 62
     5
 10
-341.80000000000018
 20
22.0
 30
0.0
 40
3.7999999999999998
 50
90.0
 51
180.0
  0
ARC
  8
DETAIL
  6
CONTINUOUS
 62
     5
 10
-6.4000000000000909
 20
-283.92334059720002
 30
0.0
 40
3.6000000000000001
 50
180.0
 51
270.0
  0
ARC
  8
DETAIL
  6
CONTINUOUS
 62
     5
 10
-6.4000000000000909
 20
-347.89999999999958
 30
0.0
 40
3.6000000000000001
 50
180.0
 51
270.0
  0
ARC
  8
DETAIL
  6
CONTINUOUS
 62
     5
 10
-6.4000000000000909
 20
347.90000000000009
 30
0.0
 40
3.6000000000000001
 50
90.0
 51
180.0
  0
ARC
  8
DETAIL
  6
CONTINUOUS
 62
     5
 10
-6.4000000000000909
 20
283.92334059709992
 30
0.0
 40
3.6000000000000001
 50
90.0
 51
180.0
  0
ARC
  8
DETAIL
  6
CONTINUOUS
 62
     5
 10
-16.400000000000091
 20
337.90000000000009
 30
0.0
 40
3.6000000000000001
 50
90.0
 51
180.0
  0
ARC
  8
DETAIL
  6
CONTINUOUS
 62
     5
 10
-16.400000000000091
 20
-337.89999999999958
 30
0.0
 40
3.6000000000000001
 50
180.0
 51
270.0
  0
ARC
  8
DETAIL
  6
CONTINUOUS
 62
     5
 10
-16.400000000000091
 20
-242.20404050719981
 30
0.0
 40
3.6000000000000001
 50
180.0
 51
270.0
  0
ARC
  8
DETAIL
  6
CONTINUOUS
 62
     5
 10
-16.400000000000091
 20
242.20404050710019
 30
0.0
 40
3.6000000000000001
 50
90.0
 51
180.0
  0
ARC
  8
DETAIL
  6
CONTINUOUS
 62
     5
 10
-13.0
 20
248.8040405070999
 30
0.0
 40
3.0
 50
270.0
 51
0.0
  0
ARC
  8
DETAIL
  6
CONTINUOUS
 62
     5
 10
-13.0
 20
-248.8040405071998
 30
0.0
 40
3.0
 50
0.0
 51
90.0
  0
ARC
  8
DETAIL
  6
CONTINUOUS
 62
     5
 10
-338.90000000000009
 20
-30.5
 30
0.0
 40
2.7000000000000002
 50
180.0
 51
270.0
  0
ARC
  8
DETAIL
  6
CONTINUOUS
 62
     5
 10
-338.90000000000009
 20
30.5
 30
0.0
 40
2.7000000000000002
 50
90.0
 51
180.0
  0
ARC
  8
DETAIL
  6
CONTINUOUS
 62
     5
 10
-186.0
 20
-86.200000000000045
 30
0.0
 40
2.2999999999999998
 50
90.0
 51
180.0
  0
ARC
  8
DETAIL
  6
CONTINUOUS
 62
     5
 10
-186.0
 20
86.200000000000045
 30
0.0
 40
2.2999999999999998
 50
180.0
 51
270.0
  0
ARC
  8
DETAIL
  6
CONTINUOUS
 62
     5
 10
-303.20000000000027
 20
-86.200000000000045
 30
0.0
 40
2.2999999999999998
 50
0.0
 51
90.0
  0
ARC
  8
DETAIL
  6
CONTINUOUS
 62
     5
 10
-303.20000000000027
 20
86.200000000000045
 30
0.0
 40
2.2999999999999998
 50
270.0
 51
0.0
  0
ARC
  8
DETAIL
  6
CONTINUOUS
 62
     5
 10
-173.0
 20
-310.0
 30
0.0
 40
2.0
 50
180.0
 51
0.0
  0
ARC
  8
DETAIL
  6
CONTINUOUS
 62
     5
 10
-1.5
 20
-353.0
 30
0.0
 40
1.5
 50
180.0
 51
0.0
  0
ARC
  8
DETAIL
  6
CONTINUOUS
 62
     5
 10
-1.5
 20
353.0
 30
0.0
 40
1.5
 50
0.0
 51
180.0
  0
ARC
  8
DETAIL
  6
CONTINUOUS
 62
     5
 10
-339.96217782650052
 20
67.289216817000124
 30
0.0
 40
1.0
 50
209.99999999999719
 51
270.0
  0
ARC
  8
DETAIL
  6
CONTINUOUS
 62
     5
 10
-339.96217782650052
 20
74.289216817000124
 30
0.0
 40
1.0
 50
90.0
 51
150.0000000000027
  0
ARC
  8
DETAIL
  6
CONTINUOUS
 62
     5
 10
262.62970370443651
 20
-648.3157344971529
 30
0.0
 40
514.26746136780855
 50
134.8407213617966
 51
134.99806115513451
  0
ARC
  8
DETAIL
  6
CONTINUOUS
 62
     5
 10
-136.83050647263369
 20
-323.10274579785607
 30
0.0
 40
54.996584107879897
 50
44.34495456205962
 51
45.816262920947302
  0
ARC
  8
DETAIL
  6
CONTINUOUS
 62
     5
 10
-307.91768395739541
 20
-80.709523260779633
 30
0.0
 40
5.6677731549920418
 50
275.18517282569212
 51
309.70149560872301
  0
ARC
  8
DETAIL
  6
CONTINUOUS
 62
     5
 10
-326.23879204306292
 20
-81.088099639905977
 30
0.0
 40
5.2779452837889718
 50
228.98007149573201
 51
266.13127102099247
  0
ARC
  8
DETAIL
  6
CONTINUOUS
 62
     5
 10
-271.05042148598892
 20
-49.3498802209524
 30
0.0
 40
45.730206047673121
 50
208.19551393300409
 51
219.95262219780849
  0
ARC
  8
DETAIL
  6
CONTINUOUS
 62
     5
 10
-303.31862015537081
 20
-77.884426764115233
 30
0.0
 40
2.9087804073589241
 50
196.6057784470955
 51
250.34136180038789
  0
ARC
  8
DETAIL
  6
CONTINUOUS
 62
     5
 10
-348.25287672318058
 20
-61.225096930491873
 30
0.0
 40
26.840436116127002
 50
313.7191084072295
 51
319.33375134527182
  0
ARC
  8
DETAIL
  6
CONTINUOUS
 62
     5
 10
-354.80124844985812
 20
-54.861337621700841
 30
0.0
 40
35.958807929157871
 50
318.44179218245853
 51
333.41007168672832
  0
ARC
  8
DETAIL
  6
CONTINUOUS
 62
     5
 10
-348.68874680565767
 20
-62.587131304097973
 30
0.0
 40
27.550110298143
 50
313.56219384796941
 51
319.34081908206667
  0
ARC
  8
DETAIL
  6
CONTINUOUS
 62
     5
 10
-353.83686456024361
 20
-57.201354452133501
 30
0.0
 40
34.972260316940613
 50
318.14255328398389
 51
333.11083278826749
  0
ARC
  8
DETAIL
  6
CONTINUOUS
 62
     5
 10
-270.79837853947203
 20
-50.795577857888702
 30
0.0
 40
46.24526327770932
 50
208.7204575732512
 51
220.02615635451011
  0
ARC
  8
DETAIL
  6
CONTINUOUS
 62
     5
 10
-303.26722033910482
 20
-79.655614328869888
 30
0.0
 40
3.0728177082273871
 50
196.6807018583454
 51
250.4162852116394
  0
ARC
  8
DETAIL
  6
CONTINUOUS
 62
     5
 10
-7.8719273630449607
 20
-289.52218656213222
 30
0.0
 40
2.1280995669056888
 50
180.28824374828019
 51
211.66188718865061
  0
ARC
  8
DETAIL
  6
CONTINUOUS
 62
     5
 10
-7.5065886854663404
 20
-289.30376271512159
 30
0.0
 40
2.553720011597755
 50
211.53053279760971
 51
230.77956327346689
  0
ARC
  8
DETAIL
  6
CONTINUOUS
 62
     5
 10
-7.187698458515797
 20
-288.91646571058999
 30
0.0
 40
3.0554032246158398
 50
230.73905414046831
 51
247.81040251715419
  0
ARC
  8
DETAIL
  6
CONTINUOUS
 62
     5
 10
-7.9262650218479394
 20
-291.05086249052761
 30
0.0
 40
0.8094281556180732
 50
239.12466129546951
 51
261.43515370166273
  0
ARC
  8
DETAIL
  6
CONTINUOUS
 62
     5
 10
-7.6645055512262843
 20
-300.04028282670367
 30
0.0
 40
7.7112793911228543
 50
52.748637275980947
 51
67.760096794722685
  0
ARC
  8
DETAIL
  6
CONTINUOUS
 62
     5
 10
-5.7843374452888838
 20
-294.63946883956021
 30
0.0
 40
2.023570388851617
 50
59.124661295212583
 51
81.435153701412148
  0
ARC
  8
DETAIL
  6
CONTINUOUS
 62
     5
 10
-9.1798184076128564
 20
-289.50612755708062
 30
0.0
 40
5.3202489172642684
 50
180.28824374828019
 51
211.66188718865061
  0
ARC
  8
DETAIL
  6
CONTINUOUS
 62
     5
 10
-8.2664717136619856
 20
-288.9600679395503
 30
0.0
 40
6.384300028999875
 50
211.5305327976165
 51
230.77956327345271
  0
ARC
  8
DETAIL
  6
CONTINUOUS
 62
     5
 10
-7.4692461462905158
 20
-287.99182542822632
 30
0.0
 40
7.6385080615379186
 50
230.73905414046831
 51
247.8104025171688
  0
ARC
  8
DETAIL
  6
CONTINUOUS
 62
     5
 10
-9.3156625546207579
 20
-293.32781737807159
 30
0.0
 40
2.0235703890428041
 50
239.12466129545501
 51
261.43515370168939
  0
ARC
  8
DETAIL
  6
CONTINUOUS
 62
     5
 10
-7.2280726369551758
 20
-298.44509965566789
 30
0.0
 40
2.128099566905667
 50
0.2882437482931762
 51
31.66188718865067
  0
ARC
  8
DETAIL
  6
CONTINUOUS
 62
     5
 10
-7.5934113145340234
 20
-298.66352350267857
 30
0.0
 40
2.5537200115978291
 50
31.530532797609709
 51
50.779563273462777
  0
ARC
  8
DETAIL
  6
CONTINUOUS
 62
     5
 10
-7.9123015414845668
 20
-299.05082050721012
 30
0.0
 40
3.05540322461583
 50
50.739054140468347
 51
67.810402517154245
  0
ARC
  8
DETAIL
  6
CONTINUOUS
 62
     5
 10
-7.1737349781158173
 20
-296.91642372720412
 30
0.0
 40
0.8094281555405821
 50
59.124661295212583
 51
81.435153701412148
  0
ARC
  8
DETAIL
  6
CONTINUOUS
 62
     5
 10
-7.9487012465369844
 20
300.67762965861681
 30
0.0
 40
8.4088044994454059
 50
287.05155685365662
 51
292.38862814868861
  0
ARC
  8
DETAIL
  6
CONTINUOUS
 62
     5
 10
-7.2011654145599104
 20
299.22946228114728
 30
0.0
 40
6.7865069603793824
 50
291.20995877575922
 51
308.28130715246448
  0
ARC
  8
DETAIL
  6
CONTINUOUS
 62
     5
 10
-7.0605195013856701
 20
288.63559816283441
 30
0.0
 40
3.3635217997770162
 50
107.0515568541757
 51
112.3886281486886
  0
ARC
  8
DETAIL
  6
CONTINUOUS
 62
     5
 10
-7.187698458515797
 20
288.91646571049017
 30
0.0
 40
3.0554032246158398
 50
112.1895974828458
 51
129.26094585953169
  0
ARC
  8
DETAIL
  6
CONTINUOUS
 62
     5
 10
-7.5065886854663404
 20
289.30376271502178
 30
0.0
 40
2.553720011597755
 50
129.22043672653311
 51
148.46946720239029
  0
ARC
  8
DETAIL
  6
CONTINUOUS
 62
     5
 10
-7.8719273630449607
 20
289.5221865620324
 30
0.0
 40
2.1280995669056901
 50
148.33811281134939
 51
179.71175625171989
  0
ARC
  8
DETAIL
  6
CONTINUOUS
 62
     5
 10
-7.151298753487481
 20
287.28965655904949
 30
0.0
 40
8.4088044993752433
 50
107.05155685414699
 51
112.38862814870311
  0
ARC
  8
DETAIL
  6
CONTINUOUS
 62
     5
 10
-7.4692461462905158
 20
287.9918254281265
 30
0.0
 40
7.6385080615379186
 50
112.1895974828312
 51
129.26094585953169
  0
ARC
  8
DETAIL
  6
CONTINUOUS
 62
     5
 10
-8.2664717136619856
 20
288.96006793945048
 30
0.0
 40
6.384300028999875
 50
129.22043672654729
 51
148.4694672023835
  0
ARC
  8
DETAIL
  6
CONTINUOUS
 62
     5
 10
-9.1798184076128564
 20
289.5061275569808
 30
0.0
 40
5.3202489172642684
 50
148.33811281134939
 51
179.71175625171989
  0
ARC
  8
DETAIL
  6
CONTINUOUS
 62
     5
 10
-8.0394804986001418
 20
299.33168805472502
 30
0.0
 40
3.3635217997339328
 50
287.05155685362979
 51
292.3886281487176
  0
ARC
  8
DETAIL
  6
CONTINUOUS
 62
     5
 10
-7.912301541482293
 20
299.05082050710621
 30
0.0
 40
3.0554032246114531
 50
292.18959748283118
 51
309.26094585955002
  0
ARC
  8
DETAIL
  6
CONTINUOUS
 62
     5
 10
-7.5934113145340234
 20
298.66352350257853
 30
0.0
 40
2.5537200115978278
 50
309.22043672653717
 51
328.46946720239032
  0
ARC
  8
DETAIL
  6
CONTINUOUS
 62
     5
 10
-7.2280726369551758
 20
298.4450996555679
 30
0.0
 40
2.128099566905667
 50
328.33811281134928
 51
359.71175625170679
  0
LINE
  8
OUTLINE
  6
CONTINUOUS
 62
     3
 10
-3.0000000000004552
 20
-351.5
 30
0.0
 11
-6.4000000000000909
 21
-351.5
 31
0.0
  0
LINE
  8
OUTLINE
  6
CONTINUOUS
 62
     3
 10
-13.867637334200939
 20
-341.5
 30
0.0
 11
-16.400000000000091
 21
-341.5
 31
0.0
  0
LINE
  8
OUTLINE
  6
CONTINUOUS
 62
     3
 10
-39.473319506800642
 20
-311.76445987929992
 30
0.0
 11
-45.39399977920084
 21
-311.76445987929992
 31
0.0
  0
LINE
  8
OUTLINE
  6
CONTINUOUS
 62
     3
 10
-45.39399977920084
 20
-311.76445987929992
 30
0.0
 11
-164.60000000000079
 21
-311.76445987929992
 31
0.0
  0
LINE
  8
OUTLINE
  6
CONTINUOUS
 62
     3
 10
-0.0000000000004547
 20
-353.0
 30
0.0
 11
-0.0000000000004547
 21
353.0
 31
0.0
  0
LINE
  8
OUTLINE
  6
CONTINUOUS
 62
     3
 10
-3.0000000000004552
 20
-353.0
 30
0.0
 11
-3.0000000000004552
 21
-351.5
 31
0.0
  0
LINE
  8
OUTLINE
  6
CONTINUOUS
 62
     3
 10
-10.000000000000449
 20
-347.89999999999958
 30
0.0
 11
-10.000000000000449
 21
-344.6947605739997
 31
0.0
  0
LINE
  8
OUTLINE
  6
CONTINUOUS
 62
     3
 10
-10.000000000000449
 20
344.69476057390011
 30
0.0
 11
-10.000000000000449
 21
347.90000000000009
 31
0.0
  0
LINE
  8
OUTLINE
  6
CONTINUOUS
 62
     3
 10
-20.000000000000451
 20
-337.89999999999958
 30
0.0
 11
-20.000000000000451
 21
-333.5
 31
0.0
  0
LINE
  8
OUTLINE
  6
CONTINUOUS
 62
     3
 10
-20.000000000000451
 20
311.76445987919988
 30
0.0
 11
-20.000000000000451
 21
337.90000000000009
 31
0.0
  0
LINE
  8
OUTLINE
  6
CONTINUOUS
 62
     3
 10
-39.473319506925243
 20
-311.76445987930009
 30
0.0
 11
-39.188243975600471
 21
-311.89360678079998
 31
0.0
  0
LINE
  8
OUTLINE
  6
CONTINUOUS
 62
     3
 10
-39.188243975600471
 20
-311.89360678079998
 30
0.0
 11
-38.857914485100537
 21
-312.04554412690021
 31
0.0
  0
LINE
  8
OUTLINE
  6
CONTINUOUS
 62
     3
 10
-38.857914485100537
 20
-312.04554412690021
 30
0.0
 11
-38.529934263900493
 21
-312.19870741860012
 31
0.0
  0
LINE
  8
OUTLINE
  6
CONTINUOUS
 62
     3
 10
-38.529934263900493
 20
-312.19870741860012
 30
0.0
 11
-38.204324072700267
 21
-312.3530882977999
 31
0.0
  0
LINE
  8
OUTLINE
  6
CONTINUOUS
 62
     3
 10
-38.204324072700267
 20
-312.3530882977999
 30
0.0
 11
-37.881104672200763
 21
-312.50867840639978
 31
0.0
  0
LINE
  8
OUTLINE
  6
CONTINUOUS
 62
     3
 10
-37.881104672200763
 20
-312.50867840639978
 30
0.0
 11
-37.560296823100998
 21
-312.66546938619979
 31
0.0
  0
LINE
  8
OUTLINE
  6
CONTINUOUS
 62
     3
 10
-37.560296823100998
 20
-312.66546938619979
 30
0.0
 11
-37.241921286100023
 21
-312.823452879
 31
0.0
  0
LINE
  8
OUTLINE
  6
CONTINUOUS
 62
     3
 10
-37.241921286100023
 20
-312.823452879
 30
0.0
 11
-36.925998000700467
 21
-312.98262002910008
 31
0.0
  0
LINE
  8
OUTLINE
  6
CONTINUOUS
 62
     3
 10
-36.925998000700467
 20
-312.98262002910008
 30
0.0
 11
-36.612543621500208
 21
-313.14295998909978
 31
0.0
  0
LINE
  8
OUTLINE
  6
CONTINUOUS
 62
     3
 10
-36.612543621500208
 20
-313.14295998909978
 30
0.0
 11
-36.301573981900667
 21
-313.30446141379991
 31
0.0
  0
LINE
  8
OUTLINE
  6
CONTINUOUS
 62
     3
 10
-36.301573981900667
 20
-313.30446141379991
 30
0.0
 11
-35.99310491550068
 21
-313.46711295829982
 31
0.0
  0
LINE
  8
OUTLINE
  6
CONTINUOUS
 62
     3
 10
-35.99310491550068
 20
-313.46711295829982
 30
0.0
 11
-35.687152255500678
 21
-313.63090327740002
 31
0.0
  0
LINE
  8
OUTLINE
  6
CONTINUOUS
 62
     3
 10
-35.687152255500678
 20
-313.63090327740002
 30
0.0
 11
-35.383731835600429
 21
-313.795821026
 31
0.0
  0
LINE
  8
OUTLINE
  6
CONTINUOUS
 62
     3
 10
-35.383731835600429
 20
-313.795821026
 30
0.0
 11
-35.082859489100429
 21
-313.96185485909967
 31
0.0
  0
LINE
  8
OUTLINE
  6
CONTINUOUS
 62
     3
 10
-35.082859489100429
 20
-313.96185485909967
 30
0.0
 11
-34.784551049400307
 21
-314.12899343159961
 31
0.0
  0
LINE
  8
OUTLINE
  6
CONTINUOUS
 62
     3
 10
-34.784551049400307
 20
-314.12899343159961
 30
0.0
 11
-34.488822350100691
 21
-314.29722539829982
 31
0.0
  0
LINE
  8
OUTLINE
  6
CONTINUOUS
 62
     3
 10
-34.488822350100691
 20
-314.29722539829982
 30
0.0
 11
-34.195689224400212
 21
-314.46653941419981
 31
0.0
  0
LINE
  8
OUTLINE
  6
CONTINUOUS
 62
     3
 10
-34.195689224400212
 20
-314.46653941419981
 30
0.0
 11
-33.905167506000453
 21
-314.63692413420011
 31
0.0
  0
LINE
  8
OUTLINE
  6
CONTINUOUS
 62
     3
 10
-33.905167506000453
 20
-314.63692413420011
 30
0.0
 11
-33.617273028200088
 21
-314.80836821319963
 31
0.0
  0
LINE
  8
OUTLINE
  6
CONTINUOUS
 62
     3
 10
-33.617273028200088
 20
-314.80836821319963
 30
0.0
 11
-33.332021624400568
 21
-314.98086030619982
 31
0.0
  0
LINE
  8
OUTLINE
  6
CONTINUOUS
 62
     3
 10
-33.332021624400568
 20
-314.98086030619982
 30
0.0
 11
-33.049429128100662
 21
-315.15438906790018
 31
0.0
  0
LINE
  8
OUTLINE
  6
CONTINUOUS
 62
     3
 10
-33.049429128100662
 20
-315.15438906790018
 30
0.0
 11
-32.769511372800032
 21
-315.32894315340002
 31
0.0
  0
LINE
  8
OUTLINE
  6
CONTINUOUS
 62
     3
 10
-32.769511372800032
 20
-315.32894315340002
 30
0.0
 11
-32.492284191800081
 21
-315.5045112176
 31
0.0
  0
LINE
  8
OUTLINE
  6
CONTINUOUS
 62
     3
 10
-32.492284191800081
 20
-315.5045112176
 30
0.0
 11
-32.217763418700542
 21
-315.68108191529973
 31
0.0
  0
LINE
  8
OUTLINE
  6
CONTINUOUS
 62
     3
 10
-32.217763418700542
 20
-315.68108191529973
 30
0.0
 11
-31.945964886800081
 21
-315.85864390149982
 31
0.0
  0
LINE
  8
OUTLINE
  6
CONTINUOUS
 62
     3
 10
-31.945964886800081
 20
-315.85864390149982
 30
0.0
 11
-31.676904429600199
 21
-316.03718583100022
 31
0.0
  0
LINE
  8
OUTLINE
  6
CONTINUOUS
 62
     3
 10
-31.676904429600199
 20
-316.03718583100022
 30
0.0
 11
-31.410597880600559
 21
-316.21669635889998
 31
0.0
  0
LINE
  8
OUTLINE
  6
CONTINUOUS
 62
     3
 10
-31.410597880600559
 20
-316.21669635889998
 30
0.0
 11
-31.147061073100762
 21
-316.39716413989993
 31
0.0
  0
LINE
  8
OUTLINE
  6
CONTINUOUS
 62
     3
 10
-31.147061073100762
 20
-316.39716413989993
 30
0.0
 11
-30.886309840600461
 21
-316.5785778290998
 31
0.0
  0
LINE
  8
OUTLINE
  6
CONTINUOUS
 62
     3
 10
-30.886309840600461
 20
-316.5785778290998
 30
0.0
 11
-30.628360016600251
 21
-316.76092608129977
 31
0.0
  0
LINE
  8
OUTLINE
  6
CONTINUOUS
 62
     3
 10
-30.628360016600251
 20
-316.76092608129977
 30
0.0
 11
-30.373227434500681
 21
-316.94419755149988
 31
0.0
  0
LINE
  8
OUTLINE
  6
CONTINUOUS
 62
     3
 10
-30.373227434500681
 20
-316.94419755149988
 30
0.0
 11
-30.12092792770045
 21
-317.12838089450003
 31
0.0
  0
LINE
  8
OUTLINE
  6
CONTINUOUS
 62
     3
 10
-30.12092792770045
 20
-317.12838089450003
 30
0.0
 11
-29.871477329700159
 21
-317.31346476519968
 31
0.0
  0
LINE
  8
OUTLINE
  6
CONTINUOUS
 62
     3
 10
-29.871477329700159
 20
-317.31346476519968
 30
0.0
 11
-29.62489147390033
 21
-317.49943781859997
 31
0.0
  0
LINE
  8
OUTLINE
  6
CONTINUOUS
 62
     3
 10
-29.62489147390033
 20
-317.49943781859997
 30
0.0
 11
-29.381186193800659
 21
-317.68628870959992
 31
0.0
  0
LINE
  8
OUTLINE
  6
CONTINUOUS
 62
     3
 10
-29.381186193800659
 20
-317.68628870959992
 30
0.0
 11
-29.140377322800759
 21
-317.87400609309998
 31
0.0
  0
LINE
  8
OUTLINE
  6
CONTINUOUS
 62
     3
 10
-29.140377322800759
 20
-317.87400609309998
 30
0.0
 11
-28.902480694300269
 21
-318.06257862399991
 31
0.0
  0
LINE
  8
OUTLINE
  6
CONTINUOUS
 62
     3
 10
-28.902480694300269
 20
-318.06257862399991
 30
0.0
 11
-28.667512141800671
 21
-318.25199495719983
 31
0.0
  0
LINE
  8
OUTLINE
  6
CONTINUOUS
 62
     3
 10
-28.667512141800671
 20
-318.25199495719983
 30
0.0
 11
-28.435487498600651
 21
-318.44224374769988
 31
0.0
  0
LINE
  8
OUTLINE
  6
CONTINUOUS
 62
     3
 10
-28.435487498600651
 20
-318.44224374769988
 30
0.0
 11
-28.206422598400881
 21
-318.63331365020008
 31
0.0
  0
LINE
  8
OUTLINE
  6
CONTINUOUS
 62
     3
 10
-28.206422598400881
 20
-318.63331365020008
 30
0.0
 11
-27.980333274399982
 21
-318.82519331980012
 31
0.0
  0
LINE
  8
OUTLINE
  6
CONTINUOUS
 62
     3
 10
-27.980333274399982
 20
-318.82519331980012
 30
0.0
 11
-27.757235311300519
 21
-319.01787139790008
 31
0.0
  0
LINE
  8
OUTLINE
  6
CONTINUOUS
 62
     3
 10
-27.757235311300519
 20
-319.01787139790008
 30
0.0
 11
-27.537141559200339
 21
-319.2113357116001
 31
0.0
  0
LINE
  8
OUTLINE
  6
CONTINUOUS
 62
     3
 10
-27.537141559200339
 20
-319.2113357116001
 30
0.0
 11
-27.320060320100769
 21
-319.40557282660012
 31
0.0
  0
LINE
  8
OUTLINE
  6
CONTINUOUS
 62
     3
 10
-27.320060320100769
 20
-319.40557282660012
 30
0.0
 11
-27.105999504800369
 21
-319.60056920009993
 31
0.0
  0
LINE
  8
OUTLINE
  6
CONTINUOUS
 62
     3
 10
-27.105999504800369
 20
-319.60056920009993
 30
0.0
 11
-26.89496702400038
 21
-319.79631128899968
 31
0.0
  0
LINE
  8
OUTLINE
  6
CONTINUOUS
 62
     3
 10
-26.89496702400038
 20
-319.79631128899968
 30
0.0
 11
-26.686970788400231
 21
-319.99278555039967
 31
0.0
  0
LINE
  8
OUTLINE
  6
CONTINUOUS
 62
     3
 10
-26.686970788400231
 20
-319.99278555039967
 30
0.0
 11
-26.482018708900341
 21
-320.18997844140011
 31
0.0
  0
LINE
  8
OUTLINE
  6
CONTINUOUS
 62
     3
 10
-26.482018708900341
 20
-320.18997844140011
 30
0.0
 11
-26.280118696100089
 21
-320.38787641900001
 31
0.0
  0
LINE
  8
OUTLINE
  6
CONTINUOUS
 62
     3
 10
-26.280118696100089
 20
-320.38787641900001
 30
0.0
 11
-26.081278660800759
 21
-320.58646594039988
 31
0.0
  0
LINE
  8
OUTLINE
  6
CONTINUOUS
 62
     3
 10
-26.081278660800759
 20
-320.58646594039988
 30
0.0
 11
-25.88550651380001
 21
-320.78573346249971
 31
0.0
  0
LINE
  8
OUTLINE
  6
CONTINUOUS
 62
     3
 10
-25.88550651380001
 20
-320.78573346249971
 30
0.0
 11
-25.69281016579998
 21
-320.98566544249991
 31
0.0
  0
LINE
  8
OUTLINE
  6
CONTINUOUS
 62
     3
 10
-25.69281016579998
 20
-320.98566544249991
 30
0.0
 11
-25.503197527500109
 21
-321.18624833749982
 31
0.0
  0
LINE
  8
OUTLINE
  6
CONTINUOUS
 62
     3
 10
-25.503197527500109
 20
-321.18624833749982
 30
0.0
 11
-25.316676509700759
 21
-321.38746860440028
 31
0.0
  0
LINE
  8
OUTLINE
  6
CONTINUOUS
 62
     3
 10
-25.316676509700759
 20
-321.38746860440028
 30
0.0
 11
-25.13325502310045
 21
-321.58931270030018
 31
0.0
  0
LINE
  8
OUTLINE
  6
CONTINUOUS
 62
     3
 10
-25.13325502310045
 20
-321.58931270030018
 30
0.0
 11
-24.952940978600509
 21
-321.79176708239999
 31
0.0
  0
LINE
  8
OUTLINE
  6
CONTINUOUS
 62
     3
 10
-24.952940978600509
 20
-321.79176708239999
 30
0.0
 11
-24.775742286700279
 21
-321.99481820769972
 31
0.0
  0
LINE
  8
OUTLINE
  6
CONTINUOUS
 62
     3
 10
-24.775742286700279
 20
-321.99481820769972
 30
0.0
 11
-24.601666858300181
 21
-322.1984525332
 31
0.0
  0
LINE
  8
OUTLINE
  6
CONTINUOUS
 62
     3
 10
-24.601666858300181
 20
-322.1984525332
 30
0.0
 11
-24.430722604200579
 21
-322.40265651599998
 31
0.0
  0
LINE
  8
OUTLINE
  6
CONTINUOUS
 62
     3
 10
-24.430722604200579
 20
-322.40265651599998
 30
0.0
 11
-24.262917434999959
 21
-322.60741661319992
 31
0.0
  0
LINE
  8
OUTLINE
  6
CONTINUOUS
 62
     3
 10
-24.262917434999959
 20
-322.60741661319992
 30
0.0
 11
-24.09825926150052
 21
-322.81271928189972
 31
0.0
  0
LINE
  8
OUTLINE
  6
CONTINUOUS
 62
     3
 10
-24.09825926150052
 20
-322.81271928189972
 30
0.0
 11
-23.9367559945008
 21
-323.01855097909993
 31
0.0
  0
LINE
  8
OUTLINE
  6
CONTINUOUS
 62
     3
 10
-23.9367559945008
 20
-323.01855097909993
 30
0.0
 11
-23.778415544700241
 21
-323.22489816179962
 31
0.0
  0
LINE
  8
OUTLINE
  6
CONTINUOUS
 62
     3
 10
-23.778415544700241
 20
-323.22489816179962
 30
0.0
 11
-23.62324582290012
 21
-323.4317472872001
 31
0.0
  0
LINE
  8
OUTLINE
  6
CONTINUOUS
 62
     3
 10
-23.62324582290012
 20
-323.4317472872001
 30
0.0
 11
-23.47125473980077
 21
-323.6390848123998
 31
0.0
  0
LINE
  8
OUTLINE
  6
CONTINUOUS
 62
     3
 10
-23.47125473980077
 20
-323.6390848123998
 30
0.0
 11
-23.322450206100712
 21
-323.84689719429991
 31
0.0
  0
LINE
  8
OUTLINE
  6
CONTINUOUS
 62
     3
 10
-23.322450206100712
 20
-323.84689719429991
 30
0.0
 11
-23.176840132600319
 21
-324.05517088999989
 31
0.0
  0
LINE
  8
OUTLINE
  6
CONTINUOUS
 62
     3
 10
-23.176840132600319
 20
-324.05517088999989
 30
0.0
 11
-23.03443243000083
 21
-324.26389235669973
 31
0.0
  0
LINE
  8
OUTLINE
  6
CONTINUOUS
 62
     3
 10
-23.03443243000083
 20
-324.26389235669973
 30
0.0
 11
-22.89523500920086
 21
-324.4730480513
 31
0.0
  0
LINE
  8
OUTLINE
  6
CONTINUOUS
 62
     3
 10
-22.89523500920086
 20
-324.4730480513
 30
0.0
 11
-22.759255780700641
 21
-324.68262443099968
 31
0.0
  0
LINE
  8
OUTLINE
  6
CONTINUOUS
 62
     3
 10
-22.759255780700641
 20
-324.68262443099968
 30
0.0
 11
-22.626502655500641
 21
-324.89260795280018
 31
0.0
  0
LINE
  8
OUTLINE
  6
CONTINUOUS
 62
     3
 10
-22.626502655500641
 20
-324.89260795280018
 30
0.0
 11
-22.496983544200251
 21
-325.10298507379969
 31
0.0
  0
LINE
  8
OUTLINE
  6
CONTINUOUS
 62
     3
 10
-22.496983544200251
 20
-325.10298507379969
 30
0.0
 11
-22.370706357600739
 21
-325.31374225110011
 31
0.0
  0
LINE
  8
OUTLINE
  6
CONTINUOUS
 62
     3
 10
-22.370706357600739
 20
-325.31374225110011
 30
0.0
 11
-22.247679006400631
 21
-325.52486594159973
 31
0.0
  0
LINE
  8
OUTLINE
  6
CONTINUOUS
 62
     3
 10
-22.247679006400631
 20
-325.52486594159973
 30
0.0
 11
-22.127909401300261
 21
-325.73634260249992
 31
0.0
  0
LINE
  8
OUTLINE
  6
CONTINUOUS
 62
     3
 10
-22.127909401300261
 20
-325.73634260249992
 30
0.0
 11
-22.011405453200041
 21
-325.94815869089962
 31
0.0
  0
LINE
  8
OUTLINE
  6
CONTINUOUS
 62
     3
 10
-22.011405453200041
 20
-325.94815869089962
 30
0.0
 11
-21.89817469870059
 21
-326.16030087479987
 31
0.0
  0
LINE
  8
OUTLINE
  6
CONTINUOUS
 62
     3
 10
-21.89817469870059
 20
-326.16030087479987
 30
0.0
 11
-21.788220325800008
 21
-326.37275827499991
 31
0.0
  0
LINE
  8
OUTLINE
  6
CONTINUOUS
 62
     3
 10
-21.788220325800008
 20
-326.37275827499991
 30
0.0
 11
-21.681542717100001
 21
-326.5855215949997
 31
0.0
  0
LINE
  8
OUTLINE
  6
CONTINUOUS
 62
     3
 10
-21.681542717100001
 20
-326.5855215949997
 30
0.0
 11
-21.57814220840055
 21
-326.7985815643998
 31
0.0
  0
LINE
  8
OUTLINE
  6
CONTINUOUS
 62
     3
 10
-21.57814220840055
 20
-326.7985815643998
 30
0.0
 11
-21.478019135500741
 21
-327.01192891289998
 31
0.0
  0
LINE
  8
OUTLINE
  6
CONTINUOUS
 62
     3
 10
-21.478019135500741
 20
-327.01192891289998
 30
0.0
 11
-21.38117383410054
 21
-327.22555437019997
 31
0.0
  0
LINE
  8
OUTLINE
  6
CONTINUOUS
 62
     3
 10
-21.38117383410054
 20
-327.22555437019997
 30
0.0
 11
-21.28760663990079
 21
-327.43944866610002
 31
0.0
  0
LINE
  8
OUTLINE
  6
CONTINUOUS
 62
     3
 10
-21.28760663990079
 20
-327.43944866610002
 30
0.0
 11
-21.19731788880063
 21
-327.65360253019992
 31
0.0
  0
LINE
  8
OUTLINE
  6
CONTINUOUS
 62
     3
 10
-21.19731788880063
 20
-327.65360253019992
 30
0.0
 11
-21.11030791660005
 21
-327.86800669220003
 31
0.0
  0
LINE
  8
OUTLINE
  6
CONTINUOUS
 62
     3
 10
-21.11030791660005
 20
-327.86800669220003
 30
0.0
 11
-21.026577058900781
 21
-328.08265188190001
 31
0.0
  0
LINE
  8
OUTLINE
  6
CONTINUOUS
 62
     3
 10
-21.026577058900781
 20
-328.08265188190001
 30
0.0
 11
-20.946125651700189
 21
-328.29752882899999
 31
0.0
  0
LINE
  8
OUTLINE
  6
CONTINUOUS
 62
     3
 10
-20.946125651700189
 20
-328.29752882899999
 30
0.0
 11
-20.868954030600889
 21
-328.51262826310011
 31
0.0
  0
LINE
  8
OUTLINE
  6
CONTINUOUS
 62
     3
 10
-20.868954030600889
 20
-328.51262826310011
 30
0.0
 11
-20.795062531400159
 21
-328.72794091399987
 31
0.0
  0
LINE
  8
OUTLINE
  6
CONTINUOUS
 62
     3
 10
-20.795062531400159
 20
-328.72794091399987
 30
0.0
 11
-20.72445148990073
 21
-328.94345751130032
 31
0.0
  0
LINE
  8
OUTLINE
  6
CONTINUOUS
 62
     3
 10
-20.72445148990073
 20
-328.94345751130032
 30
0.0
 11
-20.657121241900771
 21
-329.15916878489998
 31
0.0
  0
LINE
  8
OUTLINE
  6
CONTINUOUS
 62
     3
 10
-20.657121241900771
 20
-329.15916878489998
 30
0.0
 11
-20.593072123100232
 21
-329.37506546430012
 31
0.0
  0
LINE
  8
OUTLINE
  6
CONTINUOUS
 62
     3
 10
-20.593072123100232
 20
-329.37506546430012
 30
0.0
 11
-20.53230446940006
 21
-329.5911382792998
 31
0.0
  0
LINE
  8
OUTLINE
  6
CONTINUOUS
 62
     3
 10
-20.53230446940006
 20
-329.5911382792998
 30
0.0
 11
-20.474818616400171
 21
-329.80737795959988
 31
0.0
  0
LINE
  8
OUTLINE
  6
CONTINUOUS
 62
     3
 10
-20.474818616400171
 20
-329.80737795959988
 30
0.0
 11
-20.420614900000601
 21
-330.02377523490009
 31
0.0
  0
LINE
  8
OUTLINE
  6
CONTINUOUS
 62
     3
 10
-20.420614900000601
 20
-330.02377523490009
 30
0.0
 11
-20.369693655900392
 21
-330.24032083489988
 31
0.0
  0
LINE
  8
OUTLINE
  6
CONTINUOUS
 62
     3
 10
-20.369693655900392
 20
-330.24032083489988
 30
0.0
 11
-20.322055219900449
 21
-330.45700548939988
 31
0.0
  0
LINE
  8
OUTLINE
  6
CONTINUOUS
 62
     3
 10
-20.322055219900449
 20
-330.45700548939988
 30
0.0
 11
-20.277699927900809
 21
-330.67381992789979
 31
0.0
  0
LINE
  8
OUTLINE
  6
CONTINUOUS
 62
     3
 10
-20.277699927900809
 20
-330.67381992789979
 30
0.0
 11
-20.236628115400439
 21
-330.89075488030011
 31
0.0
  0
LINE
  8
OUTLINE
  6
CONTINUOUS
 62
     3
 10
-20.236628115400439
 20
-330.89075488030011
 30
0.0
 11
-20.198840118400309
 21
-331.10780107620002
 31
0.0
  0
LINE
  8
OUTLINE
  6
CONTINUOUS
 62
     3
 10
-20.198840118400309
 20
-331.10780107620002
 30
0.0
 11
-20.164336272600391
 21
-331.32494924529988
 31
0.0
  0
LINE
  8
OUTLINE
  6
CONTINUOUS
 62
     3
 10
-20.164336272600391
 20
-331.32494924529988
 30
0.0
 11
-20.133116913700629
 21
-331.54219011740008
 31
0.0
  0
LINE
  8
OUTLINE
  6
CONTINUOUS
 62
     3
 10
-20.133116913700629
 20
-331.54219011740008
 30
0.0
 11
-20.105182377600158
 21
-331.75951442219969
 31
0.0
  0
LINE
  8
OUTLINE
  6
CONTINUOUS
 62
     3
 10
-20.105182377600158
 20
-331.75951442219969
 30
0.0
 11
-20.080533000000742
 21
-331.97691288919998
 31
0.0
  0
LINE
  8
OUTLINE
  6
CONTINUOUS
 62
     3
 10
-20.080533000000742
 20
-331.97691288919998
 30
0.0
 11
-20.059169116700559
 21
-332.19437624839998
 31
0.0
  0
LINE
  8
OUTLINE
  6
CONTINUOUS
 62
     3
 10
-20.059169116700559
 20
-332.19437624839998
 30
0.0
 11
-20.041091063400469
 21
-332.41189522929972
 31
0.0
  0
LINE
  8
OUTLINE
  6
CONTINUOUS
 62
     3
 10
-20.041091063400469
 20
-332.41189522929972
 30
0.0
 11
-20.026299176000521
 21
-332.62946056170011
 31
0.0
  0
LINE
  8
OUTLINE
  6
CONTINUOUS
 62
     3
 10
-20.026299176000521
 20
-332.62946056170011
 30
0.0
 11
-20.014793790100612
 21
-332.84706297520017
 31
0.0
  0
LINE
  8
OUTLINE
  6
CONTINUOUS
 62
     3
 10
-20.014793790100612
 20
-332.84706297520017
 30
0.0
 11
-20.00657524170083
 21
-333.06469319969972
 31
0.0
  0
LINE
  8
OUTLINE
  6
CONTINUOUS
 62
     3
 10
-20.00657524170083
 20
-333.06469319969972
 30
0.0
 11
-20.001643866400169
 21
-333.28234196469998
 31
0.0
  0
LINE
  8
OUTLINE
  6
CONTINUOUS
 62
     3
 10
-20.001643866400169
 20
-333.28234196469998
 30
0.0
 11
-20.000000000000451
 21
-333.5
 31
0.0
  0
LINE
  8
OUTLINE
  6
CONTINUOUS
 62
     3
 10
-330.50000000000051
 20
-83.899999999999636
 30
0.0
 11
-330.80000000000058
 21
-83.899999999999636
 31
0.0
  0
LINE
  8
OUTLINE
  6
CONTINUOUS
 62
     3
 10
-292.07158408400068
 20
-106.2410596903003
 30
0.0
 11
-289.69489762480089
 21
-106.5829994809003
 31
0.0
  0
LINE
  8
OUTLINE
  6
CONTINUOUS
 62
     3
 10
-289.69489762480089
 20
-106.5829994809003
 30
0.0
 11
-288.51241621909998
 21
-106.7559292861997
 31
0.0
  0
LINE
  8
OUTLINE
  6
CONTINUOUS
 62
     3
 10
-288.51241621909998
 20
-106.7559292861997
 30
0.0
 11
-287.33515636680067
 21
-106.93365658099989
 31
0.0
  0
LINE
  8
OUTLINE
  6
CONTINUOUS
 62
     3
 10
-287.33515636680067
 20
-106.93365658099989
 30
0.0
 11
-286.16410332110041
 21
-107.1187995273001
 31
0.0
  0
LINE
  8
OUTLINE
  6
CONTINUOUS
 62
     3
 10
-286.16410332110041
 20
-107.1187995273001
 30
0.0
 11
-285.00024233500022
 21
-107.31397628729999
 31
0.0
  0
LINE
  8
OUTLINE
  6
CONTINUOUS
 62
     3
 10
-285.00024233500022
 20
-107.31397628729999
 30
0.0
 11
-283.84455866180042
 21
-107.5218050230999
 31
0.0
  0
LINE
  8
OUTLINE
  6
CONTINUOUS
 62
     3
 10
-283.84455866180042
 20
-107.5218050230999
 30
0.0
 11
-283.04519093450062
 21
-107.6725172969002
 31
0.0
  0
LINE
  8
OUTLINE
  6
CONTINUOUS
 62
     3
 10
-283.04519093450062
 20
-107.6725172969002
 30
0.0
 11
-282.23424898820082
 21
-107.82840999279961
 31
0.0
  0
LINE
  8
OUTLINE
  6
CONTINUOUS
 62
     3
 10
-282.23424898820082
 20
-107.82840999279961
 30
0.0
 11
-281.41262410490032
 21
-107.98961273899999
 31
0.0
  0
LINE
  8
OUTLINE
  6
CONTINUOUS
 62
     3
 10
-281.41262410490032
 20
-107.98961273899999
 30
0.0
 11
-280.58120756680051
 21
-108.1562551636998
 31
0.0
  0
LINE
  8
OUTLINE
  6
CONTINUOUS
 62
     3
 10
-280.58120756680051
 20
-108.1562551636998
 30
0.0
 11
-279.74089065610087
 21
-108.3284668947999
 31
0.0
  0
LINE
  8
OUTLINE
  6
CONTINUOUS
 62
     3
 10
-279.74089065610087
 20
-108.3284668947999
 30
0.0
 11
-278.89256465490013
 21
-108.5063775604999
 31
0.0
  0
LINE
  8
OUTLINE
  6
CONTINUOUS
 62
     3
 10
-278.89256465490013
 20
-108.5063775604999
 30
0.0
 11
-278.03712084550028
 21
-108.6901167889
 31
0.0
  0
LINE
  8
OUTLINE
  6
CONTINUOUS
 62
     3
 10
-278.03712084550028
 20
-108.6901167889
 30
0.0
 11
-277.17545051000002
 21
-108.8798142080998
 31
0.0
  0
LINE
  8
OUTLINE
  6
CONTINUOUS
 62
     3
 10
-277.17545051000002
 20
-108.8798142080998
 30
0.0
 11
-276.30844493060022
 21
-109.0755994460999
 31
0.0
  0
LINE
  8
OUTLINE
  6
CONTINUOUS
 62
     3
 10
-276.30844493060022
 20
-109.0755994460999
 30
0.0
 11
-275.43699538940058
 21
-109.27760213110039
 31
0.0
  0
LINE
  8
OUTLINE
  6
CONTINUOUS
 62
     3
 10
-275.43699538940058
 20
-109.27760213110039
 30
0.0
 11
-274.56199316870021
 21
-109.4859518912001
 31
0.0
  0
LINE
  8
OUTLINE
  6
CONTINUOUS
 62
     3
 10
-274.56199316870021
 20
-109.4859518912001
 30
0.0
 11
-273.68432955050002
 21
-109.7007783544002
 31
0.0
  0
LINE
  8
OUTLINE
  6
CONTINUOUS
 62
     3
 10
-273.68432955050002
 20
-109.7007783544002
 30
0.0
 11
-272.80489581710071
 21
-109.92221114889981
 31
0.0
  0
LINE
  8
OUTLINE
  6
CONTINUOUS
 62
     3
 10
-272.80489581710071
 20
-109.92221114889981
 30
0.0
 11
-271.92458325070078
 21
-110.1503799026998
 31
0.0
  0
LINE
  8
OUTLINE
  6
CONTINUOUS
 62
     3
 10
-271.92458325070078
 20
-110.1503799026998
 30
0.0
 11
-271.04428313340082
 21
-110.3854142439998
 31
0.0
  0
LINE
  8
OUTLINE
  6
CONTINUOUS
 62
     3
 10
-271.04428313340082
 20
-110.3854142439998
 30
0.0
 11
-270.16488674740089
 21
-110.62744380080019
 31
0.0
  0
LINE
  8
OUTLINE
  6
CONTINUOUS
 62
     3
 10
-270.16488674740089
 20
-110.62744380080019
 30
0.0
 11
-269.28728537480077
 21
-110.8765982012003
 31
0.0
  0
LINE
  8
OUTLINE
  6
CONTINUOUS
 62
     3
 10
-269.28728537480077
 20
-110.8765982012003
 30
0.0
 11
-268.41237029790091
 21
-111.13300707339999
 31
0.0
  0
LINE
  8
OUTLINE
  6
CONTINUOUS
 62
     3
 10
-268.41237029790091
 20
-111.13300707339999
 30
0.0
 11
-267.54103279880042
 21
-111.3968000452999
 31
0.0
  0
LINE
  8
OUTLINE
  6
CONTINUOUS
 62
     3
 10
-267.54103279880042
 20
-111.3968000452999
 30
0.0
 11
-266.67416415970052
 21
-111.66810674520001
 31
0.0
  0
LINE
  8
OUTLINE
  6
CONTINUOUS
 62
     3
 10
-266.67416415970052
 20
-111.66810674520001
 30
0.0
 11
-265.76495779150042
 21
-111.9627686091999
 31
0.0
  0
LINE
  8
OUTLINE
  6
CONTINUOUS
 62
     3
 10
-265.76495779150042
 20
-111.9627686091999
 30
0.0
 11
-264.8628683972006
 21
-112.2659726837999
 31
0.0
  0
LINE
  8
OUTLINE
  6
CONTINUOUS
 62
     3
 10
-264.8628683972006
 20
-112.2659726837999
 30
0.0
 11
-263.96904033279998
 21
-112.57774445689979
 31
0.0
  0
LINE
  8
OUTLINE
  6
CONTINUOUS
 62
     3
 10
-263.96904033279998
 20
-112.57774445689979
 30
0.0
 11
-263.08461795430088
 21
-112.8981094159999
 31
0.0
  0
LINE
  8
OUTLINE
  6
CONTINUOUS
 62
     3
 10
-263.08461795430088
 20
-112.8981094159999
 30
0.0
 11
-262.21074561750038
 21
-113.22709304909949
 31
0.0
  0
LINE
  8
OUTLINE
  6
CONTINUOUS
 62
     3
 10
-262.21074561750038
 20
-113.22709304909949
 30
0.0
 11
-261.34856767860077
 21
-113.56472084379951
 31
0.0
  0
LINE
  8
OUTLINE
  6
CONTINUOUS
 62
     3
 10
-261.34856767860077
 20
-113.56472084379951
 30
0.0
 11
-260.49922849330011
 21
-113.91101828779981
 31
0.0
  0
LINE
  8
OUTLINE
  6
CONTINUOUS
 62
     3
 10
-329.70282096049999
 20
-85.070210898999903
 30
0.0
 11
-330.05098359930031
 21
-84.825209393299701
 31
0.0
  0
LINE
  8
OUTLINE
  6
CONTINUOUS
 62
     3
 10
-330.05098359930031
 20
-84.825209393299701
 30
0.0
 11
-330.29990098540071
 21
-84.558641209399866
 31
0.0
  0
LINE
  8
OUTLINE
  6
CONTINUOUS
 62
     3
 10
-330.29990098540071
 20
-84.558641209399866
 30
0.0
 11
-330.44977418220009
 21
-84.268919504299902
 31
0.0
  0
LINE
  8
OUTLINE
  6
CONTINUOUS
 62
     3
 10
-330.44977418220009
 20
-84.268919504299902
 30
0.0
 11
-330.50000000000051
 21
-83.958252460100084
 31
0.0
  0
LINE
  8
OUTLINE
  6
CONTINUOUS
 62
     3
 10
-319.04746987610042
 20
-91.826876989099674
 30
0.0
 11
-318.56490387610069
 21
-92.682072292799603
 31
0.0
  0
LINE
  8
OUTLINE
  6
CONTINUOUS
 62
     3
 10
-318.56490387610069
 20
-92.682072292799603
 30
0.0
 11
-318.05804718439998
 21
-93.506313489500144
 31
0.0
  0
LINE
  8
OUTLINE
  6
CONTINUOUS
 62
     3
 10
-318.05804718439998
 20
-93.506313489500144
 30
0.0
 11
-317.52762413660048
 21
-94.299418834199969
 31
0.0
  0
LINE
  8
OUTLINE
  6
CONTINUOUS
 62
     3
 10
-317.52762413660048
 20
-94.299418834199969
 30
0.0
 11
-316.97435906800052
 21
-95.061206582199702
 31
0.0
  0
LINE
  8
OUTLINE
  6
CONTINUOUS
 62
     3
 10
-316.97435906800052
 20
-95.061206582199702
 30
0.0
 11
-316.39897631400032
 21
-95.791494988499835
 31
0.0
  0
LINE
  8
OUTLINE
  6
CONTINUOUS
 62
     3
 10
-316.39897631400032
 20
-95.791494988499835
 30
0.0
 11
-315.80220021010018
 21
-96.490102308199766
 31
0.0
  0
LINE
  8
OUTLINE
  6
CONTINUOUS
 62
     3
 10
-315.80220021010018
 20
-96.490102308199766
 30
0.0
 11
-315.18486681980039
 21
-97.156930951899994
 31
0.0
  0
LINE
  8
OUTLINE
  6
CONTINUOUS
 62
     3
 10
-315.18486681980039
 20
-97.156930951899994
 30
0.0
 11
-314.54825911880062
 21
-97.792219951000106
 31
0.0
  0
LINE
  8
OUTLINE
  6
CONTINUOUS
 62
     3
 10
-314.54825911880062
 20
-97.792219951000106
 30
0.0
 11
-313.89377181080039
 21
-98.396292492599969
 31
0.0
  0
LINE
  8
OUTLINE
  6
CONTINUOUS
 62
     3
 10
-313.89377181080039
 20
-98.396292492599969
 30
0.0
 11
-313.22279959970052
 21
-98.969471763399952
 31
0.0
  0
LINE
  8
OUTLINE
  6
CONTINUOUS
 62
     3
 10
-313.22279959970052
 20
-98.969471763399952
 30
0.0
 11
-312.53673718910022
 21
-99.512080950499694
 31
0.0
  0
LINE
  8
OUTLINE
  6
CONTINUOUS
 62
     3
 10
-312.53673718910022
 20
-99.512080950499694
 30
0.0
 11
-311.8369792829003
 21
-100.0244432407999
 31
0.0
  0
LINE
  8
OUTLINE
  6
CONTINUOUS
 62
     3
 10
-311.8369792829003
 20
-100.0244432407999
 30
0.0
 11
-311.12487341120101
 21
-100.50701583690009
 31
0.0
  0
LINE
  8
OUTLINE
  6
CONTINUOUS
 62
     3
 10
-311.12487341120101
 20
-100.50701583690009
 30
0.0
 11
-310.40157840920028
 21
-100.96079200440001
 31
0.0
  0
LINE
  8
OUTLINE
  6
CONTINUOUS
 62
     3
 10
-310.40157840920028
 20
-100.96079200440001
 30
0.0
 11
-309.66820593880078
 21
-101.3868990249
 31
0.0
  0
LINE
  8
OUTLINE
  6
CONTINUOUS
 62
     3
 10
-309.66820593880078
 20
-101.3868990249
 30
0.0
 11
-308.92586766160048
 21
-101.78646417959951
 31
0.0
  0
LINE
  8
OUTLINE
  6
CONTINUOUS
 62
     3
 10
-308.92586766160048
 20
-101.78646417959951
 30
0.0
 11
-308.17567523940079
 21
-102.1606147501
 31
0.0
  0
LINE
  8
OUTLINE
  6
CONTINUOUS
 62
     3
 10
-308.17567523940079
 20
-102.1606147501
 30
0.0
 11
-307.41874033380049
 21
-102.5104780178001
 31
0.0
  0
LINE
  8
OUTLINE
  6
CONTINUOUS
 62
     3
 10
-307.41874033380049
 20
-102.5104780178001
 30
0.0
 11
-306.50291666380008
 21
-102.89990511389991
 31
0.0
  0
LINE
  8
OUTLINE
  6
CONTINUOUS
 62
     3
 10
-306.50291666380008
 20
-102.89990511389991
 30
0.0
 11
-305.57990401310099
 21
-103.25830893609989
 31
0.0
  0
LINE
  8
OUTLINE
  6
CONTINUOUS
 62
     3
 10
-305.57990401310099
 20
-103.25830893609989
 30
0.0
 11
-304.65062178410022
 21
-103.58801664160021
 31
0.0
  0
LINE
  8
OUTLINE
  6
CONTINUOUS
 62
     3
 10
-304.65062178410022
 20
-103.58801664160021
 30
0.0
 11
-303.71598937930088
 21
-103.8913553872999
 31
0.0
  0
LINE
  8
OUTLINE
  6
CONTINUOUS
 62
     3
 10
-303.71598937930088
 20
-103.8913553872999
 30
0.0
 11
-302.77692620100021
 21
-104.1706523301
 31
0.0
  0
LINE
  8
OUTLINE
  6
CONTINUOUS
 62
     3
 10
-302.77692620100021
 20
-104.1706523301
 30
0.0
 11
-301.59810880100082
 21
-104.4893410882996
 31
0.0
  0
LINE
  8
OUTLINE
  6
CONTINUOUS
 62
     3
 10
-301.59810880100082
 20
-104.4893410882996
 30
0.0
 11
-300.41465076610029
 21
-104.77763245919959
 31
0.0
  0
LINE
  8
OUTLINE
  6
CONTINUOUS
 62
     3
 10
-300.41465076610029
 20
-104.77763245919959
 30
0.0
 11
-299.22739797870099
 21
-105.03905819000011
 31
0.0
  0
LINE
  8
OUTLINE
  6
CONTINUOUS
 62
     3
 10
-299.22739797870099
 20
-105.03905819000011
 30
0.0
 11
-298.03719632090042
 21
-105.2771500273
 31
0.0
  0
LINE
  8
OUTLINE
  6
CONTINUOUS
 62
     3
 10
-298.03719632090042
 20
-105.2771500273
 30
0.0
 11
-296.84489167500078
 21
-105.4954397182
 31
0.0
  0
LINE
  8
OUTLINE
  6
CONTINUOUS
 62
     3
 10
-296.84489167500078
 20
-105.4954397182
 30
0.0
 11
-295.65132992320059
 21
-105.69745900949989
 31
0.0
  0
LINE
  8
OUTLINE
  6
CONTINUOUS
 62
     3
 10
-295.65132992320059
 20
-105.69745900949989
 30
0.0
 11
-294.45735694790028
 21
-105.886739648
 31
0.0
  0
LINE
  8
OUTLINE
  6
CONTINUOUS
 62
     3
 10
-294.45735694790028
 20
-105.886739648
 30
0.0
 11
-293.26381863130018
 21
-106.0668133807001
 31
0.0
  0
LINE
  8
OUTLINE
  6
CONTINUOUS
 62
     3
 10
-293.26381863130018
 20
-106.0668133807001
 30
0.0
 11
-292.07158408400068
 21
-106.2410596903003
 31
0.0
  0
LINE
  8
OUTLINE
  6
CONTINUOUS
 62
     3
 10
-320.07797681925831
 20
-89.725660988344998
 30
0.0
 11
-320.03699122180069
 21
-89.818402497699935
 31
0.0
  0
LINE
  8
OUTLINE
  6
CONTINUOUS
 62
     3
 10
-320.03699122180069
 20
-89.818402497699935
 30
0.0
 11
-319.88181887200022
 21
-90.158868705000032
 31
0.0
  0
LINE
  8
OUTLINE
  6
CONTINUOUS
 62
     3
 10
-319.88181887200022
 20
-90.158868705000032
 30
0.0
 11
-319.72283278790059
 21
-90.497114012199745
 31
0.0
  0
LINE
  8
OUTLINE
  6
CONTINUOUS
 62
     3
 10
-319.72283278790059
 20
-90.497114012199745
 30
0.0
 11
-319.55996890780028
 21
-90.833087956699728
 31
0.0
  0
LINE
  8
OUTLINE
  6
CONTINUOUS
 62
     3
 10
-319.55996890780028
 20
-90.833087956699728
 30
0.0
 11
-319.3931631702003
 21
-91.166740075999769
 31
0.0
  0
LINE
  8
OUTLINE
  6
CONTINUOUS
 62
     3
 10
-319.3931631702003
 20
-91.166740075999769
 30
0.0
 11
-319.22235151350083
 21
-91.498019907699927
 31
0.0
  0
LINE
  8
OUTLINE
  6
CONTINUOUS
 62
     3
 10
-319.22235151350083
 20
-91.498019907699927
 30
0.0
 11
-319.04746987610042
 21
-91.826876989099674
 31
0.0
  0
LINE
  8
OUTLINE
  6
CONTINUOUS
 62
     3
 10
-338.90000000000009
 20
-33.199999999999818
 30
0.0
 11
-338.60000000000082
 21
-33.199999999999818
 31
0.0
  0
LINE
  8
OUTLINE
  6
CONTINUOUS
 62
     3
 10
-341.80000000000058
 20
-25.799999999999731
 30
0.0
 11
-341.60000000000082
 21
-25.799999999999731
 31
0.0
  0
LINE
  8
OUTLINE
  6
CONTINUOUS
 62
     3
 10
-260.50000000000051
 20
238.31727585210001
 30
0.0
 11
-260.5
 21
100.86329609169979
 31
0.0
  0
LINE
  8
OUTLINE
  6
CONTINUOUS
 62
     3
 10
-260.50000000000182
 20
-230.14031813307921
 30
0.0
 11
-260.50000000000051
 21
-209.89395926830011
 31
0.0
  0
LINE
  8
OUTLINE
  6
CONTINUOUS
 62
     3
 10
-260.50000000000051
 20
-209.89395926830011
 30
0.0
 11
-260.50000000000051
 21
-128.31143726159959
 31
0.0
  0
LINE
  8
OUTLINE
  6
CONTINUOUS
 62
     3
 10
-260.50000000000051
 20
-128.31143726159959
 30
0.0
 11
-260.50000000000051
 21
-113.91070372466331
 31
0.0
  0
LINE
  8
OUTLINE
  6
CONTINUOUS
 62
     3
 10
-341.80000000000058
 20
25.800000000000178
 30
0.0
 11
-341.60000000000082
 21
25.800000000000178
 31
0.0
  0
LINE
  8
OUTLINE
  6
CONTINUOUS
 62
     3
 10
-338.90000000000009
 20
33.199999999999818
 30
0.0
 11
-338.60000000000082
 21
33.199999999999818
 31
0.0
  0
LINE
  8
OUTLINE
  6
CONTINUOUS
 62
     3
 10
-298.60000000000042
 20
87.653415357299991
 30
0.0
 11
-298.60000000000082
 21
100.8632700731
 31
0.0
  0
LINE
  8
OUTLINE
  6
CONTINUOUS
 62
     3
 10
-300.90000000000049
 20
86.200000000000045
 30
0.0
 11
-300.90000000000009
 21
87.653363541399813
 31
0.0
  0
LINE
  8
OUTLINE
  6
CONTINUOUS
 62
     3
 10
-303.20000000000027
 20
83.900000000000091
 30
0.0
 11
-330.80000000000058
 21
83.900000000000091
 31
0.0
  0
LINE
  8
OUTLINE
  6
CONTINUOUS
 62
     3
 10
-326.59103909940859
 20
-86.354932010428683
 30
0.0
 11
-326.47480282620057
 21
-86.671743595099542
 31
0.0
  0
LINE
  8
OUTLINE
  6
CONTINUOUS
 62
     3
 10
-326.47480282620057
 20
-86.671743595099542
 30
0.0
 11
-326.25529630350093
 21
-87.079447573599737
 31
0.0
  0
LINE
  8
OUTLINE
  6
CONTINUOUS
 62
     3
 10
-326.25529630350093
 20
-87.079447573599737
 30
0.0
 11
-325.97379636790038
 21
-87.463189955899907
 31
0.0
  0
LINE
  8
OUTLINE
  6
CONTINUOUS
 62
     3
 10
-325.97379636790038
 20
-87.463189955899907
 30
0.0
 11
-325.63453981550037
 21
-87.816352378399642
 31
0.0
  0
LINE
  8
OUTLINE
  6
CONTINUOUS
 62
     3
 10
-325.63453981550037
 20
-87.816352378399642
 30
0.0
 11
-325.24106918680042
 21
-88.13658516849955
 31
0.0
  0
LINE
  8
OUTLINE
  6
CONTINUOUS
 62
     3
 10
-325.24106918680042
 20
-88.13658516849955
 30
0.0
 11
-324.79240704620088
 21
-88.42630111949984
 31
0.0
  0
LINE
  8
OUTLINE
  6
CONTINUOUS
 62
     3
 10
-324.79240704620088
 20
-88.42630111949984
 30
0.0
 11
-324.28754216490012
 21
-88.687533779299883
 31
0.0
  0
LINE
  8
OUTLINE
  6
CONTINUOUS
 62
     3
 10
-324.28754216490012
 20
-88.687533779299883
 30
0.0
 11
-323.71365344730071
 21
-88.926703390299735
 31
0.0
  0
LINE
  8
OUTLINE
  6
CONTINUOUS
 62
     3
 10
-323.71365344730071
 20
-88.926703390299735
 30
0.0
 11
-323.04688478520029
 21
-89.149811595799747
 31
0.0
  0
LINE
  8
OUTLINE
  6
CONTINUOUS
 62
     3
 10
-323.04688478520029
 20
-89.149811595799747
 30
0.0
 11
-322.31005021600089
 21
-89.346415175199581
 31
0.0
  0
LINE
  8
OUTLINE
  6
CONTINUOUS
 62
     3
 10
-322.31005021600089
 20
-89.346415175199581
 30
0.0
 11
-321.53622911130009
 21
-89.510063575800132
 31
0.0
  0
LINE
  8
OUTLINE
  6
CONTINUOUS
 62
     3
 10
-321.53622911130009
 20
-89.510063575800132
 30
0.0
 11
-320.73071639600079
 21
-89.643346140799622
 31
0.0
  0
LINE
  8
OUTLINE
  6
CONTINUOUS
 62
     3
 10
-320.73071639600079
 20
-89.643346140799622
 30
0.0
 11
-320.07729244610027
 21
-89.725747292399774
 31
0.0
  0
LINE
  8
OUTLINE
  6
CONTINUOUS
 62
     3
 10
-330.50000000000051
 20
-83.899999999999636
 30
0.0
 11
-330.50000000000051
 21
-83.958252460100084
 31
0.0
  0
LINE
  8
OUTLINE
  6
CONTINUOUS
 62
     3
 10
-338.59999999999991
 20
76.099999512499835
 30
0.0
 11
-338.60000000000042
 21
33.199999999999818
 31
0.0
  0
LINE
  8
OUTLINE
  6
CONTINUOUS
 62
     3
 10
-341.60000000000082
 20
30.499996277500031
 30
0.0
 11
-341.60000000000082
 21
25.800000000000178
 31
0.0
  0
LINE
  8
OUTLINE
  6
CONTINUOUS
 62
     3
 10
-345.60000000000082
 20
-21.999950830999751
 30
0.0
 11
-345.60000000000082
 21
21.999950830900161
 31
0.0
  0
LINE
  8
OUTLINE
  6
CONTINUOUS
 62
     3
 10
-300.90000000000009
 20
87.653415357299991
 30
0.0
 11
-298.60000000000082
 21
87.653415357299991
 31
0.0
  0
LINE
  8
OUTLINE
  6
CONTINUOUS
 62
     3
 10
-260.50000000000051
 20
100.86329609169979
 30
0.0
 11
-298.60000000000082
 21
100.86329609169979
 31
0.0
  0
LINE
  8
OUTLINE
  6
CONTINUOUS
 62
     3
 10
-39.473319506800642
 20
311.76445987919988
 30
0.0
 11
-39.188243975600471
 21
311.89360678069988
 31
0.0
  0
LINE
  8
OUTLINE
  6
CONTINUOUS
 62
     3
 10
-39.188243975600471
 20
311.89360678069988
 30
0.0
 11
-38.857914485100537
 21
312.0455441268
 31
0.0
  0
LINE
  8
OUTLINE
  6
CONTINUOUS
 62
     3
 10
-38.857914485100537
 20
312.0455441268
 30
0.0
 11
-38.529934263900493
 21
312.19870741849991
 31
0.0
  0
LINE
  8
OUTLINE
  6
CONTINUOUS
 62
     3
 10
-38.529934263900493
 20
312.19870741849991
 30
0.0
 11
-38.204324072700267
 21
312.3530882977002
 31
0.0
  0
LINE
  8
OUTLINE
  6
CONTINUOUS
 62
     3
 10
-38.204324072700267
 20
312.3530882977002
 30
0.0
 11
-37.881104672200763
 21
312.50867840630008
 31
0.0
  0
LINE
  8
OUTLINE
  6
CONTINUOUS
 62
     3
 10
-37.881104672200763
 20
312.50867840630008
 30
0.0
 11
-37.560296823100089
 21
312.66546938610009
 31
0.0
  0
LINE
  8
OUTLINE
  6
CONTINUOUS
 62
     3
 10
-37.560296823100089
 20
312.66546938610009
 30
0.0
 11
-37.241921286100023
 21
312.82345287900029
 31
0.0
  0
LINE
  8
OUTLINE
  6
CONTINUOUS
 62
     3
 10
-37.241921286100023
 20
312.82345287900029
 30
0.0
 11
-36.925998000700467
 21
312.98262002899992
 31
0.0
  0
LINE
  8
OUTLINE
  6
CONTINUOUS
 62
     3
 10
-36.925998000700467
 20
312.98262002899992
 30
0.0
 11
-36.612543621500208
 21
313.14295998900002
 31
0.0
  0
LINE
  8
OUTLINE
  6
CONTINUOUS
 62
     3
 10
-36.612543621500208
 20
313.14295998900002
 30
0.0
 11
-36.301573981900667
 21
313.30446141370021
 31
0.0
  0
LINE
  8
OUTLINE
  6
CONTINUOUS
 62
     3
 10
-36.301573981900667
 20
313.30446141370021
 30
0.0
 11
-35.99310491550068
 21
313.4671129582
 31
0.0
  0
LINE
  8
OUTLINE
  6
CONTINUOUS
 62
     3
 10
-35.99310491550068
 20
313.4671129582
 30
0.0
 11
-35.687152255500678
 21
313.63090327729992
 31
0.0
  0
LINE
  8
OUTLINE
  6
CONTINUOUS
 62
     3
 10
-35.687152255500678
 20
313.63090327729992
 30
0.0
 11
-35.383731835600429
 21
313.7958210259003
 31
0.0
  0
LINE
  8
OUTLINE
  6
CONTINUOUS
 62
     3
 10
-35.383731835600429
 20
313.7958210259003
 30
0.0
 11
-35.082859489100429
 21
313.96185485900008
 31
0.0
  0
LINE
  8
OUTLINE
  6
CONTINUOUS
 62
     3
 10
-35.082859489100429
 20
313.96185485900008
 30
0.0
 11
-34.784551049400307
 21
314.12899343150002
 31
0.0
  0
LINE
  8
OUTLINE
  6
CONTINUOUS
 62
     3
 10
-34.784551049400307
 20
314.12899343150002
 30
0.0
 11
-34.488822350100691
 21
314.2972253982
 31
0.0
  0
LINE
  8
OUTLINE
  6
CONTINUOUS
 62
     3
 10
-34.488822350100691
 20
314.2972253982
 30
0.0
 11
-34.195689224400212
 21
314.4665394141
 31
0.0
  0
LINE
  8
OUTLINE
  6
CONTINUOUS
 62
     3
 10
-34.195689224400212
 20
314.4665394141
 30
0.0
 11
-33.905167506000453
 21
314.6369241340999
 31
0.0
  0
LINE
  8
OUTLINE
  6
CONTINUOUS
 62
     3
 10
-33.905167506000453
 20
314.6369241340999
 30
0.0
 11
-33.617273028200088
 21
314.80836821320008
 31
0.0
  0
LINE
  8
OUTLINE
  6
CONTINUOUS
 62
     3
 10
-33.617273028200088
 20
314.80836821320008
 30
0.0
 11
-33.332021624400568
 21
314.98086030610011
 31
0.0
  0
LINE
  8
OUTLINE
  6
CONTINUOUS
 62
     3
 10
-33.332021624400568
 20
314.98086030610011
 30
0.0
 11
-33.049429128100662
 21
315.15438906780008
 31
0.0
  0
LINE
  8
OUTLINE
  6
CONTINUOUS
 62
     3
 10
-33.049429128100662
 20
315.15438906780008
 30
0.0
 11
-32.769511372800032
 21
315.32894315330009
 31
0.0
  0
LINE
  8
OUTLINE
  6
CONTINUOUS
 62
     3
 10
-32.769511372800032
 20
315.32894315330009
 30
0.0
 11
-32.492284191800081
 21
315.50451121750012
 31
0.0
  0
LINE
  8
OUTLINE
  6
CONTINUOUS
 62
     3
 10
-32.492284191800081
 20
315.50451121750012
 30
0.0
 11
-32.217763418700542
 21
315.68108191520008
 31
0.0
  0
LINE
  8
OUTLINE
  6
CONTINUOUS
 62
     3
 10
-32.217763418700542
 20
315.68108191520008
 30
0.0
 11
-31.945964886800081
 21
315.8586439014
 31
0.0
  0
LINE
  8
OUTLINE
  6
CONTINUOUS
 62
     3
 10
-31.945964886800081
 20
315.8586439014
 30
0.0
 11
-31.676904429600199
 21
316.03718583089989
 31
0.0
  0
LINE
  8
OUTLINE
  6
CONTINUOUS
 62
     3
 10
-31.676904429600199
 20
316.03718583089989
 30
0.0
 11
-31.410597880600559
 21
316.21669635879988
 31
0.0
  0
LINE
  8
OUTLINE
  6
CONTINUOUS
 62
     3
 10
-31.410597880600559
 20
316.21669635879988
 30
0.0
 11
-31.147061073100762
 21
316.39716413990033
 31
0.0
  0
LINE
  8
OUTLINE
  6
CONTINUOUS
 62
     3
 10
-31.147061073100762
 20
316.39716413990033
 30
0.0
 11
-30.886309840600461
 21
316.5785778290001
 31
0.0
  0
LINE
  8
OUTLINE
  6
CONTINUOUS
 62
     3
 10
-30.886309840600461
 20
316.5785778290001
 30
0.0
 11
-30.628360016600251
 21
316.76092608120013
 31
0.0
  0
LINE
  8
OUTLINE
  6
CONTINUOUS
 62
     3
 10
-30.628360016600251
 20
316.76092608120013
 30
0.0
 11
-30.373227434500681
 21
316.94419755140012
 31
0.0
  0
LINE
  8
OUTLINE
  6
CONTINUOUS
 62
     3
 10
-30.373227434500681
 20
316.94419755140012
 30
0.0
 11
-30.12092792770045
 21
317.12838089439992
 31
0.0
  0
LINE
  8
OUTLINE
  6
CONTINUOUS
 62
     3
 10
-30.12092792770045
 20
317.12838089439992
 30
0.0
 11
-29.871477329700159
 21
317.31346476509998
 31
0.0
  0
LINE
  8
OUTLINE
  6
CONTINUOUS
 62
     3
 10
-29.871477329700159
 20
317.31346476509998
 30
0.0
 11
-29.62489147390033
 21
317.49943781849993
 31
0.0
  0
LINE
  8
OUTLINE
  6
CONTINUOUS
 62
     3
 10
-29.62489147390033
 20
317.49943781849993
 30
0.0
 11
-29.381186193800659
 21
317.68628870949988
 31
0.0
  0
LINE
  8
OUTLINE
  6
CONTINUOUS
 62
     3
 10
-29.381186193800659
 20
317.68628870949988
 30
0.0
 11
-29.140377322800759
 21
317.87400609299988
 31
0.0
  0
LINE
  8
OUTLINE
  6
CONTINUOUS
 62
     3
 10
-29.140377322800759
 20
317.87400609299988
 30
0.0
 11
-28.902480694300269
 21
318.06257862390021
 31
0.0
  0
LINE
  8
OUTLINE
  6
CONTINUOUS
 62
     3
 10
-28.902480694300269
 20
318.06257862390021
 30
0.0
 11
-28.667512141800671
 21
318.25199495710012
 31
0.0
  0
LINE
  8
OUTLINE
  6
CONTINUOUS
 62
     3
 10
-28.667512141800671
 20
318.25199495710012
 30
0.0
 11
-28.435487498600651
 21
318.44224374760012
 31
0.0
  0
LINE
  8
OUTLINE
  6
CONTINUOUS
 62
     3
 10
-28.435487498600651
 20
318.44224374760012
 30
0.0
 11
-28.206422598400881
 21
318.63331365009998
 31
0.0
  0
LINE
  8
OUTLINE
  6
CONTINUOUS
 62
     3
 10
-28.206422598400881
 20
318.63331365009998
 30
0.0
 11
-27.980333274399982
 21
318.82519331980029
 31
0.0
  0
LINE
  8
OUTLINE
  6
CONTINUOUS
 62
     3
 10
-27.980333274399982
 20
318.82519331980029
 30
0.0
 11
-27.757235311300519
 21
319.01787139779981
 31
0.0
  0
LINE
  8
OUTLINE
  6
CONTINUOUS
 62
     3
 10
-27.757235311300519
 20
319.01787139779981
 30
0.0
 11
-27.537141559200339
 21
319.21133571149988
 31
0.0
  0
LINE
  8
OUTLINE
  6
CONTINUOUS
 62
     3
 10
-27.537141559200339
 20
319.21133571149988
 30
0.0
 11
-27.320060320100769
 21
319.40557282650002
 31
0.0
  0
LINE
  8
OUTLINE
  6
CONTINUOUS
 62
     3
 10
-27.320060320100769
 20
319.40557282650002
 30
0.0
 11
-27.105999504800369
 21
319.60056919999988
 31
0.0
  0
LINE
  8
OUTLINE
  6
CONTINUOUS
 62
     3
 10
-27.105999504800369
 20
319.60056919999988
 30
0.0
 11
-26.89496702400038
 21
319.79631128889991
 31
0.0
  0
LINE
  8
OUTLINE
  6
CONTINUOUS
 62
     3
 10
-26.89496702400038
 20
319.79631128889991
 30
0.0
 11
-26.686970788400231
 21
319.99278555030008
 31
0.0
  0
LINE
  8
OUTLINE
  6
CONTINUOUS
 62
     3
 10
-26.686970788400231
 20
319.99278555030008
 30
0.0
 11
-26.482018708900341
 21
320.1899784412999
 31
0.0
  0
LINE
  8
OUTLINE
  6
CONTINUOUS
 62
     3
 10
-26.482018708900341
 20
320.1899784412999
 30
0.0
 11
-26.280118696100089
 21
320.38787641890008
 31
0.0
  0
LINE
  8
OUTLINE
  6
CONTINUOUS
 62
     3
 10
-26.280118696100089
 20
320.38787641890008
 30
0.0
 11
-26.081278660800759
 21
320.58646594029977
 31
0.0
  0
LINE
  8
OUTLINE
  6
CONTINUOUS
 62
     3
 10
-26.081278660800759
 20
320.58646594029977
 30
0.0
 11
-25.88550651380001
 21
320.78573346249982
 31
0.0
  0
LINE
  8
OUTLINE
  6
CONTINUOUS
 62
     3
 10
-25.88550651380001
 20
320.78573346249982
 30
0.0
 11
-25.69281016579998
 21
320.98566544250002
 31
0.0
  0
LINE
  8
OUTLINE
  6
CONTINUOUS
 62
     3
 10
-25.69281016579998
 20
320.98566544250002
 30
0.0
 11
-25.503197527500109
 21
321.1862483374
 31
0.0
  0
LINE
  8
OUTLINE
  6
CONTINUOUS
 62
     3
 10
-25.503197527500109
 20
321.1862483374
 30
0.0
 11
-25.316676509700759
 21
321.38746860430001
 31
0.0
  0
LINE
  8
OUTLINE
  6
CONTINUOUS
 62
     3
 10
-25.316676509700759
 20
321.38746860430001
 30
0.0
 11
-25.13325502310045
 21
321.58931270030013
 31
0.0
  0
LINE
  8
OUTLINE
  6
CONTINUOUS
 62
     3
 10
-25.13325502310045
 20
321.58931270030013
 30
0.0
 11
-24.952940978600509
 21
321.79176708230028
 31
0.0
  0
LINE
  8
OUTLINE
  6
CONTINUOUS
 62
     3
 10
-24.952940978600509
 20
321.79176708230028
 30
0.0
 11
-24.775742286700279
 21
321.99481820760002
 31
0.0
  0
LINE
  8
OUTLINE
  6
CONTINUOUS
 62
     3
 10
-24.775742286700279
 20
321.99481820760002
 30
0.0
 11
-24.601666858300181
 21
322.19845253310001
 31
0.0
  0
LINE
  8
OUTLINE
  6
CONTINUOUS
 62
     3
 10
-24.601666858300181
 20
322.19845253310001
 30
0.0
 11
-24.430722604200579
 21
322.40265651589988
 31
0.0
  0
LINE
  8
OUTLINE
  6
CONTINUOUS
 62
     3
 10
-24.430722604200579
 20
322.40265651589988
 30
0.0
 11
-24.262917434999959
 21
322.60741661310021
 31
0.0
  0
LINE
  8
OUTLINE
  6
CONTINUOUS
 62
     3
 10
-24.262917434999959
 20
322.60741661310021
 30
0.0
 11
-24.09825926150052
 21
322.81271928180013
 31
0.0
  0
LINE
  8
OUTLINE
  6
CONTINUOUS
 62
     3
 10
-24.09825926150052
 20
322.81271928180013
 30
0.0
 11
-23.9367559945008
 21
323.01855097900028
 31
0.0
  0
LINE
  8
OUTLINE
  6
CONTINUOUS
 62
     3
 10
-23.9367559945008
 20
323.01855097900028
 30
0.0
 11
-23.778415544700241
 21
323.22489816170008
 31
0.0
  0
LINE
  8
OUTLINE
  6
CONTINUOUS
 62
     3
 10
-23.778415544700241
 20
323.22489816170008
 30
0.0
 11
-23.62324582290012
 21
323.4317472872001
 31
0.0
  0
LINE
  8
OUTLINE
  6
CONTINUOUS
 62
     3
 10
-23.62324582290012
 20
323.4317472872001
 30
0.0
 11
-23.47125473980077
 21
323.6390848123001
 31
0.0
  0
LINE
  8
OUTLINE
  6
CONTINUOUS
 62
     3
 10
-23.47125473980077
 20
323.6390848123001
 30
0.0
 11
-23.322450206100712
 21
323.84689719420021
 31
0.0
  0
LINE
  8
OUTLINE
  6
CONTINUOUS
 62
     3
 10
-23.322450206100712
 20
323.84689719420021
 30
0.0
 11
-23.176840132600319
 21
324.05517088990018
 31
0.0
  0
LINE
  8
OUTLINE
  6
CONTINUOUS
 62
     3
 10
-23.176840132600319
 20
324.05517088990018
 30
0.0
 11
-23.03443243000083
 21
324.26389235660008
 31
0.0
  0
LINE
  8
OUTLINE
  6
CONTINUOUS
 62
     3
 10
-23.03443243000083
 20
324.26389235660008
 30
0.0
 11
-22.89523500920086
 21
324.47304805120029
 31
0.0
  0
LINE
  8
OUTLINE
  6
CONTINUOUS
 62
     3
 10
-22.89523500920086
 20
324.47304805120029
 30
0.0
 11
-22.759255780700641
 21
324.68262443089998
 31
0.0
  0
LINE
  8
OUTLINE
  6
CONTINUOUS
 62
     3
 10
-22.759255780700641
 20
324.68262443089998
 30
0.0
 11
-22.626502655500641
 21
324.89260795270002
 31
0.0
  0
LINE
  8
OUTLINE
  6
CONTINUOUS
 62
     3
 10
-22.626502655500641
 20
324.89260795270002
 30
0.0
 11
-22.496983544200251
 21
325.10298507370021
 31
0.0
  0
LINE
  8
OUTLINE
  6
CONTINUOUS
 62
     3
 10
-22.496983544200251
 20
325.10298507370021
 30
0.0
 11
-22.370706357600739
 21
325.31374225099989
 31
0.0
  0
LINE
  8
OUTLINE
  6
CONTINUOUS
 62
     3
 10
-22.370706357600739
 20
325.31374225099989
 30
0.0
 11
-22.247679006400631
 21
325.52486594150008
 31
0.0
  0
LINE
  8
OUTLINE
  6
CONTINUOUS
 62
     3
 10
-22.247679006400631
 20
325.52486594150008
 30
0.0
 11
-22.127909401300261
 21
325.7363426024001
 31
0.0
  0
LINE
  8
OUTLINE
  6
CONTINUOUS
 62
     3
 10
-22.127909401300261
 20
325.7363426024001
 30
0.0
 11
-22.011405453200041
 21
325.94815869080003
 31
0.0
  0
LINE
  8
OUTLINE
  6
CONTINUOUS
 62
     3
 10
-22.011405453200041
 20
325.94815869080003
 30
0.0
 11
-21.89817469870059
 21
326.16030087470023
 31
0.0
  0
LINE
  8
OUTLINE
  6
CONTINUOUS
 62
     3
 10
-21.89817469870059
 20
326.16030087470023
 30
0.0
 11
-21.788220325800008
 21
326.37275827489998
 31
0.0
  0
LINE
  8
OUTLINE
  6
CONTINUOUS
 62
     3
 10
-21.788220325800008
 20
326.37275827489998
 30
0.0
 11
-21.681542717100001
 21
326.5855215949
 31
0.0
  0
LINE
  8
OUTLINE
  6
CONTINUOUS
 62
     3
 10
-21.681542717100001
 20
326.5855215949
 30
0.0
 11
-21.57814220840055
 21
326.79858156430009
 31
0.0
  0
LINE
  8
OUTLINE
  6
CONTINUOUS
 62
     3
 10
-21.57814220840055
 20
326.79858156430009
 30
0.0
 11
-21.478019135500741
 21
327.01192891279987
 31
0.0
  0
LINE
  8
OUTLINE
  6
CONTINUOUS
 62
     3
 10
-21.478019135500741
 20
327.01192891279987
 30
0.0
 11
-21.38117383410054
 21
327.2255543701001
 31
0.0
  0
LINE
  8
OUTLINE
  6
CONTINUOUS
 62
     3
 10
-21.38117383410054
 20
327.2255543701001
 30
0.0
 11
-21.28760663990079
 21
327.43944866599992
 31
0.0
  0
LINE
  8
OUTLINE
  6
CONTINUOUS
 62
     3
 10
-21.28760663990079
 20
327.43944866599992
 30
0.0
 11
-21.19731788880063
 21
327.65360253010022
 31
0.0
  0
LINE
  8
OUTLINE
  6
CONTINUOUS
 62
     3
 10
-21.19731788880063
 20
327.65360253010022
 30
0.0
 11
-21.11030791660005
 21
327.86800669209993
 31
0.0
  0
LINE
  8
OUTLINE
  6
CONTINUOUS
 62
     3
 10
-21.11030791660005
 20
327.86800669209993
 30
0.0
 11
-21.026577058900781
 21
328.0826518818003
 31
0.0
  0
LINE
  8
OUTLINE
  6
CONTINUOUS
 62
     3
 10
-21.026577058900781
 20
328.0826518818003
 30
0.0
 11
-20.946125651700189
 21
328.29752882889989
 31
0.0
  0
LINE
  8
OUTLINE
  6
CONTINUOUS
 62
     3
 10
-20.946125651700189
 20
328.29752882889989
 30
0.0
 11
-20.868954030600889
 21
328.5126282629999
 31
0.0
  0
LINE
  8
OUTLINE
  6
CONTINUOUS
 62
     3
 10
-20.868954030600889
 20
328.5126282629999
 30
0.0
 11
-20.795062531400159
 21
328.72794091389977
 31
0.0
  0
LINE
  8
OUTLINE
  6
CONTINUOUS
 62
     3
 10
-20.795062531400159
 20
328.72794091389977
 30
0.0
 11
-20.72445148990073
 21
328.94345751119999
 31
0.0
  0
LINE
  8
OUTLINE
  6
CONTINUOUS
 62
     3
 10
-20.72445148990073
 20
328.94345751119999
 30
0.0
 11
-20.657121241900771
 21
329.15916878479987
 31
0.0
  0
LINE
  8
OUTLINE
  6
CONTINUOUS
 62
     3
 10
-20.657121241900771
 20
329.15916878479987
 30
0.0
 11
-20.593072123100232
 21
329.37506546419991
 31
0.0
  0
LINE
  8
OUTLINE
  6
CONTINUOUS
 62
     3
 10
-20.593072123100232
 20
329.37506546419991
 30
0.0
 11
-20.53230446940006
 21
329.59113827920009
 31
0.0
  0
LINE
  8
OUTLINE
  6
CONTINUOUS
 62
     3
 10
-20.53230446940006
 20
329.59113827920009
 30
0.0
 11
-20.474818616400171
 21
329.80737795950017
 31
0.0
  0
LINE
  8
OUTLINE
  6
CONTINUOUS
 62
     3
 10
-20.474818616400171
 20
329.80737795950017
 30
0.0
 11
-20.420614900000601
 21
330.02377523480033
 31
0.0
  0
LINE
  8
OUTLINE
  6
CONTINUOUS
 62
     3
 10
-20.420614900000601
 20
330.02377523480033
 30
0.0
 11
-20.369693655900392
 21
330.24032083480012
 31
0.0
  0
LINE
  8
OUTLINE
  6
CONTINUOUS
 62
     3
 10
-20.369693655900392
 20
330.24032083480012
 30
0.0
 11
-20.322055219900449
 21
330.45700548930017
 31
0.0
  0
LINE
  8
OUTLINE
  6
CONTINUOUS
 62
     3
 10
-20.322055219900449
 20
330.45700548930017
 30
0.0
 11
-20.277699927900809
 21
330.6738199278002
 31
0.0
  0
LINE
  8
OUTLINE
  6
CONTINUOUS
 62
     3
 10
-20.277699927900809
 20
330.6738199278002
 30
0.0
 11
-20.236628115400439
 21
330.89075488019989
 31
0.0
  0
LINE
  8
OUTLINE
  6
CONTINUOUS
 62
     3
 10
-20.236628115400439
 20
330.89075488019989
 30
0.0
 11
-20.198840118400309
 21
331.10780107609997
 31
0.0
  0
LINE
  8
OUTLINE
  6
CONTINUOUS
 62
     3
 10
-20.198840118400309
 20
331.10780107609997
 30
0.0
 11
-20.164336272600391
 21
331.32494924520012
 31
0.0
  0
LINE
  8
OUTLINE
  6
CONTINUOUS
 62
     3
 10
-20.164336272600391
 20
331.32494924520012
 30
0.0
 11
-20.133116913700629
 21
331.54219011729992
 31
0.0
  0
LINE
  8
OUTLINE
  6
CONTINUOUS
 62
     3
 10
-20.133116913700629
 20
331.54219011729992
 30
0.0
 11
-20.105182377600158
 21
331.75951442210021
 31
0.0
  0
LINE
  8
OUTLINE
  6
CONTINUOUS
 62
     3
 10
-20.105182377600158
 20
331.75951442210021
 30
0.0
 11
-20.080533000000742
 21
331.97691288910028
 31
0.0
  0
LINE
  8
OUTLINE
  6
CONTINUOUS
 62
     3
 10
-20.080533000000742
 20
331.97691288910028
 30
0.0
 11
-20.059169116700559
 21
332.19437624830022
 31
0.0
  0
LINE
  8
OUTLINE
  6
CONTINUOUS
 62
     3
 10
-20.059169116700559
 20
332.19437624830022
 30
0.0
 11
-20.041091063400469
 21
332.4118952291999
 31
0.0
  0
LINE
  8
OUTLINE
  6
CONTINUOUS
 62
     3
 10
-20.041091063400469
 20
332.4118952291999
 30
0.0
 11
-20.026299176000521
 21
332.6294605615999
 31
0.0
  0
LINE
  8
OUTLINE
  6
CONTINUOUS
 62
     3
 10
-20.026299176000521
 20
332.6294605615999
 30
0.0
 11
-20.014793790100612
 21
332.84706297520012
 31
0.0
  0
LINE
  8
OUTLINE
  6
CONTINUOUS
 62
     3
 10
-20.014793790100612
 20
332.84706297520012
 30
0.0
 11
-20.00657524170083
 21
333.06469319960001
 31
0.0
  0
LINE
  8
OUTLINE
  6
CONTINUOUS
 62
     3
 10
-20.00657524170083
 20
333.06469319960001
 30
0.0
 11
-20.001643866400169
 21
333.28234196460022
 31
0.0
  0
LINE
  8
OUTLINE
  6
CONTINUOUS
 62
     3
 10
-20.001643866400169
 20
333.28234196460022
 30
0.0
 11
-20.000000000000451
 21
333.5
 31
0.0
  0
LINE
  8
OUTLINE
  6
CONTINUOUS
 62
     3
 10
-20.000000000000451
 20
311.76445987919988
 30
0.0
 11
-164.59999999999991
 21
311.76445987919988
 31
0.0
  0
LINE
  8
OUTLINE
  6
CONTINUOUS
 62
     3
 10
-16.400000000000091
 20
341.5
 30
0.0
 11
-13.867637334200939
 21
341.5
 31
0.0
  0
LINE
  8
OUTLINE
  6
CONTINUOUS
 62
     3
 10
-6.4000000000000909
 20
351.5
 30
0.0
 11
-3.0000000000004552
 21
351.5
 31
0.0
  0
ARC
  8
OUTLINE
  6
CONTINUOUS
 62
     3
 10
-330.80000000000058
 20
-76.099999999999909
 30
0.0
 40
7.7999999999999998
 50
180.0
 51
270.0
  0
ARC
  8
OUTLINE
  6
CONTINUOUS
 62
     3
 10
-330.80000000000058
 20
76.099999999999909
 30
0.0
 40
7.7999999999999998
 50
90.0
 51
180.0
  0
ARC
  8
OUTLINE
  6
CONTINUOUS
 62
     3
 10
-341.80000000000058
 20
-22.0
 30
0.0
 40
3.7999999999999998
 50
180.0
 51
270.0
  0
ARC
  8
OUTLINE
  6
CONTINUOUS
 62
     3
 10
-341.80000000000058
 20
22.0
 30
0.0
 40
3.7999999999999998
 50
90.0
 51
180.0
  0
ARC
  8
OUTLINE
  6
CONTINUOUS
 62
     3
 10
-6.4000000000000909
 20
-347.89999999999958
 30
0.0
 40
3.6000000000000001
 50
180.0
 51
270.0
  0
ARC
  8
OUTLINE
  6
CONTINUOUS
 62
     3
 10
-6.4000000000000909
 20
347.90000000000009
 30
0.0
 40
3.6000000000000001
 50
90.0
 51
180.0
  0
ARC
  8
OUTLINE
  6
CONTINUOUS
 62
     3
 10
-16.400000000000091
 20
337.90000000000009
 30
0.0
 40
3.6000000000000001
 50
90.0
 51
180.0
  0
ARC
  8
OUTLINE
  6
CONTINUOUS
 62
     3
 10
-16.400000000000091
 20
-337.89999999999958
 30
0.0
 40
3.6000000000000001
 50
180.0
 51
270.0
  0
ARC
  8
OUTLINE
  6
CONTINUOUS
 62
     3
 10
-338.90000000000009
 20
-30.5
 30
0.0
 40
2.7000000000000002
 50
180.0
 51
270.0
  0
ARC
  8
OUTLINE
  6
CONTINUOUS
 62
     3
 10
-338.90000000000009
 20
30.5
 30
0.0
 40
2.7000000000000002
 50
90.0
 51
180.0
  0
ARC
  8
OUTLINE
  6
CONTINUOUS
 62
     3
 10
-303.20000000000027
 20
86.200000000000045
 30
0.0
 40
2.2999999999999998
 50
270.0
 51
0.0
  0
ARC
  8
OUTLINE
  6
CONTINUOUS
 62
     3
 10
-1.500000000000455
 20
-353.0
 30
0.0
 40
1.5
 50
180.0
 51
0.0
  0
ARC
  8
OUTLINE
  6
CONTINUOUS
 62
     3
 10
-1.500000000000455
 20
353.0
 30
0.0
 40
1.5
 50
0.0
 51
180.0
  0
ARC
  8
OUTLINE
  6
CONTINUOUS
 62
     3
 10
-326.2355019219433
 20
-81.082813866557444
 30
0.0
 40
5.2840927705232872
 50
228.99077177874909
 51
266.14197130401038
  0
LINE
  8
OUTLINE
  6
CONTINUOUS
 62
     3
 10
-3.0000000000004552
 20
351.5
 30
0.0
 11
-3.0000000000004552
 21
353.0
 31
0.0
  0
LINE
  8
OUTLINE
  6
CONTINUOUS
 62
     3
 10
-338.60000000000082
 20
-33.199999999999818
 30
0.0
 11
-338.60000000000082
 21
-76.099999512599879
 31
0.0
  0
LINE
  8
OUTLINE
  6
CONTINUOUS
 62
     3
 10
-341.60000000000082
 20
-25.799999999999731
 30
0.0
 11
-341.60000000000082
 21
-30.4999962776003
 31
0.0
  0
LINE
  8
BASIS
  6
DASHDOT
 62
     6
 10
52.267727429718889
 20
0.0
 30
0.0
 11
-435.32689828621142
 21
0.0
 31
0.0
  0
TEXT
  8
ETC
  6
CONTINUOUS
 62
    61
 10
269.49467306703718
 20
678.73240120606988
 30
0.0
 40
64.0
  1
EWF-60HTA2-Q_4
 41
0.9
  0
TEXT
  8
ETC
  6
CONTINUOUS
 62
    61
 10
265.30867906703719
 20
560.77709119123847
 30
0.0
 40
64.0
  1
有圧換気扇
 41
0.9
  0
TEXT
  8
ETC
  6
CONTINUOUS
 62
    61
 10
314.81690110542968
 20
451.76284041825511
 30
0.0
 40
40.0
  1
EWF-60HTA2-Q
 41
0.9
  0
CIRCLE
  8
FIX
  6
CONTINUOUS
 62
    11
 10
-0.0000000000004547
 20
325.0
 30
0.0
 40
7.0
  0
LINE
  8
NOTE
  6
CONTINUOUS
 62
     4
 10
18.546847567183249
 20
325.0
 30
0.0
 11
-24.85376597188451
 21
325.0
 31
0.0
  0
CIRCLE
  8
FIX
  6
CONTINUOUS
 62
    11
 10
0.0
 20
-325.00000000000148
 30
0.0
 40
7.0
  0
LINE
  8
NOTE
  6
CONTINUOUS
 62
     4
 10
18.546847567183701
 20
-325.00000000000148
 30
0.0
 11
-24.853765971884059
 21
-325.00000000000148
 31
0.0
  0
LINE
  8
SIZE
  6
CONTINUOUS
 62
    30
 10
38.546847567183249
 20
325.0
 30
0.0
 11
252.5646431482528
 21
325.0
 31
0.0
  0
LINE
  8
SIZE
  6
CONTINUOUS
 62
    30
 10
38.546847567183697
 20
-325.00000000000148
 30
0.0
 11
252.56464314825331
 21
-325.00000000000148
 31
0.0
  0
LINE
  8
SIZE
  6
CONTINUOUS
 62
    30
 10
232.5646431482528
 20
313.0
 30
0.0
 11
232.56464314825331
 21
-313.00000000000148
 31
0.0
  0
CIRCLE
  8
SIZE
  6
CONTINUOUS
 62
    30
 10
232.5646431482528
 20
325.0
 30
0.0
 40
6.0
  0
LINE
  8
SIZE
  6
CONTINUOUS
 62
    30
 10
232.5646431482528
 20
325.0
 30
0.0
 11
232.5646431482528
 21
313.0
 31
0.0
  0
CIRCLE
  8
SIZE
  6
CONTINUOUS
 62
    30
 10
232.56464314825331
 20
-325.00000000000148
 30
0.0
 40
6.0
  0
LINE
  8
SIZE
  6
CONTINUOUS
 62
    30
 10
232.56464314825331
 20
-325.00000000000148
 30
0.0
 11
232.56464314825331
 21
-313.00000000000148
 31
0.0
  0
TEXT
  8
SIZE
  6
CONTINUOUS
 62
    30
 10
207.5646431482528
 20
-74.057142857143532
 30
0.0
 40
64.0
  1
650
 50
90.0
 41
0.9
 72
     1
 11
207.5646431482528
 21
-0.0000000000006821
 31
0.0
  0
POINT
  8
DEFPOINTS
  6
CONTINUOUS
 62
    30
 10
18.546847567183249
 20
325.0
 30
0.0
  0
POINT
  8
DEFPOINTS
  6
CONTINUOUS
 62
    30
 10
18.546847567183701
 20
-325.00000000000148
 30
0.0
  0
POINT
  8
DEFPOINTS
  6
CONTINUOUS
 62
    30
 10
232.56464314825331
 20
-325.00000000000148
 30
0.0
  0
LINE
  8
SIZE
  6
CONTINUOUS
 62
    30
 10
18.5
 20
-354.5
 30
0.0
 11
442.59925944024923
 21
-354.5
 31
0.0
  0
LINE
  8
SIZE
  6
CONTINUOUS
 62
    30
 10
18.5
 20
354.50000000000023
 30
0.0
 11
442.59925944024923
 21
354.50000000000051
 31
0.0
  0
LINE
  8
SIZE
  6
CONTINUOUS
 62
    30
 10
422.59925944024923
 20
-342.5
 30
0.0
 11
422.59925944024923
 21
342.50000000000051
 31
0.0
  0
CIRCLE
  8
SIZE
  6
CONTINUOUS
 62
    30
 10
422.59925944024923
 20
-354.5
 30
0.0
 40
6.0
  0
LINE
  8
SIZE
  6
CONTINUOUS
 62
    30
 10
422.59925944024923
 20
-354.5
 30
0.0
 11
422.59925944024923
 21
-342.5
 31
0.0
  0
CIRCLE
  8
SIZE
  6
CONTINUOUS
 62
    30
 10
422.59925944024923
 20
354.50000000000051
 30
0.0
 40
6.0
  0
LINE
  8
SIZE
  6
CONTINUOUS
 62
    30
 10
422.59925944024923
 20
354.50000000000051
 30
0.0
 11
422.59925944024923
 21
342.50000000000051
 31
0.0
  0
TEXT
  8
SIZE
  6
CONTINUOUS
 62
    30
 10
397.59925944024923
 20
-68.571428571428342
 30
0.0
 40
64.0
  1
710
 50
90.0
 41
0.9
 72
     1
 11
397.59925944024923
 21
0.0000000000002274
 31
0.0
  0
POINT
  8
DEFPOINTS
  6
CONTINUOUS
 62
    30
 10
-1.5
 20
-354.5
 30
0.0
  0
POINT
  8
DEFPOINTS
  6
CONTINUOUS
 62
    30
 10
-1.5
 20
354.50000000000023
 30
0.0
  0
POINT
  8
DEFPOINTS
  6
CONTINUOUS
 62
    30
 10
422.59925944024923
 20
354.50000000000051
 30
0.0
  0
LINE
  8
SIZE
  6
CONTINUOUS
 62
    30
 10
0.0
 20
373.0
 30
0.0
 11
0.0
 21
788.33372169880522
 31
0.0
  0
LINE
  8
SIZE
  6
CONTINUOUS
 62
    30
 10
-345.60000000000082
 20
20.0
 30
0.0
 11
-345.60000000000082
 21
788.33372169880522
 31
0.0
  0
LINE
  8
SIZE
  6
CONTINUOUS
 62
    30
 10
-12.0
 20
768.33372169880522
 30
0.0
 11
-333.60000000000082
 21
768.33372169880522
 31
0.0
  0
CIRCLE
  8
SIZE
  6
CONTINUOUS
 62
    30
 10
0.0
 20
768.33372169880522
 30
0.0
 40
6.0
  0
LINE
  8
SIZE
  6
CONTINUOUS
 62
    30
 10
0.0
 20
768.33372169880522
 30
0.0
 11
-12.0
 21
768.33372169880522
 31
0.0
  0
CIRCLE
  8
SIZE
  6
CONTINUOUS
 62
    30
 10
-345.60000000000082
 20
768.33372169880522
 30
0.0
 40
6.0
  0
LINE
  8
SIZE
  6
CONTINUOUS
 62
    30
 10
-345.60000000000082
 20
768.33372169880522
 30
0.0
 11
-333.60000000000082
 21
768.33372169880522
 31
0.0
  0
TEXT
  8
SIZE
  6
CONTINUOUS
 62
    30
 10
-228.98571428571449
 20
793.33372169880522
 30
0.0
 40
64.0
  1
346
 41
0.9
 72
     1
 11
-156.30000000000021
 21
793.33372169880522
 31
0.0
  0
POINT
  8
DEFPOINTS
  6
CONTINUOUS
 62
    30
 10
0.0
 20
353.0
 30
0.0
  0
POINT
  8
DEFPOINTS
  6
CONTINUOUS
 62
    30
 10
-345.60000000000082
 20
0.0
 30
0.0
  0
POINT
  8
DEFPOINTS
  6
CONTINUOUS
 62
    30
 10
-345.60000000000082
 20
768.33372169880522
 30
0.0
  0
LINE
  8
SIZE
  6
CONTINUOUS
 62
    30
 10
0.0
 20
373.0
 30
0.0
 11
0.0
 21
442.46241272776342
 31
0.0
  0
LINE
  8
SIZE
  6
CONTINUOUS
 62
    30
 10
-20.0
 20
353.5
 30
0.0
 11
-20.0
 21
442.46241272776342
 31
0.0
  0
LINE
  8
SIZE
  6
CONTINUOUS
 62
    30
 10
-32.0
 20
422.46241272776342
 30
0.0
 11
-44.0
 21
422.46241272776342
 31
0.0
  0
LINE
  8
SIZE
  6
CONTINUOUS
 62
    30
 10
12.0
 20
422.46241272776342
 30
0.0
 11
178.81450008706091
 21
422.46241272776342
 31
0.0
  0
LINE
  8
SIZE
  6
CONTINUOUS
 62
    30
 10
-20.0
 20
422.46241272776342
 30
0.0
 11
0.0
 21
422.46241272776342
 31
0.0
  0
CIRCLE
  8
SIZE
  6
CONTINUOUS
 62
    30
 10
-20.0
 20
422.46241272776342
 30
0.0
 40
6.0
  0
LINE
  8
SIZE
  6
CONTINUOUS
 62
    30
 10
-20.0
 20
422.46241272776342
 30
0.0
 11
-32.0
 21
422.46241272776342
 31
0.0
  0
CIRCLE
  8
SIZE
  6
CONTINUOUS
 62
    30
 10
0.0
 20
422.46241272776342
 30
0.0
 40
6.0
  0
LINE
  8
SIZE
  6
CONTINUOUS
 62
    30
 10
0.0
 20
422.46241272776342
 30
0.0
 11
12.0
 21
422.46241272776342
 31
0.0
  0
TEXT
  8
SIZE
  6
CONTINUOUS
 62
    30
 10
60.557357229918082
 20
447.46241272776342
 30
0.0
 40
64.0
  1
20
 41
0.9
 72
     1
 11
107.1859286584895
 21
447.46241272776342
 31
0.0
  0
POINT
  8
DEFPOINTS
  6
CONTINUOUS
 62
    30
 10
0.0
 20
353.0
 30
0.0
  0
POINT
  8
DEFPOINTS
  6
CONTINUOUS
 62
    30
 10
-20.0
 20
333.5
 30
0.0
  0
POINT
  8
DEFPOINTS
  6
CONTINUOUS
 62
    30
 10
-20.0
 20
422.46241272776342
 30
0.0
  0
LINE
  8
SIZE
  6
CONTINUOUS
 62
    30
 10
-215.59999999999991
 20
100.7570140134001
 30
0.0
 11
-484.81585379564672
 21
100.7570140134001
 31
0.0
  0
LINE
  8
SIZE
  6
CONTINUOUS
 62
    30
 10
-215.59999999999991
 20
-100.7570140133998
 30
0.0
 11
-484.81585379564672
 21
-100.7570140134001
 31
0.0
  0
LINE
  8
SIZE
  6
CONTINUOUS
 62
    30
 10
-464.81585379564672
 20
112.7570140134001
 30
0.0
 11
-464.81585379564672
 21
124.7570140134001
 31
0.0
  0
LINE
  8
SIZE
  6
CONTINUOUS
 62
    30
 10
-464.81585379564672
 20
-112.7570140133998
 30
0.0
 11
-464.81585379564672
 21
-124.7570140133998
 31
0.0
  0
LINE
  8
SIZE
  6
CONTINUOUS
 62
    30
 10
-464.81585379564672
 20
100.7570140134001
 30
0.0
 11
-464.81585379564672
 21
-100.7570140133998
 31
0.0
  0
CIRCLE
  8
SIZE
  6
CONTINUOUS
 62
    30
 10
-464.81585379564672
 20
100.7570140134001
 30
0.0
 40
6.0
  0
LINE
  8
SIZE
  6
CONTINUOUS
 62
    30
 10
-464.81585379564672
 20
100.7570140134001
 30
0.0
 11
-464.81585379564672
 21
112.7570140134001
 31
0.0
  0
CIRCLE
  8
SIZE
  6
CONTINUOUS
 62
    30
 10
-464.81585379564672
 20
-100.7570140133998
 30
0.0
 40
6.0
  0
LINE
  8
SIZE
  6
CONTINUOUS
 62
    30
 10
-464.81585379564672
 20
-100.7570140133998
 30
0.0
 11
-464.81585379564672
 21
-112.7570140133998
 31
0.0
  0
TEXT
  8
SIZE
  6
CONTINUOUS
 62
    30
 10
-489.81585379564649
 20
-114.3771428571424
 30
0.0
 40
64.0
  1
φ202
 50
90.0
 41
0.9
 72
     1
 11
-489.81585379564649
 21
0.0000000000004547
 31
0.0
  0
POINT
  8
DEFPOINTS
  6
CONTINUOUS
 62
    30
 10
-195.59999999999991
 20
100.7570140134001
 30
0.0
  0
POINT
  8
DEFPOINTS
  6
CONTINUOUS
 62
    30
 10
-195.59999999999991
 20
-100.7570140133998
 30
0.0
  0
POINT
  8
DEFPOINTS
  6
CONTINUOUS
 62
    30
 10
-464.81585379564672
 20
-100.7570140133998
 30
0.0
  0
LINE
  8
SIZE
  6
CONTINUOUS
 62
    30
 10
0.0
 20
373.0
 30
0.0
 11
0.0
 21
669.00491991715307
 31
0.0
  0
LINE
  8
SIZE
  6
CONTINUOUS
 62
    30
 10
-260.5
 20
258.31727585210001
 30
0.0
 11
-260.5
 21
669.00491991715307
 31
0.0
  0
LINE
  8
SIZE
  6
CONTINUOUS
 62
    30
 10
-12.0
 20
649.00491991715307
 30
0.0
 11
-248.5
 21
649.00491991715307
 31
0.0
  0
CIRCLE
  8
SIZE
  6
CONTINUOUS
 62
    30
 10
0.0
 20
649.00491991715307
 30
0.0
 40
6.0
  0
LINE
  8
SIZE
  6
CONTINUOUS
 62
    30
 10
0.0
 20
649.00491991715307
 30
0.0
 11
-12.0
 21
649.00491991715307
 31
0.0
  0
CIRCLE
  8
SIZE
  6
CONTINUOUS
 62
    30
 10
-260.5
 20
649.00491991715307
 30
0.0
 40
6.0
  0
LINE
  8
SIZE
  6
CONTINUOUS
 62
    30
 10
-260.5
 20
649.00491991715307
 30
0.0
 11
-248.5
 21
649.00491991715307
 31
0.0
  0
TEXT
  8
SIZE
  6
CONTINUOUS
 62
    30
 10
-191.96428571428569
 20
674.00491991715307
 30
0.0
 40
64.0
  1
261
 41
0.9
 72
     1
 11
-130.25
 21
674.00491991715307
 31
0.0
  0
POINT
  8
DEFPOINTS
  6
CONTINUOUS
 62
    30
 10
0.0
 20
353.0
 30
0.0
  0
POINT
  8
DEFPOINTS
  6
CONTINUOUS
 62
    30
 10
-260.5
 20
238.31727585210001
 30
0.0
  0
POINT
  8
DEFPOINTS
  6
CONTINUOUS
 62
    30
 10
-260.5
 20
649.00491991715307
 30
0.0
  0
TEXT
  8
NOTE
  6
CONTINUOUS
 62
     4
 10
-296.84375358294432
 20
-445.9783008268937
 30
0.0
 40
64.0
  1
EL
 41
0.9
 72
     2
 11
-211.81518215437291
 21
-445.9783008268937
 31
0.0
  0
LINE
  8
NOTE
  6
CONTINUOUS
 62
     4
 10
-53.156783047219513
 20
-317.8103818935233
 30
0.0
 11
-48.104717092468491
 21
-314.19633583974343
 31
0.0
  0
LINE
  8
NOTE
  6
CONTINUOUS
 62
     4
 10
-48.104717092468491
 20
-314.19633583974343
 30
0.0
 11
-50.672903000878698
 21
-319.85222838025737
 31
0.0
  0
LINE
  8
NOTE
  6
CONTINUOUS
 62
     4
 10
-48.104717092468491
 20
-314.19633583974343
 30
0.0
 11
-55.72496895562972
 21
-323.46627443403742
 31
0.0
  0
LINE
  8
NOTE
  6
CONTINUOUS
 62
     4
 10
-55.72496895562972
 20
-323.46627443403742
 30
0.0
 11
-177.4659676836072
 21
-471.56263697974759
 31
0.0
  0
LINE
  8
NOTE
  6
CONTINUOUS
 62
     4
 10
-177.4659676836072
 20
-471.56263697974759
 30
0.0
 11
-312.63345909527243
 21
-471.66721870419002
 31
0.0
  0
TEXT
  8
NOTE
  6
CONTINUOUS
 62
     4
 10
133.73906142525311
 20
-503.27094527547462
 30
0.0
 40
64.0
  1
4-φ14
 41
0.9
  0
LINE
  8
NOTE
  6
CONTINUOUS
 62
     4
 10
1.946632850620972
 20
-330.89875578701981
 30
0.0
 11
0.0
 21
-325.00000000000148
 31
0.0
  0
LINE
  8
NOTE
  6
CONTINUOUS
 62
     4
 10
0.0
 20
-325.00000000000148
 30
0.0
 11
4.6352176254299593
 21
-329.13514895196198
 31
0.0
  0
LINE
  8
NOTE
  6
CONTINUOUS
 62
     4
 10
0.0
 20
-325.00000000000148
 30
0.0
 11
6.5818504760509313
 21
-335.03390473898031
 31
0.0
  0
LINE
  8
NOTE
  6
CONTINUOUS
 62
     4
 10
6.5818504760509313
 20
-335.03390473898031
 30
0.0
 11
126.4078544695171
 21
-517.70634825586035
 31
0.0
  0
LINE
  8
NOTE
  6
CONTINUOUS
 62
     4
 10
126.4078544695171
 20
-517.70634825586035
 30
0.0
 11
416.54215092769027
 21
-517.27451435099965
 31
0.0
  0
LINE
  8
SIZE
  6
CONTINUOUS
 62
    30
 10
0.0
 20
368.33452377909998
 30
0.0
 11
0.0
 21
566.54208370315155
 31
0.0
  0
LINE
  8
SIZE
  6
CONTINUOUS
 62
    30
 10
-175.0
 20
299.38661284210002
 30
0.0
 11
-175.0
 21
566.54208370315155
 31
0.0
  0
LINE
  8
SIZE
  6
CONTINUOUS
 62
    30
 10
-163.0
 20
546.54208370315155
 30
0.0
 11
-12.0
 21
546.54208370315155
 31
0.0
  0
LINE
  8
SIZE
  6
CONTINUOUS
 62
    30
 10
0.0
 20
546.54208370315155
 30
0.0
 11
199.14285714285731
 21
546.54208370315155
 31
0.0
  0
CIRCLE
  8
SIZE
  6
CONTINUOUS
 62
    30
 10
-175.0
 20
546.54208370315155
 30
0.0
 40
6.0
  0
LINE
  8
SIZE
  6
CONTINUOUS
 62
    30
 10
-175.0
 20
546.54208370315155
 30
0.0
 11
-163.0
 21
546.54208370315155
 31
0.0
  0
CIRCLE
  8
SIZE
  6
CONTINUOUS
 62
    30
 10
0.0
 20
546.54208370315155
 30
0.0
 40
6.0
  0
LINE
  8
SIZE
  6
CONTINUOUS
 62
    30
 10
0.0
 20
546.54208370315155
 30
0.0
 11
-12.0
 21
546.54208370315155
 31
0.0
  0
TEXT
  8
SIZE
  6
CONTINUOUS
 62
    30
 10
37.000000000000099
 20
571.54208370315155
 30
0.0
 40
64.0
  1
175
 41
0.9
 72
     1
 11
105.5714285714287
 21
571.54208370315155
 31
0.0
  0
POINT
  8
DEFPOINTS
  6
CONTINUOUS
 62
    30
 10
0.0
 20
348.33452377909998
 30
0.0
  0
POINT
  8
DEFPOINTS
  6
CONTINUOUS
 62
    30
 10
-175.0
 20
279.38661284210002
 30
0.0
  0
POINT
  8
DEFPOINTS
  6
CONTINUOUS
 62
    30
 10
-175.0
 20
546.54208370315155
 30
0.0
  0
ARC
  8
DETAIL
  6
CONTINUOUS
 62
     5
 10
-7.4690188183667487
 20
289.78181441947248
 30
0.0
 40
2.5500752034656649
 50
103.3576945235739
 51
176.41518307308851
  0
ARC
  8
DETAIL
  6
CONTINUOUS
 62
     5
 10
-11.429462501822851
 20
307.81805765164791
 30
0.0
 40
15.91629809325314
 50
282.22870109697482
 51
301.97066869851972
  0
ARC
  8
DETAIL
  6
CONTINUOUS
 62
     5
 10
-8.2634138336470642
 20
289.58223859767759
 30
0.0
 40
6.2673291849211523
 50
108.8484498337547
 51
176.71603191632741
  0
ARC
  8
DETAIL
  6
CONTINUOUS
 62
     5
 10
-13.32279112679316
 20
305.16791065612779
 30
0.0
 40
10.120114148579709
 50
287.44918523730979
 51
324.27303608778658
  0
ARC
  8
DETAIL
  6
CONTINUOUS
 62
     5
 10
-8.2415482873293513
 20
339.15456706228628
 30
0.0
 40
6.2888732111648302
 50
105.8742062610942
 51
176.77329226488581
  0
ARC
  8
DETAIL
  6
CONTINUOUS
 62
     5
 10
-13.04467031837339
 20
355.12299811677173
 30
0.0
 40
10.38743560808545
 50
287.26527000109718
 51
319.83073166500981
  0
ARC
  8
DETAIL
  6
CONTINUOUS
 62
     5
 10
-169.08898183607289
 20
-205.44571312597739
 30
0.0
 40
64.523615854955537
 50
202.50238963981641
 51
273.98935558612521
  0
ARC
  8
DETAIL
  6
CONTINUOUS
 62
     5
 10
-174.80590509908049
 20
-215.2326974451428
 30
0.0
 40
86.981118959596571
 50
189.86859742413989
 51
276.7383064309895
  0
ARC
  8
DETAIL
  6
CONTINUOUS
 62
     5
 10
-171.14595412001199
 20
-222.30687905110489
 30
0.0
 40
89.696757371570243
 50
185.01016429713161
 51
274.18509289519261
  0
ARC
  8
DETAIL
  6
CONTINUOUS
 62
     5
 10
-7.4690188183667487
 20
-289.78181441947248
 30
0.0
 40
2.5500752034656649
 50
183.58481692691149
 51
256.64230547642597
  0
ARC
  8
DETAIL
  6
CONTINUOUS
 62
     5
 10
-11.429462501822851
 20
-307.81805765164791
 30
0.0
 40
15.91629809325314
 50
58.029331301480248
 51
77.771298903025226
  0
ARC
  8
DETAIL
  6
CONTINUOUS
 62
     5
 10
-8.2634138336470642
 20
-289.58223859767759
 30
0.0
 40
6.2673291849211523
 50
183.28396808367259
 51
251.1515501662453
  0
ARC
  8
DETAIL
  6
CONTINUOUS
 62
     5
 10
-13.32279112679316
 20
-305.16791065612819
 30
0.0
 40
10.120114148579709
 50
35.726963912213442
 51
72.550814762690194
  0
ARC
  8
DETAIL
  6
CONTINUOUS
 62
     5
 10
-8.2415482873293513
 20
-339.15456706228628
 30
0.0
 40
6.2888732111648302
 50
183.22670773511419
 51
254.1257937389058
  0
ARC
  8
DETAIL
  6
CONTINUOUS
 62
     5
 10
-13.04467031837339
 20
-355.12299811677178
 30
0.0
 40
10.38743560808545
 50
40.169268334990193
 51
72.734729998902765
  0
LINE
  8
DETAIL
  6
CONTINUOUS
 62
     5
 10
-23.23289672493047
 20
-405.62397177105942
 30
0.0
 11
-18.232896725279719
 21
-455.62397177070937
 31
0.0
  0
LINE
  8
DETAIL
  6
CONTINUOUS
 62
     5
 10
-20.247785154351732
 20
-405.32546061379162
 30
0.0
 11
-15.24778515470098
 21
-455.32546061396658
 31
0.0
  0
LINE
  8
DETAIL
  6
CONTINUOUS
 62
     5
 10
-24.327437634565289
 20
-405.73342586160243
 30
0.0
 11
-16.168132674669319
 21
-404.91749536598081
 31
0.0
  0
LINE
  8
DETAIL
  6
CONTINUOUS
 62
     5
 10
-18.232896725279719
 20
-455.62397177070937
 30
0.0
 11
-13.1369925202016
 21
-455.11438135056909
 31
0.0
  0
ARC
  8
DETAIL
  6
CONTINUOUS
 62
     5
 10
-100.4359559830523
 20
-375.70835791580521
 30
0.0
 40
78.184161644851898
 50
12.526638663621229
 51
54.871395954606093
  0
ARC
  8
DETAIL
  6
CONTINUOUS
 62
     5
 10
-90.335308605870523
 20
-368.03858458981313
 30
0.0
 40
57.804428666772218
 50
14.116686170311061
 51
76.766774293004943
  0
LINE
  8
DETAIL
  6
CONTINUOUS
 62
     5
 10
-17.262673583747532
 20
-405.02694945683862
 30
0.0
 11
-13.1369925202016
 21
-455.11438135056909
 31
0.0
  0
ARC
  8
DETAIL
  6
CONTINUOUS
 62
     5
 10
-274.67855959556982
 20
-425.63741404578087
 30
0.0
 40
259.33946066290201
 50
4.5825286912438559
 51
14.94618846377201
  0
ARC
  8
DETAIL
  6
CONTINUOUS
 62
     5
 10
-248.02941593652579
 20
-421.85269787211507
 30
0.0
 40
224.28197882656619
 50
4.1214332442900368
 51
17.625824176301659
  0
ARC
  8
DETAIL
  6
CONTINUOUS
 62
     5
 10
-170.6088666420919
 20
206.81203060971421
 30
0.0
 40
62.600229820467753
 50
94.022352496609585
 51
158.1205496265348
  0
LINE
  8
DETAIL
  6
CONTINUOUS
 62
     5
 10
-298.60000000000042
 20
-96.874436765814153
 30
0.0
 11
-298.60000000000042
 21
100.75701401340029
 31
0.0
  0
LINE
  8
DETAIL
  6
CONTINUOUS
 62
     5
 10
-298.60000000000042
 20
100.75701401340029
 30
0.0
 11
-190.60000000000039
 21
100.75701401340029
 31
0.0
  0
LINE
  8
DETAIL
  6
CONTINUOUS
 62
     5
 10
-190.60000000000039
 20
100.75701401340029
 30
0.0
 11
-190.60000000000039
 21
-100.7570140133998
 31
0.0
  0
LINE
  8
DETAIL
  6
CONTINUOUS
 62
     5
 10
-190.60000000000039
 20
-100.7570140133998
 30
0.0
 11
-260.60000000000042
 21
-100.7570140133998
 31
0.0
  0
ARC
  8
DETAIL
  6
CONTINUOUS
 62
     5
 10
-257.41672623432032
 20
225.9760796423914
 30
0.0
 40
325.46661577357492
 50
260.79640781235111
 51
269.43971340284583
  0
ARC
  8
DETAIL
  6
CONTINUOUS
 62
     5
 10
-1119.4861276908
 20
-209.31096044821561
 30
0.0
 40
817.99747504561083
 50
8.011823677265463
 51
8.4695417239966826
  0
ARC
  8
DETAIL
  6
CONTINUOUS
 62
     5
 10
-168.42374505236239
 20
218.73860860299399
 30
0.0
 40
61.345137465992821
 50
86.426341565898952
 51
169.28862638354289
  0
ARC
  8
DETAIL
  6
CONTINUOUS
 62
     5
 10
-175.4024000144766
 20
227.307766687368
 30
0.0
 40
85.144728967734054
 50
82.71118135847945
 51
178.09356144919531
  0
LINE
  8
DETAIL
  6
CONTINUOUS
 62
     5
 10
-260.5
 20
-79.191054232399892
 30
0.0
 11
-228.7000000000003
 21
-79.191054232399892
 31
0.0
  0
LINE
  8
DETAIL
  6
CONTINUOUS
 62
     5
 10
-260.5
 20
82.004737238600228
 30
0.0
 11
-228.7000000000003
 21
82.004737238600228
 31
0.0
  0
ARC
  8
OUTLINE
  6
CONTINUOUS
 62
     3
 10
-8.2415482873293513
 20
339.15456706228628
 30
0.0
 40
6.2888732111648302
 50
105.8742062610942
 51
176.77329226488581
  0
ARC
  8
OUTLINE
  6
CONTINUOUS
 62
     3
 10
-171.14595412001199
 20
-222.30687905110489
 30
0.0
 40
89.696757371570243
 50
185.01016429713161
 51
274.18509289519261
  0
ARC
  8
OUTLINE
  6
CONTINUOUS
 62
     3
 10
-8.2415482873293513
 20
-339.15456706228628
 30
0.0
 40
6.2888732111648302
 50
183.22670773511419
 51
254.1257937389058
  0
ARC
  8
OUTLINE
  6
CONTINUOUS
 62
     3
 10
-175.4024000144766
 20
227.307766687368
 30
0.0
 40
85.144728967734054
 50
82.71118135847945
 51
178.09356144919531
  0
ENDSEC
  0
EOF
