  0
SECTION
  2
HEADER
  9
$ACADVER
  1
AC1009
  9
$DWGCODEPAGE
  3
dos932
  9
$INSBASE
 10
0.0
 20
0.0
 30
0.0
  9
$EXTMIN
 10
-524.33622599851515
 20
-517.82225400421521
 30
-0.0072422162130579
  9
$EXTMAX
 10
895.04243084816335
 20
857.48291848865665
 30
0.0048289391259004
  9
$LIMMIN
 10
-2970.0
 20
-2100.0
  9
$LIMMAX
 10
2970.0
 20
2100.0
  9
$ORTHOMODE
 70
     1
  9
$REGENMODE
 70
     1
  9
$FILLMODE
 70
     1
  9
$QTEXTMODE
 70
     0
  9
$MIRRTEXT
 70
     0
  9
$LTSCALE
 40
20.0
  9
$ATTMODE
 70
     1
  9
$TEXTSIZE
 40
64.0
  9
$TRACEWID
 40
0.05
  9
$TEXTSTYLE
  7
STANDARD
  9
$CLAYER
  8
SIZE
  9
$CELTYPE
  6
CONTINUOUS
  9
$CECOLOR
 62
     7
  9
$DIMSCALE
 40
1.0
  9
$DIMASZ
 40
12.0
  9
$DIMEXO
 40
20.0
  9
$DIMDLI
 40
200.0
  9
$DIMRND
 40
0.0
  9
$DIMDLE
 40
0.0
  9
$DIMEXE
 40
20.0
  9
$DIMTP
 40
0.0
  9
$DIMTM
 40
0.0
  9
$DIMTXT
 40
64.0
  9
$DIMCEN
 40
0.09
  9
$DIMTSZ
 40
0.0
  9
$DIMTOL
 70
     0
  9
$DIMLIM
 70
     0
  9
$DIMTIH
 70
     0
  9
$DIMTOH
 70
     0
  9
$DIMSE1
 70
     0
  9
$DIMSE2
 70
     0
  9
$DIMTAD
 70
     1
  9
$DIMZIN
 70
     8
  9
$DIMBLK
  1

  9
$DIMASO
 70
     1
  9
$DIMSHO
 70
     0
  9
$DIMPOST
  1

  9
$DIMAPOST
  1

  9
$DIMALT
 70
     0
  9
$DIMALTD
 70
     2
  9
$DIMALTF
 40
25.399999999999999
  9
$DIMLFAC
 40
1.0
  9
$DIMTOFL
 70
     1
  9
$DIMTVP
 40
0.0
  9
$DIMTIX
 70
     1
  9
$DIMSOXD
 70
     0
  9
$DIMSAH
 70
     0
  9
$DIMBLK1
  1

  9
$DIMBLK2
  1

  9
$DIMSTYLE
  2
STANDARD
  9
$DIMCLRD
 70
     7
  9
$DIMCLRE
 70
     7
  9
$DIMCLRT
 70
     7
  9
$DIMTFAC
 40
1.0
  9
$DIMGAP
 40
25.0
  9
$LUNITS
 70
     2
  9
$LUPREC
 70
     4
  9
$SKETCHINC
 40
0.1
  9
$FILLETRAD
 40
3.0
  9
$AUNITS
 70
     1
  9
$AUPREC
 70
     3
  9
$MENU
  1
ACAD
  9
$ELEVATION
 40
0.0
  9
$PELEVATION
 40
0.0
  9
$THICKNESS
 40
0.0
  9
$LIMCHECK
 70
     0
  9
$CHAMFERA
 40
0.0
  9
$CHAMFERB
 40
0.0
  9
$SKPOLY
 70
     0
  9
$TDCREATE
 40
2453019.62301037
  9
$TDUPDATE
 40
2458949.450295393
  9
$TDINDWG
 40
1.7134534838
  9
$TDUSRTIMER
 40
1.7134534838
  9
$USRTIMER
 70
     1
  9
$ANGBASE
 50
0.0
  9
$ANGDIR
 70
     0
  9
$PDMODE
 70
     3
  9
$PDSIZE
 40
-2.0
  9
$PLINEWID
 40
0.0
  9
$SPLFRAME
 70
     0
  9
$SPLINETYPE
 70
     6
  9
$SPLINESEGS
 70
     8
  9
$SURFTAB1
 70
     6
  9
$SURFTAB2
 70
     6
  9
$SURFTYPE
 70
     6
  9
$SURFU
 70
     6
  9
$SURFV
 70
     6
  9
$UCSNAME
  2

  9
$UCSORG
 10
0.0
 20
0.0
 30
0.0
  9
$UCSXDIR
 10
1.0
 20
0.0
 30
0.0
  9
$UCSYDIR
 10
0.0
 20
1.0
 30
0.0
  9
$PUCSNAME
  2

  9
$PUCSORG
 10
0.0
 20
0.0
 30
0.0
  9
$PUCSXDIR
 10
1.0
 20
0.0
 30
0.0
  9
$PUCSYDIR
 10
0.0
 20
1.0
 30
0.0
  9
$USERI1
 70
     0
  9
$USERI2
 70
     0
  9
$USERI3
 70
     0
  9
$USERI4
 70
     0
  9
$USERI5
 70
     0
  9
$USERR1
 40
20.0
  9
$USERR2
 40
0.0
  9
$USERR3
 40
0.0
  9
$USERR4
 40
0.0
  9
$USERR5
 40
0.0
  9
$WORLDVIEW
 70
     1
  9
$SHADEDGE
 70
     3
  9
$SHADEDIF
 70
    70
  9
$TILEMODE
 70
     1
  9
$MAXACTVP
 70
    48
  9
$PINSBASE
 10
0.0
 20
0.0
 30
0.0
  9
$PLIMCHECK
 70
     0
  9
$PEXTMIN
 10
-100000000000000000000.0
 20
-100000000000000000000.0
 30
-100000000000000000000.0
  9
$PEXTMAX
 10
100000000000000000000.0
 20
100000000000000000000.0
 30
100000000000000000000.0
  9
$PLIMMIN
 10
0.0
 20
0.0
  9
$PLIMMAX
 10
12.0
 20
9.0
  9
$UNITMODE
 70
     0
  9
$VISRETAIN
 70
     0
  9
$PLINEGEN
 70
     0
  9
$PSLTSCALE
 70
     0
  9
$TREEDEPTH
 70
  3020
  9
$ATTDIA
 70
     0
  9
$ATTREQ
 70
     1
  9
$BLIPMODE
 70
     1
  9
$COORDS
 70
     1
  9
$DRAGMODE
 70
     2
  9
$OSMODE
 70
     0
  9
$HANDLING
 70
     0
  9
$HANDSEED
  5
113CB
  0
ENDSEC
  0
SECTION
  2
TABLES
  0
TABLE
  2
LTYPE
 70
     2
  0
LTYPE
  2
CONTINUOUS
 70
     0
  3
実線
 72
    65
 73
     0
 40
0.0
  0
LTYPE
  2
DASHDOT
 70
     0
  3
____ _ ____ _ ____ _ ____ _ ____ _ ____ _ ____
 72
    65
 73
     4
 40
5.5
 49
4.0
 49
-0.6
 49
0.3
 49
-0.6
  0
ENDTAB
  0
TABLE
  2
LAYER
 70
    12
  0
LAYER
  2
0
 70
     0
 62
     7
  6
CONTINUOUS
  0
LAYER
  2
BASIS
 70
     0
 62
     6
  6
DASHDOT
  0
LAYER
  2
OUTLINE
 70
     0
 62
     3
  6
CONTINUOUS
  0
LAYER
  2
DETAIL
 70
     0
 62
     5
  6
CONTINUOUS
  0
LAYER
  2
SIZE
 70
     0
 62
    30
  6
CONTINUOUS
  0
LAYER
  2
ARRANGE
 70
     0
 62
     1
  6
CONTINUOUS
  0
LAYER
  2
DEFPOINTS
 70
     0
 62
     7
  6
CONTINUOUS
  0
LAYER
  2
ETC
 70
     0
 62
    61
  6
CONTINUOUS
  0
LAYER
  2
FIX
 70
     0
 62
    11
  6
CONTINUOUS
  0
LAYER
  2
NOTE
 70
     0
 62
     4
  6
CONTINUOUS
  0
LAYER
  2
SERVICESPACE
 70
    64
 62
     2
  6
DASHDOT
  0
LAYER
  2
SYMBOLLINE
 70
    64
 62
    15
  6
CONTINUOUS
  0
ENDTAB
  0
TABLE
  2
STYLE
 70
     1
  0
STYLE
  2
STANDARD
 70
     0
 40
64.0
 41
0.9
 50
0.0
 71
     0
 42
64.0
  3
SIMPLEX.shx
  4
BIGFONT.shx
  0
ENDTAB
  0
TABLE
  2
APPID
 70
    19
  0
APPID
  2
ACAD
 70
     0
  0
APPID
  2
AUTOCAD_POSTSCRIPT_FIGURE
 70
     0
  0
APPID
  2
ACAD_EXEMPT_FROM_CAD_STANDARDS
 70
     0
  0
APPID
  2
ACAD_PSEXT
 70
     0
  0
APPID
  2
ACAUTHENVIRON
 70
     0
  0
APPID
  2
GENIUS_GENOENT_13
 70
     0
  0
APPID
  2
GENIUS_GENCFG_13
 70
     0
  0
APPID
  2
GENIUS_GENCFG0_13
 70
     0
  0
APPID
  2
GENIUS_GENCFG1_13
 70
     0
  0
APPID
  2
GENIUS_GENCFG2_13
 70
     0
  0
APPID
  2
GENIUS_GENCFG3_13
 70
     0
  0
APPID
  2
GENIUS_GENCFG4_13
 70
     0
  0
APPID
  2
GENIUS_GEVCFG0_13
 70
     0
  0
APPID
  2
CONTENTBLOCKICON
 70
     0
  0
APPID
  2
CONTENTBLOCKDESCRIPTION
 70
     0
  0
APPID
  2
ACAD_NAV_VCDISPLAY
 70
     0
  0
APPID
  2
ACAD_MLEADERVER
 70
     0
  0
APPID
  2
ACDBDYNAMICBLOCKTRUENAME
 70
     0
  0
APPID
  2
ACDBDYNAMICBLOCKGUID
 70
     0
  0
ENDTAB
  0
TABLE
  2
DIMSTYLE
 70
     1
  0
DIMSTYLE
  2
STANDARD
 70
     0
  3

  4

  5
_ORIGIN
  6

  7

 40
1.0
 41
12.0
 42
20.0
 43
200.0
 44
20.0
 45
0.0
 46
0.0
 47
0.0
 48
0.0
140
64.0
141
0.09
142
0.0
143
25.399999999999999
144
1.0
145
0.0
146
1.0
147
25.0
 71
     0
 72
     0
 73
     0
 74
     0
 75
     0
 76
     0
 77
     1
 78
     8
170
     0
171
     2
172
     1
173
     0
174
     1
175
     0
176
     7
177
     7
178
     7
  0
ENDTAB
  0
TABLE
  2
VIEW
 70
     1
  0
VIEW
  2
ALL
 70
     0
 40
4282.6198079999986
 10
0.0
 20
41.309904000000003
 41
5940.0
 11
0.0
 21
0.0
 31
1.0
 12
0.0
 22
0.0
 32
0.0
 42
50.0
 43
0.0
 44
0.0
 50
0.0
 71
     0
  0
ENDTAB
  0
TABLE
  2
UCS
 70
     0
  0
ENDTAB
  0
TABLE
  2
VPORT
 70
     1
  0
VPORT
  2
*ACTIVE
 70
     0
 10
0.0
 20
0.0
 11
1.0
 21
1.0
 12
185.35310242482419
 22
169.83033224222069
 13
0.0
 23
0.0
 14
1.0
 24
1.0
 15
0.0
 25
0.0
 16
0.0
 26
0.0
 36
1.0
 17
0.0
 27
0.0
 37
0.0
 40
1384.4232178353659
 41
1.747787610619469
 42
50.0
 43
0.0
 44
0.0
 50
0.0
 51
0.0
 71
     0
 72
  1000
 73
     1
 74
     3
 75
     0
 76
     0
 77
     0
 78
     0
  0
ENDTAB
  0
ENDSEC
  0
SECTION
  2
BLOCKS
  0
BLOCK
  8
0
  2
_ORIGIN
 70
     0
 10
0.0
 20
0.0
 30
0.0
  3
_ORIGIN
  1
_ORIGIN
  0
CIRCLE
  8
0
  6
CONTINUOUS
 62
     7
 10
0.0
 20
0.0
 30
0.0
 40
0.5
  0
LINE
  8
0
  6
CONTINUOUS
 62
     7
 10
0.0
 20
0.0
 30
0.0
 11
-1.0
 21
0.0
 31
0.0
  0
ENDBLK
  8
0
  0
ENDSEC
  0
SECTION
  2
ENTITIES
  0
POINT
  8
ARRANGE
  6
CONTINUOUS
 62
     1
 10
0.0
 20
0.0
 30
0.0
  0
CIRCLE
  8
ARRANGE
  6
CONTINUOUS
 62
     1
 10
0.0
 20
0.0
 30
0.0
 40
40.0
  0
TEXT
  8
ETC
  6
CONTINUOUS
 62
    61
 10
269.49467306703718
 20
678.73240120606988
 30
0.0
 40
64.0
  1
EWF-60HTA2_4
 41
0.9
  0
TEXT
  8
ETC
  6
CONTINUOUS
 62
    61
 10
265.30867906703719
 20
560.77709119123847
 30
0.0
 40
64.0
  1
有圧換気扇
 41
0.9
  0
TEXT
  8
ETC
  6
CONTINUOUS
 62
    61
 10
314.81690110542968
 20
451.76284041825511
 30
0.0
 40
40.0
  1
EWF-60HTA2
 41
0.9
  0
LINE
  8
DETAIL
  6
CONTINUOUS
 62
     5
 10
-3.0
 20
-351.5
 30
0.0
 11
-6.4000000000000909
 21
-351.5
 31
0.0
  0
LINE
  8
DETAIL
  6
CONTINUOUS
 62
     5
 10
-5.0999999999999091
 20
-348.33452377920003
 30
0.0
 11
-3.0
 21
-348.33452377920003
 31
0.0
  0
LINE
  8
DETAIL
  6
CONTINUOUS
 62
     5
 10
-13.86763733420003
 20
-341.5
 30
0.0
 11
-16.400000000000091
 21
-341.5
 31
0.0
  0
LINE
  8
DETAIL
  6
CONTINUOUS
 62
     5
 10
-20.5
 20
-336.5
 30
0.0
 11
-20.0
 21
-336.5
 31
0.0
  0
LINE
  8
DETAIL
  6
CONTINUOUS
 62
     5
 10
-114.5
 20
-312.62563132929989
 30
0.0
 11
-112.5
 21
-314.03984489159973
 31
0.0
  0
LINE
  8
DETAIL
  6
CONTINUOUS
 62
     5
 10
-119.5
 20
-290.91745314680009
 30
0.0
 11
-120.5
 21
-290.21034636559989
 31
0.0
  0
LINE
  8
DETAIL
  6
CONTINUOUS
 62
     5
 10
-272.79828756830011
 20
-69.078358506499853
 30
0.0
 11
-272.84932060509999
 21
-68.975153107899814
 31
0.0
  0
LINE
  8
DETAIL
  6
CONTINUOUS
 62
     5
 10
-272.84932060509999
 20
-68.975153107899814
 30
0.0
 11
-272.88699024810012
 21
-68.85301696800002
 31
0.0
  0
LINE
  8
DETAIL
  6
CONTINUOUS
 62
     5
 10
-272.88699024810012
 20
-68.85301696800002
 30
0.0
 11
-272.90000000000009
 21
-68.731602038699975
 31
0.0
  0
LINE
  8
DETAIL
  6
CONTINUOUS
 62
     5
 10
-272.45341801260003
 20
-62.407680453699868
 30
0.0
 11
-272.58841816450013
 21
-62.054190407799979
 31
0.0
  0
LINE
  8
DETAIL
  6
CONTINUOUS
 62
     5
 10
-272.58841816450013
 20
-62.054190407799979
 30
0.0
 11
-272.69936130209999
 21
-61.707321518199933
 31
0.0
  0
LINE
  8
DETAIL
  6
CONTINUOUS
 62
     5
 10
-272.69936130209999
 20
-61.707321518199933
 30
0.0
 11
-272.78640765720002
 21
-61.368299942699878
 31
0.0
  0
LINE
  8
DETAIL
  6
CONTINUOUS
 62
     5
 10
-272.78640765720002
 20
-61.368299942699878
 30
0.0
 11
-272.84907653429991
 21
-61.033447208299997
 31
0.0
  0
LINE
  8
DETAIL
  6
CONTINUOUS
 62
     5
 10
-272.84907653429991
 20
-61.033447208299997
 30
0.0
 11
-272.88688723799987
 21
-60.69908484199982
 31
0.0
  0
LINE
  8
DETAIL
  6
CONTINUOUS
 62
     5
 10
-272.88688723799987
 20
-60.69908484199982
 30
0.0
 11
-272.90000000000009
 21
-60.36643900139984
 31
0.0
  0
LINE
  8
DETAIL
  6
CONTINUOUS
 62
     5
 10
-286.28008866990012
 20
-74.176912213999913
 30
0.0
 11
-286.22223043110012
 21
-74.33440375759983
 31
0.0
  0
LINE
  8
DETAIL
  6
CONTINUOUS
 62
     5
 10
-286.22223043110012
 20
-74.33440375759983
 30
0.0
 11
-286.12544677149998
 21
-74.487188428499849
 31
0.0
  0
LINE
  8
DETAIL
  6
CONTINUOUS
 62
     5
 10
-286.12544677149998
 20
-74.487188428499849
 30
0.0
 11
-285.99267322750012
 21
-74.631261521599981
 31
0.0
  0
LINE
  8
DETAIL
  6
CONTINUOUS
 62
     5
 10
-285.99267322750012
 20
-74.631261521599981
 30
0.0
 11
-285.82527778729991
 21
-74.763799528700019
 31
0.0
  0
LINE
  8
DETAIL
  6
CONTINUOUS
 62
     5
 10
-285.82527778729991
 20
-74.763799528700019
 30
0.0
 11
-285.62698458360001
 21
-74.883116813699871
 31
0.0
  0
LINE
  8
DETAIL
  6
CONTINUOUS
 62
     5
 10
-285.62698458360001
 20
-74.883116813699871
 30
0.0
 11
-285.5
 21
-74.941368242699809
 31
0.0
  0
LINE
  8
DETAIL
  6
CONTINUOUS
 62
     5
 10
-279.30000000000018
 20
-78.34402283229997
 30
0.0
 11
-279.37140356079999
 21
-78.132788591399958
 31
0.0
  0
LINE
  8
DETAIL
  6
CONTINUOUS
 62
     5
 10
-279.37140356079999
 20
-78.132788591399958
 30
0.0
 11
-279.58344468230013
 21
-77.927972595899973
 31
0.0
  0
LINE
  8
DETAIL
  6
CONTINUOUS
 62
     5
 10
-279.58344468230013
 20
-77.927972595899973
 30
0.0
 11
-279.92968060219982
 21
-77.735798076299943
 31
0.0
  0
LINE
  8
DETAIL
  6
CONTINUOUS
 62
     5
 10
-279.92968060219982
 20
-77.735798076299943
 30
0.0
 11
-280.39959111730008
 21
-77.562104158199872
 31
0.0
  0
LINE
  8
DETAIL
  6
CONTINUOUS
 62
     5
 10
-280.39959111730008
 20
-77.562104158199872
 30
0.0
 11
-280.97889823449992
 21
-77.412168443399878
 31
0.0
  0
LINE
  8
DETAIL
  6
CONTINUOUS
 62
     5
 10
-280.97889823449992
 20
-77.412168443399878
 30
0.0
 11
-281.65000000000009
 21
-77.29054665249987
 31
0.0
  0
LINE
  8
DETAIL
  6
CONTINUOUS
 62
     5
 10
-281.65000000000009
 20
-77.29054665249987
 30
0.0
 11
-282.39250532640023
 21
-77.200934202399822
 31
0.0
  0
LINE
  8
DETAIL
  6
CONTINUOUS
 62
     5
 10
-282.39250532640023
 20
-77.200934202399822
 30
0.0
 11
-283.18385356499988
 21
-77.146053921799876
 31
0.0
  0
LINE
  8
DETAIL
  6
CONTINUOUS
 62
     5
 10
-283.18385356499988
 20
-77.146053921799876
 30
0.0
 11
-284.0
 21
-77.127573320399961
 31
0.0
  0
LINE
  8
DETAIL
  6
CONTINUOUS
 62
     5
 10
-279.30161893069999
 20
-77.861059919199988
 30
0.0
 11
-279.37140356079999
 21
-77.649825678199932
 31
0.0
  0
LINE
  8
DETAIL
  6
CONTINUOUS
 62
     5
 10
-279.37140356079999
 20
-77.649825678199932
 30
0.0
 11
-279.58496597949988
 21
-77.445152992600015
 31
0.0
  0
LINE
  8
DETAIL
  6
CONTINUOUS
 62
     5
 10
-279.58496597949988
 20
-77.445152992600015
 30
0.0
 11
-279.92968060219982
 21
-77.252835163199961
 31
0.0
  0
LINE
  8
DETAIL
  6
CONTINUOUS
 62
     5
 10
-279.92968060219982
 20
-77.252835163199961
 30
0.0
 11
-280.40083129020007
 21
-77.07941057959988
 31
0.0
  0
LINE
  8
DETAIL
  6
CONTINUOUS
 62
     5
 10
-280.40083129020007
 20
-77.07941057959988
 30
0.0
 11
-280.97889823449992
 21
-76.929205530199852
 31
0.0
  0
LINE
  8
DETAIL
  6
CONTINUOUS
 62
     5
 10
-280.97889823449992
 20
-76.929205530199852
 30
0.0
 11
-281.65080946529997
 21
-76.807946612799924
 31
0.0
  0
LINE
  8
DETAIL
  6
CONTINUOUS
 62
     5
 10
-281.65080946529997
 20
-76.807946612799924
 30
0.0
 11
-282.39250532640023
 21
-76.717971289199795
 31
0.0
  0
LINE
  8
DETAIL
  6
CONTINUOUS
 62
     5
 10
-282.39250532640023
 20
-76.717971289199795
 30
0.0
 11
-283.17201671549992
 21
-76.664056678299858
 31
0.0
  0
LINE
  8
DETAIL
  6
CONTINUOUS
 62
     5
 10
-283.17201671549992
 20
-76.664056678299858
 30
0.0
 11
-284.0
 21
-76.644610407199934
 31
0.0
  0
LINE
  8
DETAIL
  6
CONTINUOUS
 62
     5
 10
-112.5
 20
-314.03984489159973
 30
0.0
 11
-14.5
 21
-314.03984489159973
 31
0.0
  0
LINE
  8
DETAIL
  6
CONTINUOUS
 62
     5
 10
-123.0
 20
-307.08808545500011
 30
0.0
 11
-119.5
 21
-307.08808545500011
 31
0.0
  0
LINE
  8
DETAIL
  6
CONTINUOUS
 62
     5
 10
-118.5
 20
-306.33238097669982
 30
0.0
 11
-124.0
 21
-306.33238097669982
 31
0.0
  0
LINE
  8
DETAIL
  6
CONTINUOUS
 62
     5
 10
-114.5
 20
-302.72613639259998
 30
0.0
 11
-118.5
 21
-302.72613639259998
 31
0.0
  0
LINE
  8
DETAIL
  6
CONTINUOUS
 62
     5
 10
-118.5
 20
-301.94831893330002
 30
0.0
 11
-124.0
 21
-301.94831893330002
 31
0.0
  0
LINE
  8
DETAIL
  6
CONTINUOUS
 62
     5
 10
-123.0
 20
-301.02908011779982
 30
0.0
 11
-119.5
 21
-301.02908011779982
 31
0.0
  0
LINE
  8
DETAIL
  6
CONTINUOUS
 62
     5
 10
-118.5
 20
-298.41278502739988
 30
0.0
 11
-119.5
 21
-298.41278502739988
 31
0.0
  0
LINE
  8
DETAIL
  6
CONTINUOUS
 62
     5
 10
-123.0
 20
-298.41278502739988
 30
0.0
 11
-124.0
 21
-298.41278502739988
 31
0.0
  0
LINE
  8
DETAIL
  6
CONTINUOUS
 62
     5
 10
-119.5
 20
-296.36217536200002
 30
0.0
 11
-114.5
 21
-296.36217536200002
 31
0.0
  0
LINE
  8
DETAIL
  6
CONTINUOUS
 62
     5
 10
-14.5
 20
-291.41242789369988
 30
0.0
 11
-112.5
 21
-291.41242789369988
 31
0.0
  0
LINE
  8
DETAIL
  6
CONTINUOUS
 62
     5
 10
-122.0
 20
-290.21034636559989
 30
0.0
 11
-120.5
 21
-290.21034636559989
 31
0.0
  0
LINE
  8
DETAIL
  6
CONTINUOUS
 62
     5
 10
-14.5
 20
-288.23044737829991
 30
0.0
 11
-112.5
 21
-288.23044737829991
 31
0.0
  0
LINE
  8
DETAIL
  6
CONTINUOUS
 62
     5
 10
-6.4000000000000909
 20
-287.52334059709978
 30
0.0
 11
-3.0
 21
-287.52334059709978
 31
0.0
  0
LINE
  8
DETAIL
  6
CONTINUOUS
 62
     5
 10
-271.29717903950001
 20
-83.034200025299924
 30
0.0
 11
-270.9490164007002
 21
-83.38785080879984
 31
0.0
  0
LINE
  8
DETAIL
  6
CONTINUOUS
 62
     5
 10
-270.9490164007002
 20
-83.38785080879984
 30
0.0
 11
-270.70009901460003
 21
-83.728170431499848
 31
0.0
  0
LINE
  8
DETAIL
  6
CONTINUOUS
 62
     5
 10
-270.70009901460003
 20
-83.728170431499848
 30
0.0
 11
-270.55022581780008
 21
-84.055371371699948
 31
0.0
  0
LINE
  8
DETAIL
  6
CONTINUOUS
 62
     5
 10
-270.55022581780008
 20
-84.055371371699948
 30
0.0
 11
-270.5
 21
-84.365625639600012
 31
0.0
  0
LINE
  8
DETAIL
  6
CONTINUOUS
 62
     5
 10
-288.54109460590013
 20
-78.657659808900007
 30
0.0
 11
-288.62859643920001
 21
-78.555257073299799
 31
0.0
  0
LINE
  8
DETAIL
  6
CONTINUOUS
 62
     5
 10
-288.62859643920001
 20
-78.555257073299799
 30
0.0
 11
-288.69999999999999
 21
-78.34402283229997
 31
0.0
  0
LINE
  8
DETAIL
  6
CONTINUOUS
 62
     5
 10
-272.79816643869998
 20
-69.07835380929987
 30
0.0
 11
-272.90000000000009
 21
-68.901972907299978
 31
0.0
  0
LINE
  8
DETAIL
  6
CONTINUOUS
 62
     5
 10
-268.90000000000009
 20
-58.901972907299978
 30
0.0
 11
-269.00183356129992
 21
-58.725592005199807
 31
0.0
  0
LINE
  8
DETAIL
  6
CONTINUOUS
 62
     5
 10
-272.45341801260003
 20
65.393555474799996
 30
0.0
 11
-272.58841816450013
 21
65.747045520700112
 31
0.0
  0
LINE
  8
DETAIL
  6
CONTINUOUS
 62
     5
 10
-272.58841816450013
 20
65.747045520700112
 30
0.0
 11
-272.69936130209999
 21
66.093914410300158
 31
0.0
  0
LINE
  8
DETAIL
  6
CONTINUOUS
 62
     5
 10
-272.69936130209999
 20
66.093914410300158
 30
0.0
 11
-272.78640765720002
 21
66.432935985800214
 31
0.0
  0
LINE
  8
DETAIL
  6
CONTINUOUS
 62
     5
 10
-272.78640765720002
 20
66.432935985800214
 30
0.0
 11
-272.84907653429991
 21
66.767788720200087
 31
0.0
  0
LINE
  8
DETAIL
  6
CONTINUOUS
 62
     5
 10
-272.84907653429991
 20
66.767788720200087
 30
0.0
 11
-272.88688723799987
 21
67.102151086500044
 31
0.0
  0
LINE
  8
DETAIL
  6
CONTINUOUS
 62
     5
 10
-272.88688723799987
 20
67.102151086500044
 30
0.0
 11
-272.90000000000009
 21
67.434796927100024
 31
0.0
  0
LINE
  8
DETAIL
  6
CONTINUOUS
 62
     5
 10
-125.59999999999989
 20
-273.73475836399962
 30
0.0
 11
-14.5
 21
-273.73475836399962
 31
0.0
  0
LINE
  8
DETAIL
  6
CONTINUOUS
 62
     5
 10
-14.5
 20
-257.82485578729978
 30
0.0
 11
-10.0
 21
-257.82485578729978
 31
0.0
  0
LINE
  8
DETAIL
  6
CONTINUOUS
 62
     5
 10
-16.400000000000091
 20
-245.8040405070999
 30
0.0
 11
-13.0
 21
-245.8040405070999
 31
0.0
  0
LINE
  8
DETAIL
  6
CONTINUOUS
 62
     5
 10
-296.70282096049999
 20
-85.400000891599802
 30
0.0
 11
-297.05098359930003
 21
-85.174136627699909
 31
0.0
  0
LINE
  8
DETAIL
  6
CONTINUOUS
 62
     5
 10
-297.05098359930003
 20
-85.174136627699909
 30
0.0
 11
-297.29990098550002
 21
-84.926883654099811
 31
0.0
  0
LINE
  8
DETAIL
  6
CONTINUOUS
 62
     5
 10
-297.29990098550002
 20
-84.926883654099811
 30
0.0
 11
-297.44977418219992
 21
-84.656708660099866
 31
0.0
  0
LINE
  8
DETAIL
  6
CONTINUOUS
 62
     5
 10
-297.44977418219992
 20
-84.656708660099866
 30
0.0
 11
-297.5
 21
-84.365625639600012
 31
0.0
  0
LINE
  8
DETAIL
  6
CONTINUOUS
 62
     5
 10
-285.52027957960013
 20
-79.530281311399904
 30
0.0
 11
-285.27484344509998
 21
-79.700457093299974
 31
0.0
  0
LINE
  8
DETAIL
  6
CONTINUOUS
 62
     5
 10
-285.27484344509998
 20
-79.700457093299974
 30
0.0
 11
-285.02543174750008
 21
-79.852780143399968
 31
0.0
  0
LINE
  8
DETAIL
  6
CONTINUOUS
 62
     5
 10
-285.02543174750008
 20
-79.852780143399968
 30
0.0
 11
-284.77282227020009
 21
-79.98677544659995
 31
0.0
  0
LINE
  8
DETAIL
  6
CONTINUOUS
 62
     5
 10
-284.77282227020009
 20
-79.98677544659995
 30
0.0
 11
-284.51780276840009
 21
-80.102025142199864
 31
0.0
  0
LINE
  8
DETAIL
  6
CONTINUOUS
 62
     5
 10
-284.51780276840009
 20
-80.102025142199864
 30
0.0
 11
-284.26116851350002
 21
-80.198169827299807
 31
0.0
  0
LINE
  8
DETAIL
  6
CONTINUOUS
 62
     5
 10
-284.26116851350002
 20
-80.198169827299807
 30
0.0
 11
-283.99999997680021
 21
-80.275874490899923
 31
0.0
  0
LINE
  8
DETAIL
  6
CONTINUOUS
 62
     5
 10
-272.45341801260003
 20
-69.478748265499917
 30
0.0
 11
-272.5888679136001
 21
-69.348828225599846
 31
0.0
  0
LINE
  8
DETAIL
  6
CONTINUOUS
 62
     5
 10
-272.5888679136001
 20
-69.348828225599846
 30
0.0
 11
-272.70000164610019
 21
-69.221589019299927
 31
0.0
  0
LINE
  8
DETAIL
  6
CONTINUOUS
 62
     5
 10
-272.70000164610019
 20
-69.221589019299927
 30
0.0
 11
-272.78690514049998
 21
-69.097520552599917
 31
0.0
  0
LINE
  8
DETAIL
  6
CONTINUOUS
 62
     5
 10
-272.78690514049998
 20
-69.097520552599917
 30
0.0
 11
-272.79828756830011
 21
-69.078358506499853
 31
0.0
  0
LINE
  8
DETAIL
  6
CONTINUOUS
 62
     5
 10
-269.34658198739999
 20
-58.325197548999988
 30
0.0
 11
-269.21113766500002
 21
-58.455110395599831
 31
0.0
  0
LINE
  8
DETAIL
  6
CONTINUOUS
 62
     5
 10
-269.21113766500002
 20
-58.455110395599831
 30
0.0
 11
-269.1000056414
 21
-58.582347569499923
 31
0.0
  0
LINE
  8
DETAIL
  6
CONTINUOUS
 62
     5
 10
-269.1000056414
 20
-58.582347569499923
 30
0.0
 11
-269.0130984499001
 21
-58.706421305599861
 31
0.0
  0
LINE
  8
DETAIL
  6
CONTINUOUS
 62
     5
 10
-269.0130984499001
 20
-58.706421305599861
 30
0.0
 11
-269.0017135347
 21
-58.725587350799969
 31
0.0
  0
LINE
  8
DETAIL
  6
CONTINUOUS
 62
     5
 10
-272.79830159509987
 20
65.793944690200078
 30
0.0
 11
-272.78688116250009
 21
65.774720287900209
 31
0.0
  0
LINE
  8
DETAIL
  6
CONTINUOUS
 62
     5
 10
-272.78688116250009
 20
65.774720287900209
 30
0.0
 11
-272.70000901499998
 21
65.650724050100052
 31
0.0
  0
LINE
  8
DETAIL
  6
CONTINUOUS
 62
     5
 10
-272.70000901499998
 20
65.650724050100052
 30
0.0
 11
-272.58887968990012
 21
65.523497655400206
 31
0.0
  0
LINE
  8
DETAIL
  6
CONTINUOUS
 62
     5
 10
-272.58887968990012
 20
65.523497655400206
 30
0.0
 11
-272.45341801260003
 21
65.393555474799996
 31
0.0
  0
LINE
  8
DETAIL
  6
CONTINUOUS
 62
     5
 10
-272.79816643869998
 20
65.793949931000043
 30
0.0
 11
-272.90000000000009
 21
65.970330833100206
 31
0.0
  0
LINE
  8
DETAIL
  6
CONTINUOUS
 62
     5
 10
-268.90000000000009
 20
75.970330833100206
 30
0.0
 11
-269.00183356129992
 21
76.146711735100098
 31
0.0
  0
LINE
  8
DETAIL
  6
CONTINUOUS
 62
     5
 10
-285.5
 20
-76.596365106099938
 30
0.0
 11
-285.62700263940002
 21
-76.537975520599957
 31
0.0
  0
LINE
  8
DETAIL
  6
CONTINUOUS
 62
     5
 10
-285.62700263940002
 20
-76.537975520599957
 30
0.0
 11
-285.82529067180008
 21
-76.418415097199841
 31
0.0
  0
LINE
  8
DETAIL
  6
CONTINUOUS
 62
     5
 10
-285.82529067180008
 20
-76.418415097199841
 30
0.0
 11
-285.99268072180013
 21
-76.285631695399843
 31
0.0
  0
LINE
  8
DETAIL
  6
CONTINUOUS
 62
     5
 10
-285.99268072180013
 20
-76.285631695399843
 30
0.0
 11
-286.12545031640002
 21
-76.141320281499929
 31
0.0
  0
LINE
  8
DETAIL
  6
CONTINUOUS
 62
     5
 10
-286.12545031640002
 20
-76.141320281499929
 30
0.0
 11
-286.22223124509992
 21
-75.988313688900007
 31
0.0
  0
LINE
  8
DETAIL
  6
CONTINUOUS
 62
     5
 10
-286.22223124509992
 20
-75.988313688900007
 30
0.0
 11
-286.28008834360003
 21
-75.830624670299812
 31
0.0
  0
LINE
  8
DETAIL
  6
CONTINUOUS
 62
     5
 10
-286.28008834360003
 20
-75.830624670299812
 30
0.0
 11
-286.30000000000018
 21
-75.666785411799992
 31
0.0
  0
LINE
  8
DETAIL
  6
CONTINUOUS
 62
     5
 10
-285.5
 20
-74.528766831999974
 30
0.0
 11
-285.52475216620002
 21
-74.516224650499908
 31
0.0
  0
LINE
  8
DETAIL
  6
CONTINUOUS
 62
     5
 10
-285.52475216620002
 20
-74.516224650499908
 30
0.0
 11
-285.63214784730008
 21
-74.450932225299994
 31
0.0
  0
LINE
  8
DETAIL
  6
CONTINUOUS
 62
     5
 10
-285.63214784730008
 20
-74.450932225299994
 30
0.0
 11
-285.72735016310003
 21
-74.381091466899989
 31
0.0
  0
LINE
  8
DETAIL
  6
CONTINUOUS
 62
     5
 10
-285.72735016310003
 20
-74.381091466899989
 30
0.0
 11
-285.80900609290012
 21
-74.307392000999926
 31
0.0
  0
LINE
  8
DETAIL
  6
CONTINUOUS
 62
     5
 10
-285.80900609290012
 20
-74.307392000999926
 30
0.0
 11
-285.87686913279998
 21
-74.230128688799823
 31
0.0
  0
LINE
  8
DETAIL
  6
CONTINUOUS
 62
     5
 10
-285.87686913279998
 20
-74.230128688799823
 30
0.0
 11
-285.93041181300009
 21
-74.149544517799995
 31
0.0
  0
LINE
  8
DETAIL
  6
CONTINUOUS
 62
     5
 10
-285.93041181300009
 20
-74.149544517799995
 30
0.0
 11
-285.96912401000009
 21
-74.066513928299855
 31
0.0
  0
LINE
  8
DETAIL
  6
CONTINUOUS
 62
     5
 10
-285.96912401000009
 20
-74.066513928299855
 30
0.0
 11
-285.99230372500011
 21
-73.981821252599957
 31
0.0
  0
LINE
  8
DETAIL
  6
CONTINUOUS
 62
     5
 10
-285.99230372500011
 20
-73.981821252599957
 30
0.0
 11
-286.00000019509997
 21
-73.896962725999856
 31
0.0
  0
LINE
  8
DETAIL
  6
CONTINUOUS
 62
     5
 10
-269.00169954019998
 20
76.146716932000118
 30
0.0
 11
-269.01312272889999
 21
76.165945767600078
 31
0.0
  0
LINE
  8
DETAIL
  6
CONTINUOUS
 62
     5
 10
-269.01312272889999
 20
76.165945767600078
 30
0.0
 11
-269.09999872859999
 21
76.28994741940005
 31
0.0
  0
LINE
  8
DETAIL
  6
CONTINUOUS
 62
     5
 10
-269.09999872859999
 20
76.28994741940005
 30
0.0
 11
-269.21112622089998
 21
76.417171613200026
 31
0.0
  0
LINE
  8
DETAIL
  6
CONTINUOUS
 62
     5
 10
-269.21112622089998
 20
76.417171613200026
 30
0.0
 11
-269.34658198739999
 21
76.547106191300145
 31
0.0
  0
LINE
  8
DETAIL
  6
CONTINUOUS
 62
     5
 10
-154.19830045980009
 20
-76.14671693199989
 30
0.0
 11
-154.1868772711
 21
-76.165945767599851
 31
0.0
  0
LINE
  8
DETAIL
  6
CONTINUOUS
 62
     5
 10
-154.1868772711
 20
-76.165945767599851
 30
0.0
 11
-154.10000127149991
 21
-76.289947419399823
 31
0.0
  0
LINE
  8
DETAIL
  6
CONTINUOUS
 62
     5
 10
-154.10000127149991
 20
-76.289947419399823
 30
0.0
 11
-153.9888737791
 21
-76.417171613199798
 31
0.0
  0
LINE
  8
DETAIL
  6
CONTINUOUS
 62
     5
 10
-153.9888737791
 20
-76.417171613199798
 30
0.0
 11
-153.8534180125998
 21
-76.547106191399962
 31
0.0
  0
LINE
  8
DETAIL
  6
CONTINUOUS
 62
     5
 10
-150.40169840489989
 20
-65.793944690199851
 30
0.0
 11
-150.4131188376
 21
-65.774720287999799
 31
0.0
  0
LINE
  8
DETAIL
  6
CONTINUOUS
 62
     5
 10
-150.4131188376
 20
-65.774720287999799
 30
0.0
 11
-150.4999909850001
 21
-65.650724050099825
 31
0.0
  0
LINE
  8
DETAIL
  6
CONTINUOUS
 62
     5
 10
-150.4999909850001
 20
-65.650724050099825
 30
0.0
 11
-150.61112031010001
 21
-65.523497655499796
 31
0.0
  0
LINE
  8
DETAIL
  6
CONTINUOUS
 62
     5
 10
-150.61112031010001
 20
-65.523497655499796
 30
0.0
 11
-150.74658198740011
 21
-65.393555474899813
 31
0.0
  0
LINE
  8
DETAIL
  6
CONTINUOUS
 62
     5
 10
-154.30000000000021
 20
-75.970330833099979
 30
0.0
 11
-154.1981664386999
 21
-76.146711735199915
 31
0.0
  0
LINE
  8
DETAIL
  6
CONTINUOUS
 62
     5
 10
-150.40183356130001
 20
-65.79394993109986
 30
0.0
 11
-150.30000000000021
 21
-65.970330833099979
 31
0.0
  0
LINE
  8
DETAIL
  6
CONTINUOUS
 62
     5
 10
-150.74658198740011
 20
-65.393555474899813
 30
0.0
 11
-150.61158183550009
 21
-65.747045520799929
 31
0.0
  0
LINE
  8
DETAIL
  6
CONTINUOUS
 62
     5
 10
-150.61158183550009
 20
-65.747045520799929
 30
0.0
 11
-150.5006386978998
 21
-66.093914410299931
 31
0.0
  0
LINE
  8
DETAIL
  6
CONTINUOUS
 62
     5
 10
-150.5006386978998
 20
-66.093914410299931
 30
0.0
 11
-150.4135923428
 21
-66.432935985799986
 31
0.0
  0
LINE
  8
DETAIL
  6
CONTINUOUS
 62
     5
 10
-150.4135923428
 20
-66.432935985799986
 30
0.0
 11
-150.35092346569991
 21
-66.76778872019986
 31
0.0
  0
LINE
  8
DETAIL
  6
CONTINUOUS
 62
     5
 10
-150.35092346569991
 20
-66.76778872019986
 30
0.0
 11
-150.31311276199969
 21
-67.102151086599861
 31
0.0
  0
LINE
  8
DETAIL
  6
CONTINUOUS
 62
     5
 10
-150.31311276199969
 20
-67.102151086599861
 30
0.0
 11
-150.30000000000021
 21
-67.434796927199841
 31
0.0
  0
LINE
  8
DETAIL
  6
CONTINUOUS
 62
     5
 10
-285.56841268810012
 20
-80.306743520599866
 30
0.0
 11
-285.91238473729999
 21
-80.211470528199925
 31
0.0
  0
LINE
  8
DETAIL
  6
CONTINUOUS
 62
     5
 10
-285.91238473729999
 20
-80.211470528199925
 30
0.0
 11
-286.24944366640011
 21
-80.097960166099938
 31
0.0
  0
LINE
  8
DETAIL
  6
CONTINUOUS
 62
     5
 10
-286.24944366640011
 20
-80.097960166099938
 30
0.0
 11
-286.58418773419999
 21
-79.964361046799922
 31
0.0
  0
LINE
  8
DETAIL
  6
CONTINUOUS
 62
     5
 10
-286.58418773419999
 20
-79.964361046799922
 30
0.0
 11
-286.91493263349997
 21
-79.810533162999945
 31
0.0
  0
LINE
  8
DETAIL
  6
CONTINUOUS
 62
     5
 10
-286.91493263349997
 20
-79.810533162999945
 30
0.0
 11
-287.24283643630002
 21
-79.634865113599972
 31
0.0
  0
LINE
  8
DETAIL
  6
CONTINUOUS
 62
     5
 10
-287.24283643630002
 20
-79.634865113599972
 30
0.0
 11
-287.56755306370002
 21
-79.43598690789986
 31
0.0
  0
LINE
  8
DETAIL
  6
CONTINUOUS
 62
     5
 10
-287.56755306370002
 20
-79.43598690789986
 30
0.0
 11
-287.89159224439999
 21
-79.209982465599978
 31
0.0
  0
LINE
  8
DETAIL
  6
CONTINUOUS
 62
     5
 10
-287.89159224439999
 20
-79.209982465599978
 30
0.0
 11
-288.2181692603001
 21
-78.950565776900021
 31
0.0
  0
LINE
  8
DETAIL
  6
CONTINUOUS
 62
     5
 10
-288.2181692603001
 20
-78.950565776900021
 30
0.0
 11
-288.54109460590013
 21
-78.657659808900007
 31
0.0
  0
LINE
  8
DETAIL
  6
CONTINUOUS
 62
     5
 10
-138.50849711230009
 20
-85.589888037299943
 30
0.0
 11
-138.6574644513
 21
-85.492966373099989
 31
0.0
  0
LINE
  8
DETAIL
  6
CONTINUOUS
 62
     5
 10
-138.6574644513
 20
-85.492966373099989
 30
0.0
 11
-138.79579292720001
 21
-85.370701231999874
 31
0.0
  0
LINE
  8
DETAIL
  6
CONTINUOUS
 62
     5
 10
-138.79579292720001
 20
-85.370701231999874
 30
0.0
 11
-138.9193947439999
 21
-85.217625362399986
 31
0.0
  0
LINE
  8
DETAIL
  6
CONTINUOUS
 62
     5
 10
-138.9193947439999
 20
-85.217625362399986
 30
0.0
 11
-139.01673185959999
 21
-85.037285073199882
 31
0.0
  0
LINE
  8
DETAIL
  6
CONTINUOUS
 62
     5
 10
-139.01673185959999
 20
-85.037285073199882
 30
0.0
 11
-139.07837572180011
 21
-84.83888586829994
 31
0.0
  0
LINE
  8
DETAIL
  6
CONTINUOUS
 62
     5
 10
-139.07837572180011
 20
-84.83888586829994
 30
0.0
 11
-139.09999999999991
 21
-84.626646482299975
 31
0.0
  0
LINE
  8
DETAIL
  6
CONTINUOUS
 62
     5
 10
-150.74658198740011
 20
-75.052813737799852
 30
0.0
 11
-150.6111320864002
 21
-75.182733777699923
 31
0.0
  0
LINE
  8
DETAIL
  6
CONTINUOUS
 62
     5
 10
-150.6111320864002
 20
-75.182733777699923
 30
0.0
 11
-150.49999835390011
 21
-75.309972983999842
 31
0.0
  0
LINE
  8
DETAIL
  6
CONTINUOUS
 62
     5
 10
-150.49999835390011
 20
-75.309972983999842
 30
0.0
 11
-150.41309485950001
 21
-75.434041450699851
 31
0.0
  0
LINE
  8
DETAIL
  6
CONTINUOUS
 62
     5
 10
-150.41309485950001
 20
-75.434041450699851
 30
0.0
 11
-150.3506793949
 21
-75.556408895399954
 31
0.0
  0
LINE
  8
DETAIL
  6
CONTINUOUS
 62
     5
 10
-150.3506793949
 20
-75.556408895399954
 30
0.0
 11
-150.31300975190021
 21
-75.678545035299976
 31
0.0
  0
LINE
  8
DETAIL
  6
CONTINUOUS
 62
     5
 10
-150.31300975190021
 20
-75.678545035299976
 30
0.0
 11
-150.30000000000021
 21
-75.799959964600021
 31
0.0
  0
LINE
  8
DETAIL
  6
CONTINUOUS
 62
     5
 10
-272.45341801260003
 20
75.052813737700035
 30
0.0
 11
-272.5888679136001
 21
75.18273377770015
 31
0.0
  0
LINE
  8
DETAIL
  6
CONTINUOUS
 62
     5
 10
-272.5888679136001
 20
75.18273377770015
 30
0.0
 11
-272.70000164610019
 21
75.309972983900025
 31
0.0
  0
LINE
  8
DETAIL
  6
CONTINUOUS
 62
     5
 10
-272.70000164610019
 20
75.309972983900025
 30
0.0
 11
-272.78690514049998
 21
75.434041450700079
 31
0.0
  0
LINE
  8
DETAIL
  6
CONTINUOUS
 62
     5
 10
-272.78690514049998
 20
75.434041450700079
 30
0.0
 11
-272.84932060509999
 21
75.556408895400182
 31
0.0
  0
LINE
  8
DETAIL
  6
CONTINUOUS
 62
     5
 10
-272.84932060509999
 20
75.556408895400182
 30
0.0
 11
-272.88699024810012
 21
75.678545035200159
 31
0.0
  0
LINE
  8
DETAIL
  6
CONTINUOUS
 62
     5
 10
-272.88699024810012
 20
75.678545035200159
 30
0.0
 11
-272.90000000000009
 21
75.799959964500204
 31
0.0
  0
LINE
  8
DETAIL
  6
CONTINUOUS
 62
     5
 10
-150.74658198740011
 20
62.407680453600051
 30
0.0
 11
-150.61158183550009
 21
62.054190407700162
 31
0.0
  0
LINE
  8
DETAIL
  6
CONTINUOUS
 62
     5
 10
-150.61158183550009
 20
62.054190407700162
 30
0.0
 11
-150.5006386978998
 21
61.70732151820016
 31
0.0
  0
LINE
  8
DETAIL
  6
CONTINUOUS
 62
     5
 10
-150.5006386978998
 20
61.70732151820016
 30
0.0
 11
-150.4135923428
 21
61.368299942700112
 31
0.0
  0
LINE
  8
DETAIL
  6
CONTINUOUS
 62
     5
 10
-150.4135923428
 20
61.368299942700112
 30
0.0
 11
-150.35092346569991
 21
61.033447208299997
 31
0.0
  0
LINE
  8
DETAIL
  6
CONTINUOUS
 62
     5
 10
-150.35092346569991
 20
61.033447208299997
 30
0.0
 11
-150.31311276199969
 21
60.699084841900003
 31
0.0
  0
LINE
  8
DETAIL
  6
CONTINUOUS
 62
     5
 10
-150.31311276199969
 20
60.699084841900003
 30
0.0
 11
-150.30000000000021
 21
60.366439001300023
 31
0.0
  0
LINE
  8
DETAIL
  6
CONTINUOUS
 62
     5
 10
-250.29189916870001
 20
-107.5907292313
 30
0.0
 11
-249.49496766970009
 21
-107.6395507677998
 31
0.0
  0
LINE
  8
DETAIL
  6
CONTINUOUS
 62
     5
 10
-249.49496766970009
 20
-107.6395507677998
 30
0.0
 11
-248.70247595980001
 21
-107.68459195849979
 31
0.0
  0
LINE
  8
DETAIL
  6
CONTINUOUS
 62
     5
 10
-248.70247595980001
 20
-107.68459195849979
 30
0.0
 11
-247.9145575053999
 21
-107.7261500862999
 31
0.0
  0
LINE
  8
DETAIL
  6
CONTINUOUS
 62
     5
 10
-247.9145575053999
 20
-107.7261500862999
 30
0.0
 11
-247.1313457725
 21
-107.76452243429981
 31
0.0
  0
LINE
  8
DETAIL
  6
CONTINUOUS
 62
     5
 10
-247.1313457725
 20
-107.76452243429981
 30
0.0
 11
-246.3529742275
 21
-107.8000062850999
 31
0.0
  0
LINE
  8
DETAIL
  6
CONTINUOUS
 62
     5
 10
-246.3529742275
 20
-107.8000062850999
 30
0.0
 11
-245.57957633630011
 21
-107.83289892169999
 31
0.0
  0
LINE
  8
DETAIL
  6
CONTINUOUS
 62
     5
 10
-245.57957633630011
 20
-107.83289892169999
 30
0.0
 11
-244.8112855653001
 21
-107.863497627
 31
0.0
  0
LINE
  8
DETAIL
  6
CONTINUOUS
 62
     5
 10
-244.8112855653001
 20
-107.863497627
 30
0.0
 11
-244.04823538070011
 21
-107.8920996838999
 31
0.0
  0
LINE
  8
DETAIL
  6
CONTINUOUS
 62
     5
 10
-244.04823538070011
 20
-107.8920996838999
 30
0.0
 11
-243.2905592484999
 21
-107.9190023751999
 31
0.0
  0
LINE
  8
DETAIL
  6
CONTINUOUS
 62
     5
 10
-243.2905592484999
 20
-107.9190023751999
 30
0.0
 11
-242.53839063500001
 21
-107.94450298379979
 31
0.0
  0
LINE
  8
DETAIL
  6
CONTINUOUS
 62
     5
 10
-242.53839063500001
 20
-107.94450298379979
 30
0.0
 11
-241.79186300640001
 21
-107.9688987925999
 31
0.0
  0
LINE
  8
DETAIL
  6
CONTINUOUS
 62
     5
 10
-241.79186300640001
 20
-107.9688987925999
 30
0.0
 11
-240.3162645685002
 21
-108.01556514229991
 31
0.0
  0
LINE
  8
DETAIL
  6
CONTINUOUS
 62
     5
 10
-251.34148289280009
 20
-107.52341342449991
 30
0.0
 11
-250.29189916870001
 21
-107.5907292313
 31
0.0
  0
LINE
  8
DETAIL
  6
CONTINUOUS
 62
     5
 10
-252.40910083800011
 20
-107.4536354725999
 30
0.0
 11
-251.34148289280009
 21
-107.52341342449991
 31
0.0
  0
LINE
  8
DETAIL
  6
CONTINUOUS
 62
     5
 10
-253.49211660850011
 20
-107.3813255255
 30
0.0
 11
-252.40910083800011
 21
-107.4536354725999
 31
0.0
  0
LINE
  8
DETAIL
  6
CONTINUOUS
 62
     5
 10
-254.58789380879989
 20
-107.30641373329991
 30
0.0
 11
-253.49211660850011
 21
-107.3813255255
 31
0.0
  0
LINE
  8
DETAIL
  6
CONTINUOUS
 62
     5
 10
-272.6828669352999
 20
-105.5490320672
 30
0.0
 11
-272.31200464450012
 21
-105.6039348611998
 31
0.0
  0
LINE
  8
DETAIL
  6
CONTINUOUS
 62
     5
 10
-272.31200464450012
 20
-105.6039348611998
 30
0.0
 11
-271.93624601189998
 21
-105.6580582678998
 31
0.0
  0
LINE
  8
DETAIL
  6
CONTINUOUS
 62
     5
 10
-271.93624601189998
 20
-105.6580582678998
 30
0.0
 11
-271.55574115029998
 21
-105.71141307160001
 31
0.0
  0
LINE
  8
DETAIL
  6
CONTINUOUS
 62
     5
 10
-271.55574115029998
 20
-105.71141307160001
 30
0.0
 11
-271.1706401724
 21
-105.7640100566998
 31
0.0
  0
LINE
  8
DETAIL
  6
CONTINUOUS
 62
     5
 10
-271.1706401724
 20
-105.7640100566998
 30
0.0
 11
-270.78109319100008
 21
-105.81586000739981
 31
0.0
  0
LINE
  8
DETAIL
  6
CONTINUOUS
 62
     5
 10
-270.78109319100008
 20
-105.81586000739981
 30
0.0
 11
-270.3872503186999
 21
-105.86697370810001
 31
0.0
  0
LINE
  8
DETAIL
  6
CONTINUOUS
 62
     5
 10
-270.3872503186999
 20
-105.86697370810001
 30
0.0
 11
-269.98926166830012
 21
-105.91736194319989
 31
0.0
  0
LINE
  8
DETAIL
  6
CONTINUOUS
 62
     5
 10
-269.98926166830012
 20
-105.91736194319989
 30
0.0
 11
-269.58727735250022
 21
-105.9670354969999
 31
0.0
  0
LINE
  8
DETAIL
  6
CONTINUOUS
 62
     5
 10
-269.58727735250022
 20
-105.9670354969999
 30
0.0
 11
-269.18144748399999
 21
-106.01600515369999
 31
0.0
  0
LINE
  8
DETAIL
  6
CONTINUOUS
 62
     5
 10
-269.18144748399999
 20
-106.01600515369999
 30
0.0
 11
-268.77192217550009
 21
-106.0642816978
 31
0.0
  0
LINE
  8
DETAIL
  6
CONTINUOUS
 62
     5
 10
-268.77192217550009
 20
-106.0642816978
 30
0.0
 11
-268.35885153980013
 21
-106.1118759134999
 31
0.0
  0
LINE
  8
DETAIL
  6
CONTINUOUS
 62
     5
 10
-268.35885153980013
 20
-106.1118759134999
 30
0.0
 11
-267.94238568949999
 21
-106.1587985852
 31
0.0
  0
LINE
  8
DETAIL
  6
CONTINUOUS
 62
     5
 10
-267.94238568949999
 20
-106.1587985852
 30
0.0
 11
-267.52267473739988
 21
-106.20506049709979
 31
0.0
  0
LINE
  8
DETAIL
  6
CONTINUOUS
 62
     5
 10
-267.52267473739988
 20
-106.20506049709979
 30
0.0
 11
-267.0998687962001
 21
-106.2506724336999
 31
0.0
  0
LINE
  8
DETAIL
  6
CONTINUOUS
 62
     5
 10
-267.0998687962001
 20
-106.2506724336999
 30
0.0
 11
-266.6741179787
 21
-106.2956451793
 31
0.0
  0
LINE
  8
DETAIL
  6
CONTINUOUS
 62
     5
 10
-266.6741179787
 20
-106.2956451793
 30
0.0
 11
-266.24557239739988
 21
-106.3399895180999
 31
0.0
  0
LINE
  8
DETAIL
  6
CONTINUOUS
 62
     5
 10
-266.24557239739988
 20
-106.3399895180999
 30
0.0
 11
-265.8143821653
 21
-106.3837162345999
 31
0.0
  0
LINE
  8
DETAIL
  6
CONTINUOUS
 62
     5
 10
-265.8143821653
 20
-106.3837162345999
 30
0.0
 11
-265.38069739489993
 21
-106.42683611299979
 31
0.0
  0
LINE
  8
DETAIL
  6
CONTINUOUS
 62
     5
 10
-265.38069739489993
 20
-106.42683611299979
 30
0.0
 11
-264.94466819890022
 21
-106.4693599375998
 31
0.0
  0
LINE
  8
DETAIL
  6
CONTINUOUS
 62
     5
 10
-264.94466819890022
 20
-106.4693599375998
 30
0.0
 11
-264.50644469020023
 21
-106.5112984928999
 31
0.0
  0
LINE
  8
DETAIL
  6
CONTINUOUS
 62
     5
 10
-264.50644469020023
 20
-106.5112984928999
 30
0.0
 11
-264.06617698150012
 21
-106.5526625630998
 31
0.0
  0
LINE
  8
DETAIL
  6
CONTINUOUS
 62
     5
 10
-264.06617698150012
 20
-106.5526625630998
 30
0.0
 11
-263.6240151853001
 21
-106.5934629325
 31
0.0
  0
LINE
  8
DETAIL
  6
CONTINUOUS
 62
     5
 10
-263.6240151853001
 20
-106.5934629325
 30
0.0
 11
-263.18010941459988
 21
-106.6337103854999
 31
0.0
  0
LINE
  8
DETAIL
  6
CONTINUOUS
 62
     5
 10
-263.18010941459988
 20
-106.6337103854999
 30
0.0
 11
-262.73460978190002
 21
-106.67341570639999
 31
0.0
  0
LINE
  8
DETAIL
  6
CONTINUOUS
 62
     5
 10
-262.73460978190002
 20
-106.67341570639999
 30
0.0
 11
-262.28766639999998
 21
-106.7125896794998
 31
0.0
  0
LINE
  8
DETAIL
  6
CONTINUOUS
 62
     5
 10
-262.28766639999998
 20
-106.7125896794998
 30
0.0
 11
-261.83942938159998
 21
-106.7512430892
 31
0.0
  0
LINE
  8
DETAIL
  6
CONTINUOUS
 62
     5
 10
-261.83942938159998
 20
-106.7512430892
 30
0.0
 11
-261.28290887499998
 21
-106.7983926288998
 31
0.0
  0
LINE
  8
DETAIL
  6
CONTINUOUS
 62
     5
 10
-261.28290887499998
 20
-106.7983926288998
 30
0.0
 11
-260.72496503340022
 21
-106.8447694698
 31
0.0
  0
LINE
  8
DETAIL
  6
CONTINUOUS
 62
     5
 10
-260.72496503340022
 20
-106.8447694698
 30
0.0
 11
-260.16592740610008
 21
-106.8903823429998
 31
0.0
  0
LINE
  8
DETAIL
  6
CONTINUOUS
 62
     5
 10
-260.16592740610008
 20
-106.8903823429998
 30
0.0
 11
-259.60612554279987
 21
-106.9352399799
 31
0.0
  0
LINE
  8
DETAIL
  6
CONTINUOUS
 62
     5
 10
-259.60612554279987
 20
-106.9352399799
 30
0.0
 11
-259.04588899279997
 21
-106.9793511117998
 31
0.0
  0
LINE
  8
DETAIL
  6
CONTINUOUS
 62
     5
 10
-259.04588899279997
 20
-106.9793511117998
 30
0.0
 11
-258.48554730559999
 21
-107.0227244696998
 31
0.0
  0
LINE
  8
DETAIL
  6
CONTINUOUS
 62
     5
 10
-258.48554730559999
 20
-107.0227244696998
 30
0.0
 11
-257.9254300307
 21
-107.06536878510001
 31
0.0
  0
LINE
  8
DETAIL
  6
CONTINUOUS
 62
     5
 10
-257.9254300307
 20
-107.06536878510001
 30
0.0
 11
-257.36586671750001
 21
-107.1072927890998
 31
0.0
  0
LINE
  8
DETAIL
  6
CONTINUOUS
 62
     5
 10
-257.36586671750001
 20
-107.1072927890998
 30
0.0
 11
-256.8071869155001
 21
-107.14850521309999
 31
0.0
  0
LINE
  8
DETAIL
  6
CONTINUOUS
 62
     5
 10
-256.8071869155001
 20
-107.14850521309999
 30
0.0
 11
-256.24972017420009
 21
-107.1890147882998
 31
0.0
  0
LINE
  8
DETAIL
  6
CONTINUOUS
 62
     5
 10
-256.24972017420009
 20
-107.1890147882998
 30
0.0
 11
-255.69379604299999
 21
-107.2288302457998
 31
0.0
  0
LINE
  8
DETAIL
  6
CONTINUOUS
 62
     5
 10
-255.69379604299999
 20
-107.2288302457998
 30
0.0
 11
-254.58789380879989
 21
-107.30641373329991
 31
0.0
  0
LINE
  8
DETAIL
  6
CONTINUOUS
 62
     5
 10
-285.52027957960013
 20
-80.31723592949993
 30
0.0
 11
-285.27484344509998
 21
-80.360364619599977
 31
0.0
  0
LINE
  8
DETAIL
  6
CONTINUOUS
 62
     5
 10
-285.27484344509998
 20
-80.360364619599977
 30
0.0
 11
-285.02543174750008
 21
-80.383582674899799
 31
0.0
  0
LINE
  8
DETAIL
  6
CONTINUOUS
 62
     5
 10
-285.02543174750008
 20
-80.383582674899799
 30
0.0
 11
-284.77282227020009
 21
-80.386817690599855
 31
0.0
  0
LINE
  8
DETAIL
  6
CONTINUOUS
 62
     5
 10
-284.77282227020009
 20
-80.386817690599855
 30
0.0
 11
-284.51780276840009
 21
-80.370059578300015
 31
0.0
  0
LINE
  8
DETAIL
  6
CONTINUOUS
 62
     5
 10
-284.51780276840009
 20
-80.370059578300015
 30
0.0
 11
-284.26116851350002
 21
-80.333360597899855
 31
0.0
  0
LINE
  8
DETAIL
  6
CONTINUOUS
 62
     5
 10
-284.26116851350002
 20
-80.333360597899855
 30
0.0
 11
-283.99999997680021
 21
-80.275874478899823
 31
0.0
  0
LINE
  8
DETAIL
  6
CONTINUOUS
 62
     5
 10
-285.23318444860001
 20
-80.380485683199822
 30
0.0
 11
-285.56841268810012
 21
-80.306743520599866
 31
0.0
  0
LINE
  8
DETAIL
  6
CONTINUOUS
 62
     5
 10
-284.0
 20
-80.275874484899987
 30
0.0
 11
-283.75862112789991
 21
-80.329713658799847
 31
0.0
  0
LINE
  8
DETAIL
  6
CONTINUOUS
 62
     5
 10
-283.75862112789991
 20
-80.329713658799847
 30
0.0
 11
-283.50189574170008
 21
-80.36794295719983
 31
0.0
  0
LINE
  8
DETAIL
  6
CONTINUOUS
 62
     5
 10
-283.50189574170008
 20
-80.36794295719983
 30
0.0
 11
-283.26261133790013
 21
-80.385679952899864
 31
0.0
  0
LINE
  8
DETAIL
  6
CONTINUOUS
 62
     5
 10
-283.26261133790013
 20
-80.385679952899864
 30
0.0
 11
-283.00961834290001
 21
-80.385233613199944
 31
0.0
  0
LINE
  8
DETAIL
  6
CONTINUOUS
 62
     5
 10
-283.00961834290001
 20
-80.385233613199944
 30
0.0
 11
-282.75971382500012
 21
-80.364799085599998
 31
0.0
  0
LINE
  8
DETAIL
  6
CONTINUOUS
 62
     5
 10
-282.75971382500012
 20
-80.364799085599998
 30
0.0
 11
-282.51784260049999
 21
-80.325296049799817
 31
0.0
  0
LINE
  8
DETAIL
  6
CONTINUOUS
 62
     5
 10
-154.30000000000021
 20
58.901972907200161
 30
0.0
 11
-154.1981664386999
 21
58.725592005200042
 31
0.0
  0
LINE
  8
DETAIL
  6
CONTINUOUS
 62
     5
 10
-150.40183356130001
 20
69.078353809300097
 30
0.0
 11
-150.30000000000021
 21
68.901972907200161
 31
0.0
  0
LINE
  8
DETAIL
  6
CONTINUOUS
 62
     5
 10
-150.40171243170019
 20
69.078358506400036
 30
0.0
 11
-150.3506793949
 21
68.975153107900042
 31
0.0
  0
LINE
  8
DETAIL
  6
CONTINUOUS
 62
     5
 10
-150.3506793949
 20
68.975153107900042
 30
0.0
 11
-150.31300975190021
 21
68.85301696800002
 31
0.0
  0
LINE
  8
DETAIL
  6
CONTINUOUS
 62
     5
 10
-150.31300975190021
 20
68.85301696800002
 30
0.0
 11
-150.30000000000021
 21
68.731602038700203
 31
0.0
  0
LINE
  8
DETAIL
  6
CONTINUOUS
 62
     5
 10
-112.5
 20
-291.41242789369988
 30
0.0
 11
-114.5
 21
-292.82664145599978
 31
0.0
  0
LINE
  8
DETAIL
  6
CONTINUOUS
 62
     5
 10
-114.5
 20
-289.64466094069991
 30
0.0
 11
-112.5
 21
-288.23044737829991
 31
0.0
  0
LINE
  8
DETAIL
  6
CONTINUOUS
 62
     5
 10
-122.0
 20
-290.21034636559989
 30
0.0
 11
-123.0
 21
-290.91745314680009
 31
0.0
  0
LINE
  8
DETAIL
  6
CONTINUOUS
 62
     5
 10
-134.40495671740021
 20
-86.607277238999814
 30
0.0
 11
-134.63075490370011
 21
-86.609595967699988
 31
0.0
  0
LINE
  8
DETAIL
  6
CONTINUOUS
 62
     5
 10
-155.30000000000021
 20
-86.593393632299922
 30
0.0
 11
-157.59999999999991
 21
-86.593393632299922
 31
0.0
  0
LINE
  8
DETAIL
  6
CONTINUOUS
 62
     5
 10
-267.90000000000009
 20
-86.593393632299922
 30
0.0
 11
-265.59999999999991
 21
-86.593393632299922
 31
0.0
  0
LINE
  8
DETAIL
  6
CONTINUOUS
 62
     5
 10
-270.19999999999999
 20
-83.899999999999864
 30
0.0
 11
-270.5
 21
-83.899999999999864
 31
0.0
  0
LINE
  8
DETAIL
  6
CONTINUOUS
 62
     5
 10
-297.5
 20
-83.899999999999864
 30
0.0
 11
-297.80000000000018
 21
-83.899999999999864
 31
0.0
  0
LINE
  8
DETAIL
  6
CONTINUOUS
 62
     5
 10
-153.0
 20
-83.899999999999864
 30
0.0
 11
-139.09999999999991
 21
-83.899999999999864
 31
0.0
  0
LINE
  8
DETAIL
  6
CONTINUOUS
 62
     5
 10
-130.09999999999991
 20
-83.899999999999864
 30
0.0
 11
-125.40000000000011
 21
-83.899999999999864
 31
0.0
  0
LINE
  8
DETAIL
  6
CONTINUOUS
 62
     5
 10
-154.30000000000021
 20
-79.970330833099979
 30
0.0
 11
-155.30000000000021
 21
-79.970330833099979
 31
0.0
  0
LINE
  8
DETAIL
  6
CONTINUOUS
 62
     5
 10
-268.40000000000009
 20
-79.955026969499841
 30
0.0
 11
-267.90000000000009
 21
-79.955026969499841
 31
0.0
  0
LINE
  8
DETAIL
  6
CONTINUOUS
 62
     5
 10
-195.59999999999991
 20
-77.441627568799959
 30
0.0
 11
-227.59999999999991
 21
-77.441627568799959
 31
0.0
  0
LINE
  8
DETAIL
  6
CONTINUOUS
 62
     5
 10
-134.71721852349989
 20
-86.608796307399871
 30
0.0
 11
-134.7139133809001
 21
-86.608800272299959
 31
0.0
  0
LINE
  8
DETAIL
  6
CONTINUOUS
 62
     5
 10
-134.7139133809001
 20
-86.608800272299959
 30
0.0
 11
-134.71060685029991
 21
-86.608706770099843
 31
0.0
  0
LINE
  8
DETAIL
  6
CONTINUOUS
 62
     5
 10
-134.71060685029991
 20
-86.608706770099843
 30
0.0
 11
-134.70654821439979
 21
-86.608458903799828
 31
0.0
  0
LINE
  8
DETAIL
  6
CONTINUOUS
 62
     5
 10
-134.63075490370011
 20
-86.609595967699988
 30
0.0
 11
-134.8561170007001
 21
-86.60555441409997
 31
0.0
  0
LINE
  8
DETAIL
  6
CONTINUOUS
 62
     5
 10
-284.0
 20
-72.898812073699901
 30
0.0
 11
-283.82853717619992
 21
-72.902577945699932
 31
0.0
  0
LINE
  8
DETAIL
  6
CONTINUOUS
 62
     5
 10
-283.82853717619992
 20
-72.902577945699932
 30
0.0
 11
-283.65923023949989
 21
-72.913771576499812
 31
0.0
  0
LINE
  8
DETAIL
  6
CONTINUOUS
 62
     5
 10
-283.65923023949989
 20
-72.913771576499812
 30
0.0
 11
-283.4914287954
 21
-72.932451456499848
 31
0.0
  0
LINE
  8
DETAIL
  6
CONTINUOUS
 62
     5
 10
-283.4914287954
 20
-72.932451456499848
 30
0.0
 11
-283.32708402780008
 21
-72.958392888299841
 31
0.0
  0
LINE
  8
DETAIL
  6
CONTINUOUS
 62
     5
 10
-283.32708402780008
 20
-72.958392888299841
 30
0.0
 11
-283.16763589350012
 21
-72.991454878799914
 31
0.0
  0
LINE
  8
DETAIL
  6
CONTINUOUS
 62
     5
 10
-283.16763589350012
 20
-72.991454878799914
 30
0.0
 11
-283.01396767920011
 21
-73.031407361099809
 31
0.0
  0
LINE
  8
DETAIL
  6
CONTINUOUS
 62
     5
 10
-283.01396767920011
 20
-73.031407361099809
 30
0.0
 11
-282.86696126589999
 21
-73.078141141299966
 31
0.0
  0
LINE
  8
DETAIL
  6
CONTINUOUS
 62
     5
 10
-282.86696126589999
 20
-73.078141141299966
 30
0.0
 11
-282.72806082670007
 21
-73.131122032599933
 31
0.0
  0
LINE
  8
DETAIL
  6
CONTINUOUS
 62
     5
 10
-282.72806082670007
 20
-73.131122032599933
 30
0.0
 11
-282.59881132119989
 21
-73.189880048099894
 31
0.0
  0
LINE
  8
DETAIL
  6
CONTINUOUS
 62
     5
 10
-282.59881132119989
 20
-73.189880048099894
 30
0.0
 11
-282.47979227050001
 21
-73.254101714099988
 31
0.0
  0
LINE
  8
DETAIL
  6
CONTINUOUS
 62
     5
 10
-282.47979227050001
 20
-73.254101714099988
 30
0.0
 11
-282.37167453210009
 21
-73.323622526899953
 31
0.0
  0
LINE
  8
DETAIL
  6
CONTINUOUS
 62
     5
 10
-282.37167453210009
 20
-73.323622526899953
 30
0.0
 11
-282.27572905649998
 21
-73.397520062899957
 31
0.0
  0
LINE
  8
DETAIL
  6
CONTINUOUS
 62
     5
 10
-282.27572905649998
 20
-73.397520062899957
 30
0.0
 11
-282.19335807200008
 21
-73.474975879999874
 31
0.0
  0
LINE
  8
DETAIL
  6
CONTINUOUS
 62
     5
 10
-282.19335807200008
 20
-73.474975879999874
 30
0.0
 11
-282.12483860349988
 21
-73.555547897199858
 31
0.0
  0
LINE
  8
DETAIL
  6
CONTINUOUS
 62
     5
 10
-282.12483860349988
 20
-73.555547897199858
 30
0.0
 11
-282.07075658090002
 21
-73.638856409299933
 31
0.0
  0
LINE
  8
DETAIL
  6
CONTINUOUS
 62
     5
 10
-282.07075658090002
 20
-73.638856409299933
 30
0.0
 11
-282.03158751699988
 21
-73.723928060399885
 31
0.0
  0
LINE
  8
DETAIL
  6
CONTINUOUS
 62
     5
 10
-282.03158751699988
 20
-73.723928060399885
 30
0.0
 11
-282.00803322920001
 21
-73.809899473999849
 31
0.0
  0
LINE
  8
DETAIL
  6
CONTINUOUS
 62
     5
 10
-282.00803322920001
 20
-73.809899473999849
 30
0.0
 11
-281.99999987170008
 21
-73.896962725999856
 31
0.0
  0
LINE
  8
DETAIL
  6
CONTINUOUS
 62
     5
 10
-284.0
 20
-80.498123282899996
 30
0.0
 11
-284.30885244310002
 21
-80.490806698799815
 31
0.0
  0
LINE
  8
DETAIL
  6
CONTINUOUS
 62
     5
 10
-284.30885244310002
 20
-80.490806698799815
 30
0.0
 11
-284.60965920889998
 21
-80.469568301099798
 31
0.0
  0
LINE
  8
DETAIL
  6
CONTINUOUS
 62
     5
 10
-284.60965920889998
 20
-80.469568301099798
 30
0.0
 11
-284.91560804049999
 21
-80.433538439099948
 31
0.0
  0
LINE
  8
DETAIL
  6
CONTINUOUS
 62
     5
 10
-284.91560804049999
 20
-80.433538439099948
 30
0.0
 11
-285.23318444860001
 21
-80.380485683199822
 31
0.0
  0
LINE
  8
DETAIL
  6
CONTINUOUS
 62
     5
 10
-240.3162645685002
 20
-108.01556514229991
 30
0.0
 11
-238.60367123910009
 21
-108.0697458906
 31
0.0
  0
LINE
  8
DETAIL
  6
CONTINUOUS
 62
     5
 10
-238.60367123910009
 20
-108.0697458906
 30
0.0
 11
-237.7606886717999
 21
-108.0975080880999
 31
0.0
  0
LINE
  8
DETAIL
  6
CONTINUOUS
 62
     5
 10
-237.7606886717999
 20
-108.0975080880999
 30
0.0
 11
-236.9269326491999
 21
-108.1263144155
 31
0.0
  0
LINE
  8
DETAIL
  6
CONTINUOUS
 62
     5
 10
-236.9269326491999
 20
-108.1263144155
 30
0.0
 11
-236.10266603109989
 21
-108.1566120589998
 31
0.0
  0
LINE
  8
DETAIL
  6
CONTINUOUS
 62
     5
 10
-236.10266603109989
 20
-108.1566120589998
 30
0.0
 11
-235.28815167740001
 21
-108.1888482042998
 31
0.0
  0
LINE
  8
DETAIL
  6
CONTINUOUS
 62
     5
 10
-235.28815167740001
 20
-108.1888482042998
 30
0.0
 11
-234.48365244790011
 21
-108.22347003739991
 31
0.0
  0
LINE
  8
DETAIL
  6
CONTINUOUS
 62
     5
 10
-234.48365244790011
 20
-108.22347003739991
 30
0.0
 11
-233.68943120230011
 21
-108.2609247441999
 31
0.0
  0
LINE
  8
DETAIL
  6
CONTINUOUS
 62
     5
 10
-233.68943120230011
 20
-108.2609247441999
 30
0.0
 11
-232.90575080049959
 21
-108.30165951059981
 31
0.0
  0
LINE
  8
DETAIL
  6
CONTINUOUS
 62
     5
 10
-232.90575080049959
 20
-108.30165951059981
 30
0.0
 11
-232.13287410229989
 21
-108.3461215225
 31
0.0
  0
LINE
  8
DETAIL
  6
CONTINUOUS
 62
     5
 10
-232.13287410229989
 20
-108.3461215225
 30
0.0
 11
-231.37106396749999
 21
-108.3947579658
 31
0.0
  0
LINE
  8
DETAIL
  6
CONTINUOUS
 62
     5
 10
-231.37106396749999
 20
-108.3947579658
 30
0.0
 11
-230.59044808510001
 21
-108.45025090519979
 31
0.0
  0
LINE
  8
DETAIL
  6
CONTINUOUS
 62
     5
 10
-230.59044808510001
 20
-108.45025090519979
 30
0.0
 11
-229.82247226629991
 21
-108.5110976229998
 31
0.0
  0
LINE
  8
DETAIL
  6
CONTINUOUS
 62
     5
 10
-229.82247226629991
 20
-108.5110976229998
 30
0.0
 11
-229.06751100430009
 21
-108.5776483968998
 31
0.0
  0
LINE
  8
DETAIL
  6
CONTINUOUS
 62
     5
 10
-229.06751100430009
 20
-108.5776483968998
 30
0.0
 11
-228.32593879199999
 21
-108.65025350479981
 31
0.0
  0
LINE
  8
DETAIL
  6
CONTINUOUS
 62
     5
 10
-228.32593879199999
 20
-108.65025350479981
 30
0.0
 11
-227.59813012240011
 21
-108.7292632245999
 31
0.0
  0
LINE
  8
DETAIL
  6
CONTINUOUS
 62
     5
 10
-134.59999999999991
 20
-86.550024423100012
 30
0.0
 11
-134.9880102246002
 21
-86.534865985599936
 31
0.0
  0
LINE
  8
DETAIL
  6
CONTINUOUS
 62
     5
 10
-134.9880102246002
 20
-86.534865985599936
 30
0.0
 11
-135.3750939873
 21
-86.500784321699939
 31
0.0
  0
LINE
  8
DETAIL
  6
CONTINUOUS
 62
     5
 10
-135.3750939873
 20
-86.500784321699939
 30
0.0
 11
-135.76032703850001
 21
-86.447860808999849
 31
0.0
  0
LINE
  8
DETAIL
  6
CONTINUOUS
 62
     5
 10
-135.76032703850001
 20
-86.447860808999849
 30
0.0
 11
-136.14278954749989
 21
-86.376221814399969
 31
0.0
  0
LINE
  8
DETAIL
  6
CONTINUOUS
 62
     5
 10
-136.14278954749989
 20
-86.376221814399969
 30
0.0
 11
-136.5484590056999
 21
-86.278892530399844
 31
0.0
  0
LINE
  8
DETAIL
  6
CONTINUOUS
 62
     5
 10
-136.5484590056999
 20
-86.278892530399844
 30
0.0
 11
-136.93323519259999
 21
-86.165565379199961
 31
0.0
  0
LINE
  8
DETAIL
  6
CONTINUOUS
 62
     5
 10
-134.8561170007001
 20
-86.60555441409997
 30
0.0
 11
-135.0785615364
 21
-86.59532854539998
 31
0.0
  0
LINE
  8
DETAIL
  6
CONTINUOUS
 62
     5
 10
-135.0785615364
 20
-86.59532854539998
 30
0.0
 11
-135.3135453308
 21
-86.577769984599854
 31
0.0
  0
LINE
  8
DETAIL
  6
CONTINUOUS
 62
     5
 10
-135.3135453308
 20
-86.577769984599854
 30
0.0
 11
-135.5609037202
 21
-86.551736930699917
 31
0.0
  0
LINE
  8
DETAIL
  6
CONTINUOUS
 62
     5
 10
-135.5609037202
 20
-86.551736930699917
 30
0.0
 11
-135.82641240359999
 21
-86.515090847399961
 31
0.0
  0
LINE
  8
DETAIL
  6
CONTINUOUS
 62
     5
 10
-131.06131588459991
 20
-82.935840368799973
 30
0.0
 11
-131.60760719820021
 21
-82.865283041300017
 31
0.0
  0
LINE
  8
DETAIL
  6
CONTINUOUS
 62
     5
 10
-131.60760719820021
 20
-82.865283041300017
 30
0.0
 11
-132.2254984931001
 21
-82.808772789999921
 31
0.0
  0
LINE
  8
DETAIL
  6
CONTINUOUS
 62
     5
 10
-132.2254984931001
 20
-82.808772789999921
 30
0.0
 11
-132.92592487340019
 21
-82.765775296999891
 31
0.0
  0
LINE
  8
DETAIL
  6
CONTINUOUS
 62
     5
 10
-132.92592487340019
 20
-82.765775296999891
 30
0.0
 11
-133.67608102729989
 21
-82.737893515999986
 31
0.0
  0
LINE
  8
DETAIL
  6
CONTINUOUS
 62
     5
 10
-133.67608102729989
 20
-82.737893515999986
 30
0.0
 11
-134.45493681580001
 21
-82.726684100599869
 31
0.0
  0
LINE
  8
DETAIL
  6
CONTINUOUS
 62
     5
 10
-134.45493681580001
 20
-82.726684100599869
 30
0.0
 11
-135.2381018250999
 21
-82.73175163320002
 31
0.0
  0
LINE
  8
DETAIL
  6
CONTINUOUS
 62
     5
 10
-135.2381018250999
 20
-82.73175163320002
 30
0.0
 11
-136.0014455191999
 21
-82.753682316399818
 31
0.0
  0
LINE
  8
DETAIL
  6
CONTINUOUS
 62
     5
 10
-136.0014455191999
 20
-82.753682316399818
 30
0.0
 11
-136.72315812549999
 21
-82.791087943399816
 31
0.0
  0
LINE
  8
DETAIL
  6
CONTINUOUS
 62
     5
 10
-136.72315812549999
 20
-82.791087943399816
 30
0.0
 11
-137.37891920979999
 21
-82.843513561000009
 31
0.0
  0
LINE
  8
DETAIL
  6
CONTINUOUS
 62
     5
 10
-137.37891920979999
 20
-82.843513561000009
 30
0.0
 11
-137.95213022140001
 21
-82.908745611799986
 31
0.0
  0
LINE
  8
DETAIL
  6
CONTINUOUS
 62
     5
 10
-137.95213022140001
 20
-82.908745611799986
 30
0.0
 11
-138.42121423119991
 21
-82.985342860699802
 31
0.0
  0
LINE
  8
DETAIL
  6
CONTINUOUS
 62
     5
 10
-138.42121423119991
 20
-82.985342860699802
 30
0.0
 11
-138.77678594049979
 21
-83.07053338719993
 31
0.0
  0
LINE
  8
DETAIL
  6
CONTINUOUS
 62
     5
 10
-138.77678594049979
 20
-83.07053338719993
 30
0.0
 11
-139.00261442120001
 21
-83.16206350869993
 31
0.0
  0
LINE
  8
DETAIL
  6
CONTINUOUS
 62
     5
 10
-139.00261442120001
 20
-83.16206350869993
 30
0.0
 11
-139.09765963230009
 21
-83.256937276099961
 31
0.0
  0
LINE
  8
DETAIL
  6
CONTINUOUS
 62
     5
 10
-139.09765963230009
 20
-83.256937276099961
 30
0.0
 11
-139.09982201220009
 21
-83.274622075199886
 31
0.0
  0
LINE
  8
DETAIL
  6
CONTINUOUS
 62
     5
 10
-135.82641240359999
 20
-86.515090847399961
 30
0.0
 11
-136.13143423700009
 21
-86.46170437429987
 31
0.0
  0
LINE
  8
DETAIL
  6
CONTINUOUS
 62
     5
 10
-136.13143423700009
 20
-86.46170437429987
 30
0.0
 11
-136.44654302629991
 21
-86.3936309840999
 31
0.0
  0
LINE
  8
DETAIL
  6
CONTINUOUS
 62
     5
 10
-136.44654302629991
 20
-86.3936309840999
 30
0.0
 11
-136.76603287880019
 21
-86.310843371899864
 31
0.0
  0
LINE
  8
DETAIL
  6
CONTINUOUS
 62
     5
 10
-136.76603287880019
 20
-86.310843371899864
 30
0.0
 11
-137.0936476659999
 21
-86.211084109799913
 31
0.0
  0
LINE
  8
DETAIL
  6
CONTINUOUS
 62
     5
 10
-137.0936476659999
 20
-86.211084109799913
 30
0.0
 11
-137.43209098540001
 21
-86.091584112799865
 31
0.0
  0
LINE
  8
DETAIL
  6
CONTINUOUS
 62
     5
 10
-137.43209098540001
 20
-86.091584112799865
 30
0.0
 11
-137.78070017659999
 21
-85.950169250999807
 31
0.0
  0
LINE
  8
DETAIL
  6
CONTINUOUS
 62
     5
 10
-137.78070017659999
 20
-85.950169250999807
 30
0.0
 11
-138.14074479759981
 21
-85.783435389599845
 31
0.0
  0
LINE
  8
DETAIL
  6
CONTINUOUS
 62
     5
 10
-138.14074479759981
 20
-85.783435389599845
 30
0.0
 11
-138.50849711230009
 21
-85.589888037299943
 31
0.0
  0
LINE
  8
DETAIL
  6
CONTINUOUS
 62
     5
 10
-131.06131588459991
 20
-82.935840368799973
 30
0.0
 11
-130.6281640152001
 21
-83.01722928729987
 31
0.0
  0
LINE
  8
DETAIL
  6
CONTINUOUS
 62
     5
 10
-130.6281640152001
 20
-83.01722928729987
 30
0.0
 11
-130.32395080590001
 21
-83.103770026899838
 31
0.0
  0
LINE
  8
DETAIL
  6
CONTINUOUS
 62
     5
 10
-130.32395080590001
 20
-83.103770026899838
 30
0.0
 11
-130.14700566360011
 21
-83.196883858699948
 31
0.0
  0
LINE
  8
DETAIL
  6
CONTINUOUS
 62
     5
 10
-130.14700566360011
 20
-83.196883858699948
 30
0.0
 11
-130.10017798780021
 21
-83.274622170299835
 31
0.0
  0
LINE
  8
DETAIL
  6
CONTINUOUS
 62
     5
 10
-153.8534180125998
 20
58.325197548999988
 30
0.0
 11
-153.98886233499999
 21
58.455110395600059
 31
0.0
  0
LINE
  8
DETAIL
  6
CONTINUOUS
 62
     5
 10
-153.98886233499999
 20
58.455110395600059
 30
0.0
 11
-154.09999435859999
 21
58.582347569400099
 31
0.0
  0
LINE
  8
DETAIL
  6
CONTINUOUS
 62
     5
 10
-154.09999435859999
 20
58.582347569400099
 30
0.0
 11
-154.18690155009969
 21
58.706421305600088
 31
0.0
  0
LINE
  8
DETAIL
  6
CONTINUOUS
 62
     5
 10
-154.18690155009969
 20
58.706421305600088
 30
0.0
 11
-154.19828646529999
 21
58.725587350800197
 31
0.0
  0
LINE
  8
DETAIL
  6
CONTINUOUS
 62
     5
 10
-150.74658198740011
 20
69.478748265500144
 30
0.0
 11
-150.6111320864002
 21
69.348828225600073
 31
0.0
  0
LINE
  8
DETAIL
  6
CONTINUOUS
 62
     5
 10
-150.6111320864002
 20
69.348828225600073
 30
0.0
 11
-150.49999835390011
 21
69.221589019300154
 31
0.0
  0
LINE
  8
DETAIL
  6
CONTINUOUS
 62
     5
 10
-150.49999835390011
 20
69.221589019300154
 30
0.0
 11
-150.41309485950001
 21
69.0975205525001
 31
0.0
  0
LINE
  8
DETAIL
  6
CONTINUOUS
 62
     5
 10
-150.41309485950001
 20
69.0975205525001
 30
0.0
 11
-150.40171243170019
 21
69.078358506400036
 31
0.0
  0
LINE
  8
DETAIL
  6
CONTINUOUS
 62
     5
 10
-153.8534180125998
 20
-76.547106191399962
 30
0.0
 11
-150.74658198740011
 21
-76.547106191399962
 31
0.0
  0
LINE
  8
DETAIL
  6
CONTINUOUS
 62
     5
 10
-270.40000000000009
 20
-75.255026969500022
 30
0.0
 11
-270.035462822
 21
-75.255026969500022
 31
0.0
  0
LINE
  8
DETAIL
  6
CONTINUOUS
 62
     5
 10
-153.8534180125998
 20
-75.052813737799852
 30
0.0
 11
-150.74658198740011
 21
-75.052813737799852
 31
0.0
  0
LINE
  8
DETAIL
  6
CONTINUOUS
 62
     5
 10
-267.90000000000009
 20
-72.901972907299978
 30
0.0
 11
-268.90000000000009
 21
-72.901972907299978
 31
0.0
  0
LINE
  8
DETAIL
  6
CONTINUOUS
 62
     5
 10
-269.34658198739999
 20
-69.478748265499917
 30
0.0
 11
-272.45341801260003
 21
-69.478748265499917
 31
0.0
  0
LINE
  8
DETAIL
  6
CONTINUOUS
 62
     5
 10
-153.8534180125998
 20
-69.476038379499869
 30
0.0
 11
-150.74658198740011
 21
-69.476038379499869
 31
0.0
  0
LINE
  8
DETAIL
  6
CONTINUOUS
 62
     5
 10
-269.34658198739999
 20
-67.984455811899807
 30
0.0
 11
-272.45341801260003
 21
-67.984455811899807
 31
0.0
  0
LINE
  8
DETAIL
  6
CONTINUOUS
 62
     5
 10
-153.8534180125998
 20
-65.393555474899813
 30
0.0
 11
-150.74658198740011
 21
-65.393555474899813
 31
0.0
  0
LINE
  8
DETAIL
  6
CONTINUOUS
 62
     5
 10
-269.34658198739999
 20
-62.407680453699868
 30
0.0
 11
-272.45341801260003
 21
-62.407680453699868
 31
0.0
  0
LINE
  8
DETAIL
  6
CONTINUOUS
 62
     5
 10
-154.30000000000021
 20
-61.970330833099979
 30
0.0
 11
-155.30000000000021
 21
-61.970330833099979
 31
0.0
  0
LINE
  8
DETAIL
  6
CONTINUOUS
 62
     5
 10
-269.34658198739999
 20
-58.325197548999988
 30
0.0
 11
-272.45341801260003
 21
-58.325197548999988
 31
0.0
  0
LINE
  8
DETAIL
  6
CONTINUOUS
 62
     5
 10
-267.90000000000009
 20
-54.901972907299978
 30
0.0
 11
-268.90000000000009
 21
-54.901972907299978
 31
0.0
  0
LINE
  8
DETAIL
  6
CONTINUOUS
 62
     5
 10
-134.7065482141002
 20
-86.608458903799828
 30
0.0
 11
-134.6899886546
 21
-86.605931637200001
 31
0.0
  0
LINE
  8
DETAIL
  6
CONTINUOUS
 62
     5
 10
-134.6899886546
 20
-86.605931637200001
 30
0.0
 11
-134.6734016836001
 21
-86.600968627299835
 31
0.0
  0
LINE
  8
DETAIL
  6
CONTINUOUS
 62
     5
 10
-134.6734016836001
 20
-86.600968627299835
 30
0.0
 11
-134.6534682498
 21
-86.591800015199851
 31
0.0
  0
LINE
  8
DETAIL
  6
CONTINUOUS
 62
     5
 10
-134.6534682498
 20
-86.591800015199851
 30
0.0
 11
-134.63683876810001
 21
-86.581484735599815
 31
0.0
  0
LINE
  8
DETAIL
  6
CONTINUOUS
 62
     5
 10
-134.63683876810001
 20
-86.581484735599815
 30
0.0
 11
-134.6201980650001
 21
-86.56874115949995
 31
0.0
  0
LINE
  8
DETAIL
  6
CONTINUOUS
 62
     5
 10
-134.6201980650001
 20
-86.56874115949995
 30
0.0
 11
-134.60000000160019
 21
-86.550024424799858
 31
0.0
  0
LINE
  8
DETAIL
  6
CONTINUOUS
 62
     5
 10
-305.90000000000009
 20
-33.199999999999818
 30
0.0
 11
-305.60000000000008
 21
-33.199999999999818
 31
0.0
  0
LINE
  8
DETAIL
  6
CONTINUOUS
 62
     5
 10
-308.80000000000018
 20
-25.799999999999951
 30
0.0
 11
-308.60000000000008
 21
-25.799999999999951
 31
0.0
  0
LINE
  8
DETAIL
  6
CONTINUOUS
 62
     5
 10
-19.053418012600101
 20
271.90866718979993
 30
0.0
 11
-19.188089248900042
 21
272.40700502210012
 31
0.0
  0
LINE
  8
DETAIL
  6
CONTINUOUS
 62
     5
 10
-19.188089248900042
 20
272.40700502210012
 30
0.0
 11
-19.29891283539996
 21
272.89693492980018
 31
0.0
  0
LINE
  8
DETAIL
  6
CONTINUOUS
 62
     5
 10
-19.29891283539996
 20
272.89693492980018
 30
0.0
 11
-19.38612193969993
 21
273.37702921139999
 31
0.0
  0
LINE
  8
DETAIL
  6
CONTINUOUS
 62
     5
 10
-19.38612193969993
 20
273.37702921139999
 30
0.0
 11
-19.449017058800109
 21
273.85157097109999
 31
0.0
  0
LINE
  8
DETAIL
  6
CONTINUOUS
 62
     5
 10
-19.449017058800109
 20
273.85157097109999
 30
0.0
 11
-19.486898689699959
 21
274.32484331310002
 31
0.0
  0
LINE
  8
DETAIL
  6
CONTINUOUS
 62
     5
 10
-19.486898689699959
 20
274.32484331310002
 30
0.0
 11
-19.5
 21
274.79541853600023
 31
0.0
  0
LINE
  8
DETAIL
  6
CONTINUOUS
 62
     5
 10
-132.2667647781
 20
-86.233861540899852
 30
0.0
 11
-132.64044243949999
 21
-86.333272370799932
 31
0.0
  0
LINE
  8
DETAIL
  6
CONTINUOUS
 62
     5
 10
-132.64044243949999
 20
-86.333272370799932
 30
0.0
 11
-133.01879898610011
 21
-86.414241324499926
 31
0.0
  0
LINE
  8
DETAIL
  6
CONTINUOUS
 62
     5
 10
-133.01879898610011
 20
-86.414241324499926
 30
0.0
 11
-133.40093100639999
 21
-86.476575070299987
 31
0.0
  0
LINE
  8
DETAIL
  6
CONTINUOUS
 62
     5
 10
-133.40093100639999
 20
-86.476575070299987
 30
0.0
 11
-133.78592607409999
 21
-86.520124772399868
 31
0.0
  0
LINE
  8
DETAIL
  6
CONTINUOUS
 62
     5
 10
-133.78592607409999
 20
-86.520124772399868
 30
0.0
 11
-134.20055340510001
 21
-86.54582340489992
 31
0.0
  0
LINE
  8
DETAIL
  6
CONTINUOUS
 62
     5
 10
-134.20055340510001
 20
-86.54582340489992
 30
0.0
 11
-134.59999996929989
 21
-86.550024423600007
 31
0.0
  0
LINE
  8
DETAIL
  6
CONTINUOUS
 62
     5
 10
-282.23202141990009
 20
-80.253939382299905
 30
0.0
 11
-282.61857527939992
 21
-80.350156363199858
 31
0.0
  0
LINE
  8
DETAIL
  6
CONTINUOUS
 62
     5
 10
-282.51784257059973
 20
-80.325296043699836
 30
0.0
 11
-282.47972042140009
 21
-80.317235929799836
 31
0.0
  0
LINE
  8
DETAIL
  6
CONTINUOUS
 62
     5
 10
-282.61857527939992
 20
-80.350156363199858
 30
0.0
 11
-282.98449757110012
 21
-80.418585336600017
 31
0.0
  0
LINE
  8
DETAIL
  6
CONTINUOUS
 62
     5
 10
-282.98449757110012
 20
-80.418585336600017
 30
0.0
 11
-283.33114765629972
 21
-80.463738786899967
 31
0.0
  0
LINE
  8
DETAIL
  6
CONTINUOUS
 62
     5
 10
-283.33114765629972
 20
-80.463738786899967
 30
0.0
 11
-283.66323110640002
 21
-80.489423475499962
 31
0.0
  0
LINE
  8
DETAIL
  6
CONTINUOUS
 62
     5
 10
-283.66323110640002
 20
-80.489423475499962
 30
0.0
 11
-284.0
 21
-80.498123282899996
 31
0.0
  0
LINE
  8
DETAIL
  6
CONTINUOUS
 62
     5
 10
-308.80000000000018
 20
25.800000000000178
 30
0.0
 11
-308.60000000000008
 21
25.800000000000178
 31
0.0
  0
LINE
  8
DETAIL
  6
CONTINUOUS
 62
     5
 10
-305.90000000000009
 20
33.200000000000053
 30
0.0
 11
-305.60000000000008
 21
33.200000000000053
 31
0.0
  0
LINE
  8
DETAIL
  6
CONTINUOUS
 62
     5
 10
-19.386798040500249
 20
269.75821338950033
 30
0.0
 11
-19.449387319400099
 21
269.99509946190011
 31
0.0
  0
LINE
  8
DETAIL
  6
CONTINUOUS
 62
     5
 10
-19.449387319400099
 20
269.99509946190011
 30
0.0
 11
-19.48707242310002
 21
270.23104882590002
 31
0.0
  0
LINE
  8
DETAIL
  6
CONTINUOUS
 62
     5
 10
-19.48707242310002
 20
270.23104882590002
 30
0.0
 11
-19.5
 21
270.46529151679988
 31
0.0
  0
LINE
  8
DETAIL
  6
CONTINUOUS
 62
     5
 10
-130.69150288770021
 20
-85.589888037299943
 30
0.0
 11
-131.03318773149999
 21
-85.770509487699883
 31
0.0
  0
LINE
  8
DETAIL
  6
CONTINUOUS
 62
     5
 10
-131.03318773149999
 20
-85.770509487699883
 30
0.0
 11
-131.38609597739989
 21
-85.935692401599908
 31
0.0
  0
LINE
  8
DETAIL
  6
CONTINUOUS
 62
     5
 10
-131.38609597739989
 20
-85.935692401599908
 30
0.0
 11
-131.75345203720011
 21
-86.086095850999982
 31
0.0
  0
LINE
  8
DETAIL
  6
CONTINUOUS
 62
     5
 10
-131.75345203720011
 20
-86.086095850999982
 30
0.0
 11
-132.11906671509999
 21
-86.215243289599812
 31
0.0
  0
LINE
  8
DETAIL
  6
CONTINUOUS
 62
     5
 10
-132.11906671509999
 20
-86.215243289599812
 30
0.0
 11
-132.46613717360009
 21
-86.319819232399823
 31
0.0
  0
LINE
  8
DETAIL
  6
CONTINUOUS
 62
     5
 10
-132.46613717360009
 20
-86.319819232399823
 30
0.0
 11
-132.79663811969999
 21
-86.403748225199934
 31
0.0
  0
LINE
  8
DETAIL
  6
CONTINUOUS
 62
     5
 10
-132.79663811969999
 20
-86.403748225199934
 30
0.0
 11
-133.10678070270001
 21
-86.469063318799954
 31
0.0
  0
LINE
  8
DETAIL
  6
CONTINUOUS
 62
     5
 10
-133.10678070270001
 20
-86.469063318799954
 30
0.0
 11
-133.39838459029991
 21
-86.518897930199955
 31
0.0
  0
LINE
  8
DETAIL
  6
CONTINUOUS
 62
     5
 10
-133.39838459029991
 20
-86.518897930199955
 30
0.0
 11
-133.6752816158
 21
-86.556031376399915
 31
0.0
  0
LINE
  8
DETAIL
  6
CONTINUOUS
 62
     5
 10
-133.6752816158
 20
-86.556031376399915
 30
0.0
 11
-133.93259346779999
 21
-86.581767133499852
 31
0.0
  0
LINE
  8
DETAIL
  6
CONTINUOUS
 62
     5
 10
-133.93259346779999
 20
-86.581767133499852
 30
0.0
 11
-134.17652398979999
 21
-86.598439003599879
 31
0.0
  0
LINE
  8
DETAIL
  6
CONTINUOUS
 62
     5
 10
-134.17652398979999
 20
-86.598439003599879
 30
0.0
 11
-134.40495671740021
 21
-86.607277238999814
 31
0.0
  0
LINE
  8
DETAIL
  6
CONTINUOUS
 62
     5
 10
-277.37924254459989
 20
-89.298032976999821
 30
0.0
 11
-277.01199697600009
 21
-89.165968958499889
 31
0.0
  0
LINE
  8
DETAIL
  6
CONTINUOUS
 62
     5
 10
-277.01199697600009
 20
-89.165968958499889
 30
0.0
 11
-276.54424851080012
 21
-88.962491808599907
 31
0.0
  0
LINE
  8
DETAIL
  6
CONTINUOUS
 62
     5
 10
-276.54424851080012
 20
-88.962491808599907
 30
0.0
 11
-276.12576670819999
 21
-88.742204498699948
 31
0.0
  0
LINE
  8
DETAIL
  6
CONTINUOUS
 62
     5
 10
-276.12576670819999
 20
-88.742204498699948
 30
0.0
 11
-275.7506340038999
 21
-88.502338412499967
 31
0.0
  0
LINE
  8
DETAIL
  6
CONTINUOUS
 62
     5
 10
-275.7506340038999
 20
-88.502338412499967
 30
0.0
 11
-275.41241514240011
 21
-88.237713545899851
 31
0.0
  0
LINE
  8
DETAIL
  6
CONTINUOUS
 62
     5
 10
-275.41241514240011
 20
-88.237713545899851
 30
0.0
 11
-275.11389099329989
 21
-87.948892683299846
 31
0.0
  0
LINE
  8
DETAIL
  6
CONTINUOUS
 62
     5
 10
-275.11389099329989
 20
-87.948892683299846
 30
0.0
 11
-274.85835188179999
 21
-87.639004762699869
 31
0.0
  0
LINE
  8
DETAIL
  6
CONTINUOUS
 62
     5
 10
-274.85835188179999
 20
-87.639004762699869
 30
0.0
 11
-274.64488441499998
 21
-87.307279578299813
 31
0.0
  0
LINE
  8
DETAIL
  6
CONTINUOUS
 62
     5
 10
-274.64488441499998
 20
-87.307279578299813
 30
0.0
 11
-274.47566773630001
 21
-86.956798380099826
 31
0.0
  0
LINE
  8
DETAIL
  6
CONTINUOUS
 62
     5
 10
-274.47566773630001
 20
-86.956798380099826
 30
0.0
 11
-274.35190960979997
 21
-86.58896124490002
 31
0.0
  0
LINE
  8
DETAIL
  6
CONTINUOUS
 62
     5
 10
-274.35190960979997
 20
-86.58896124490002
 30
0.0
 11
-274.27579249830001
 21
-86.206233336799869
 31
0.0
  0
LINE
  8
DETAIL
  6
CONTINUOUS
 62
     5
 10
-274.27579249830001
 20
-86.206233336799869
 30
0.0
 11
-274.25
 21
-85.814514379099819
 31
0.0
  0
LINE
  8
DETAIL
  6
CONTINUOUS
 62
     5
 10
-284.0
 20
-80.275874484899987
 30
0.0
 11
-283.74254541459999
 21
-80.19941675759992
 31
0.0
  0
LINE
  8
DETAIL
  6
CONTINUOUS
 62
     5
 10
-283.74254541459999
 20
-80.19941675759992
 30
0.0
 11
-283.48589369410001
 21
-80.103550306899933
 31
0.0
  0
LINE
  8
DETAIL
  6
CONTINUOUS
 62
     5
 10
-283.48589369410001
 20
-80.103550306899933
 30
0.0
 11
-283.23084519949998
 21
-79.988574089599979
 31
0.0
  0
LINE
  8
DETAIL
  6
CONTINUOUS
 62
     5
 10
-283.23084519949998
 20
-79.988574089599979
 30
0.0
 11
-282.97819529229992
 21
-79.854846655799975
 31
0.0
  0
LINE
  8
DETAIL
  6
CONTINUOUS
 62
     5
 10
-282.97819529229992
 20
-79.854846655799975
 30
0.0
 11
-282.72873185409998
 21
-79.702785030599898
 31
0.0
  0
LINE
  8
DETAIL
  6
CONTINUOUS
 62
     5
 10
-282.72873185409998
 20
-79.702785030599898
 30
0.0
 11
-282.47972039849992
 21
-79.530281295299801
 31
0.0
  0
LINE
  8
DETAIL
  6
CONTINUOUS
 62
     5
 10
-154.30000000000021
 20
54.901972907200161
 30
0.0
 11
-155.30000000000021
 21
54.901972907200161
 31
0.0
  0
LINE
  8
DETAIL
  6
CONTINUOUS
 62
     5
 10
-153.8534180125998
 20
58.325197548999988
 30
0.0
 11
-150.74658198740011
 21
58.325197548999988
 31
0.0
  0
LINE
  8
DETAIL
  6
CONTINUOUS
 62
     5
 10
-267.90000000000009
 20
61.970330833100213
 30
0.0
 11
-268.90000000000009
 21
61.970330833100213
 31
0.0
  0
LINE
  8
DETAIL
  6
CONTINUOUS
 62
     5
 10
-153.8534180125998
 20
62.407680453600051
 30
0.0
 11
-150.74658198740011
 21
62.407680453600051
 31
0.0
  0
LINE
  8
DETAIL
  6
CONTINUOUS
 62
     5
 10
-269.34658198739999
 20
65.393555474799996
 30
0.0
 11
-272.45341801260003
 21
65.393555474799996
 31
0.0
  0
LINE
  8
DETAIL
  6
CONTINUOUS
 62
     5
 10
-306.96217782650001
 20
66.300000000000182
 30
0.0
 11
-305.60000000000008
 21
66.300000000000182
 31
0.0
  0
LINE
  8
DETAIL
  6
CONTINUOUS
 62
     5
 10
-153.8534180125998
 20
67.984455811900034
 30
0.0
 11
-150.74658198740011
 21
67.984455811900034
 31
0.0
  0
LINE
  8
DETAIL
  6
CONTINUOUS
 62
     5
 10
-269.34658198739999
 20
69.476038379500096
 30
0.0
 11
-272.45341801260003
 21
69.476038379500096
 31
0.0
  0
LINE
  8
DETAIL
  6
CONTINUOUS
 62
     5
 10
-153.8534180125998
 20
69.478748265500144
 30
0.0
 11
-150.74658198740011
 21
69.478748265500144
 31
0.0
  0
LINE
  8
DETAIL
  6
CONTINUOUS
 62
     5
 10
-308.90000000000009
 20
70.800000000000182
 30
0.0
 11
-308.54705826700001
 21
70.800000000000182
 31
0.0
  0
LINE
  8
DETAIL
  6
CONTINUOUS
 62
     5
 10
-154.30000000000021
 20
72.901972907200161
 30
0.0
 11
-155.30000000000021
 21
72.901972907200161
 31
0.0
  0
LINE
  8
DETAIL
  6
CONTINUOUS
 62
     5
 10
-269.34658198739999
 20
75.052813737700035
 30
0.0
 11
-272.45341801260003
 21
75.052813737700035
 31
0.0
  0
LINE
  8
DETAIL
  6
CONTINUOUS
 62
     5
 10
-306.96217782650001
 20
75.300000000000182
 30
0.0
 11
-305.60000000000008
 21
75.300000000000182
 31
0.0
  0
LINE
  8
DETAIL
  6
CONTINUOUS
 62
     5
 10
-269.34658198739999
 20
76.547106191300145
 30
0.0
 11
-272.45341801260003
 21
76.547106191300145
 31
0.0
  0
LINE
  8
DETAIL
  6
CONTINUOUS
 62
     5
 10
-195.59999999999991
 20
77.441627568700142
 30
0.0
 11
-227.59999999999991
 21
77.441627568700142
 31
0.0
  0
LINE
  8
DETAIL
  6
CONTINUOUS
 62
     5
 10
-267.90000000000009
 20
79.970330833100206
 30
0.0
 11
-268.90000000000009
 21
79.970330833100206
 31
0.0
  0
LINE
  8
DETAIL
  6
CONTINUOUS
 62
     5
 10
-270.19999999999999
 20
83.900000000000091
 30
0.0
 11
-297.80000000000018
 21
83.900000000000091
 31
0.0
  0
LINE
  8
DETAIL
  6
CONTINUOUS
 62
     5
 10
-153.0
 20
83.900000000000091
 30
0.0
 11
-125.40000000000011
 21
83.900000000000091
 31
0.0
  0
LINE
  8
DETAIL
  6
CONTINUOUS
 62
     5
 10
-155.30000000000021
 20
86.593393632300149
 30
0.0
 11
-157.59999999999991
 21
86.593393632300149
 31
0.0
  0
LINE
  8
DETAIL
  6
CONTINUOUS
 62
     5
 10
-267.90000000000009
 20
86.593393632300149
 30
0.0
 11
-265.59999999999991
 21
86.593393632300149
 31
0.0
  0
LINE
  8
DETAIL
  6
CONTINUOUS
 62
     5
 10
-19.053418012600101
 20
269.02191584379989
 30
0.0
 11
-19.5
 21
269.79541853569998
 31
0.0
  0
LINE
  8
DETAIL
  6
CONTINUOUS
 62
     5
 10
-19.053418012600101
 20
269.02191584379989
 30
0.0
 11
-19.188666738700022
 21
269.27239154500012
 31
0.0
  0
LINE
  8
DETAIL
  6
CONTINUOUS
 62
     5
 10
-19.188666738700022
 20
269.27239154500012
 30
0.0
 11
-19.299744531800119
 21
269.518080715
 31
0.0
  0
LINE
  8
DETAIL
  6
CONTINUOUS
 62
     5
 10
-19.299744531800119
 20
269.518080715
 30
0.0
 11
-19.386798040500249
 21
269.75821338950033
 31
0.0
  0
LINE
  8
DETAIL
  6
CONTINUOUS
 62
     5
 10
-19.053418012600101
 20
277.68216988170002
 30
0.0
 11
-19.188666738700022
 21
277.93264558279998
 31
0.0
  0
LINE
  8
DETAIL
  6
CONTINUOUS
 62
     5
 10
-19.188666738700022
 20
277.93264558279998
 30
0.0
 11
-19.299744531800119
 21
278.1783347528999
 31
0.0
  0
LINE
  8
DETAIL
  6
CONTINUOUS
 62
     5
 10
-19.299744531800119
 20
278.1783347528999
 30
0.0
 11
-19.386798040200119
 21
278.41846742479993
 31
0.0
  0
LINE
  8
DETAIL
  6
CONTINUOUS
 62
     5
 10
-19.386798040200119
 20
278.41846742479993
 30
0.0
 11
-19.449387319400099
 21
278.65535349980019
 31
0.0
  0
LINE
  8
DETAIL
  6
CONTINUOUS
 62
     5
 10
-19.449387319400099
 20
278.65535349980019
 30
0.0
 11
-19.487072424700049
 21
278.89130287890021
 31
0.0
  0
LINE
  8
DETAIL
  6
CONTINUOUS
 62
     5
 10
-19.487072424700049
 20
278.89130287890021
 30
0.0
 11
-19.500000004400139
 21
279.12554559520032
 31
0.0
  0
LINE
  8
DETAIL
  6
CONTINUOUS
 62
     5
 10
0.0
 20
-353.0
 30
0.0
 11
0.0
 21
353.0
 31
0.0
  0
LINE
  8
DETAIL
  6
CONTINUOUS
 62
     5
 10
-3.0
 20
-353.0
 30
0.0
 11
-3.0
 21
353.0
 31
0.0
  0
LINE
  8
DETAIL
  6
CONTINUOUS
 62
     5
 10
-5.0999999999999091
 20
-348.33452377920003
 30
0.0
 11
-5.0999999999999091
 21
-298.43439365220001
 31
0.0
  0
LINE
  8
DETAIL
  6
CONTINUOUS
 62
     5
 10
-5.0999999999999091
 20
298.43439365220001
 30
0.0
 11
-5.0999999999999091
 21
348.33452377909998
 31
0.0
  0
LINE
  8
DETAIL
  6
CONTINUOUS
 62
     5
 10
-10.0
 20
-347.89999999999992
 30
0.0
 11
-10.0
 21
-344.69476057399987
 31
0.0
  0
LINE
  8
DETAIL
  6
CONTINUOUS
 62
     5
 10
-10.0
 20
-283.92334059709992
 30
0.0
 11
-10.0
 21
-289.53289256549988
 31
0.0
  0
LINE
  8
DETAIL
  6
CONTINUOUS
 62
     5
 10
-10.0
 20
-283.92334059709992
 30
0.0
 11
-10.0
 21
283.92334059709992
 31
0.0
  0
LINE
  8
DETAIL
  6
CONTINUOUS
 62
     5
 10
-10.0
 20
283.92334059709992
 30
0.0
 11
-10.0
 21
289.53289256540012
 31
0.0
  0
LINE
  8
DETAIL
  6
CONTINUOUS
 62
     5
 10
-10.0
 20
344.69476057390011
 30
0.0
 11
-10.0
 21
347.90000000000009
 31
0.0
  0
LINE
  8
DETAIL
  6
CONTINUOUS
 62
     5
 10
-14.5
 20
-339.03036724849989
 30
0.0
 11
-14.5
 21
-257.82485578729978
 31
0.0
  0
LINE
  8
DETAIL
  6
CONTINUOUS
 62
     5
 10
-14.5
 20
257.82485578730012
 30
0.0
 11
-14.5
 21
339.03036724850023
 31
0.0
  0
LINE
  8
DETAIL
  6
CONTINUOUS
 62
     5
 10
-19.5
 20
269.79541853569998
 30
0.0
 11
-19.5
 21
279.79541853569998
 31
0.0
  0
LINE
  8
DETAIL
  6
CONTINUOUS
 62
     5
 10
-20.0
 20
-337.89999999999992
 30
0.0
 11
-20.0
 21
-314.03984489159973
 31
0.0
  0
LINE
  8
DETAIL
  6
CONTINUOUS
 62
     5
 10
-20.0
 20
-273.73475836399962
 30
0.0
 11
-20.0
 21
272.29541853569998
 31
0.0
  0
LINE
  8
DETAIL
  6
CONTINUOUS
 62
     5
 10
-20.0
 20
314.03984489160013
 30
0.0
 11
-20.0
 21
337.90000000000009
 31
0.0
  0
LINE
  8
DETAIL
  6
CONTINUOUS
 62
     5
 10
-20.400000000000091
 20
277.2930809505001
 30
0.0
 11
-20.400000000000091
 21
272.29775612100002
 31
0.0
  0
LINE
  8
DETAIL
  6
CONTINUOUS
 62
     5
 10
-20.5
 20
-336.5
 30
0.0
 11
-20.5
 21
-328.11469035980008
 31
0.0
  0
LINE
  8
DETAIL
  6
CONTINUOUS
 62
     5
 10
-21.400000000000091
 20
277.79541853569998
 30
0.0
 11
-21.400000000000091
 21
271.79541853569998
 31
0.0
  0
LINE
  8
DETAIL
  6
CONTINUOUS
 62
     5
 10
-19.5
 20
274.79541853600023
 30
0.0
 11
-19.486303770300079
 21
275.27271795140018
 31
0.0
  0
LINE
  8
DETAIL
  6
CONTINUOUS
 62
     5
 10
-19.486303770300079
 20
275.27271795140018
 30
0.0
 11
-19.44786193480013
 21
275.74999326419987
 31
0.0
  0
LINE
  8
DETAIL
  6
CONTINUOUS
 62
     5
 10
-19.44786193480013
 20
275.74999326419987
 30
0.0
 11
-19.38425077629995
 21
276.22578720010011
 31
0.0
  0
LINE
  8
DETAIL
  6
CONTINUOUS
 62
     5
 10
-19.38425077629995
 20
276.22578720010011
 30
0.0
 11
-19.296741446600208
 21
276.7044715822999
 31
0.0
  0
LINE
  8
DETAIL
  6
CONTINUOUS
 62
     5
 10
-19.296741446600208
 20
276.7044715822999
 30
0.0
 11
-19.186605097800111
 21
277.19041823430013
 31
0.0
  0
LINE
  8
DETAIL
  6
CONTINUOUS
 62
     5
 10
-19.186605097800111
 20
277.19041823430013
 30
0.0
 11
-19.053418012600101
 21
277.68216988170002
 31
0.0
  0
LINE
  8
DETAIL
  6
CONTINUOUS
 62
     5
 10
-282.5
 20
-74.941374170500012
 30
0.0
 11
-282.37244911900012
 21
-74.882819241300012
 31
0.0
  0
LINE
  8
DETAIL
  6
CONTINUOUS
 62
     5
 10
-282.37244911900012
 20
-74.882819241300012
 30
0.0
 11
-282.17427212130002
 21
-74.763489921999962
 31
0.0
  0
LINE
  8
DETAIL
  6
CONTINUOUS
 62
     5
 10
-282.17427212130002
 20
-74.763489921999962
 30
0.0
 11
-282.00698649110018
 21
-74.63094801699981
 31
0.0
  0
LINE
  8
DETAIL
  6
CONTINUOUS
 62
     5
 10
-282.00698649110018
 20
-74.63094801699981
 30
0.0
 11
-281.87431258769988
 21
-74.486860384099828
 31
0.0
  0
LINE
  8
DETAIL
  6
CONTINUOUS
 62
     5
 10
-281.87431258769988
 20
-74.486860384099828
 30
0.0
 11
-281.77761912239998
 21
-74.334100395499945
 31
0.0
  0
LINE
  8
DETAIL
  6
CONTINUOUS
 62
     5
 10
-281.77761912239998
 20
-74.334100395499945
 30
0.0
 11
-281.71984103039972
 21
-74.17672310590001
 31
0.0
  0
LINE
  8
DETAIL
  6
CONTINUOUS
 62
     5
 10
-19.5
 20
270.46529151679988
 30
0.0
 11
-19.48705908689999
 21
270.69958971330021
 31
0.0
  0
LINE
  8
DETAIL
  6
CONTINUOUS
 62
     5
 10
-19.48705908689999
 20
270.69958971330021
 30
0.0
 11
-19.449373688400101
 21
270.93554743379991
 31
0.0
  0
LINE
  8
DETAIL
  6
CONTINUOUS
 62
     5
 10
-19.449373688400101
 20
270.93554743379991
 30
0.0
 11
-19.386804381100092
 21
271.17237132600007
 31
0.0
  0
LINE
  8
DETAIL
  6
CONTINUOUS
 62
     5
 10
-19.386804381100092
 20
271.17237132600007
 30
0.0
 11
-19.299769434900099
 21
271.41244144640018
 31
0.0
  0
LINE
  8
DETAIL
  6
CONTINUOUS
 62
     5
 10
-19.299769434900099
 20
271.41244144640018
 30
0.0
 11
-19.1886871198999
 21
271.65813785179989
 31
0.0
  0
LINE
  8
DETAIL
  6
CONTINUOUS
 62
     5
 10
-19.1886871198999
 20
271.65813785179989
 30
0.0
 11
-19.053418012600101
 21
271.90866718979993
 31
0.0
  0
LINE
  8
DETAIL
  6
CONTINUOUS
 62
     5
 10
-19.500000004400139
 20
279.12554559520032
 30
0.0
 11
-19.487059082000091
 21
279.35984379979999
 31
0.0
  0
LINE
  8
DETAIL
  6
CONTINUOUS
 62
     5
 10
-19.487059082000091
 20
279.35984379979999
 30
0.0
 11
-19.449373678000029
 21
279.59580152029997
 31
0.0
  0
LINE
  8
DETAIL
  6
CONTINUOUS
 62
     5
 10
-19.449373678000029
 20
279.59580152029997
 30
0.0
 11
-19.386804369200039
 21
279.83262540260012
 31
0.0
  0
LINE
  8
DETAIL
  6
CONTINUOUS
 62
     5
 10
-19.386804369200039
 20
279.83262540260012
 30
0.0
 11
-19.299769424800161
 21
280.07269550910001
 31
0.0
  0
LINE
  8
DETAIL
  6
CONTINUOUS
 62
     5
 10
-19.299769424800161
 20
280.07269550910001
 30
0.0
 11
-19.18868711360005
 21
280.31839190210007
 31
0.0
  0
LINE
  8
DETAIL
  6
CONTINUOUS
 62
     5
 10
-19.18868711360005
 20
280.31839190210007
 30
0.0
 11
-19.053418012600101
 21
280.56892122760019
 31
0.0
  0
LINE
  8
DETAIL
  6
CONTINUOUS
 62
     5
 10
-134.59999999999991
 20
-86.550024423100012
 30
0.0
 11
-134.5534031525001
 21
-86.493258161499853
 31
0.0
  0
LINE
  8
DETAIL
  6
CONTINUOUS
 62
     5
 10
-134.5534031525001
 20
-86.493258161499853
 30
0.0
 11
-134.50691756539999
 21
-86.417668021599866
 31
0.0
  0
LINE
  8
DETAIL
  6
CONTINUOUS
 62
     5
 10
-134.50691756539999
 20
-86.417668021599866
 30
0.0
 11
-134.46065423360011
 21
-86.323434491799844
 31
0.0
  0
LINE
  8
DETAIL
  6
CONTINUOUS
 62
     5
 10
-134.46065423360011
 20
-86.323434491799844
 30
0.0
 11
-134.4147236213
 21
-86.21078257579984
 31
0.0
  0
LINE
  8
DETAIL
  6
CONTINUOUS
 62
     5
 10
-134.4147236213
 20
-86.21078257579984
 30
0.0
 11
-134.36600604450001
 21
-86.069951800499894
 31
0.0
  0
LINE
  8
DETAIL
  6
CONTINUOUS
 62
     5
 10
-134.36600604450001
 20
-86.069951800499894
 30
0.0
 11
-134.31979757840011
 21
-85.915363623399799
 31
0.0
  0
LINE
  8
DETAIL
  6
CONTINUOUS
 62
     5
 10
-153.8534180125998
 20
-75.052813737799852
 30
0.0
 11
-153.98886233499999
 21
-75.182726584399916
 31
0.0
  0
LINE
  8
DETAIL
  6
CONTINUOUS
 62
     5
 10
-153.98886233499999
 20
-75.182726584399916
 30
0.0
 11
-154.09999435859999
 21
-75.309963758199956
 31
0.0
  0
LINE
  8
DETAIL
  6
CONTINUOUS
 62
     5
 10
-154.09999435859999
 20
-75.309963758199956
 30
0.0
 11
-154.18690155009969
 21
-75.434037494299901
 31
0.0
  0
LINE
  8
DETAIL
  6
CONTINUOUS
 62
     5
 10
-154.18690155009969
 20
-75.434037494299901
 30
0.0
 11
-154.24932150960009
 21
-75.556411087599827
 31
0.0
  0
LINE
  8
DETAIL
  6
CONTINUOUS
 62
     5
 10
-154.24932150960009
 20
-75.556411087599827
 30
0.0
 11
-154.28699183729989
 21
-75.678547832599861
 31
0.0
  0
LINE
  8
DETAIL
  6
CONTINUOUS
 62
     5
 10
-154.28699183729989
 20
-75.678547832599861
 30
0.0
 11
-154.30000000000021
 21
-75.799959964600021
 31
0.0
  0
LINE
  8
DETAIL
  6
CONTINUOUS
 62
     5
 10
-112.5
 20
288.23044737830008
 30
0.0
 11
-114.5
 21
289.64466094070008
 31
0.0
  0
LINE
  8
DETAIL
  6
CONTINUOUS
 62
     5
 10
-114.5
 20
292.82664145600029
 30
0.0
 11
-112.5
 21
291.41242789360012
 31
0.0
  0
LINE
  8
DETAIL
  6
CONTINUOUS
 62
     5
 10
-112.5
 20
291.41242789360012
 30
0.0
 11
-112.5
 21
288.23044737830008
 31
0.0
  0
LINE
  8
DETAIL
  6
CONTINUOUS
 62
     5
 10
-112.5
 20
-291.41242789369988
 30
0.0
 11
-112.5
 21
-288.23044737829991
 31
0.0
  0
LINE
  8
DETAIL
  6
CONTINUOUS
 62
     5
 10
-150.40183356130001
 20
-76.146711735199915
 30
0.0
 11
-150.30000000000021
 21
-75.970330833099979
 31
0.0
  0
LINE
  8
DETAIL
  6
CONTINUOUS
 62
     5
 10
-154.30000000000021
 20
-65.970330833099979
 30
0.0
 11
-154.1981664386999
 21
-65.79394993109986
 31
0.0
  0
LINE
  8
DETAIL
  6
CONTINUOUS
 62
     5
 10
-150.40169840489989
 20
-76.14671697599988
 30
0.0
 11
-150.4131188376
 21
-76.165941378199932
 31
0.0
  0
LINE
  8
DETAIL
  6
CONTINUOUS
 62
     5
 10
-150.4131188376
 20
-76.165941378199932
 30
0.0
 11
-150.4999909850001
 21
-76.289937616099905
 31
0.0
  0
LINE
  8
DETAIL
  6
CONTINUOUS
 62
     5
 10
-150.4999909850001
 20
-76.289937616099905
 30
0.0
 11
-150.61112031010001
 21
-76.417164010799979
 31
0.0
  0
LINE
  8
DETAIL
  6
CONTINUOUS
 62
     5
 10
-150.61112031010001
 20
-76.417164010799979
 30
0.0
 11
-150.74658198740011
 21
-76.547106191399962
 31
0.0
  0
LINE
  8
DETAIL
  6
CONTINUOUS
 62
     5
 10
-154.19830045980009
 20
-65.79394473419984
 30
0.0
 11
-154.1868772711
 21
-65.774715898599879
 31
0.0
  0
LINE
  8
DETAIL
  6
CONTINUOUS
 62
     5
 10
-154.1868772711
 20
-65.774715898599879
 30
0.0
 11
-154.10000127149991
 21
-65.650714246799907
 31
0.0
  0
LINE
  8
DETAIL
  6
CONTINUOUS
 62
     5
 10
-154.10000127149991
 20
-65.650714246799907
 30
0.0
 11
-153.9888737791
 21
-65.523490052999932
 31
0.0
  0
LINE
  8
DETAIL
  6
CONTINUOUS
 62
     5
 10
-153.9888737791
 20
-65.523490052999932
 30
0.0
 11
-153.8534180125998
 21
-65.393555474899813
 31
0.0
  0
LINE
  8
DETAIL
  6
CONTINUOUS
 62
     5
 10
-279.45890539409987
 20
-78.657659808900007
 30
0.0
 11
-279.83993164909998
 21
-78.999250000799975
 31
0.0
  0
LINE
  8
DETAIL
  6
CONTINUOUS
 62
     5
 10
-279.83993164909998
 20
-78.999250000799975
 30
0.0
 11
-280.23332611059999
 21
-79.300580941099952
 31
0.0
  0
LINE
  8
DETAIL
  6
CONTINUOUS
 62
     5
 10
-280.23332611059999
 20
-79.300580941099952
 30
0.0
 11
-280.63307014249989
 21
-79.561926994899977
 31
0.0
  0
LINE
  8
DETAIL
  6
CONTINUOUS
 62
     5
 10
-280.63307014249989
 20
-79.561926994899977
 30
0.0
 11
-281.03535676930011
 21
-79.78543367269981
 31
0.0
  0
LINE
  8
DETAIL
  6
CONTINUOUS
 62
     5
 10
-281.03535676930011
 20
-79.78543367269981
 30
0.0
 11
-281.43475404589998
 21
-79.972498963499902
 31
0.0
  0
LINE
  8
DETAIL
  6
CONTINUOUS
 62
     5
 10
-281.43475404589998
 20
-79.972498963499902
 30
0.0
 11
-281.83179617569999
 21
-80.1272001886
 31
0.0
  0
LINE
  8
DETAIL
  6
CONTINUOUS
 62
     5
 10
-281.83179617569999
 20
-80.1272001886
 30
0.0
 11
-282.23202141990009
 21
-80.253939382299905
 31
0.0
  0
LINE
  8
DETAIL
  6
CONTINUOUS
 62
     5
 10
-150.74658198740011
 20
67.984455811900034
 30
0.0
 11
-150.6111320864002
 21
67.499587621899991
 31
0.0
  0
LINE
  8
DETAIL
  6
CONTINUOUS
 62
     5
 10
-150.6111320864002
 20
67.499587621899991
 30
0.0
 11
-150.49999835390011
 21
67.024724439400188
 31
0.0
  0
LINE
  8
DETAIL
  6
CONTINUOUS
 62
     5
 10
-150.49999835390011
 20
67.024724439400188
 30
0.0
 11
-150.41309485950001
 21
66.561694617800185
 31
0.0
  0
LINE
  8
DETAIL
  6
CONTINUOUS
 62
     5
 10
-150.41309485950001
 20
66.561694617800185
 30
0.0
 11
-150.3506793949
 21
66.105013097100027
 31
0.0
  0
LINE
  8
DETAIL
  6
CONTINUOUS
 62
     5
 10
-150.3506793949
 20
66.105013097100027
 30
0.0
 11
-150.31300975190021
 21
65.649194817700163
 31
0.0
  0
LINE
  8
DETAIL
  6
CONTINUOUS
 62
     5
 10
-150.31300975190021
 20
65.649194817700163
 30
0.0
 11
-150.30000000000021
 21
65.196068132800065
 31
0.0
  0
LINE
  8
DETAIL
  6
CONTINUOUS
 62
     5
 10
-154.30000000000021
 20
68.731602038700203
 30
0.0
 11
-154.28695341669999
 21
68.610097805400073
 31
0.0
  0
LINE
  8
DETAIL
  6
CONTINUOUS
 62
     5
 10
-154.28695341669999
 20
68.610097805400073
 30
0.0
 11
-154.24927143410011
 21
68.487931818500101
 31
0.0
  0
LINE
  8
DETAIL
  6
CONTINUOUS
 62
     5
 10
-154.24927143410011
 20
68.487931818500101
 30
0.0
 11
-154.1868772711
 21
68.3656162356001
 31
0.0
  0
LINE
  8
DETAIL
  6
CONTINUOUS
 62
     5
 10
-154.1868772711
 20
68.3656162356001
 30
0.0
 11
-154.10000127149991
 21
68.241614583800128
 31
0.0
  0
LINE
  8
DETAIL
  6
CONTINUOUS
 62
     5
 10
-154.10000127149991
 20
68.241614583800128
 30
0.0
 11
-153.9888737791
 21
68.114390390000153
 31
0.0
  0
LINE
  8
DETAIL
  6
CONTINUOUS
 62
     5
 10
-153.9888737791
 20
68.114390390000153
 30
0.0
 11
-153.8534180125998
 21
67.984455811900034
 31
0.0
  0
LINE
  8
DETAIL
  6
CONTINUOUS
 62
     5
 10
-154.30000000000021
 20
60.366439001300023
 30
0.0
 11
-154.2865881340999
 21
60.031446693900079
 31
0.0
  0
LINE
  8
DETAIL
  6
CONTINUOUS
 62
     5
 10
-154.2865881340999
 20
60.031446693900079
 30
0.0
 11
-154.24851812680001
 21
59.695751537000213
 31
0.0
  0
LINE
  8
DETAIL
  6
CONTINUOUS
 62
     5
 10
-154.24851812680001
 20
59.695751537000213
 30
0.0
 11
-154.18555489519991
 21
59.360650084400049
 31
0.0
  0
LINE
  8
DETAIL
  6
CONTINUOUS
 62
     5
 10
-154.18555489519991
 20
59.360650084400049
 30
0.0
 11
-154.0984036883001
 21
59.022252674200217
 31
0.0
  0
LINE
  8
DETAIL
  6
CONTINUOUS
 62
     5
 10
-154.0984036883001
 20
59.022252674200217
 30
0.0
 11
-153.98776975510009
 21
58.676669644400143
 31
0.0
  0
LINE
  8
DETAIL
  6
CONTINUOUS
 62
     5
 10
-153.98776975510009
 20
58.676669644400143
 30
0.0
 11
-153.8534180125998
 21
58.325197548999988
 31
0.0
  0
LINE
  8
DETAIL
  6
CONTINUOUS
 62
     5
 10
-154.30000000000021
 20
65.196068132800065
 30
0.0
 11
-154.28695341669999
 21
64.742608160800046
 31
0.0
  0
LINE
  8
DETAIL
  6
CONTINUOUS
 62
     5
 10
-154.28695341669999
 20
64.742608160800046
 30
0.0
 11
-154.24927143410011
 21
64.286678490700069
 31
0.0
  0
LINE
  8
DETAIL
  6
CONTINUOUS
 62
     5
 10
-154.24927143410011
 20
64.286678490700069
 30
0.0
 11
-154.1868772711
 21
63.830190520900032
 31
0.0
  0
LINE
  8
DETAIL
  6
CONTINUOUS
 62
     5
 10
-154.1868772711
 20
63.830190520900032
 30
0.0
 11
-154.10000127149991
 21
63.367410056100198
 31
0.0
  0
LINE
  8
DETAIL
  6
CONTINUOUS
 62
     5
 10
-154.10000127149991
 20
63.367410056100198
 30
0.0
 11
-153.9888737791
 21
62.892602900900101
 31
0.0
  0
LINE
  8
DETAIL
  6
CONTINUOUS
 62
     5
 10
-153.9888737791
 20
62.892602900900101
 30
0.0
 11
-153.8534180125998
 21
62.407680453600051
 31
0.0
  0
LINE
  8
DETAIL
  6
CONTINUOUS
 62
     5
 10
-114.5
 20
312.6256313291999
 30
0.0
 11
-114.5
 21
289.64466094070008
 31
0.0
  0
LINE
  8
DETAIL
  6
CONTINUOUS
 62
     5
 10
-114.5
 20
-289.64466094069991
 30
0.0
 11
-114.5
 21
-312.62563132929989
 31
0.0
  0
LINE
  8
DETAIL
  6
CONTINUOUS
 62
     5
 10
-115.234378265
 20
349.51600000000008
 30
0.0
 11
-115.234378265
 21
302.72613639260021
 31
0.0
  0
LINE
  8
DETAIL
  6
CONTINUOUS
 62
     5
 10
-115.234378265
 20
273.73475836400007
 30
0.0
 11
-115.234378265
 21
-273.73475836399962
 31
0.0
  0
LINE
  8
DETAIL
  6
CONTINUOUS
 62
     5
 10
-115.234378265
 20
-302.72613639259998
 30
0.0
 11
-115.234378265
 21
-349.51599999999979
 31
0.0
  0
LINE
  8
DETAIL
  6
CONTINUOUS
 62
     5
 10
-118.5
 20
-298.41278502739988
 30
0.0
 11
-118.5
 21
-306.33238097669982
 31
0.0
  0
LINE
  8
DETAIL
  6
CONTINUOUS
 62
     5
 10
-119.234378265
 20
349.51600000000008
 30
0.0
 11
-119.234378265
 21
302.72613639260021
 31
0.0
  0
LINE
  8
DETAIL
  6
CONTINUOUS
 62
     5
 10
-119.234378265
 20
273.73475836400007
 30
0.0
 11
-119.234378265
 21
-273.73475836399962
 31
0.0
  0
LINE
  8
DETAIL
  6
CONTINUOUS
 62
     5
 10
-119.234378265
 20
-306.33238097669982
 30
0.0
 11
-119.234378265
 21
-349.51599999999979
 31
0.0
  0
LINE
  8
DETAIL
  6
CONTINUOUS
 62
     5
 10
-119.5
 20
-273.83805922289997
 30
0.0
 11
-119.5
 21
-301.02908011779982
 31
0.0
  0
LINE
  8
DETAIL
  6
CONTINUOUS
 62
     5
 10
-119.5
 20
-306.33238097669982
 30
0.0
 11
-119.5
 21
-307.08776461229991
 31
0.0
  0
LINE
  8
DETAIL
  6
CONTINUOUS
 62
     5
 10
-123.0
 20
-273.83805922289997
 30
0.0
 11
-123.0
 21
-301.02908011779982
 31
0.0
  0
LINE
  8
DETAIL
  6
CONTINUOUS
 62
     5
 10
-123.0
 20
-306.33238097669982
 30
0.0
 11
-123.0
 21
-307.08776461229991
 31
0.0
  0
LINE
  8
DETAIL
  6
CONTINUOUS
 62
     5
 10
-124.0
 20
-298.41278502739988
 30
0.0
 11
-124.0
 21
-306.33238097669982
 31
0.0
  0
LINE
  8
DETAIL
  6
CONTINUOUS
 62
     5
 10
-130.09999999999991
 20
-84.626646482299975
 30
0.0
 11
-130.09999999999991
 21
-83.274622122699839
 31
0.0
  0
LINE
  8
DETAIL
  6
CONTINUOUS
 62
     5
 10
-139.09999999999991
 20
-84.626646482299975
 30
0.0
 11
-139.09999999999991
 21
-83.274622122699839
 31
0.0
  0
LINE
  8
DETAIL
  6
CONTINUOUS
 62
     5
 10
-150.30000000000021
 20
68.901972907200161
 30
0.0
 11
-150.30000000000021
 21
58.901972907200161
 31
0.0
  0
LINE
  8
DETAIL
  6
CONTINUOUS
 62
     5
 10
-150.30000000000021
 20
-65.970330833099979
 30
0.0
 11
-150.30000000000021
 21
-75.970330833099979
 31
0.0
  0
LINE
  8
DETAIL
  6
CONTINUOUS
 62
     5
 10
-154.30000000000021
 20
-79.970243269299999
 30
0.0
 11
-154.30000000000021
 21
-61.970418396899959
 31
0.0
  0
LINE
  8
DETAIL
  6
CONTINUOUS
 62
     5
 10
-154.30000000000021
 20
54.902060471000141
 30
0.0
 11
-154.30000000000021
 21
72.901885343500226
 31
0.0
  0
LINE
  8
DETAIL
  6
CONTINUOUS
 62
     5
 10
-150.30000000000021
 20
-72.264426058599838
 30
0.0
 11
-150.3130481705
 21
-72.717896201899975
 31
0.0
  0
LINE
  8
DETAIL
  6
CONTINUOUS
 62
     5
 10
-150.3130481705
 20
-72.717896201899975
 30
0.0
 11
-150.35072939139991
 21
-73.173823164699797
 31
0.0
  0
LINE
  8
DETAIL
  6
CONTINUOUS
 62
     5
 10
-150.35072939139991
 20
-73.173823164699797
 30
0.0
 11
-150.4131188376
 21
-73.630287289099897
 31
0.0
  0
LINE
  8
DETAIL
  6
CONTINUOUS
 62
     5
 10
-150.4131188376
 20
-73.630287289099897
 30
0.0
 11
-150.4999909850001
 21
-74.093047548799859
 31
0.0
  0
LINE
  8
DETAIL
  6
CONTINUOUS
 62
     5
 10
-150.4999909850001
 20
-74.093047548799859
 30
0.0
 11
-150.61112031010001
 21
-74.567862917699813
 31
0.0
  0
LINE
  8
DETAIL
  6
CONTINUOUS
 62
     5
 10
-150.61112031010001
 20
-74.567862917699813
 30
0.0
 11
-150.74658198740011
 21
-75.052813737799852
 31
0.0
  0
LINE
  8
DETAIL
  6
CONTINUOUS
 62
     5
 10
-150.30000000000021
 20
65.196068132800065
 30
0.0
 11
-150.3130481705
 21
64.74259798940011
 31
0.0
  0
LINE
  8
DETAIL
  6
CONTINUOUS
 62
     5
 10
-150.3130481705
 20
64.74259798940011
 30
0.0
 11
-150.35072939139991
 21
64.286671026600061
 31
0.0
  0
LINE
  8
DETAIL
  6
CONTINUOUS
 62
     5
 10
-150.35072939139991
 20
64.286671026600061
 30
0.0
 11
-150.4131188376
 21
63.830206902300013
 31
0.0
  0
LINE
  8
DETAIL
  6
CONTINUOUS
 62
     5
 10
-150.4131188376
 20
63.830206902300013
 30
0.0
 11
-150.4999909850001
 21
63.367446642600036
 31
0.0
  0
LINE
  8
DETAIL
  6
CONTINUOUS
 62
     5
 10
-150.4999909850001
 20
63.367446642600036
 30
0.0
 11
-150.61112031010001
 21
62.89263127370009
 31
0.0
  0
LINE
  8
DETAIL
  6
CONTINUOUS
 62
     5
 10
-150.61112031010001
 20
62.89263127370009
 30
0.0
 11
-150.74658198740011
 21
62.407680453600051
 31
0.0
  0
LINE
  8
DETAIL
  6
CONTINUOUS
 62
     5
 10
-150.30000000000021
 20
-67.434796927199841
 30
0.0
 11
-150.31341237710009
 21
-67.769788679700014
 31
0.0
  0
LINE
  8
DETAIL
  6
CONTINUOUS
 62
     5
 10
-150.31341237710009
 20
-67.769788679700014
 30
0.0
 11
-150.35148088479991
 21
-68.105477896799812
 31
0.0
  0
LINE
  8
DETAIL
  6
CONTINUOUS
 62
     5
 10
-150.35148088479991
 20
-68.105477896799812
 30
0.0
 11
-150.41443891310021
 21
-68.440562767799975
 31
0.0
  0
LINE
  8
DETAIL
  6
CONTINUOUS
 62
     5
 10
-150.41443891310021
 20
-68.440562767799975
 30
0.0
 11
-150.5015862926
 21
-68.778948724399925
 31
0.0
  0
LINE
  8
DETAIL
  6
CONTINUOUS
 62
     5
 10
-150.5015862926
 20
-68.778948724399925
 30
0.0
 11
-150.61222285409991
 21
-69.124541198499855
 31
0.0
  0
LINE
  8
DETAIL
  6
CONTINUOUS
 62
     5
 10
-150.61222285409991
 20
-69.124541198499855
 30
0.0
 11
-150.74658198740011
 21
-69.476038379499869
 31
0.0
  0
LINE
  8
DETAIL
  6
CONTINUOUS
 62
     5
 10
-150.30000000000021
 20
60.366439001300023
 30
0.0
 11
-150.31341237710009
 21
60.031447248800077
 31
0.0
  0
LINE
  8
DETAIL
  6
CONTINUOUS
 62
     5
 10
-150.31341237710009
 20
60.031447248800077
 30
0.0
 11
-150.35148088479991
 21
59.695758031700052
 31
0.0
  0
LINE
  8
DETAIL
  6
CONTINUOUS
 62
     5
 10
-150.35148088479991
 20
59.695758031700052
 30
0.0
 11
-150.41443891310021
 21
59.360673160700117
 31
0.0
  0
LINE
  8
DETAIL
  6
CONTINUOUS
 62
     5
 10
-150.41443891310021
 20
59.360673160700117
 30
0.0
 11
-150.5015862926
 21
59.022287204100166
 31
0.0
  0
LINE
  8
DETAIL
  6
CONTINUOUS
 62
     5
 10
-150.5015862926
 20
59.022287204100166
 30
0.0
 11
-150.61222285409991
 21
58.676694730000008
 31
0.0
  0
LINE
  8
DETAIL
  6
CONTINUOUS
 62
     5
 10
-150.61222285409991
 20
58.676694730000008
 30
0.0
 11
-150.74658198740011
 21
58.325197548999988
 31
0.0
  0
LINE
  8
DETAIL
  6
CONTINUOUS
 62
     5
 10
-130.09999999999991
 20
-84.626646482299975
 30
0.0
 11
-130.12130695050001
 21
-84.837337149699806
 31
0.0
  0
LINE
  8
DETAIL
  6
CONTINUOUS
 62
     5
 10
-130.12130695050001
 20
-84.837337149699806
 30
0.0
 11
-130.1824643519999
 21
-85.035374814999841
 31
0.0
  0
LINE
  8
DETAIL
  6
CONTINUOUS
 62
     5
 10
-130.1824643519999
 20
-85.035374814999841
 30
0.0
 11
-130.28003242129989
 21
-85.216768810900021
 31
0.0
  0
LINE
  8
DETAIL
  6
CONTINUOUS
 62
     5
 10
-130.28003242129989
 20
-85.216768810900021
 30
0.0
 11
-130.40438320600009
 21
-85.3708837872
 31
0.0
  0
LINE
  8
DETAIL
  6
CONTINUOUS
 62
     5
 10
-130.40438320600009
 20
-85.3708837872
 30
0.0
 11
-130.54290140489999
 21
-85.493242576999819
 31
0.0
  0
LINE
  8
DETAIL
  6
CONTINUOUS
 62
     5
 10
-130.54290140489999
 20
-85.493242576999819
 30
0.0
 11
-130.69150288770021
 21
-85.589888037299943
 31
0.0
  0
LINE
  8
DETAIL
  6
CONTINUOUS
 62
     5
 10
-150.30000000000021
 20
-75.799959964600021
 30
0.0
 11
-150.3130481705
 21
-75.921466923299931
 31
0.0
  0
LINE
  8
DETAIL
  6
CONTINUOUS
 62
     5
 10
-150.3130481705
 20
-75.921466923299931
 30
0.0
 11
-150.35072939139991
 21
-76.043632184699845
 31
0.0
  0
LINE
  8
DETAIL
  6
CONTINUOUS
 62
     5
 10
-150.35072939139991
 20
-76.043632184699845
 30
0.0
 11
-150.40169840489989
 21
-76.14671697599988
 31
0.0
  0
LINE
  8
DETAIL
  6
CONTINUOUS
 62
     5
 10
-153.8534180125998
 20
-69.476038379499869
 30
0.0
 11
-153.98886233499999
 21
-69.960879723599874
 31
0.0
  0
LINE
  8
DETAIL
  6
CONTINUOUS
 62
     5
 10
-153.98886233499999
 20
-69.960879723599874
 30
0.0
 11
-154.09999435859999
 21
-70.435735320999811
 31
0.0
  0
LINE
  8
DETAIL
  6
CONTINUOUS
 62
     5
 10
-154.09999435859999
 20
-70.435735320999811
 30
0.0
 11
-154.18690155009969
 21
-70.898784808199935
 31
0.0
  0
LINE
  8
DETAIL
  6
CONTINUOUS
 62
     5
 10
-154.18690155009969
 20
-70.898784808199935
 30
0.0
 11
-154.24932150960009
 21
-71.355489275599894
 31
0.0
  0
LINE
  8
DETAIL
  6
CONTINUOUS
 62
     5
 10
-154.24932150960009
 20
-71.355489275599894
 30
0.0
 11
-154.28699183729989
 21
-71.811309813499975
 31
0.0
  0
LINE
  8
DETAIL
  6
CONTINUOUS
 62
     5
 10
-154.28699183729989
 20
-71.811309813499975
 30
0.0
 11
-154.30000000000021
 21
-72.264426058599838
 31
0.0
  0
LINE
  8
DETAIL
  6
CONTINUOUS
 62
     5
 10
-153.8534180125998
 20
-65.393555474899813
 30
0.0
 11
-153.98840467619991
 21
-65.747000091399968
 31
0.0
  0
LINE
  8
DETAIL
  6
CONTINUOUS
 62
     5
 10
-153.98840467619991
 20
-65.747000091399968
 30
0.0
 11
-154.0993428290999
 21
-66.093850610399841
 31
0.0
  0
LINE
  8
DETAIL
  6
CONTINUOUS
 62
     5
 10
-154.0993428290999
 20
-66.093850610399841
 30
0.0
 11
-154.18639561740019
 21
-66.432889205899983
 31
0.0
  0
LINE
  8
DETAIL
  6
CONTINUOUS
 62
     5
 10
-154.18639561740019
 20
-66.432889205899983
 30
0.0
 11
-154.24907360309999
 21
-66.767769355899873
 31
0.0
  0
LINE
  8
DETAIL
  6
CONTINUOUS
 62
     5
 10
-154.24907360309999
 20
-66.767769355899873
 30
0.0
 11
-154.28688734869999
 21
-67.102144538299854
 31
0.0
  0
LINE
  8
DETAIL
  6
CONTINUOUS
 62
     5
 10
-154.28688734869999
 20
-67.102144538299854
 30
0.0
 11
-154.30000000000021
 21
-67.434796927199841
 31
0.0
  0
LINE
  8
DETAIL
  6
CONTINUOUS
 62
     5
 10
-19.053418012600101
 20
280.56892122760019
 30
0.0
 11
-19.5
 21
279.79541853569998
 31
0.0
  0
LINE
  8
DETAIL
  6
CONTINUOUS
 62
     5
 10
-150.40183356130001
 20
58.725592005200042
 30
0.0
 11
-150.30000000000021
 21
58.901972907200161
 31
0.0
  0
LINE
  8
DETAIL
  6
CONTINUOUS
 62
     5
 10
-279.45890539409987
 20
-78.657659808900007
 30
0.0
 11
-279.37140356079999
 21
-78.555257073299799
 31
0.0
  0
LINE
  8
DETAIL
  6
CONTINUOUS
 62
     5
 10
-279.37140356079999
 20
-78.555257073299799
 30
0.0
 11
-279.30000000000018
 21
-78.34402283229997
 31
0.0
  0
LINE
  8
DETAIL
  6
CONTINUOUS
 62
     5
 10
-296.70282096049999
 20
-81.09783693939994
 30
0.0
 11
-297.05101393460018
 21
-81.453482160000021
 31
0.0
  0
LINE
  8
DETAIL
  6
CONTINUOUS
 62
     5
 10
-297.05101393460018
 20
-81.453482160000021
 30
0.0
 11
-297.29994143250002
 21
-81.79523157929998
 31
0.0
  0
LINE
  8
DETAIL
  6
CONTINUOUS
 62
     5
 10
-297.29994143250002
 20
-81.79523157929998
 30
0.0
 11
-297.44979440669999
 21
-82.123269136199951
 31
0.0
  0
LINE
  8
DETAIL
  6
CONTINUOUS
 62
     5
 10
-297.44979440669999
 20
-82.123269136199951
 30
0.0
 11
-297.5
 21
-82.433773987099812
 31
0.0
  0
LINE
  8
DETAIL
  6
CONTINUOUS
 62
     5
 10
-269.34658198739999
 20
-69.478748265499917
 30
0.0
 11
-269.21113766500002
 21
-69.348835418899853
 31
0.0
  0
LINE
  8
DETAIL
  6
CONTINUOUS
 62
     5
 10
-269.21113766500002
 20
-69.348835418899853
 30
0.0
 11
-269.1000056414
 21
-69.221598245099813
 31
0.0
  0
LINE
  8
DETAIL
  6
CONTINUOUS
 62
     5
 10
-269.1000056414
 20
-69.221598245099813
 30
0.0
 11
-269.0130984499001
 21
-69.097524508899824
 31
0.0
  0
LINE
  8
DETAIL
  6
CONTINUOUS
 62
     5
 10
-269.0130984499001
 20
-69.097524508899824
 30
0.0
 11
-269.0017135347
 21
-69.078358463699942
 31
0.0
  0
LINE
  8
DETAIL
  6
CONTINUOUS
 62
     5
 10
-150.74658198740011
 20
58.325197548999988
 30
0.0
 11
-150.6111320864002
 21
58.455117588900073
 31
0.0
  0
LINE
  8
DETAIL
  6
CONTINUOUS
 62
     5
 10
-150.6111320864002
 20
58.455117588900073
 30
0.0
 11
-150.49999835390011
 21
58.582356795200212
 31
0.0
  0
LINE
  8
DETAIL
  6
CONTINUOUS
 62
     5
 10
-150.49999835390011
 20
58.582356795200212
 30
0.0
 11
-150.41309485950001
 21
58.706425262000039
 31
0.0
  0
LINE
  8
DETAIL
  6
CONTINUOUS
 62
     5
 10
-150.41309485950001
 20
58.706425262000039
 30
0.0
 11
-150.40171243170019
 21
58.725587308100103
 31
0.0
  0
LINE
  8
DETAIL
  6
CONTINUOUS
 62
     5
 10
-272.45341801260003
 20
-58.325197548999988
 30
0.0
 11
-272.5888679136001
 21
-58.455117588999883
 31
0.0
  0
LINE
  8
DETAIL
  6
CONTINUOUS
 62
     5
 10
-272.5888679136001
 20
-58.455117588999883
 30
0.0
 11
-272.70000164610019
 21
-58.582356795199978
 31
0.0
  0
LINE
  8
DETAIL
  6
CONTINUOUS
 62
     5
 10
-272.70000164610019
 20
-58.582356795199978
 30
0.0
 11
-272.78690514049998
 21
-58.706425261999811
 31
0.0
  0
LINE
  8
DETAIL
  6
CONTINUOUS
 62
     5
 10
-272.78690514049998
 20
-58.706425261999811
 30
0.0
 11
-272.79828756830011
 21
-58.725587308099882
 31
0.0
  0
LINE
  8
DETAIL
  6
CONTINUOUS
 62
     5
 10
-153.8534180125998
 20
69.478748265500144
 30
0.0
 11
-153.98886233499999
 21
69.34883541890008
 31
0.0
  0
LINE
  8
DETAIL
  6
CONTINUOUS
 62
     5
 10
-153.98886233499999
 20
69.34883541890008
 30
0.0
 11
-154.09999435859999
 21
69.22159824510004
 31
0.0
  0
LINE
  8
DETAIL
  6
CONTINUOUS
 62
     5
 10
-154.09999435859999
 20
69.22159824510004
 30
0.0
 11
-154.18690155009969
 21
69.097524508900051
 31
0.0
  0
LINE
  8
DETAIL
  6
CONTINUOUS
 62
     5
 10
-154.18690155009969
 20
69.097524508900051
 30
0.0
 11
-154.19828646529999
 21
69.07835846370017
 31
0.0
  0
LINE
  8
DETAIL
  6
CONTINUOUS
 62
     5
 10
-13.0
 20
245.8040405071001
 30
0.0
 11
-16.400000000000091
 21
245.8040405071001
 31
0.0
  0
LINE
  8
DETAIL
  6
CONTINUOUS
 62
     5
 10
-150.74658198740011
 20
-69.476038379499869
 30
0.0
 11
-150.6111320864002
 21
-69.960906569499912
 31
0.0
  0
LINE
  8
DETAIL
  6
CONTINUOUS
 62
     5
 10
-150.6111320864002
 20
-69.960906569499912
 30
0.0
 11
-150.49999835390011
 21
-70.435769751999942
 31
0.0
  0
LINE
  8
DETAIL
  6
CONTINUOUS
 62
     5
 10
-150.49999835390011
 20
-70.435769751999942
 30
0.0
 11
-150.41309485950001
 21
-70.898799573599945
 31
0.0
  0
LINE
  8
DETAIL
  6
CONTINUOUS
 62
     5
 10
-150.41309485950001
 20
-70.898799573599945
 30
0.0
 11
-150.3506793949
 21
-71.355481094299876
 31
0.0
  0
LINE
  8
DETAIL
  6
CONTINUOUS
 62
     5
 10
-150.3506793949
 20
-71.355481094299876
 30
0.0
 11
-150.31300975190021
 21
-71.811299373699967
 31
0.0
  0
LINE
  8
DETAIL
  6
CONTINUOUS
 62
     5
 10
-150.31300975190021
 20
-71.811299373699967
 30
0.0
 11
-150.30000000000021
 21
-72.264426058599838
 31
0.0
  0
LINE
  8
DETAIL
  6
CONTINUOUS
 62
     5
 10
-154.30000000000021
 20
-75.799959964600021
 30
0.0
 11
-154.28695341669999
 21
-75.921464197899923
 31
0.0
  0
LINE
  8
DETAIL
  6
CONTINUOUS
 62
     5
 10
-154.28695341669999
 20
-75.921464197899923
 30
0.0
 11
-154.24927143410011
 21
-76.043630184799895
 31
0.0
  0
LINE
  8
DETAIL
  6
CONTINUOUS
 62
     5
 10
-154.24927143410011
 20
-76.043630184799895
 30
0.0
 11
-154.19830045980009
 21
-76.14671693199989
 31
0.0
  0
LINE
  8
DETAIL
  6
CONTINUOUS
 62
     5
 10
-154.30000000000021
 20
-67.434796927199841
 30
0.0
 11
-154.2865881340999
 21
-67.769789234499967
 31
0.0
  0
LINE
  8
DETAIL
  6
CONTINUOUS
 62
     5
 10
-154.2865881340999
 20
-67.769789234499967
 30
0.0
 11
-154.24851812680001
 21
-68.105484391499886
 31
0.0
  0
LINE
  8
DETAIL
  6
CONTINUOUS
 62
     5
 10
-154.24851812680001
 20
-68.105484391499886
 30
0.0
 11
-154.18555489519991
 21
-68.440585844099814
 31
0.0
  0
LINE
  8
DETAIL
  6
CONTINUOUS
 62
     5
 10
-154.18555489519991
 20
-68.440585844099814
 30
0.0
 11
-154.0984036883001
 21
-68.778983254299874
 31
0.0
  0
LINE
  8
DETAIL
  6
CONTINUOUS
 62
     5
 10
-154.0984036883001
 20
-68.778983254299874
 30
0.0
 11
-153.98776975510009
 21
-69.124566284099956
 31
0.0
  0
LINE
  8
DETAIL
  6
CONTINUOUS
 62
     5
 10
-153.98776975510009
 20
-69.124566284099956
 30
0.0
 11
-153.8534180125998
 21
-69.476038379499869
 31
0.0
  0
LINE
  8
DETAIL
  6
CONTINUOUS
 62
     5
 10
-154.30000000000021
 20
-72.264426058599838
 30
0.0
 11
-154.28695341669999
 21
-72.717886030599857
 31
0.0
  0
LINE
  8
DETAIL
  6
CONTINUOUS
 62
     5
 10
-154.28695341669999
 20
-72.717886030599857
 30
0.0
 11
-154.24927143410011
 21
-73.173815700699834
 31
0.0
  0
LINE
  8
DETAIL
  6
CONTINUOUS
 62
     5
 10
-154.24927143410011
 20
-73.173815700699834
 30
0.0
 11
-154.1868772711
 21
-73.63030367049987
 31
0.0
  0
LINE
  8
DETAIL
  6
CONTINUOUS
 62
     5
 10
-154.1868772711
 20
-73.63030367049987
 30
0.0
 11
-154.10000127149991
 21
-74.093084135299932
 31
0.0
  0
LINE
  8
DETAIL
  6
CONTINUOUS
 62
     5
 10
-154.10000127149991
 20
-74.093084135299932
 30
0.0
 11
-153.9888737791
 21
-74.567891290499801
 31
0.0
  0
LINE
  8
DETAIL
  6
CONTINUOUS
 62
     5
 10
-153.9888737791
 20
-74.567891290499801
 30
0.0
 11
-153.8534180125998
 21
-75.052813737799852
 31
0.0
  0
LINE
  8
DETAIL
  6
CONTINUOUS
 62
     5
 10
-155.30000000000021
 20
86.593346445600218
 30
0.0
 11
-155.30000000000021
 21
-86.593346445599991
 31
0.0
  0
LINE
  8
DETAIL
  6
CONTINUOUS
 62
     5
 10
-195.59999999999991
 20
-77.441627568799959
 30
0.0
 11
-195.59999999999991
 21
-224.23728368089999
 31
0.0
  0
LINE
  8
DETAIL
  6
CONTINUOUS
 62
     5
 10
-195.59999999999991
 20
77.441627568700142
 30
0.0
 11
-195.59999999999991
 21
224.23728368090019
 31
0.0
  0
LINE
  8
DETAIL
  6
CONTINUOUS
 62
     5
 10
-150.30000000000021
 20
68.731602038700203
 30
0.0
 11
-150.3130481705
 21
68.610095080000065
 31
0.0
  0
LINE
  8
DETAIL
  6
CONTINUOUS
 62
     5
 10
-150.3130481705
 20
68.610095080000065
 30
0.0
 11
-150.35072939139991
 21
68.487929818500106
 31
0.0
  0
LINE
  8
DETAIL
  6
CONTINUOUS
 62
     5
 10
-150.35072939139991
 20
68.487929818500106
 30
0.0
 11
-150.4131188376
 21
68.36562062500002
 31
0.0
  0
LINE
  8
DETAIL
  6
CONTINUOUS
 62
     5
 10
-150.4131188376
 20
68.36562062500002
 30
0.0
 11
-150.4999909850001
 21
68.241624387100046
 31
0.0
  0
LINE
  8
DETAIL
  6
CONTINUOUS
 62
     5
 10
-150.4999909850001
 20
68.241624387100046
 30
0.0
 11
-150.61112031010001
 21
68.114397992500017
 31
0.0
  0
LINE
  8
DETAIL
  6
CONTINUOUS
 62
     5
 10
-150.61112031010001
 20
68.114397992500017
 30
0.0
 11
-150.74658198740011
 21
67.984455811900034
 31
0.0
  0
LINE
  8
DETAIL
  6
CONTINUOUS
 62
     5
 10
-153.8534180125998
 20
67.984455811900034
 30
0.0
 11
-153.98886233499999
 21
67.499614467800029
 31
0.0
  0
LINE
  8
DETAIL
  6
CONTINUOUS
 62
     5
 10
-153.98886233499999
 20
67.499614467800029
 30
0.0
 11
-154.09999435859999
 21
67.024758870400092
 31
0.0
  0
LINE
  8
DETAIL
  6
CONTINUOUS
 62
     5
 10
-154.09999435859999
 20
67.024758870400092
 30
0.0
 11
-154.18690155009969
 21
66.561709383200196
 31
0.0
  0
LINE
  8
DETAIL
  6
CONTINUOUS
 62
     5
 10
-154.18690155009969
 20
66.561709383200196
 30
0.0
 11
-154.24932150960009
 21
66.105004915800009
 31
0.0
  0
LINE
  8
DETAIL
  6
CONTINUOUS
 62
     5
 10
-154.24932150960009
 20
66.105004915800009
 30
0.0
 11
-154.28699183729989
 21
65.649184377800111
 31
0.0
  0
LINE
  8
DETAIL
  6
CONTINUOUS
 62
     5
 10
-154.28699183729989
 20
65.649184377800111
 30
0.0
 11
-154.30000000000021
 21
65.196068132800065
 31
0.0
  0
LINE
  8
DETAIL
  6
CONTINUOUS
 62
     5
 10
-153.8534180125998
 20
62.407680453600051
 30
0.0
 11
-153.98840467619991
 21
62.054235837100123
 31
0.0
  0
LINE
  8
DETAIL
  6
CONTINUOUS
 62
     5
 10
-153.98840467619991
 20
62.054235837100123
 30
0.0
 11
-154.0993428290999
 21
61.707385318100023
 31
0.0
  0
LINE
  8
DETAIL
  6
CONTINUOUS
 62
     5
 10
-154.0993428290999
 20
61.707385318100023
 30
0.0
 11
-154.18639561740019
 21
61.368346722600108
 31
0.0
  0
LINE
  8
DETAIL
  6
CONTINUOUS
 62
     5
 10
-154.18639561740019
 20
61.368346722600108
 30
0.0
 11
-154.24907360309999
 21
61.033466572600219
 31
0.0
  0
LINE
  8
DETAIL
  6
CONTINUOUS
 62
     5
 10
-154.24907360309999
 20
61.033466572600219
 30
0.0
 11
-154.28688734869999
 21
60.69909139020001
 31
0.0
  0
LINE
  8
DETAIL
  6
CONTINUOUS
 62
     5
 10
-154.28688734869999
 20
60.69909139020001
 30
0.0
 11
-154.30000000000021
 21
60.366439001300023
 31
0.0
  0
LINE
  8
DETAIL
  6
CONTINUOUS
 62
     5
 10
-154.19828646529999
 20
69.07835846370017
 30
0.0
 11
-154.24932150960009
 21
68.975150915700169
 31
0.0
  0
LINE
  8
DETAIL
  6
CONTINUOUS
 62
     5
 10
-154.24932150960009
 20
68.975150915700169
 30
0.0
 11
-154.28699183729989
 21
68.85301417060009
 31
0.0
  0
LINE
  8
DETAIL
  6
CONTINUOUS
 62
     5
 10
-154.28699183729989
 20
68.85301417060009
 30
0.0
 11
-154.30000000000021
 21
68.731602038700203
 31
0.0
  0
LINE
  8
DETAIL
  6
CONTINUOUS
 62
     5
 10
-154.30000000000021
 20
68.901972907200161
 30
0.0
 11
-154.1981664386999
 21
69.078353809300097
 31
0.0
  0
LINE
  8
DETAIL
  6
CONTINUOUS
 62
     5
 10
-268.90000000000009
 20
-68.901972907299978
 30
0.0
 11
-269.00183356129992
 21
-69.07835380929987
 31
0.0
  0
LINE
  8
DETAIL
  6
CONTINUOUS
 62
     5
 10
-289.64569820470001
 20
-73.811505517899832
 30
0.0
 11
-289.42817589480001
 21
-73.479709897699877
 31
0.0
  0
LINE
  8
DETAIL
  6
CONTINUOUS
 62
     5
 10
-289.42817589480001
 20
-73.479709897699877
 30
0.0
 11
-289.1622769777
 21
-73.15919540699997
 31
0.0
  0
LINE
  8
DETAIL
  6
CONTINUOUS
 62
     5
 10
-289.1622769777
 20
-73.15919540699997
 30
0.0
 11
-288.84619969379992
 21
-72.848501524499852
 31
0.0
  0
LINE
  8
DETAIL
  6
CONTINUOUS
 62
     5
 10
-288.84619969379992
 20
-72.848501524499852
 30
0.0
 11
-288.48534932170008
 21
-72.553981341299959
 31
0.0
  0
LINE
  8
DETAIL
  6
CONTINUOUS
 62
     5
 10
-288.48534932170008
 20
-72.553981341299959
 30
0.0
 11
-288.08283383439988
 21
-72.280742058699843
 31
0.0
  0
LINE
  8
DETAIL
  6
CONTINUOUS
 62
     5
 10
-288.08283383439988
 20
-72.280742058699843
 30
0.0
 11
-287.64374338860011
 21
-72.03172000669997
 31
0.0
  0
LINE
  8
DETAIL
  6
CONTINUOUS
 62
     5
 10
-287.64374338860011
 20
-72.03172000669997
 30
0.0
 11
-287.17144281690003
 21
-71.810745311699975
 31
0.0
  0
LINE
  8
DETAIL
  6
CONTINUOUS
 62
     5
 10
-287.17144281690003
 20
-71.810745311699975
 30
0.0
 11
-286.67421606490012
 21
-71.620372452499851
 31
0.0
  0
LINE
  8
DETAIL
  6
CONTINUOUS
 62
     5
 10
-286.67421606490012
 20
-71.620372452499851
 30
0.0
 11
-286.16101598260002
 21
-71.464548885599925
 31
0.0
  0
LINE
  8
DETAIL
  6
CONTINUOUS
 62
     5
 10
-286.16101598260002
 20
-71.464548885599925
 30
0.0
 11
-285.63320068930011
 21
-71.342688496599976
 31
0.0
  0
LINE
  8
DETAIL
  6
CONTINUOUS
 62
     5
 10
-285.63320068930011
 20
-71.342688496599976
 30
0.0
 11
-285.09315068400002
 21
-71.255168013000002
 31
0.0
  0
LINE
  8
DETAIL
  6
CONTINUOUS
 62
     5
 10
-285.09315068400002
 20
-71.255168013000002
 30
0.0
 11
-284.54675167760001
 21
-71.202421759299796
 31
0.0
  0
LINE
  8
DETAIL
  6
CONTINUOUS
 62
     5
 10
-284.54675167760001
 20
-71.202421759299796
 30
0.0
 11
-284.00092226810011
 21
-71.184794701699957
 31
0.0
  0
LINE
  8
DETAIL
  6
CONTINUOUS
 62
     5
 10
-284.00092226810011
 20
-71.184794701699957
 30
0.0
 11
-283.45494429349992
 21
-71.202313653200008
 31
0.0
  0
LINE
  8
DETAIL
  6
CONTINUOUS
 62
     5
 10
-283.45494429349992
 20
-71.202313653200008
 30
0.0
 11
-282.90802953479988
 21
-71.255028225099977
 31
0.0
  0
LINE
  8
DETAIL
  6
CONTINUOUS
 62
     5
 10
-282.90802953479988
 20
-71.255028225099977
 30
0.0
 11
-282.36730676060012
 21
-71.342588904899912
 31
0.0
  0
LINE
  8
DETAIL
  6
CONTINUOUS
 62
     5
 10
-282.36730676060012
 20
-71.342588904899912
 30
0.0
 11
-281.8388380637
 21
-71.464594102299998
 31
0.0
  0
LINE
  8
DETAIL
  6
CONTINUOUS
 62
     5
 10
-281.8388380637
 20
-71.464594102299998
 30
0.0
 11
-281.3250352517
 21
-71.620628357899932
 31
0.0
  0
LINE
  8
DETAIL
  6
CONTINUOUS
 62
     5
 10
-281.3250352517
 20
-71.620628357899932
 30
0.0
 11
-280.8273153250002
 21
-71.811287119699955
 31
0.0
  0
LINE
  8
DETAIL
  6
CONTINUOUS
 62
     5
 10
-280.8273153250002
 20
-71.811287119699955
 30
0.0
 11
-280.35472479810011
 21
-72.032510895599899
 31
0.0
  0
LINE
  8
DETAIL
  6
CONTINUOUS
 62
     5
 10
-280.35472479810011
 20
-72.032510895599899
 30
0.0
 11
-279.91572595909997
 21
-72.281626783799993
 31
0.0
  0
LINE
  8
DETAIL
  6
CONTINUOUS
 62
     5
 10
-279.91572595909997
 20
-72.281626783799993
 30
0.0
 11
-279.51348848769999
 21
-72.554846223599952
 31
0.0
  0
LINE
  8
DETAIL
  6
CONTINUOUS
 62
     5
 10
-279.51348848769999
 20
-72.554846223599952
 30
0.0
 11
-279.15298691039987
 21
-72.849216022400014
 31
0.0
  0
LINE
  8
DETAIL
  6
CONTINUOUS
 62
     5
 10
-279.15298691039987
 20
-72.849216022400014
 30
0.0
 11
-278.83726897450009
 21
-73.159689441699811
 31
0.0
  0
LINE
  8
DETAIL
  6
CONTINUOUS
 62
     5
 10
-278.83726897450009
 20
-73.159689441699811
 30
0.0
 11
-278.57162884320002
 21
-73.479971580899928
 31
0.0
  0
LINE
  8
DETAIL
  6
CONTINUOUS
 62
     5
 10
-278.57162884320002
 20
-73.479971580899928
 30
0.0
 11
-278.35430179529999
 21
-73.811505517899832
 31
0.0
  0
LINE
  8
DETAIL
  6
CONTINUOUS
 62
     5
 10
-289.64569820470001
 20
-71.73994922479983
 30
0.0
 11
-289.39243449589998
 21
-71.354724325299912
 31
0.0
  0
LINE
  8
DETAIL
  6
CONTINUOUS
 62
     5
 10
-289.39243449589998
 20
-71.354724325299912
 30
0.0
 11
-289.08403760720012
 21
-70.989408242099898
 31
0.0
  0
LINE
  8
DETAIL
  6
CONTINUOUS
 62
     5
 10
-289.08403760720012
 20
-70.989408242099898
 30
0.0
 11
-288.71722866620013
 21
-70.642960164799888
 31
0.0
  0
LINE
  8
DETAIL
  6
CONTINUOUS
 62
     5
 10
-288.71722866620013
 20
-70.642960164799888
 30
0.0
 11
-288.30184429020011
 21
-70.322112373299888
 31
0.0
  0
LINE
  8
DETAIL
  6
CONTINUOUS
 62
     5
 10
-288.30184429020011
 20
-70.322112373299888
 30
0.0
 11
-287.84429051530009
 21
-70.032664545299895
 31
0.0
  0
LINE
  8
DETAIL
  6
CONTINUOUS
 62
     5
 10
-287.84429051530009
 20
-70.032664545299895
 30
0.0
 11
-287.35158021220008
 21
-69.776806492699961
 31
0.0
  0
LINE
  8
DETAIL
  6
CONTINUOUS
 62
     5
 10
-287.35158021220008
 20
-69.776806492699961
 30
0.0
 11
-286.83105291309988
 21
-69.558312551999961
 31
0.0
  0
LINE
  8
DETAIL
  6
CONTINUOUS
 62
     5
 10
-286.83105291309988
 20
-69.558312551999961
 30
0.0
 11
-286.28813467050009
 21
-69.377907168299998
 31
0.0
  0
LINE
  8
DETAIL
  6
CONTINUOUS
 62
     5
 10
-286.28813467050009
 20
-69.377907168299998
 30
0.0
 11
-285.72939457759998
 21
-69.237294582799905
 31
0.0
  0
LINE
  8
DETAIL
  6
CONTINUOUS
 62
     5
 10
-285.72939457759998
 20
-69.237294582799905
 30
0.0
 11
-285.15874304520003
 21
-69.136578137599827
 31
0.0
  0
LINE
  8
DETAIL
  6
CONTINUOUS
 62
     5
 10
-285.15874304520003
 20
-69.136578137599827
 30
0.0
 11
-284.58120895280013
 21
-69.076125704699962
 31
0.0
  0
LINE
  8
DETAIL
  6
CONTINUOUS
 62
     5
 10
-284.58120895280013
 20
-69.076125704699962
 30
0.0
 11
-284.00000598629998
 21
-69.056012457599991
 31
0.0
  0
LINE
  8
DETAIL
  6
CONTINUOUS
 62
     5
 10
-284.00000598629998
 20
-69.056012457599991
 30
0.0
 11
-283.41880078930012
 21
-69.076125200399929
 31
0.0
  0
LINE
  8
DETAIL
  6
CONTINUOUS
 62
     5
 10
-283.41880078930012
 20
-69.076125200399929
 30
0.0
 11
-282.84126336830008
 21
-69.136577238600012
 31
0.0
  0
LINE
  8
DETAIL
  6
CONTINUOUS
 62
     5
 10
-282.84126336830008
 20
-69.136577238600012
 30
0.0
 11
-282.27061004130002
 21
-69.237293570500015
 31
0.0
  0
LINE
  8
DETAIL
  6
CONTINUOUS
 62
     5
 10
-282.27061004130002
 20
-69.237293570500015
 30
0.0
 11
-281.71186851700008
 21
-69.377906240699986
 31
0.0
  0
LINE
  8
DETAIL
  6
CONTINUOUS
 62
     5
 10
-281.71186851700008
 20
-69.377906240699986
 30
0.0
 11
-281.16894873850009
 21
-69.558311975999914
 31
0.0
  0
LINE
  8
DETAIL
  6
CONTINUOUS
 62
     5
 10
-281.16894873850009
 20
-69.558311975999914
 30
0.0
 11
-280.64842031980021
 21
-69.776806243899955
 31
0.0
  0
LINE
  8
DETAIL
  6
CONTINUOUS
 62
     5
 10
-280.64842031980021
 20
-69.776806243899955
 30
0.0
 11
-280.15570993310013
 21
-70.03266422129991
 31
0.0
  0
LINE
  8
DETAIL
  6
CONTINUOUS
 62
     5
 10
-280.15570993310013
 20
-70.03266422129991
 30
0.0
 11
-279.69815634560018
 21
-70.322111929199991
 31
0.0
  0
LINE
  8
DETAIL
  6
CONTINUOUS
 62
     5
 10
-279.69815634560018
 20
-70.322111929199991
 30
0.0
 11
-279.28277174160007
 21
-70.642959843699828
 31
0.0
  0
LINE
  8
DETAIL
  6
CONTINUOUS
 62
     5
 10
-279.28277174160007
 20
-70.642959843699828
 30
0.0
 11
-278.91596254109999
 21
-70.989408085899868
 31
0.0
  0
LINE
  8
DETAIL
  6
CONTINUOUS
 62
     5
 10
-278.91596254109999
 20
-70.989408085899868
 30
0.0
 11
-278.60756553589999
 21
-71.354724263299886
 31
0.0
  0
LINE
  8
DETAIL
  6
CONTINUOUS
 62
     5
 10
-278.60756553589999
 20
-71.354724263299886
 30
0.0
 11
-278.35430179529999
 21
-71.73994922479983
 31
0.0
  0
LINE
  8
DETAIL
  6
CONTINUOUS
 62
     5
 10
-14.5
 20
257.82485578730012
 30
0.0
 11
-10.0
 21
257.82485578730012
 31
0.0
  0
LINE
  8
DETAIL
  6
CONTINUOUS
 62
     5
 10
-14.5
 20
269.02191584379989
 30
0.0
 11
-19.053418012600101
 21
269.02191584379989
 31
0.0
  0
LINE
  8
DETAIL
  6
CONTINUOUS
 62
     5
 10
-19.5
 20
271.79541853569998
 30
0.0
 11
-21.400000000000091
 21
271.79541853569998
 31
0.0
  0
LINE
  8
DETAIL
  6
CONTINUOUS
 62
     5
 10
-14.5
 20
271.90866718979993
 30
0.0
 11
-19.053418012600101
 21
271.90866718979993
 31
0.0
  0
LINE
  8
DETAIL
  6
CONTINUOUS
 62
     5
 10
-20.400000000000091
 20
272.29541853569998
 30
0.0
 11
-19.5
 21
272.29541853569998
 31
0.0
  0
LINE
  8
DETAIL
  6
CONTINUOUS
 62
     5
 10
-125.59999999999989
 20
273.73475836400007
 30
0.0
 11
-20.400000000000091
 21
273.73475836400007
 31
0.0
  0
LINE
  8
DETAIL
  6
CONTINUOUS
 62
     5
 10
-20.400000000000091
 20
277.29541853569998
 30
0.0
 11
-19.5
 21
277.29541853569998
 31
0.0
  0
LINE
  8
DETAIL
  6
CONTINUOUS
 62
     5
 10
-14.5
 20
277.68216988170002
 30
0.0
 11
-19.053418012600101
 21
277.68216988170002
 31
0.0
  0
LINE
  8
DETAIL
  6
CONTINUOUS
 62
     5
 10
-19.5
 20
277.79541853569998
 30
0.0
 11
-21.400000000000091
 21
277.79541853569998
 31
0.0
  0
LINE
  8
DETAIL
  6
CONTINUOUS
 62
     5
 10
-14.5
 20
280.56892122760019
 30
0.0
 11
-19.053418012600101
 21
280.56892122760019
 31
0.0
  0
LINE
  8
DETAIL
  6
CONTINUOUS
 62
     5
 10
-3.0
 20
287.52334059710029
 30
0.0
 11
-6.4000000000000909
 21
287.52334059710029
 31
0.0
  0
LINE
  8
DETAIL
  6
CONTINUOUS
 62
     5
 10
-112.5
 20
288.23044737830008
 30
0.0
 11
-14.5
 21
288.23044737830008
 31
0.0
  0
LINE
  8
DETAIL
  6
CONTINUOUS
 62
     5
 10
-112.5
 20
291.41242789360012
 30
0.0
 11
-14.5
 21
291.41242789360012
 31
0.0
  0
LINE
  8
DETAIL
  6
CONTINUOUS
 62
     5
 10
-227.59999999999991
 20
224.23728368090019
 30
0.0
 11
-227.59999999999991
 21
77.441627568700142
 31
0.0
  0
LINE
  8
DETAIL
  6
CONTINUOUS
 62
     5
 10
-227.59999999999991
 20
-77.441627568799959
 30
0.0
 11
-227.59999999999991
 21
-131.75765629209991
 31
0.0
  0
LINE
  8
DETAIL
  6
CONTINUOUS
 62
     5
 10
-227.59999999999991
 20
-136.57007308639979
 30
0.0
 11
-227.59999999999991
 21
-216.61047003449991
 31
0.0
  0
LINE
  8
DETAIL
  6
CONTINUOUS
 62
     5
 10
-269.34658198739999
 20
-62.407680453699868
 30
0.0
 11
-269.21159532379988
 21
-62.05423583719994
 31
0.0
  0
LINE
  8
DETAIL
  6
CONTINUOUS
 62
     5
 10
-269.21159532379988
 20
-62.05423583719994
 30
0.0
 11
-269.10065717089992
 21
-61.707385318099803
 31
0.0
  0
LINE
  8
DETAIL
  6
CONTINUOUS
 62
     5
 10
-269.10065717089992
 20
-61.707385318099803
 30
0.0
 11
-269.01360438260008
 21
-61.368346722599881
 31
0.0
  0
LINE
  8
DETAIL
  6
CONTINUOUS
 62
     5
 10
-269.01360438260008
 20
-61.368346722599881
 30
0.0
 11
-268.95092639690012
 21
-61.033466572699808
 31
0.0
  0
LINE
  8
DETAIL
  6
CONTINUOUS
 62
     5
 10
-268.95092639690012
 20
-61.033466572699808
 30
0.0
 11
-268.91311265130003
 21
-60.69909139020001
 31
0.0
  0
LINE
  8
DETAIL
  6
CONTINUOUS
 62
     5
 10
-268.91311265130003
 20
-60.69909139020001
 30
0.0
 11
-268.90000000000009
 21
-60.36643900139984
 31
0.0
  0
LINE
  8
DETAIL
  6
CONTINUOUS
 62
     5
 10
-269.0017135347
 20
-69.078358463699942
 30
0.0
 11
-268.95067849040021
 21
-68.975150915699942
 31
0.0
  0
LINE
  8
DETAIL
  6
CONTINUOUS
 62
     5
 10
-268.95067849040021
 20
-68.975150915699942
 30
0.0
 11
-268.91300816270001
 21
-68.853014170699907
 31
0.0
  0
LINE
  8
DETAIL
  6
CONTINUOUS
 62
     5
 10
-268.91300816270001
 20
-68.853014170699907
 30
0.0
 11
-268.90000000000009
 21
-68.731602038699975
 31
0.0
  0
LINE
  8
DETAIL
  6
CONTINUOUS
 62
     5
 10
-272.79816643869998
 20
-58.725592005199807
 30
0.0
 11
-272.90000000000009
 21
-58.901972907299978
 31
0.0
  0
LINE
  8
DETAIL
  6
CONTINUOUS
 62
     5
 10
-269.34658198739999
 20
75.052813737700035
 30
0.0
 11
-269.21113766500002
 21
75.182726584300099
 31
0.0
  0
LINE
  8
DETAIL
  6
CONTINUOUS
 62
     5
 10
-269.21113766500002
 20
75.182726584300099
 30
0.0
 11
-269.1000056414
 21
75.309963758100139
 31
0.0
  0
LINE
  8
DETAIL
  6
CONTINUOUS
 62
     5
 10
-269.1000056414
 20
75.309963758100139
 30
0.0
 11
-269.0130984499001
 21
75.434037494300128
 31
0.0
  0
LINE
  8
DETAIL
  6
CONTINUOUS
 62
     5
 10
-269.0130984499001
 20
75.434037494300128
 30
0.0
 11
-268.95067849040021
 21
75.556411087500237
 31
0.0
  0
LINE
  8
DETAIL
  6
CONTINUOUS
 62
     5
 10
-268.95067849040021
 20
75.556411087500237
 30
0.0
 11
-268.91300816270001
 21
75.678547832600088
 31
0.0
  0
LINE
  8
DETAIL
  6
CONTINUOUS
 62
     5
 10
-268.91300816270001
 20
75.678547832600088
 30
0.0
 11
-268.90000000000009
 21
75.799959964500204
 31
0.0
  0
LINE
  8
DETAIL
  6
CONTINUOUS
 62
     5
 10
-114.5
 20
296.36217536189997
 30
0.0
 11
-125.59999999999989
 21
296.36217536189997
 31
0.0
  0
LINE
  8
DETAIL
  6
CONTINUOUS
 62
     5
 10
-125.59999999999989
 20
302.72613639260021
 30
0.0
 11
-114.5
 21
302.72613639260021
 31
0.0
  0
LINE
  8
DETAIL
  6
CONTINUOUS
 62
     5
 10
-14.5
 20
314.03984489160013
 30
0.0
 11
-112.5
 21
314.03984489160013
 31
0.0
  0
LINE
  8
DETAIL
  6
CONTINUOUS
 62
     5
 10
-272.45341801260003
 20
69.476038379500096
 30
0.0
 11
-272.5888679136001
 21
69.960906569500139
 31
0.0
  0
LINE
  8
DETAIL
  6
CONTINUOUS
 62
     5
 10
-272.5888679136001
 20
69.960906569500139
 30
0.0
 11
-272.70000164610019
 21
70.435769751900125
 31
0.0
  0
LINE
  8
DETAIL
  6
CONTINUOUS
 62
     5
 10
-272.70000164610019
 20
70.435769751900125
 30
0.0
 11
-272.78690514049998
 21
70.898799573600172
 31
0.0
  0
LINE
  8
DETAIL
  6
CONTINUOUS
 62
     5
 10
-272.78690514049998
 20
70.898799573600172
 30
0.0
 11
-272.84932060509999
 21
71.355481094300103
 31
0.0
  0
LINE
  8
DETAIL
  6
CONTINUOUS
 62
     5
 10
-272.84932060509999
 20
71.355481094300103
 30
0.0
 11
-272.88699024810012
 21
71.811299373700194
 31
0.0
  0
LINE
  8
DETAIL
  6
CONTINUOUS
 62
     5
 10
-272.88699024810012
 20
71.811299373700194
 30
0.0
 11
-272.90000000000009
 21
72.264426058600066
 31
0.0
  0
LINE
  8
DETAIL
  6
CONTINUOUS
 62
     5
 10
-272.45341801260003
 20
-67.984455811899807
 30
0.0
 11
-272.5888679136001
 21
-67.499587621899991
 31
0.0
  0
LINE
  8
DETAIL
  6
CONTINUOUS
 62
     5
 10
-272.5888679136001
 20
-67.499587621899991
 30
0.0
 11
-272.70000164610019
 21
-67.024724439500005
 31
0.0
  0
LINE
  8
DETAIL
  6
CONTINUOUS
 62
     5
 10
-272.70000164610019
 20
-67.024724439500005
 30
0.0
 11
-272.78690514049998
 21
-66.561694617799958
 31
0.0
  0
LINE
  8
DETAIL
  6
CONTINUOUS
 62
     5
 10
-272.78690514049998
 20
-66.561694617799958
 30
0.0
 11
-272.84932060509999
 21
-66.1050130970998
 31
0.0
  0
LINE
  8
DETAIL
  6
CONTINUOUS
 62
     5
 10
-272.84932060509999
 20
-66.1050130970998
 30
0.0
 11
-272.88699024810012
 21
-65.649194817699936
 31
0.0
  0
LINE
  8
DETAIL
  6
CONTINUOUS
 62
     5
 10
-272.88699024810012
 20
-65.649194817699936
 30
0.0
 11
-272.90000000000009
 21
-65.196068132799837
 31
0.0
  0
LINE
  8
DETAIL
  6
CONTINUOUS
 62
     5
 10
-270.5
 20
-82.433773987099812
 30
0.0
 11
-270.55020559799999
 21
-82.123269131699999
 31
0.0
  0
LINE
  8
DETAIL
  6
CONTINUOUS
 62
     5
 10
-270.55020559799999
 20
-82.123269131699999
 30
0.0
 11
-270.70005857500018
 21
-81.79523156669984
 31
0.0
  0
LINE
  8
DETAIL
  6
CONTINUOUS
 62
     5
 10
-270.70005857500018
 20
-81.79523156669984
 30
0.0
 11
-270.94898607110008
 21
-81.453482149699994
 31
0.0
  0
LINE
  8
DETAIL
  6
CONTINUOUS
 62
     5
 10
-270.94898607110008
 20
-81.453482149699994
 30
0.0
 11
-271.29717903950001
 21
-81.09783693939994
 31
0.0
  0
LINE
  8
DETAIL
  6
CONTINUOUS
 62
     5
 10
-268.90000000000009
 20
75.799959964500204
 30
0.0
 11
-268.91304658339999
 21
75.921464197800105
 31
0.0
  0
LINE
  8
DETAIL
  6
CONTINUOUS
 62
     5
 10
-268.91304658339999
 20
75.921464197800105
 30
0.0
 11
-268.95072856590008
 21
76.043630184700078
 31
0.0
  0
LINE
  8
DETAIL
  6
CONTINUOUS
 62
     5
 10
-268.95072856590008
 20
76.043630184700078
 30
0.0
 11
-269.00169954019998
 21
76.146716932000118
 31
0.0
  0
LINE
  8
DETAIL
  6
CONTINUOUS
 62
     5
 10
-268.90000000000009
 20
-68.731602038699975
 30
0.0
 11
-268.91304658339999
 21
-68.610097805399846
 31
0.0
  0
LINE
  8
DETAIL
  6
CONTINUOUS
 62
     5
 10
-268.91304658339999
 20
-68.610097805399846
 30
0.0
 11
-268.95072856590008
 21
-68.487931818499874
 31
0.0
  0
LINE
  8
DETAIL
  6
CONTINUOUS
 62
     5
 10
-268.95072856590008
 20
-68.487931818499874
 30
0.0
 11
-269.01312272889999
 21
-68.365616235699918
 31
0.0
  0
LINE
  8
DETAIL
  6
CONTINUOUS
 62
     5
 10
-269.01312272889999
 20
-68.365616235699918
 30
0.0
 11
-269.09999872859999
 21
-68.241614583899946
 31
0.0
  0
LINE
  8
DETAIL
  6
CONTINUOUS
 62
     5
 10
-269.09999872859999
 20
-68.241614583899946
 30
0.0
 11
-269.21112622089998
 21
-68.11439039009997
 31
0.0
  0
LINE
  8
DETAIL
  6
CONTINUOUS
 62
     5
 10
-269.21112622089998
 20
-68.11439039009997
 30
0.0
 11
-269.34658198739999
 21
-67.984455811899807
 31
0.0
  0
LINE
  8
DETAIL
  6
CONTINUOUS
 62
     5
 10
-268.90000000000009
 20
67.434796927100024
 30
0.0
 11
-268.91341186589989
 21
67.769789234500195
 31
0.0
  0
LINE
  8
DETAIL
  6
CONTINUOUS
 62
     5
 10
-268.91341186589989
 20
67.769789234500195
 30
0.0
 11
-268.95148187320001
 21
68.105484391500113
 31
0.0
  0
LINE
  8
DETAIL
  6
CONTINUOUS
 62
     5
 10
-268.95148187320001
 20
68.105484391500113
 30
0.0
 11
-269.01444510480002
 21
68.440585844100042
 31
0.0
  0
LINE
  8
DETAIL
  6
CONTINUOUS
 62
     5
 10
-269.01444510480002
 20
68.440585844100042
 30
0.0
 11
-269.10159631170018
 21
68.778983254200057
 31
0.0
  0
LINE
  8
DETAIL
  6
CONTINUOUS
 62
     5
 10
-269.10159631170018
 20
68.778983254200057
 30
0.0
 11
-269.21223024490018
 21
69.124566284000139
 31
0.0
  0
LINE
  8
DETAIL
  6
CONTINUOUS
 62
     5
 10
-269.21223024490018
 20
69.124566284000139
 30
0.0
 11
-269.34658198739999
 21
69.476038379500096
 31
0.0
  0
LINE
  8
DETAIL
  6
CONTINUOUS
 62
     5
 10
-268.90000000000009
 20
-60.36643900139984
 30
0.0
 11
-268.91341186589989
 21
-60.031446693999897
 31
0.0
  0
LINE
  8
DETAIL
  6
CONTINUOUS
 62
     5
 10
-268.91341186589989
 20
-60.031446693999897
 30
0.0
 11
-268.95148187320001
 21
-59.695751536999978
 31
0.0
  0
LINE
  8
DETAIL
  6
CONTINUOUS
 62
     5
 10
-268.95148187320001
 20
-59.695751536999978
 30
0.0
 11
-269.01444510480002
 21
-59.360650084399822
 31
0.0
  0
LINE
  8
DETAIL
  6
CONTINUOUS
 62
     5
 10
-269.01444510480002
 20
-59.360650084399822
 30
0.0
 11
-269.10159631170018
 21
-59.022252674299807
 31
0.0
  0
LINE
  8
DETAIL
  6
CONTINUOUS
 62
     5
 10
-269.10159631170018
 20
-59.022252674299807
 30
0.0
 11
-269.21223024490018
 21
-58.676669644499952
 31
0.0
  0
LINE
  8
DETAIL
  6
CONTINUOUS
 62
     5
 10
-269.21223024490018
 20
-58.676669644499952
 30
0.0
 11
-269.34658198739999
 21
-58.325197548999988
 31
0.0
  0
LINE
  8
DETAIL
  6
CONTINUOUS
 62
     5
 10
-268.90000000000009
 20
72.264426058600066
 30
0.0
 11
-268.91304658339999
 21
72.717886030600084
 31
0.0
  0
LINE
  8
DETAIL
  6
CONTINUOUS
 62
     5
 10
-268.91304658339999
 20
72.717886030600084
 30
0.0
 11
-268.95072856590008
 21
73.173815700700061
 31
0.0
  0
LINE
  8
DETAIL
  6
CONTINUOUS
 62
     5
 10
-268.95072856590008
 20
73.173815700700061
 30
0.0
 11
-269.01312272889999
 21
73.630303670400053
 31
0.0
  0
LINE
  8
DETAIL
  6
CONTINUOUS
 62
     5
 10
-269.01312272889999
 20
73.630303670400053
 30
0.0
 11
-269.09999872859999
 21
74.093084135200115
 31
0.0
  0
LINE
  8
DETAIL
  6
CONTINUOUS
 62
     5
 10
-269.09999872859999
 20
74.093084135200115
 30
0.0
 11
-269.21112622089998
 21
74.567891290500029
 31
0.0
  0
LINE
  8
DETAIL
  6
CONTINUOUS
 62
     5
 10
-269.21112622089998
 20
74.567891290500029
 30
0.0
 11
-269.34658198739999
 21
75.052813737700035
 31
0.0
  0
LINE
  8
DETAIL
  6
CONTINUOUS
 62
     5
 10
-268.90000000000009
 20
-65.196068132799837
 30
0.0
 11
-268.91304658339999
 21
-64.742608160799819
 31
0.0
  0
LINE
  8
DETAIL
  6
CONTINUOUS
 62
     5
 10
-268.91304658339999
 20
-64.742608160799819
 30
0.0
 11
-268.95072856590008
 21
-64.286678490699842
 31
0.0
  0
LINE
  8
DETAIL
  6
CONTINUOUS
 62
     5
 10
-268.95072856590008
 20
-64.286678490699842
 30
0.0
 11
-269.01312272889999
 21
-63.830190520999849
 31
0.0
  0
LINE
  8
DETAIL
  6
CONTINUOUS
 62
     5
 10
-269.01312272889999
 20
-63.830190520999849
 30
0.0
 11
-269.09999872859999
 21
-63.367410056200008
 31
0.0
  0
LINE
  8
DETAIL
  6
CONTINUOUS
 62
     5
 10
-269.09999872859999
 20
-63.367410056200008
 30
0.0
 11
-269.21112622089998
 21
-62.892602900899867
 31
0.0
  0
LINE
  8
DETAIL
  6
CONTINUOUS
 62
     5
 10
-269.21112622089998
 20
-62.892602900899867
 30
0.0
 11
-269.34658198739999
 21
-62.407680453699868
 31
0.0
  0
LINE
  8
DETAIL
  6
CONTINUOUS
 62
     5
 10
-267.90000000000009
 20
-86.593346445599991
 30
0.0
 11
-267.90000000000009
 21
86.593346445600218
 31
0.0
  0
LINE
  8
DETAIL
  6
CONTINUOUS
 62
     5
 10
-268.40000000000009
 20
-72.901972907299978
 30
0.0
 11
-268.40000000000009
 21
-79.955026969499841
 31
0.0
  0
LINE
  8
DETAIL
  6
CONTINUOUS
 62
     5
 10
-268.90000000000009
 20
-72.901885343499998
 30
0.0
 11
-268.90000000000009
 21
-54.902060471099958
 31
0.0
  0
LINE
  8
DETAIL
  6
CONTINUOUS
 62
     5
 10
-268.90000000000009
 20
61.970418396900193
 30
0.0
 11
-268.90000000000009
 21
79.970243269300227
 31
0.0
  0
LINE
  8
DETAIL
  6
CONTINUOUS
 62
     5
 10
-270.5
 20
-82.433773987099812
 30
0.0
 11
-270.5
 21
-84.365625639600012
 31
0.0
  0
LINE
  8
DETAIL
  6
CONTINUOUS
 62
     5
 10
-272.90000000000009
 20
-68.901972907299978
 30
0.0
 11
-272.90000000000009
 21
-58.901972907299978
 31
0.0
  0
LINE
  8
DETAIL
  6
CONTINUOUS
 62
     5
 10
-272.90000000000009
 20
65.970330833100206
 30
0.0
 11
-272.90000000000009
 21
75.970330833100206
 31
0.0
  0
LINE
  8
DETAIL
  6
CONTINUOUS
 62
     5
 10
-274.25
 20
-84.848588552799811
 30
0.0
 11
-274.25
 21
-85.814514379099819
 31
0.0
  0
LINE
  8
DETAIL
  6
CONTINUOUS
 62
     5
 10
-279.30000000000018
 20
-78.34402283229997
 30
0.0
 11
-279.30000000000018
 21
-77.861059919199988
 31
0.0
  0
LINE
  8
DETAIL
  6
CONTINUOUS
 62
     5
 10
-272.90000000000009
 20
-65.196068132799837
 30
0.0
 11
-272.88695182960009
 21
-64.742597989499927
 31
0.0
  0
LINE
  8
DETAIL
  6
CONTINUOUS
 62
     5
 10
-272.88695182960009
 20
-64.742597989499927
 30
0.0
 11
-272.84927060859991
 21
-64.286671026699878
 31
0.0
  0
LINE
  8
DETAIL
  6
CONTINUOUS
 62
     5
 10
-272.84927060859991
 20
-64.286671026699878
 30
0.0
 11
-272.78688116250009
 21
-63.830206902300013
 31
0.0
  0
LINE
  8
DETAIL
  6
CONTINUOUS
 62
     5
 10
-272.78688116250009
 20
-63.830206902300013
 30
0.0
 11
-272.70000901499998
 21
-63.367446642599823
 31
0.0
  0
LINE
  8
DETAIL
  6
CONTINUOUS
 62
     5
 10
-272.70000901499998
 20
-63.367446642599823
 30
0.0
 11
-272.58887968990012
 21
-62.892631273799907
 31
0.0
  0
LINE
  8
DETAIL
  6
CONTINUOUS
 62
     5
 10
-272.58887968990012
 20
-62.892631273799907
 30
0.0
 11
-272.45341801260003
 21
-62.407680453699868
 31
0.0
  0
LINE
  8
DETAIL
  6
CONTINUOUS
 62
     5
 10
-272.90000000000009
 20
72.264426058600066
 30
0.0
 11
-272.88695182960009
 21
72.717896201900203
 31
0.0
  0
LINE
  8
DETAIL
  6
CONTINUOUS
 62
     5
 10
-272.88695182960009
 20
72.717896201900203
 30
0.0
 11
-272.84927060859991
 21
73.173823164700025
 31
0.0
  0
LINE
  8
DETAIL
  6
CONTINUOUS
 62
     5
 10
-272.84927060859991
 20
73.173823164700025
 30
0.0
 11
-272.78688116250009
 21
73.630287289100124
 31
0.0
  0
LINE
  8
DETAIL
  6
CONTINUOUS
 62
     5
 10
-272.78688116250009
 20
73.630287289100124
 30
0.0
 11
-272.70000901499998
 21
74.093047548800087
 31
0.0
  0
LINE
  8
DETAIL
  6
CONTINUOUS
 62
     5
 10
-272.70000901499998
 20
74.093047548800087
 30
0.0
 11
-272.58887968990012
 21
74.567862917600223
 31
0.0
  0
LINE
  8
DETAIL
  6
CONTINUOUS
 62
     5
 10
-272.58887968990012
 20
74.567862917600223
 30
0.0
 11
-272.45341801260003
 21
75.052813737700035
 31
0.0
  0
LINE
  8
DETAIL
  6
CONTINUOUS
 62
     5
 10
-272.90000000000009
 20
-60.36643900139984
 30
0.0
 11
-272.88658762290021
 21
-60.03144724879985
 31
0.0
  0
LINE
  8
DETAIL
  6
CONTINUOUS
 62
     5
 10
-272.88658762290021
 20
-60.03144724879985
 30
0.0
 11
-272.84851911519991
 21
-59.695758031699818
 31
0.0
  0
LINE
  8
DETAIL
  6
CONTINUOUS
 62
     5
 10
-272.84851911519991
 20
-59.695758031699818
 30
0.0
 11
-272.78556108690009
 21
-59.360673160799927
 31
0.0
  0
LINE
  8
DETAIL
  6
CONTINUOUS
 62
     5
 10
-272.78556108690009
 20
-59.360673160799927
 30
0.0
 11
-272.69841370750009
 21
-59.022287204099939
 31
0.0
  0
LINE
  8
DETAIL
  6
CONTINUOUS
 62
     5
 10
-272.69841370750009
 20
-59.022287204099939
 30
0.0
 11
-272.58777714590002
 21
-58.676694730000008
 31
0.0
  0
LINE
  8
DETAIL
  6
CONTINUOUS
 62
     5
 10
-272.58777714590002
 20
-58.676694730000008
 30
0.0
 11
-272.45341801260003
 21
-58.325197548999988
 31
0.0
  0
LINE
  8
DETAIL
  6
CONTINUOUS
 62
     5
 10
-272.90000000000009
 20
67.434796927100024
 30
0.0
 11
-272.88658762290021
 21
67.769788679700014
 31
0.0
  0
LINE
  8
DETAIL
  6
CONTINUOUS
 62
     5
 10
-272.88658762290021
 20
67.769788679700014
 30
0.0
 11
-272.84851911519991
 21
68.105477896800039
 31
0.0
  0
LINE
  8
DETAIL
  6
CONTINUOUS
 62
     5
 10
-272.84851911519991
 20
68.105477896800039
 30
0.0
 11
-272.78556108690009
 21
68.440562767700158
 31
0.0
  0
LINE
  8
DETAIL
  6
CONTINUOUS
 62
     5
 10
-272.78556108690009
 20
68.440562767700158
 30
0.0
 11
-272.69841370750009
 21
68.778948724400152
 31
0.0
  0
LINE
  8
DETAIL
  6
CONTINUOUS
 62
     5
 10
-272.69841370750009
 20
68.778948724400152
 30
0.0
 11
-272.58777714590002
 21
69.124541198500083
 31
0.0
  0
LINE
  8
DETAIL
  6
CONTINUOUS
 62
     5
 10
-272.58777714590002
 20
69.124541198500083
 30
0.0
 11
-272.45341801260003
 21
69.476038379500096
 31
0.0
  0
LINE
  8
DETAIL
  6
CONTINUOUS
 62
     5
 10
-281.99999987170008
 20
-73.896962725999856
 30
0.0
 11
-282.00771665330012
 21
-73.981924370599927
 31
0.0
  0
LINE
  8
DETAIL
  6
CONTINUOUS
 62
     5
 10
-282.00771665330012
 20
-73.981924370599927
 30
0.0
 11
-282.03092398019999
 21
-74.066644028099972
 31
0.0
  0
LINE
  8
DETAIL
  6
CONTINUOUS
 62
     5
 10
-282.03092398019999
 20
-74.066644028099972
 30
0.0
 11
-282.06967951690012
 21
-74.149702385999944
 31
0.0
  0
LINE
  8
DETAIL
  6
CONTINUOUS
 62
     5
 10
-282.06967951690012
 20
-74.149702385999944
 30
0.0
 11
-282.12326844929999
 21
-74.23030724969999
 31
0.0
  0
LINE
  8
DETAIL
  6
CONTINUOUS
 62
     5
 10
-282.12326844929999
 20
-74.23030724969999
 30
0.0
 11
-282.19115781869999
 21
-74.307564135599932
 31
0.0
  0
LINE
  8
DETAIL
  6
CONTINUOUS
 62
     5
 10
-282.19115781869999
 20
-74.307564135599932
 30
0.0
 11
-282.27285886170012
 21
-74.381261186499842
 31
0.0
  0
LINE
  8
DETAIL
  6
CONTINUOUS
 62
     5
 10
-282.27285886170012
 20
-74.381261186499842
 30
0.0
 11
-282.36819115759999
 21
-74.451147870399836
 31
0.0
  0
LINE
  8
DETAIL
  6
CONTINUOUS
 62
     5
 10
-282.36819115759999
 20
-74.451147870399836
 30
0.0
 11
-282.4756967190001
 21
-74.516473342499921
 31
0.0
  0
LINE
  8
DETAIL
  6
CONTINUOUS
 62
     5
 10
-282.4756967190001
 20
-74.516473342499921
 30
0.0
 11
-282.5
 21
-74.528783699899805
 31
0.0
  0
LINE
  8
DETAIL
  6
CONTINUOUS
 62
     5
 10
-286.00000019509997
 20
-73.896962725999856
 30
0.0
 11
-285.99194994780009
 21
-73.80981664729984
 31
0.0
  0
LINE
  8
DETAIL
  6
CONTINUOUS
 62
     5
 10
-285.99194994780009
 20
-73.80981664729984
 30
0.0
 11
-285.96837937949999
 21
-73.723837729099841
 31
0.0
  0
LINE
  8
DETAIL
  6
CONTINUOUS
 62
     5
 10
-285.96837937949999
 20
-73.723837729099841
 30
0.0
 11
-285.92918619139999
 21
-73.638756684399823
 31
0.0
  0
LINE
  8
DETAIL
  6
CONTINUOUS
 62
     5
 10
-285.92918619139999
 20
-73.638756684399823
 30
0.0
 11
-285.87508326329998
 21
-73.555443597000021
 31
0.0
  0
LINE
  8
DETAIL
  6
CONTINUOUS
 62
     5
 10
-285.87508326329998
 20
-73.555443597000021
 30
0.0
 11
-285.8065675071
 21
-73.474891081799797
 31
0.0
  0
LINE
  8
DETAIL
  6
CONTINUOUS
 62
     5
 10
-285.8065675071
 20
-73.474891081799797
 30
0.0
 11
-285.7241856088001
 21
-73.397447581899996
 31
0.0
  0
LINE
  8
DETAIL
  6
CONTINUOUS
 62
     5
 10
-285.7241856088001
 20
-73.397447581899996
 30
0.0
 11
-285.62814671690012
 21
-73.323508081899945
 31
0.0
  0
LINE
  8
DETAIL
  6
CONTINUOUS
 62
     5
 10
-285.62814671690012
 20
-73.323508081899945
 30
0.0
 11
-285.51996035619999
 21
-73.253956238899946
 31
0.0
  0
LINE
  8
DETAIL
  6
CONTINUOUS
 62
     5
 10
-285.51996035619999
 20
-73.253956238899946
 30
0.0
 11
-285.40104723320019
 21
-73.189796272699823
 31
0.0
  0
LINE
  8
DETAIL
  6
CONTINUOUS
 62
     5
 10
-285.40104723320019
 20
-73.189796272699823
 30
0.0
 11
-285.2718829511
 21
-73.131098592799844
 31
0.0
  0
LINE
  8
DETAIL
  6
CONTINUOUS
 62
     5
 10
-285.2718829511
 20
-73.131098592799844
 30
0.0
 11
-285.13281125650002
 21
-73.078075854799863
 31
0.0
  0
LINE
  8
DETAIL
  6
CONTINUOUS
 62
     5
 10
-285.13281125650002
 20
-73.078075854799863
 30
0.0
 11
-284.9856484252
 21
-73.031296787999963
 31
0.0
  0
LINE
  8
DETAIL
  6
CONTINUOUS
 62
     5
 10
-284.9856484252
 20
-73.031296787999963
 30
0.0
 11
-284.83213879539971
 21
-72.991389000699883
 31
0.0
  0
LINE
  8
DETAIL
  6
CONTINUOUS
 62
     5
 10
-284.83213879539971
 20
-72.991389000699883
 30
0.0
 11
-284.67284192570008
 21
-72.958379390499886
 31
0.0
  0
LINE
  8
DETAIL
  6
CONTINUOUS
 62
     5
 10
-284.67284192570008
 20
-72.958379390499886
 30
0.0
 11
-284.50829463960008
 21
-72.932427937699913
 31
0.0
  0
LINE
  8
DETAIL
  6
CONTINUOUS
 62
     5
 10
-284.50829463960008
 20
-72.932427937699913
 30
0.0
 11
-284.34030948079999
 21
-72.91373090789989
 31
0.0
  0
LINE
  8
DETAIL
  6
CONTINUOUS
 62
     5
 10
-284.34030948079999
 20
-72.91373090789989
 30
0.0
 11
-284.17112686989998
 21
-72.90254912109981
 31
0.0
  0
LINE
  8
DETAIL
  6
CONTINUOUS
 62
     5
 10
-284.17112686989998
 20
-72.90254912109981
 30
0.0
 11
-284.0
 21
-72.898812073699901
 31
0.0
  0
LINE
  8
DETAIL
  6
CONTINUOUS
 62
     5
 10
-272.90000000000009
 20
-68.731602038699975
 30
0.0
 11
-272.88695182960009
 21
-68.610095079999837
 31
0.0
  0
LINE
  8
DETAIL
  6
CONTINUOUS
 62
     5
 10
-272.88695182960009
 20
-68.610095079999837
 30
0.0
 11
-272.84927060859991
 21
-68.487929818599923
 31
0.0
  0
LINE
  8
DETAIL
  6
CONTINUOUS
 62
     5
 10
-272.84927060859991
 20
-68.487929818599923
 30
0.0
 11
-272.78688116250009
 21
-68.365620625099837
 31
0.0
  0
LINE
  8
DETAIL
  6
CONTINUOUS
 62
     5
 10
-272.78688116250009
 20
-68.365620625099837
 30
0.0
 11
-272.70000901499998
 21
-68.241624387199863
 31
0.0
  0
LINE
  8
DETAIL
  6
CONTINUOUS
 62
     5
 10
-272.70000901499998
 20
-68.241624387199863
 30
0.0
 11
-272.58887968990012
 21
-68.114397992500017
 31
0.0
  0
LINE
  8
DETAIL
  6
CONTINUOUS
 62
     5
 10
-272.58887968990012
 20
-68.114397992500017
 30
0.0
 11
-272.45341801260003
 21
-67.984455811899807
 31
0.0
  0
LINE
  8
DETAIL
  6
CONTINUOUS
 62
     5
 10
-272.90000000000009
 20
75.799959964500204
 30
0.0
 11
-272.88695182960009
 21
75.921466923200114
 31
0.0
  0
LINE
  8
DETAIL
  6
CONTINUOUS
 62
     5
 10
-272.88695182960009
 20
75.921466923200114
 30
0.0
 11
-272.84927060859991
 21
76.043632184700073
 31
0.0
  0
LINE
  8
DETAIL
  6
CONTINUOUS
 62
     5
 10
-272.84927060859991
 20
76.043632184700073
 30
0.0
 11
-272.79830159509987
 21
76.146716976000107
 31
0.0
  0
LINE
  8
DETAIL
  6
CONTINUOUS
 62
     5
 10
-286.30000000000018
 20
-74.090931614299961
 30
0.0
 11
-286.28015867329992
 21
-73.915938743299876
 31
0.0
  0
LINE
  8
DETAIL
  6
CONTINUOUS
 62
     5
 10
-286.28015867329992
 20
-73.915938743299876
 30
0.0
 11
-286.22238179760012
 21
-73.745267305100015
 31
0.0
  0
LINE
  8
DETAIL
  6
CONTINUOUS
 62
     5
 10
-286.22238179760012
 20
-73.745267305100015
 30
0.0
 11
-286.12569121370012
 21
-73.577487397999903
 31
0.0
  0
LINE
  8
DETAIL
  6
CONTINUOUS
 62
     5
 10
-286.12569121370012
 20
-73.577487397999903
 30
0.0
 11
-285.99302139939999
 21
-73.417282128899842
 31
0.0
  0
LINE
  8
DETAIL
  6
CONTINUOUS
 62
     5
 10
-285.99302139939999
 20
-73.417282128899842
 30
0.0
 11
-285.82574119209988
 21
-73.268208462999837
 31
0.0
  0
LINE
  8
DETAIL
  6
CONTINUOUS
 62
     5
 10
-285.82574119209988
 20
-73.268208462999837
 30
0.0
 11
-285.62756935400012
 21
-73.132571168999903
 31
0.0
  0
LINE
  8
DETAIL
  6
CONTINUOUS
 62
     5
 10
-285.62756935400012
 20
-73.132571168999903
 30
0.0
 11
-285.40116627420002
 21
-73.013311200699945
 31
0.0
  0
LINE
  8
DETAIL
  6
CONTINUOUS
 62
     5
 10
-285.40116627420002
 20
-73.013311200699945
 30
0.0
 11
-285.15107590980011
 21
-72.91222563919996
 31
0.0
  0
LINE
  8
DETAIL
  6
CONTINUOUS
 62
     5
 10
-285.15107590980011
 20
-72.91222563919996
 30
0.0
 11
-284.88104262780013
 21
-72.831743210899958
 31
0.0
  0
LINE
  8
DETAIL
  6
CONTINUOUS
 62
     5
 10
-284.88104262780013
 20
-72.831743210899958
 30
0.0
 11
-284.59612558769999
 21
-72.772863398599839
 31
0.0
  0
LINE
  8
DETAIL
  6
CONTINUOUS
 62
     5
 10
-284.59612558769999
 20
-72.772863398599839
 30
0.0
 11
-284.30088805759988
 21
-72.737292568200019
 31
0.0
  0
LINE
  8
DETAIL
  6
CONTINUOUS
 62
     5
 10
-284.30088805759988
 20
-72.737292568200019
 30
0.0
 11
-284.00056207780023
 21
-72.725126541999998
 31
0.0
  0
LINE
  8
DETAIL
  6
CONTINUOUS
 62
     5
 10
-284.00056207780023
 20
-72.725126541999998
 30
0.0
 11
-283.70020867500011
 21
-72.737205447799852
 31
0.0
  0
LINE
  8
DETAIL
  6
CONTINUOUS
 62
     5
 10
-283.70020867500011
 20
-72.737205447799852
 30
0.0
 11
-283.40490415879998
 21
-72.77269584709984
 31
0.0
  0
LINE
  8
DETAIL
  6
CONTINUOUS
 62
     5
 10
-283.40490415879998
 20
-72.77269584709984
 30
0.0
 11
-283.1198852297
 21
-72.831511631000012
 31
0.0
  0
LINE
  8
DETAIL
  6
CONTINUOUS
 62
     5
 10
-283.1198852297
 20
-72.831511631000012
 30
0.0
 11
-282.84973174259989
 21
-72.911943737099818
 31
0.0
  0
LINE
  8
DETAIL
  6
CONTINUOUS
 62
     5
 10
-282.84973174259989
 20
-72.911943737099818
 30
0.0
 11
-282.59952115570007
 21
-73.012993665499835
 31
0.0
  0
LINE
  8
DETAIL
  6
CONTINUOUS
 62
     5
 10
-282.59952115570007
 20
-73.012993665499835
 30
0.0
 11
-282.37299736059998
 21
-73.132230963799884
 31
0.0
  0
LINE
  8
DETAIL
  6
CONTINUOUS
 62
     5
 10
-282.37299736059998
 20
-73.132230963799884
 30
0.0
 11
-282.17470932820021
 21
-73.267857942299997
 31
0.0
  0
LINE
  8
DETAIL
  6
CONTINUOUS
 62
     5
 10
-282.17470932820021
 20
-73.267857942299997
 30
0.0
 11
-282.00731927820021
 21
-73.416931043100021
 31
0.0
  0
LINE
  8
DETAIL
  6
CONTINUOUS
 62
     5
 10
-282.00731927820021
 20
-73.416931043100021
 30
0.0
 11
-281.87454968359998
 21
-73.577124467999965
 31
0.0
  0
LINE
  8
DETAIL
  6
CONTINUOUS
 62
     5
 10
-281.87454968359998
 20
-73.577124467999965
 30
0.0
 11
-281.77776875490008
 21
-73.744935955499841
 31
0.0
  0
LINE
  8
DETAIL
  6
CONTINUOUS
 62
     5
 10
-281.77776875490008
 20
-73.744935955499841
 30
0.0
 11
-281.71991165639997
 21
-73.915734845399811
 31
0.0
  0
LINE
  8
DETAIL
  6
CONTINUOUS
 62
     5
 10
-281.71991165639997
 20
-73.915734845399811
 30
0.0
 11
-281.69999999999999
 21
-74.090931614299961
 31
0.0
  0
LINE
  8
DETAIL
  6
CONTINUOUS
 62
     5
 10
-281.69999999999999
 20
-75.666785411799992
 30
0.0
 11
-281.71984132680018
 21
-75.830435228199804
 31
0.0
  0
LINE
  8
DETAIL
  6
CONTINUOUS
 62
     5
 10
-281.71984132680018
 20
-75.830435228199804
 30
0.0
 11
-281.77761820239988
 21
-75.988009696400013
 31
0.0
  0
LINE
  8
DETAIL
  6
CONTINUOUS
 62
     5
 10
-281.77761820239988
 20
-75.988009696400013
 30
0.0
 11
-281.87430878629988
 21
-76.140991404599845
 31
0.0
  0
LINE
  8
DETAIL
  6
CONTINUOUS
 62
     5
 10
-281.87430878629988
 20
-76.140991404599845
 30
0.0
 11
-282.00697860060001
 21
-76.285317264599826
 31
0.0
  0
LINE
  8
DETAIL
  6
CONTINUOUS
 62
     5
 10
-282.00697860060001
 20
-76.285317264599826
 30
0.0
 11
-282.17425880790012
 21
-76.418104569099796
 31
0.0
  0
LINE
  8
DETAIL
  6
CONTINUOUS
 62
     5
 10
-282.17425880790012
 20
-76.418104569099796
 30
0.0
 11
-282.37243064600011
 21
-76.537677088000009
 31
0.0
  0
LINE
  8
DETAIL
  6
CONTINUOUS
 62
     5
 10
-282.37243064600011
 20
-76.537677088000009
 30
0.0
 11
-282.5
 21
-76.59637104799981
 31
0.0
  0
LINE
  8
DETAIL
  6
CONTINUOUS
 62
     5
 10
-281.71984103039972
 20
-74.17672310590001
 30
0.0
 11
-281.70929182039998
 21
-74.089803884799949
 31
0.0
  0
LINE
  8
DETAIL
  6
CONTINUOUS
 62
     5
 10
-297.5
 20
-84.365625639600012
 30
0.0
 11
-297.44977418720009
 21
-84.055371376699895
 31
0.0
  0
LINE
  8
DETAIL
  6
CONTINUOUS
 62
     5
 10
-297.44977418720009
 20
-84.055371376699895
 30
0.0
 11
-297.29990099350022
 21
-83.728170444999932
 31
0.0
  0
LINE
  8
DETAIL
  6
CONTINUOUS
 62
     5
 10
-297.29990099350022
 20
-83.728170444999932
 30
0.0
 11
-297.05098360530002
 21
-83.387850819799951
 31
0.0
  0
LINE
  8
DETAIL
  6
CONTINUOUS
 62
     5
 10
-297.05098360530002
 20
-83.387850819799951
 30
0.0
 11
-296.70282096049999
 21
-83.034200025299924
 31
0.0
  0
LINE
  8
DETAIL
  6
CONTINUOUS
 62
     5
 10
-270.5
 20
-84.365625639600012
 30
0.0
 11
-270.55022581279991
 21
-84.656708655699958
 31
0.0
  0
LINE
  8
DETAIL
  6
CONTINUOUS
 62
     5
 10
-270.55022581279991
 20
-84.656708655699958
 30
0.0
 11
-270.70009900649978
 21
-84.926883643699966
 31
0.0
  0
LINE
  8
DETAIL
  6
CONTINUOUS
 62
     5
 10
-270.70009900649978
 20
-84.926883643699966
 30
0.0
 11
-270.94901639469998
 21
-85.174136620299805
 31
0.0
  0
LINE
  8
DETAIL
  6
CONTINUOUS
 62
     5
 10
-270.94901639469998
 20
-85.174136620299805
 30
0.0
 11
-271.29717903950001
 21
-85.400000891599802
 31
0.0
  0
LINE
  8
DETAIL
  6
CONTINUOUS
 62
     5
 10
-269.34658198739999
 20
-67.984455811899807
 30
0.0
 11
-269.21113766500002
 21
-67.499614467899846
 31
0.0
  0
LINE
  8
DETAIL
  6
CONTINUOUS
 62
     5
 10
-269.21113766500002
 20
-67.499614467899846
 30
0.0
 11
-269.1000056414
 21
-67.024758870499909
 31
0.0
  0
LINE
  8
DETAIL
  6
CONTINUOUS
 62
     5
 10
-269.1000056414
 20
-67.024758870499909
 30
0.0
 11
-269.0130984499001
 21
-66.561709383300013
 31
0.0
  0
LINE
  8
DETAIL
  6
CONTINUOUS
 62
     5
 10
-269.0130984499001
 20
-66.561709383300013
 30
0.0
 11
-268.95067849040021
 21
-66.105004915899826
 31
0.0
  0
LINE
  8
DETAIL
  6
CONTINUOUS
 62
     5
 10
-268.95067849040021
 20
-66.105004915899826
 30
0.0
 11
-268.91300816270001
 21
-65.649184377899928
 31
0.0
  0
LINE
  8
DETAIL
  6
CONTINUOUS
 62
     5
 10
-268.91300816270001
 20
-65.649184377899928
 30
0.0
 11
-268.90000000000009
 21
-65.196068132799837
 31
0.0
  0
LINE
  8
DETAIL
  6
CONTINUOUS
 62
     5
 10
-269.34658198739999
 20
69.476038379500096
 30
0.0
 11
-269.21113766500002
 21
69.960879723500057
 31
0.0
  0
LINE
  8
DETAIL
  6
CONTINUOUS
 62
     5
 10
-269.21113766500002
 20
69.960879723500057
 30
0.0
 11
-269.1000056414
 21
70.435735320900221
 31
0.0
  0
LINE
  8
DETAIL
  6
CONTINUOUS
 62
     5
 10
-269.1000056414
 20
70.435735320900221
 30
0.0
 11
-269.0130984499001
 21
70.898784808100118
 31
0.0
  0
LINE
  8
DETAIL
  6
CONTINUOUS
 62
     5
 10
-269.0130984499001
 20
70.898784808100118
 30
0.0
 11
-268.95067849040021
 21
71.355489275500076
 31
0.0
  0
LINE
  8
DETAIL
  6
CONTINUOUS
 62
     5
 10
-268.95067849040021
 20
71.355489275500076
 30
0.0
 11
-268.91300816270001
 21
71.811309813500202
 31
0.0
  0
LINE
  8
DETAIL
  6
CONTINUOUS
 62
     5
 10
-268.91300816270001
 20
71.811309813500202
 30
0.0
 11
-268.90000000000009
 21
72.264426058600066
 31
0.0
  0
LINE
  8
DETAIL
  6
CONTINUOUS
 62
     5
 10
-288.69838106930001
 20
-77.861059919199988
 30
0.0
 11
-288.62859643920001
 21
-77.649825678199932
 31
0.0
  0
LINE
  8
DETAIL
  6
CONTINUOUS
 62
     5
 10
-288.62859643920001
 20
-77.649825678199932
 30
0.0
 11
-288.41503402050012
 21
-77.445152992600015
 31
0.0
  0
LINE
  8
DETAIL
  6
CONTINUOUS
 62
     5
 10
-288.41503402050012
 20
-77.445152992600015
 30
0.0
 11
-288.07031939780018
 21
-77.252835163199961
 31
0.0
  0
LINE
  8
DETAIL
  6
CONTINUOUS
 62
     5
 10
-288.07031939780018
 20
-77.252835163199961
 30
0.0
 11
-287.5991687098001
 21
-77.07941057959988
 31
0.0
  0
LINE
  8
DETAIL
  6
CONTINUOUS
 62
     5
 10
-287.5991687098001
 20
-77.07941057959988
 30
0.0
 11
-287.02110176550008
 21
-76.929205530199852
 31
0.0
  0
LINE
  8
DETAIL
  6
CONTINUOUS
 62
     5
 10
-287.02110176550008
 20
-76.929205530199852
 30
0.0
 11
-286.34919053470003
 21
-76.807946612799924
 31
0.0
  0
LINE
  8
DETAIL
  6
CONTINUOUS
 62
     5
 10
-286.34919053470003
 20
-76.807946612799924
 30
0.0
 11
-285.60749467360012
 21
-76.717971289199795
 31
0.0
  0
LINE
  8
DETAIL
  6
CONTINUOUS
 62
     5
 10
-285.60749467360012
 20
-76.717971289199795
 30
0.0
 11
-284.82798328450008
 21
-76.664056678299858
 31
0.0
  0
LINE
  8
DETAIL
  6
CONTINUOUS
 62
     5
 10
-284.82798328450008
 20
-76.664056678299858
 30
0.0
 11
-284.0
 21
-76.644610407199934
 31
0.0
  0
LINE
  8
DETAIL
  6
CONTINUOUS
 62
     5
 10
-288.69999999999999
 20
-78.34402283229997
 30
0.0
 11
-288.62859643920001
 21
-78.132788591399958
 31
0.0
  0
LINE
  8
DETAIL
  6
CONTINUOUS
 62
     5
 10
-288.62859643920001
 20
-78.132788591399958
 30
0.0
 11
-288.41655531769987
 21
-77.927972595899973
 31
0.0
  0
LINE
  8
DETAIL
  6
CONTINUOUS
 62
     5
 10
-288.41655531769987
 20
-77.927972595899973
 30
0.0
 11
-288.07031939780018
 21
-77.735798076299943
 31
0.0
  0
LINE
  8
DETAIL
  6
CONTINUOUS
 62
     5
 10
-288.07031939780018
 20
-77.735798076299943
 30
0.0
 11
-287.60040888270009
 21
-77.562104158199872
 31
0.0
  0
LINE
  8
DETAIL
  6
CONTINUOUS
 62
     5
 10
-287.60040888270009
 20
-77.562104158199872
 30
0.0
 11
-287.02110176550008
 21
-77.412168443399878
 31
0.0
  0
LINE
  8
DETAIL
  6
CONTINUOUS
 62
     5
 10
-287.02110176550008
 20
-77.412168443399878
 30
0.0
 11
-286.35000000000008
 21
-77.29054665249987
 31
0.0
  0
LINE
  8
DETAIL
  6
CONTINUOUS
 62
     5
 10
-286.35000000000008
 20
-77.29054665249987
 30
0.0
 11
-285.60749467360012
 21
-77.200934202399822
 31
0.0
  0
LINE
  8
DETAIL
  6
CONTINUOUS
 62
     5
 10
-285.60749467360012
 20
-77.200934202399822
 30
0.0
 11
-284.81614643500012
 21
-77.146053921799876
 31
0.0
  0
LINE
  8
DETAIL
  6
CONTINUOUS
 62
     5
 10
-284.81614643500012
 20
-77.146053921799876
 30
0.0
 11
-284.0
 21
-77.127573320399961
 31
0.0
  0
LINE
  8
DETAIL
  6
CONTINUOUS
 62
     5
 10
-269.34658198739999
 20
65.393555474799996
 30
0.0
 11
-269.21159532379988
 21
65.747000091300151
 31
0.0
  0
LINE
  8
DETAIL
  6
CONTINUOUS
 62
     5
 10
-269.21159532379988
 20
65.747000091300151
 30
0.0
 11
-269.10065717089992
 21
66.093850610400068
 31
0.0
  0
LINE
  8
DETAIL
  6
CONTINUOUS
 62
     5
 10
-269.10065717089992
 20
66.093850610400068
 30
0.0
 11
-269.01360438260008
 21
66.43288920590021
 31
0.0
  0
LINE
  8
DETAIL
  6
CONTINUOUS
 62
     5
 10
-269.01360438260008
 20
66.43288920590021
 30
0.0
 11
-268.95092639690012
 21
66.767769355800056
 31
0.0
  0
LINE
  8
DETAIL
  6
CONTINUOUS
 62
     5
 10
-268.95092639690012
 20
66.767769355800056
 30
0.0
 11
-268.91311265130003
 21
67.102144538300081
 31
0.0
  0
LINE
  8
DETAIL
  6
CONTINUOUS
 62
     5
 10
-268.91311265130003
 20
67.102144538300081
 30
0.0
 11
-268.90000000000009
 21
67.434796927100024
 31
0.0
  0
LINE
  8
DETAIL
  6
CONTINUOUS
 62
     5
 10
-268.90000000000009
 20
65.970330833100206
 30
0.0
 11
-269.00183356129992
 21
65.793949931000043
 31
0.0
  0
LINE
  8
DETAIL
  6
CONTINUOUS
 62
     5
 10
-272.79816643869998
 20
76.146711735100098
 30
0.0
 11
-272.90000000000009
 21
75.970330833100206
 31
0.0
  0
LINE
  8
DETAIL
  6
CONTINUOUS
 62
     5
 10
-269.00169954019998
 20
65.793944734200068
 30
0.0
 11
-269.01312272889999
 21
65.774715898600107
 31
0.0
  0
LINE
  8
DETAIL
  6
CONTINUOUS
 62
     5
 10
-269.01312272889999
 20
65.774715898600107
 30
0.0
 11
-269.09999872859999
 21
65.650714246800135
 31
0.0
  0
LINE
  8
DETAIL
  6
CONTINUOUS
 62
     5
 10
-269.09999872859999
 20
65.650714246800135
 30
0.0
 11
-269.21112622089998
 21
65.523490052900115
 31
0.0
  0
LINE
  8
DETAIL
  6
CONTINUOUS
 62
     5
 10
-269.21112622089998
 20
65.523490052900115
 30
0.0
 11
-269.34658198739999
 21
65.393555474799996
 31
0.0
  0
LINE
  8
DETAIL
  6
CONTINUOUS
 62
     5
 10
-272.79830159509987
 20
76.146716976000107
 30
0.0
 11
-272.78688116250009
 21
76.165941378200159
 31
0.0
  0
LINE
  8
DETAIL
  6
CONTINUOUS
 62
     5
 10
-272.78688116250009
 20
76.165941378200159
 30
0.0
 11
-272.70000901499998
 21
76.289937616100133
 31
0.0
  0
LINE
  8
DETAIL
  6
CONTINUOUS
 62
     5
 10
-272.70000901499998
 20
76.289937616100133
 30
0.0
 11
-272.58887968990012
 21
76.417164010700162
 31
0.0
  0
LINE
  8
DETAIL
  6
CONTINUOUS
 62
     5
 10
-272.58887968990012
 20
76.417164010700162
 30
0.0
 11
-272.45341801260003
 21
76.547106191300145
 31
0.0
  0
LINE
  8
DETAIL
  6
CONTINUOUS
 62
     5
 10
-16.400000000000091
 20
341.5
 30
0.0
 11
-13.86763733420003
 21
341.5
 31
0.0
  0
LINE
  8
DETAIL
  6
CONTINUOUS
 62
     5
 10
-3.0
 20
348.33452377909998
 30
0.0
 11
-5.0999999999999091
 21
348.33452377909998
 31
0.0
  0
LINE
  8
DETAIL
  6
CONTINUOUS
 62
     5
 10
-6.4000000000000909
 20
351.5
 30
0.0
 11
-3.0
 21
351.5
 31
0.0
  0
LINE
  8
DETAIL
  6
CONTINUOUS
 62
     5
 10
-286.50622490070009
 20
-90.565103346599926
 30
0.0
 11
-286.42057384169988
 21
-90.996979078799995
 31
0.0
  0
LINE
  8
DETAIL
  6
CONTINUOUS
 62
     5
 10
-286.42057384169988
 20
-90.996979078799995
 30
0.0
 11
-286.34281214290007
 21
-91.416633151699898
 31
0.0
  0
LINE
  8
DETAIL
  6
CONTINUOUS
 62
     5
 10
-286.34281214290007
 20
-91.416633151699898
 30
0.0
 11
-286.27206415320012
 21
-91.825091671999871
 31
0.0
  0
LINE
  8
DETAIL
  6
CONTINUOUS
 62
     5
 10
-286.27206415320012
 20
-91.825091671999871
 30
0.0
 11
-286.20745422139998
 21
-92.223380746399926
 31
0.0
  0
LINE
  8
DETAIL
  6
CONTINUOUS
 62
     5
 10
-286.20745422139998
 20
-92.223380746399926
 30
0.0
 11
-286.14810669640019
 21
-92.612526481299938
 31
0.0
  0
LINE
  8
DETAIL
  6
CONTINUOUS
 62
     5
 10
-286.14810669640019
 20
-92.612526481299938
 30
0.0
 11
-286.09314592700002
 21
-92.993554983600006
 31
0.0
  0
LINE
  8
DETAIL
  6
CONTINUOUS
 62
     5
 10
-286.09314592700002
 20
-92.993554983600006
 30
0.0
 11
-286.03172428149992
 21
-93.441662351699961
 31
0.0
  0
LINE
  8
DETAIL
  6
CONTINUOUS
 62
     5
 10
-286.03172428149992
 20
-93.441662351699961
 30
0.0
 11
-285.97368756410009
 21
-93.882190537099859
 31
0.0
  0
LINE
  8
DETAIL
  6
CONTINUOUS
 62
     5
 10
-285.97368756410009
 20
-93.882190537099859
 30
0.0
 11
-285.86108466330012
 21
-94.751037514699874
 31
0.0
  0
LINE
  8
DETAIL
  6
CONTINUOUS
 62
     5
 10
-285.86108466330012
 20
-94.751037514699874
 30
0.0
 11
-285.80317635509999
 21
-95.184620384499794
 31
0.0
  0
LINE
  8
DETAIL
  6
CONTINUOUS
 62
     5
 10
-285.80317635509999
 20
-95.184620384499794
 30
0.0
 11
-285.74160828010008
 21
-95.62117092769995
 31
0.0
  0
LINE
  8
DETAIL
  6
CONTINUOUS
 62
     5
 10
-285.74160828010008
 20
-95.62117092769995
 30
0.0
 11
-285.67290715190012
 21
-96.063414688600005
 31
0.0
  0
LINE
  8
DETAIL
  6
CONTINUOUS
 62
     5
 10
-285.67290715190012
 20
-96.063414688600005
 30
0.0
 11
-285.59323923930009
 21
-96.514095912499897
 31
0.0
  0
LINE
  8
DETAIL
  6
CONTINUOUS
 62
     5
 10
-285.59323923930009
 20
-96.514095912499897
 30
0.0
 11
-285.49877081099999
 21
-96.975958844700017
 31
0.0
  0
LINE
  8
DETAIL
  6
CONTINUOUS
 62
     5
 10
-285.49877081099999
 20
-96.975958844700017
 30
0.0
 11
-285.38566813570009
 21
-97.451747730399802
 31
0.0
  0
LINE
  8
DETAIL
  6
CONTINUOUS
 62
     5
 10
-285.38566813570009
 20
-97.451747730399802
 30
0.0
 11
-285.27413340439989
 21
-97.860478211999862
 31
0.0
  0
LINE
  8
DETAIL
  6
CONTINUOUS
 62
     5
 10
-285.27413340439989
 20
-97.860478211999862
 30
0.0
 11
-285.14308435700008
 21
-98.280105474299944
 31
0.0
  0
LINE
  8
DETAIL
  6
CONTINUOUS
 62
     5
 10
-285.14308435700008
 20
-98.280105474299944
 30
0.0
 11
-284.98860943960022
 21
-98.709949771299989
 31
0.0
  0
LINE
  8
DETAIL
  6
CONTINUOUS
 62
     5
 10
-284.98860943960022
 20
-98.709949771299989
 30
0.0
 11
-284.85512728430012
 21
-99.038374327499923
 31
0.0
  0
LINE
  8
DETAIL
  6
CONTINUOUS
 62
     5
 10
-284.85512728430012
 20
-99.038374327499923
 30
0.0
 11
-284.70521946369968
 21
-99.370348726199836
 31
0.0
  0
LINE
  8
DETAIL
  6
CONTINUOUS
 62
     5
 10
-284.70521946369968
 20
-99.370348726199836
 30
0.0
 11
-284.53783761310001
 21
-99.704058085299948
 31
0.0
  0
LINE
  8
DETAIL
  6
CONTINUOUS
 62
     5
 10
-284.53783761310001
 20
-99.704058085299948
 30
0.0
 11
-284.35193336810022
 21
-100.03768752249979
 31
0.0
  0
LINE
  8
DETAIL
  6
CONTINUOUS
 62
     5
 10
-284.35193336810022
 20
-100.03768752249979
 30
0.0
 11
-284.14676573409997
 21
-100.36929105830001
 31
0.0
  0
LINE
  8
DETAIL
  6
CONTINUOUS
 62
     5
 10
-284.14676573409997
 20
-100.36929105830001
 30
0.0
 11
-283.92282319679998
 21
-100.6963983240998
 31
0.0
  0
LINE
  8
DETAIL
  6
CONTINUOUS
 62
     5
 10
-283.92282319679998
 20
-100.6963983240998
 30
0.0
 11
-283.68090161240002
 21
-101.01640785399989
 31
0.0
  0
LINE
  8
DETAIL
  6
CONTINUOUS
 62
     5
 10
-283.68090161240002
 20
-101.01640785399989
 30
0.0
 11
-283.4217968367002
 21
-101.3267181821
 31
0.0
  0
LINE
  8
DETAIL
  6
CONTINUOUS
 62
     5
 10
-283.4217968367002
 20
-101.3267181821
 30
0.0
 11
-283.14650514250002
 21
-101.6249870690999
 31
0.0
  0
LINE
  8
DETAIL
  6
CONTINUOUS
 62
     5
 10
-283.14650514250002
 20
-101.6249870690999
 30
0.0
 11
-282.85682446969992
 21
-101.9099091823998
 31
0.0
  0
LINE
  8
DETAIL
  6
CONTINUOUS
 62
     5
 10
-282.85682446969992
 20
-101.9099091823998
 30
0.0
 11
-282.55475317519989
 21
-102.1804384159
 31
0.0
  0
LINE
  8
DETAIL
  6
CONTINUOUS
 62
     5
 10
-282.55475317519989
 20
-102.1804384159
 30
0.0
 11
-282.24228961559987
 21
-102.4355286637999
 31
0.0
  0
LINE
  8
DETAIL
  6
CONTINUOUS
 62
     5
 10
-282.24228961559987
 20
-102.4355286637999
 30
0.0
 11
-281.92128130830002
 21
-102.67442683589999
 31
0.0
  0
LINE
  8
DETAIL
  6
CONTINUOUS
 62
     5
 10
-281.92128130830002
 20
-102.67442683589999
 30
0.0
 11
-281.5929724130001
 21
-102.89755190539999
 31
0.0
  0
LINE
  8
DETAIL
  6
CONTINUOUS
 62
     5
 10
-281.5929724130001
 20
-102.89755190539999
 30
0.0
 11
-281.25845625020003
 21
-103.1056158616
 31
0.0
  0
LINE
  8
DETAIL
  6
CONTINUOUS
 62
     5
 10
-281.25845625020003
 20
-103.1056158616
 30
0.0
 11
-280.91882614010001
 21
-103.29933069329989
 31
0.0
  0
LINE
  8
DETAIL
  6
CONTINUOUS
 62
     5
 10
-280.91882614010001
 20
-103.29933069329989
 30
0.0
 11
-280.45944340300002
 21
-103.53672585209981
 31
0.0
  0
LINE
  8
DETAIL
  6
CONTINUOUS
 62
     5
 10
-280.45944340300002
 20
-103.53672585209981
 30
0.0
 11
-279.99264095389998
 21
-103.7527587602999
 31
0.0
  0
LINE
  8
DETAIL
  6
CONTINUOUS
 62
     5
 10
-279.99264095389998
 20
-103.7527587602999
 30
0.0
 11
-279.51814686220001
 21
-103.9503109635
 31
0.0
  0
LINE
  8
DETAIL
  6
CONTINUOUS
 62
     5
 10
-279.51814686220001
 20
-103.9503109635
 30
0.0
 11
-279.0354308597
 21
-104.1320657455999
 31
0.0
  0
LINE
  8
DETAIL
  6
CONTINUOUS
 62
     5
 10
-279.0354308597
 20
-104.1320657455999
 30
0.0
 11
-278.54292932829998
 21
-104.2999133444998
 31
0.0
  0
LINE
  8
DETAIL
  6
CONTINUOUS
 62
     5
 10
-278.54292932829998
 20
-104.2999133444998
 30
0.0
 11
-278.03882031250009
 21
-104.4555457363999
 31
0.0
  0
LINE
  8
DETAIL
  6
CONTINUOUS
 62
     5
 10
-278.03882031250009
 20
-104.4555457363999
 30
0.0
 11
-277.52128185670023
 21
-104.6006548977998
 31
0.0
  0
LINE
  8
DETAIL
  6
CONTINUOUS
 62
     5
 10
-277.52128185670023
 20
-104.6006548977998
 30
0.0
 11
-276.98849200519999
 21
-104.73693280489989
 31
0.0
  0
LINE
  8
DETAIL
  6
CONTINUOUS
 62
     5
 10
-276.98849200519999
 20
-104.73693280489989
 30
0.0
 11
-276.4386288026999
 21
-104.86607143409989
 31
0.0
  0
LINE
  8
DETAIL
  6
CONTINUOUS
 62
     5
 10
-276.4386288026999
 20
-104.86607143409989
 30
0.0
 11
-275.95235904289979
 21
-104.9722549648
 31
0.0
  0
LINE
  8
DETAIL
  6
CONTINUOUS
 62
     5
 10
-275.95235904289979
 20
-104.9722549648
 30
0.0
 11
-275.45112941050002
 21
-105.07485996769989
 31
0.0
  0
LINE
  8
DETAIL
  6
CONTINUOUS
 62
     5
 10
-275.45112941050002
 20
-105.07485996769989
 30
0.0
 11
-274.93386229909993
 21
-105.17431001439989
 31
0.0
  0
LINE
  8
DETAIL
  6
CONTINUOUS
 62
     5
 10
-274.93386229909993
 20
-105.17431001439989
 30
0.0
 11
-274.3994801023
 21
-105.27102867629991
 31
0.0
  0
LINE
  8
DETAIL
  6
CONTINUOUS
 62
     5
 10
-274.3994801023
 20
-105.27102867629991
 30
0.0
 11
-273.84690521369998
 21
-105.3654395248
 31
0.0
  0
LINE
  8
DETAIL
  6
CONTINUOUS
 62
     5
 10
-273.84690521369998
 20
-105.3654395248
 30
0.0
 11
-273.27506002680002
 21
-105.4579661312998
 31
0.0
  0
LINE
  8
DETAIL
  6
CONTINUOUS
 62
     5
 10
-273.27506002680002
 20
-105.4579661312998
 30
0.0
 11
-272.6828669352999
 21
-105.5490320672
 31
0.0
  0
LINE
  8
DETAIL
  6
CONTINUOUS
 62
     5
 10
-286.29068667680008
 20
-74.089798580799879
 30
0.0
 11
-286.28008866990012
 21
-74.176912213999913
 31
0.0
  0
LINE
  8
DETAIL
  6
CONTINUOUS
 62
     5
 10
-293.75
 20
-85.814514379099819
 30
0.0
 11
-293.72307691079999
 21
-86.214684770499844
 31
0.0
  0
LINE
  8
DETAIL
  6
CONTINUOUS
 62
     5
 10
-293.72307691079999
 20
-86.214684770499844
 30
0.0
 11
-293.64008784399988
 21
-86.618334521899897
 31
0.0
  0
LINE
  8
DETAIL
  6
CONTINUOUS
 62
     5
 10
-293.64008784399988
 20
-86.618334521899897
 30
0.0
 11
-293.49772749949989
 21
-87.019954110299977
 31
0.0
  0
LINE
  8
DETAIL
  6
CONTINUOUS
 62
     5
 10
-293.49772749949989
 20
-87.019954110299977
 30
0.0
 11
-293.29646324250012
 21
-87.407552947999875
 31
0.0
  0
LINE
  8
DETAIL
  6
CONTINUOUS
 62
     5
 10
-293.29646324250012
 20
-87.407552947999875
 30
0.0
 11
-293.03804898070013
 21
-87.773522509099848
 31
0.0
  0
LINE
  8
DETAIL
  6
CONTINUOUS
 62
     5
 10
-293.03804898070013
 20
-87.773522509099848
 30
0.0
 11
-292.72725797230009
 21
-88.11039570959997
 31
0.0
  0
LINE
  8
DETAIL
  6
CONTINUOUS
 62
     5
 10
-292.72725797230009
 20
-88.11039570959997
 30
0.0
 11
-292.36896813210001
 21
-88.414900699199961
 31
0.0
  0
LINE
  8
DETAIL
  6
CONTINUOUS
 62
     5
 10
-292.36896813210001
 20
-88.414900699199961
 30
0.0
 11
-291.96322930209999
 21
-88.689451682299932
 31
0.0
  0
LINE
  8
DETAIL
  6
CONTINUOUS
 62
     5
 10
-291.96322930209999
 20
-88.689451682299932
 30
0.0
 11
-291.50960944809998
 21
-88.936420663099852
 31
0.0
  0
LINE
  8
DETAIL
  6
CONTINUOUS
 62
     5
 10
-291.50960944809998
 20
-88.936420663099852
 30
0.0
 11
-290.99783367700002
 21
-89.162070492999874
 31
0.0
  0
LINE
  8
DETAIL
  6
CONTINUOUS
 62
     5
 10
-290.99783367700002
 20
-89.162070492999874
 30
0.0
 11
-290.41218623260011
 21
-89.371345922699902
 31
0.0
  0
LINE
  8
DETAIL
  6
CONTINUOUS
 62
     5
 10
-290.41218623260011
 20
-89.371345922699902
 30
0.0
 11
-289.7576893941
 21
-89.560374885800002
 31
0.0
  0
LINE
  8
DETAIL
  6
CONTINUOUS
 62
     5
 10
-289.7576893941
 20
-89.560374885800002
 30
0.0
 11
-289.03783379080011
 21
-89.72744508049982
 31
0.0
  0
LINE
  8
DETAIL
  6
CONTINUOUS
 62
     5
 10
-289.03783379080011
 20
-89.72744508049982
 30
0.0
 11
-288.27407898880011
 21
-89.86838687229988
 31
0.0
  0
LINE
  8
DETAIL
  6
CONTINUOUS
 62
     5
 10
-288.27407898880011
 20
-89.86838687229988
 30
0.0
 11
-287.50646610130002
 21
-89.97944116159988
 31
0.0
  0
LINE
  8
DETAIL
  6
CONTINUOUS
 62
     5
 10
-287.50646610130002
 20
-89.97944116159988
 30
0.0
 11
-286.72483090079999
 21
-90.065758270699916
 31
0.0
  0
LINE
  8
DETAIL
  6
CONTINUOUS
 62
     5
 10
-286.72483090079999
 20
-90.065758270699916
 30
0.0
 11
-286.60816413409998
 21
-90.075046665399896
 31
0.0
  0
LINE
  8
DETAIL
  6
CONTINUOUS
 62
     5
 10
-281.69999999999999
 20
-74.090931614299961
 30
0.0
 11
-281.69999999999999
 21
-75.666785411799992
 31
0.0
  0
LINE
  8
DETAIL
  6
CONTINUOUS
 62
     5
 10
-282.0
 20
-74.623360488999879
 30
0.0
 11
-282.0
 21
-73.896961335199876
 31
0.0
  0
LINE
  8
DETAIL
  6
CONTINUOUS
 62
     5
 10
-282.5
 20
-76.710536460699814
 30
0.0
 11
-282.5
 21
-73.24319779529992
 31
0.0
  0
LINE
  8
DETAIL
  6
CONTINUOUS
 62
     5
 10
-285.5
 20
-76.710536460699814
 30
0.0
 11
-285.5
 21
-73.243186563099925
 31
0.0
  0
LINE
  8
DETAIL
  6
CONTINUOUS
 62
     5
 10
-286.0
 20
-74.623311211999862
 30
0.0
 11
-286.0
 21
-73.896960614299815
 31
0.0
  0
LINE
  8
DETAIL
  6
CONTINUOUS
 62
     5
 10
-286.30000000000018
 20
-74.090931614299961
 30
0.0
 11
-286.30000000000018
 21
-75.666785411799992
 31
0.0
  0
LINE
  8
DETAIL
  6
CONTINUOUS
 62
     5
 10
-288.69999999999999
 20
-78.34402283229997
 30
0.0
 11
-288.69999999999999
 21
-77.861059919199988
 31
0.0
  0
LINE
  8
DETAIL
  6
CONTINUOUS
 62
     5
 10
-293.75
 20
-84.848588552799811
 30
0.0
 11
-293.75
 21
-85.814514379099819
 31
0.0
  0
LINE
  8
DETAIL
  6
CONTINUOUS
 62
     5
 10
-297.5
 20
-82.433773987099812
 30
0.0
 11
-297.5
 21
-84.365625639600012
 31
0.0
  0
LINE
  8
DETAIL
  6
CONTINUOUS
 62
     5
 10
-305.60000000000008
 20
76.099965314800102
 30
0.0
 11
-305.60000000000008
 21
-76.099965314799874
 31
0.0
  0
LINE
  8
DETAIL
  6
CONTINUOUS
 62
     5
 10
-308.60000000000008
 20
30.499966835900072
 30
0.0
 11
-308.60000000000008
 21
-30.499966835999889
 31
0.0
  0
LINE
  8
DETAIL
  6
CONTINUOUS
 62
     5
 10
-312.60000000000008
 20
22.0
 30
0.0
 11
-312.60000000000008
 21
-22.0
 31
0.0
  0
LINE
  8
DETAIL
  6
CONTINUOUS
 62
     5
 10
-112.5
 20
314.03984489160013
 30
0.0
 11
-114.5
 21
312.6256313291999
 31
0.0
  0
ARC
  8
DETAIL
  6
CONTINUOUS
 62
     5
 10
-69.400000000000091
 20
-353.5
 30
0.0
 40
49.399999999999999
 50
126.9801077634896
 51
158.11344462329211
  0
ARC
  8
DETAIL
  6
CONTINUOUS
 62
     5
 10
-49.400000000000091
 20
-333.5
 30
0.0
 40
29.399999999999999
 50
0.0
 51
41.452033212504489
  0
ARC
  8
DETAIL
  6
CONTINUOUS
 62
     5
 10
-125.40000000000011
 20
-76.099999999999909
 30
0.0
 40
7.7999999999999998
 50
270.0
 51
322.23902950149278
  0
ARC
  8
DETAIL
  6
CONTINUOUS
 62
     5
 10
-6.4000000000000909
 20
-347.89999999999992
 30
0.0
 40
3.6000000000000001
 50
180.0
 51
270.0
  0
ARC
  8
DETAIL
  6
CONTINUOUS
 62
     5
 10
-6.4000000000000909
 20
-283.92334059709992
 30
0.0
 40
3.6000000000000001
 50
180.0
 51
270.0
  0
ARC
  8
DETAIL
  6
CONTINUOUS
 62
     5
 10
-16.400000000000091
 20
-337.89999999999992
 30
0.0
 40
3.6000000000000001
 50
180.0
 51
270.0
  0
ARC
  8
DETAIL
  6
CONTINUOUS
 62
     5
 10
-16.400000000000091
 20
-242.20404050709999
 30
0.0
 40
3.6000000000000001
 50
180.0
 51
270.0
  0
ARC
  8
DETAIL
  6
CONTINUOUS
 62
     5
 10
-13.0
 20
-248.8040405070999
 30
0.0
 40
3.0
 50
0.0
 51
90.0
  0
ARC
  8
DETAIL
  6
CONTINUOUS
 62
     5
 10
-153.0
 20
-86.199999999999818
 30
0.0
 40
2.2999999999999998
 50
90.0
 51
180.0
  0
ARC
  8
DETAIL
  6
CONTINUOUS
 62
     5
 10
-117.234378265
 20
-349.51599999999979
 30
0.0
 40
2.0
 50
180.0
 51
0.0
  0
ARC
  8
DETAIL
  6
CONTINUOUS
 62
     5
 10
-1.5
 20
-353.0
 30
0.0
 40
1.5
 50
180.0
 51
0.0
  0
ARC
  8
DETAIL
  6
CONTINUOUS
 62
     5
 10
-297.80000000000018
 20
-76.099999999999909
 30
0.0
 40
7.7999999999999998
 50
180.0
 51
270.0
  0
ARC
  8
DETAIL
  6
CONTINUOUS
 62
     5
 10
-263.87750000000011
 20
-75.255026969500022
 30
0.0
 40
6.5225
 50
140.43334259009509
 51
226.10260183289139
  0
ARC
  8
DETAIL
  6
CONTINUOUS
 62
     5
 10
-308.80000000000018
 20
-22.0
 30
0.0
 40
3.7999999999999998
 50
180.0
 51
270.0
  0
ARC
  8
DETAIL
  6
CONTINUOUS
 62
     5
 10
-305.90000000000009
 20
-30.5
 30
0.0
 40
2.7000000000000002
 50
180.0
 51
270.0
  0
ARC
  8
DETAIL
  6
CONTINUOUS
 62
     5
 10
-270.19999999999999
 20
-86.199999999999818
 30
0.0
 40
2.2999999999999998
 50
0.0
 51
90.0
  0
ARC
  8
DETAIL
  6
CONTINUOUS
 62
     5
 10
-69.400000000000091
 20
353.5
 30
0.0
 40
49.399999999999999
 50
201.8865553767078
 51
233.0198922365104
  0
ARC
  8
DETAIL
  6
CONTINUOUS
 62
     5
 10
-49.400000000000091
 20
333.5
 30
0.0
 40
29.399999999999999
 50
318.54796678749551
 51
0.0
  0
ARC
  8
DETAIL
  6
CONTINUOUS
 62
     5
 10
-125.40000000000011
 20
76.100000000000136
 30
0.0
 40
7.7999999999999998
 50
37.760970498590602
 51
90.0
  0
ARC
  8
DETAIL
  6
CONTINUOUS
 62
     5
 10
-6.4000000000000909
 20
283.92334059709992
 30
0.0
 40
3.6000000000000001
 50
90.0
 51
180.0
  0
ARC
  8
DETAIL
  6
CONTINUOUS
 62
     5
 10
-6.4000000000000909
 20
347.90000000000009
 30
0.0
 40
3.6000000000000001
 50
90.0
 51
180.0
  0
ARC
  8
DETAIL
  6
CONTINUOUS
 62
     5
 10
-16.400000000000091
 20
242.20404050710019
 30
0.0
 40
3.6000000000000001
 50
90.0
 51
180.0
  0
ARC
  8
DETAIL
  6
CONTINUOUS
 62
     5
 10
-16.400000000000091
 20
337.90000000000009
 30
0.0
 40
3.6000000000000001
 50
90.0
 51
180.0
  0
ARC
  8
DETAIL
  6
CONTINUOUS
 62
     5
 10
-13.0
 20
248.8040405071001
 30
0.0
 40
3.0
 50
270.0
 51
0.0
  0
ARC
  8
DETAIL
  6
CONTINUOUS
 62
     5
 10
-153.0
 20
86.200000000000045
 30
0.0
 40
2.2999999999999998
 50
180.0
 51
270.0
  0
ARC
  8
DETAIL
  6
CONTINUOUS
 62
     5
 10
-117.234378265
 20
349.51600000000008
 30
0.0
 40
2.0
 50
0.0
 51
180.0
  0
ARC
  8
DETAIL
  6
CONTINUOUS
 62
     5
 10
-1.5
 20
353.0
 30
0.0
 40
1.5
 50
0.0
 51
180.0
  0
ARC
  8
DETAIL
  6
CONTINUOUS
 62
     5
 10
-300.90000000000009
 20
70.800000000000182
 30
0.0
 40
8.0
 50
150.0000000000027
 51
209.99999999999719
  0
ARC
  8
DETAIL
  6
CONTINUOUS
 62
     5
 10
-297.80000000000018
 20
76.100000000000136
 30
0.0
 40
7.7999999999999998
 50
90.0
 51
180.0
  0
ARC
  8
DETAIL
  6
CONTINUOUS
 62
     5
 10
-308.80000000000018
 20
22.0
 30
0.0
 40
3.7999999999999998
 50
90.0
 51
180.0
  0
ARC
  8
DETAIL
  6
CONTINUOUS
 62
     5
 10
-305.90000000000009
 20
30.5
 30
0.0
 40
2.7000000000000002
 50
90.0
 51
180.0
  0
ARC
  8
DETAIL
  6
CONTINUOUS
 62
     5
 10
-270.19999999999999
 20
86.200000000000045
 30
0.0
 40
2.2999999999999998
 50
270.0
 51
0.0
  0
ARC
  8
DETAIL
  6
CONTINUOUS
 62
     5
 10
-306.96217782650001
 20
67.300000000000182
 30
0.0
 40
1.0
 50
209.99999999999719
 51
270.0
  0
ARC
  8
DETAIL
  6
CONTINUOUS
 62
     5
 10
-306.96217782650001
 20
74.300000000000182
 30
0.0
 40
1.0
 50
90.0
 51
150.0000000000027
  0
ARC
  8
DETAIL
  6
CONTINUOUS
 62
     5
 10
-274.49648430736721
 20
-81.402367412932563
 30
0.0
 40
5.1202175370121683
 50
271.78832074762971
 51
308.67028061902789
  0
ARC
  8
DETAIL
  6
CONTINUOUS
 62
     5
 10
-293.388767114129
 20
-81.092025573749311
 30
0.0
 40
5.4352188764980163
 50
232.42951395740599
 51
267.12039829265109
  0
ARC
  8
DETAIL
  6
CONTINUOUS
 62
     5
 10
-239.64360948580341
 20
-50.426939187755238
 30
0.0
 40
44.190067842098713
 50
208.835934373919
 51
219.86087172389131
  0
ARC
  8
DETAIL
  6
CONTINUOUS
 62
     5
 10
-270.10819965006408
 20
-77.681843257889454
 30
0.0
 40
3.616999422596169
 50
197.1679090949697
 51
250.80890798868171
  0
ARC
  8
DETAIL
  6
CONTINUOUS
 62
     5
 10
-314.16405771735248
 20
-61.974267755308567
 30
0.0
 40
25.896055441127061
 50
312.39839630544623
 51
319.62478661092319
  0
ARC
  8
DETAIL
  6
CONTINUOUS
 62
     5
 10
-318.61408718411371
 20
-57.084754915742216
 30
0.0
 40
32.464477206216301
 50
318.13817838603478
 51
333.16501551615698
  0
ARC
  8
DETAIL
  6
CONTINUOUS
 62
     5
 10
-314.57013372960159
 20
-63.353891114454882
 30
0.0
 40
26.58111029295199
 50
312.23560622998087
 51
319.63380852562352
  0
ARC
  8
DETAIL
  6
CONTINUOUS
 62
     5
 10
-317.60195474131751
 20
-59.479957447359993
 30
0.0
 40
31.415689545468261
 50
317.83158523993751
 51
332.85842237007017
  0
ARC
  8
DETAIL
  6
CONTINUOUS
 62
     5
 10
-239.41977440155961
 20
-51.890992852756092
 30
0.0
 40
44.681162684608481
 50
209.37992871113661
 51
219.93006367887179
  0
ARC
  8
DETAIL
  6
CONTINUOUS
 62
     5
 10
-270.05258761547071
 20
-79.442914821499812
 30
0.0
 40
3.800833754447773
 50
197.24479317533101
 51
250.88579206905351
  0
LINE
  8
OUTLINE
  6
CONTINUOUS
 62
     3
 10
-3.0
 20
-351.5
 30
0.0
 11
-6.4000000000000909
 21
-351.5
 31
0.0
  0
LINE
  8
OUTLINE
  6
CONTINUOUS
 62
     3
 10
-13.86763733420003
 20
-341.5
 30
0.0
 11
-16.400000000000091
 21
-341.5
 31
0.0
  0
LINE
  8
OUTLINE
  6
CONTINUOUS
 62
     3
 10
-20.5
 20
-336.5
 30
0.0
 11
-20.0
 21
-336.5
 31
0.0
  0
LINE
  8
OUTLINE
  6
CONTINUOUS
 62
     3
 10
-114.5
 20
-312.62563132929972
 30
0.0
 11
-112.5
 21
-314.03984489159973
 31
0.0
  0
LINE
  8
OUTLINE
  6
CONTINUOUS
 62
     3
 10
-112.5
 20
-314.03984489159973
 30
0.0
 11
-20.0
 21
-314.03984489159973
 31
0.0
  0
LINE
  8
OUTLINE
  6
CONTINUOUS
 62
     3
 10
-123.0
 20
-307.08808545500011
 30
0.0
 11
-119.5
 21
-307.08808545500011
 31
0.0
  0
LINE
  8
OUTLINE
  6
CONTINUOUS
 62
     3
 10
-118.5
 20
-306.33238097669982
 30
0.0
 11
-124.0
 21
-306.33238097669982
 31
0.0
  0
LINE
  8
OUTLINE
  6
CONTINUOUS
 62
     3
 10
-114.5
 20
-302.72613639259998
 30
0.0
 11
-118.5
 21
-302.72613639259998
 31
0.0
  0
LINE
  8
OUTLINE
  6
CONTINUOUS
 62
     3
 10
-296.70282096049999
 20
-85.400000891599575
 30
0.0
 11
-297.05098359930003
 21
-85.174136627699681
 31
0.0
  0
LINE
  8
OUTLINE
  6
CONTINUOUS
 62
     3
 10
-297.05098359930003
 20
-85.174136627699681
 30
0.0
 11
-297.29990098550002
 21
-84.926883654099584
 31
0.0
  0
LINE
  8
OUTLINE
  6
CONTINUOUS
 62
     3
 10
-297.29990098550002
 20
-84.926883654099584
 30
0.0
 11
-297.44977418219992
 21
-84.656708660099866
 31
0.0
  0
LINE
  8
OUTLINE
  6
CONTINUOUS
 62
     3
 10
-297.44977418219992
 20
-84.656708660099866
 30
0.0
 11
-297.5
 21
-84.365625639599784
 31
0.0
  0
LINE
  8
OUTLINE
  6
CONTINUOUS
 62
     3
 10
-250.29189916870001
 20
-107.5907292313
 30
0.0
 11
-249.49496766970009
 21
-107.6395507677998
 31
0.0
  0
LINE
  8
OUTLINE
  6
CONTINUOUS
 62
     3
 10
-249.49496766970009
 20
-107.6395507677998
 30
0.0
 11
-248.70247595980001
 21
-107.68459195849979
 31
0.0
  0
LINE
  8
OUTLINE
  6
CONTINUOUS
 62
     3
 10
-248.70247595980001
 20
-107.68459195849979
 30
0.0
 11
-247.9145575053999
 21
-107.7261500862996
 31
0.0
  0
LINE
  8
OUTLINE
  6
CONTINUOUS
 62
     3
 10
-247.9145575053999
 20
-107.7261500862996
 30
0.0
 11
-247.1313457725
 21
-107.76452243429959
 31
0.0
  0
LINE
  8
OUTLINE
  6
CONTINUOUS
 62
     3
 10
-247.1313457725
 20
-107.76452243429959
 30
0.0
 11
-246.3529742275
 21
-107.8000062850997
 31
0.0
  0
LINE
  8
OUTLINE
  6
CONTINUOUS
 62
     3
 10
-246.3529742275
 20
-107.8000062850997
 30
0.0
 11
-245.57957633630011
 21
-107.83289892169979
 31
0.0
  0
LINE
  8
OUTLINE
  6
CONTINUOUS
 62
     3
 10
-245.57957633630011
 20
-107.83289892169979
 30
0.0
 11
-244.8112855653001
 21
-107.863497627
 31
0.0
  0
LINE
  8
OUTLINE
  6
CONTINUOUS
 62
     3
 10
-244.8112855653001
 20
-107.863497627
 30
0.0
 11
-244.04823538070011
 21
-107.8920996838997
 31
0.0
  0
LINE
  8
OUTLINE
  6
CONTINUOUS
 62
     3
 10
-244.04823538070011
 20
-107.8920996838997
 30
0.0
 11
-243.2905592484999
 21
-107.9190023751999
 31
0.0
  0
LINE
  8
OUTLINE
  6
CONTINUOUS
 62
     3
 10
-243.2905592484999
 20
-107.9190023751999
 30
0.0
 11
-242.53839063500001
 21
-107.94450298379979
 31
0.0
  0
LINE
  8
OUTLINE
  6
CONTINUOUS
 62
     3
 10
-242.53839063500001
 20
-107.94450298379979
 30
0.0
 11
-241.79186300640001
 21
-107.9688987925997
 31
0.0
  0
LINE
  8
OUTLINE
  6
CONTINUOUS
 62
     3
 10
-241.79186300640001
 20
-107.9688987925997
 30
0.0
 11
-240.3162645685002
 21
-108.01556514229971
 31
0.0
  0
LINE
  8
OUTLINE
  6
CONTINUOUS
 62
     3
 10
-251.34148289280009
 20
-107.52341342449969
 30
0.0
 11
-250.29189916870001
 21
-107.5907292313
 31
0.0
  0
LINE
  8
OUTLINE
  6
CONTINUOUS
 62
     3
 10
-252.40910083800011
 20
-107.4536354725997
 30
0.0
 11
-251.34148289280009
 21
-107.52341342449969
 31
0.0
  0
LINE
  8
OUTLINE
  6
CONTINUOUS
 62
     3
 10
-253.49211660850011
 20
-107.3813255255
 30
0.0
 11
-252.40910083800011
 21
-107.4536354725997
 31
0.0
  0
LINE
  8
OUTLINE
  6
CONTINUOUS
 62
     3
 10
-254.58789380879989
 20
-107.30641373329991
 30
0.0
 11
-253.49211660850011
 21
-107.3813255255
 31
0.0
  0
LINE
  8
OUTLINE
  6
CONTINUOUS
 62
     3
 10
-272.6828669352999
 20
-105.5490320671997
 30
0.0
 11
-272.31200464450012
 21
-105.6039348611998
 31
0.0
  0
LINE
  8
OUTLINE
  6
CONTINUOUS
 62
     3
 10
-272.31200464450012
 20
-105.6039348611998
 30
0.0
 11
-271.93624601189998
 21
-105.6580582678998
 31
0.0
  0
LINE
  8
OUTLINE
  6
CONTINUOUS
 62
     3
 10
-271.93624601189998
 20
-105.6580582678998
 30
0.0
 11
-271.55574115029998
 21
-105.71141307160001
 31
0.0
  0
LINE
  8
OUTLINE
  6
CONTINUOUS
 62
     3
 10
-271.55574115029998
 20
-105.71141307160001
 30
0.0
 11
-271.1706401724
 21
-105.7640100566996
 31
0.0
  0
LINE
  8
OUTLINE
  6
CONTINUOUS
 62
     3
 10
-271.1706401724
 20
-105.7640100566996
 30
0.0
 11
-270.78109319100008
 21
-105.81586000739981
 31
0.0
  0
LINE
  8
OUTLINE
  6
CONTINUOUS
 62
     3
 10
-270.78109319100008
 20
-105.81586000739981
 30
0.0
 11
-270.3872503186999
 21
-105.86697370810001
 31
0.0
  0
LINE
  8
OUTLINE
  6
CONTINUOUS
 62
     3
 10
-270.3872503186999
 20
-105.86697370810001
 30
0.0
 11
-269.98926166830012
 21
-105.91736194319989
 31
0.0
  0
LINE
  8
OUTLINE
  6
CONTINUOUS
 62
     3
 10
-269.98926166830012
 20
-105.91736194319989
 30
0.0
 11
-269.58727735250022
 21
-105.9670354969999
 31
0.0
  0
LINE
  8
OUTLINE
  6
CONTINUOUS
 62
     3
 10
-269.58727735250022
 20
-105.9670354969999
 30
0.0
 11
-269.18144748399999
 21
-106.01600515369999
 31
0.0
  0
LINE
  8
OUTLINE
  6
CONTINUOUS
 62
     3
 10
-269.18144748399999
 20
-106.01600515369999
 30
0.0
 11
-268.77192217550009
 21
-106.0642816977997
 31
0.0
  0
LINE
  8
OUTLINE
  6
CONTINUOUS
 62
     3
 10
-268.77192217550009
 20
-106.0642816977997
 30
0.0
 11
-268.35885153980013
 21
-106.1118759134997
 31
0.0
  0
LINE
  8
OUTLINE
  6
CONTINUOUS
 62
     3
 10
-268.35885153980013
 20
-106.1118759134997
 30
0.0
 11
-267.94238568949999
 21
-106.1587985851997
 31
0.0
  0
LINE
  8
OUTLINE
  6
CONTINUOUS
 62
     3
 10
-267.94238568949999
 20
-106.1587985851997
 30
0.0
 11
-267.52267473739988
 21
-106.20506049709959
 31
0.0
  0
LINE
  8
OUTLINE
  6
CONTINUOUS
 62
     3
 10
-267.52267473739988
 20
-106.20506049709959
 30
0.0
 11
-267.0998687962001
 21
-106.2506724336999
 31
0.0
  0
LINE
  8
OUTLINE
  6
CONTINUOUS
 62
     3
 10
-267.0998687962001
 20
-106.2506724336999
 30
0.0
 11
-266.6741179787
 21
-106.2956451792998
 31
0.0
  0
LINE
  8
OUTLINE
  6
CONTINUOUS
 62
     3
 10
-266.6741179787
 20
-106.2956451792998
 30
0.0
 11
-266.24557239739988
 21
-106.3399895180996
 31
0.0
  0
LINE
  8
OUTLINE
  6
CONTINUOUS
 62
     3
 10
-266.24557239739988
 20
-106.3399895180996
 30
0.0
 11
-265.8143821653
 21
-106.3837162345999
 31
0.0
  0
LINE
  8
OUTLINE
  6
CONTINUOUS
 62
     3
 10
-265.8143821653
 20
-106.3837162345999
 30
0.0
 11
-265.38069739489993
 21
-106.42683611299979
 31
0.0
  0
LINE
  8
OUTLINE
  6
CONTINUOUS
 62
     3
 10
-265.38069739489993
 20
-106.42683611299979
 30
0.0
 11
-264.94466819890022
 21
-106.46935993759961
 31
0.0
  0
LINE
  8
OUTLINE
  6
CONTINUOUS
 62
     3
 10
-264.94466819890022
 20
-106.46935993759961
 30
0.0
 11
-264.50644469020023
 21
-106.5112984928996
 31
0.0
  0
LINE
  8
OUTLINE
  6
CONTINUOUS
 62
     3
 10
-264.50644469020023
 20
-106.5112984928996
 30
0.0
 11
-264.06617698150012
 21
-106.5526625630996
 31
0.0
  0
LINE
  8
OUTLINE
  6
CONTINUOUS
 62
     3
 10
-264.06617698150012
 20
-106.5526625630996
 30
0.0
 11
-263.6240151853001
 21
-106.5934629324997
 31
0.0
  0
LINE
  8
OUTLINE
  6
CONTINUOUS
 62
     3
 10
-263.6240151853001
 20
-106.5934629324997
 30
0.0
 11
-263.18010941459988
 21
-106.6337103854999
 31
0.0
  0
LINE
  8
OUTLINE
  6
CONTINUOUS
 62
     3
 10
-263.18010941459988
 20
-106.6337103854999
 30
0.0
 11
-262.73460978190002
 21
-106.67341570639969
 31
0.0
  0
LINE
  8
OUTLINE
  6
CONTINUOUS
 62
     3
 10
-262.73460978190002
 20
-106.67341570639969
 30
0.0
 11
-262.28766639999998
 21
-106.7125896794996
 31
0.0
  0
LINE
  8
OUTLINE
  6
CONTINUOUS
 62
     3
 10
-262.28766639999998
 20
-106.7125896794996
 30
0.0
 11
-261.83942938159998
 21
-106.7512430891998
 31
0.0
  0
LINE
  8
OUTLINE
  6
CONTINUOUS
 62
     3
 10
-261.83942938159998
 20
-106.7512430891998
 30
0.0
 11
-261.28290887499998
 21
-106.7983926288998
 31
0.0
  0
LINE
  8
OUTLINE
  6
CONTINUOUS
 62
     3
 10
-261.28290887499998
 20
-106.7983926288998
 30
0.0
 11
-260.72496503340022
 21
-106.8447694697998
 31
0.0
  0
LINE
  8
OUTLINE
  6
CONTINUOUS
 62
     3
 10
-260.72496503340022
 20
-106.8447694697998
 30
0.0
 11
-260.16592740610008
 21
-106.8903823429996
 31
0.0
  0
LINE
  8
OUTLINE
  6
CONTINUOUS
 62
     3
 10
-260.16592740610008
 20
-106.8903823429996
 30
0.0
 11
-259.60612554279987
 21
-106.9352399799
 31
0.0
  0
LINE
  8
OUTLINE
  6
CONTINUOUS
 62
     3
 10
-259.60612554279987
 20
-106.9352399799
 30
0.0
 11
-259.04588899279997
 21
-106.9793511117996
 31
0.0
  0
LINE
  8
OUTLINE
  6
CONTINUOUS
 62
     3
 10
-259.04588899279997
 20
-106.9793511117996
 30
0.0
 11
-258.48554730559999
 21
-107.0227244696998
 31
0.0
  0
LINE
  8
OUTLINE
  6
CONTINUOUS
 62
     3
 10
-258.48554730559999
 20
-107.0227244696998
 30
0.0
 11
-257.9254300307
 21
-107.06536878510001
 31
0.0
  0
LINE
  8
OUTLINE
  6
CONTINUOUS
 62
     3
 10
-257.9254300307
 20
-107.06536878510001
 30
0.0
 11
-257.36586671750001
 21
-107.1072927890996
 31
0.0
  0
LINE
  8
OUTLINE
  6
CONTINUOUS
 62
     3
 10
-257.36586671750001
 20
-107.1072927890996
 30
0.0
 11
-256.8071869155001
 21
-107.1485052130997
 31
0.0
  0
LINE
  8
OUTLINE
  6
CONTINUOUS
 62
     3
 10
-256.8071869155001
 20
-107.1485052130997
 30
0.0
 11
-256.24972017420009
 21
-107.1890147882996
 31
0.0
  0
LINE
  8
OUTLINE
  6
CONTINUOUS
 62
     3
 10
-256.24972017420009
 20
-107.1890147882996
 30
0.0
 11
-255.69379604299999
 21
-107.2288302457996
 31
0.0
  0
LINE
  8
OUTLINE
  6
CONTINUOUS
 62
     3
 10
-255.69379604299999
 20
-107.2288302457996
 30
0.0
 11
-254.58789380879989
 21
-107.30641373329991
 31
0.0
  0
LINE
  8
OUTLINE
  6
CONTINUOUS
 62
     3
 10
-297.5
 20
-83.899999999999636
 30
0.0
 11
-297.80000000000018
 21
-83.899999999999636
 31
0.0
  0
LINE
  8
OUTLINE
  6
CONTINUOUS
 62
     3
 10
-240.3162645685002
 20
-108.01556514229971
 30
0.0
 11
-238.60367123910009
 21
-108.06974589059971
 31
0.0
  0
LINE
  8
OUTLINE
  6
CONTINUOUS
 62
     3
 10
-238.60367123910009
 20
-108.06974589059971
 30
0.0
 11
-237.7606886717999
 21
-108.0975080880999
 31
0.0
  0
LINE
  8
OUTLINE
  6
CONTINUOUS
 62
     3
 10
-237.7606886717999
 20
-108.0975080880999
 30
0.0
 11
-236.9269326491999
 21
-108.1263144155
 31
0.0
  0
LINE
  8
OUTLINE
  6
CONTINUOUS
 62
     3
 10
-236.9269326491999
 20
-108.1263144155
 30
0.0
 11
-236.10266603109989
 21
-108.1566120589996
 31
0.0
  0
LINE
  8
OUTLINE
  6
CONTINUOUS
 62
     3
 10
-236.10266603109989
 20
-108.1566120589996
 30
0.0
 11
-235.28815167740001
 21
-108.1888482042996
 31
0.0
  0
LINE
  8
OUTLINE
  6
CONTINUOUS
 62
     3
 10
-235.28815167740001
 20
-108.1888482042996
 30
0.0
 11
-234.48365244790011
 21
-108.22347003739969
 31
0.0
  0
LINE
  8
OUTLINE
  6
CONTINUOUS
 62
     3
 10
-234.48365244790011
 20
-108.22347003739969
 30
0.0
 11
-233.68943120230011
 21
-108.2609247441997
 31
0.0
  0
LINE
  8
OUTLINE
  6
CONTINUOUS
 62
     3
 10
-233.68943120230011
 20
-108.2609247441997
 30
0.0
 11
-232.90575080049959
 21
-108.30165951059961
 31
0.0
  0
LINE
  8
OUTLINE
  6
CONTINUOUS
 62
     3
 10
-232.90575080049959
 20
-108.30165951059961
 30
0.0
 11
-232.13287410229989
 21
-108.3461215224997
 31
0.0
  0
LINE
  8
OUTLINE
  6
CONTINUOUS
 62
     3
 10
-232.13287410229989
 20
-108.3461215224997
 30
0.0
 11
-231.37106396749999
 21
-108.3947579657997
 31
0.0
  0
LINE
  8
OUTLINE
  6
CONTINUOUS
 62
     3
 10
-231.37106396749999
 20
-108.3947579657997
 30
0.0
 11
-230.59044808510001
 21
-108.45025090519979
 31
0.0
  0
LINE
  8
OUTLINE
  6
CONTINUOUS
 62
     3
 10
-230.59044808510001
 20
-108.45025090519979
 30
0.0
 11
-229.82247226629991
 21
-108.5110976229998
 31
0.0
  0
LINE
  8
OUTLINE
  6
CONTINUOUS
 62
     3
 10
-229.82247226629991
 20
-108.5110976229998
 30
0.0
 11
-229.06751100430009
 21
-108.5776483968998
 31
0.0
  0
LINE
  8
OUTLINE
  6
CONTINUOUS
 62
     3
 10
-229.06751100430009
 20
-108.5776483968998
 30
0.0
 11
-228.32593879199999
 21
-108.65025350479981
 31
0.0
  0
LINE
  8
OUTLINE
  6
CONTINUOUS
 62
     3
 10
-228.32593879199999
 20
-108.65025350479981
 30
0.0
 11
-227.59813012240011
 21
-108.7292632245999
 31
0.0
  0
LINE
  8
OUTLINE
  6
CONTINUOUS
 62
     3
 10
-305.90000000000009
 20
-33.199999999999818
 30
0.0
 11
-305.60000000000008
 21
-33.199999999999818
 31
0.0
  0
LINE
  8
OUTLINE
  6
CONTINUOUS
 62
     3
 10
-308.80000000000018
 20
-25.799999999999731
 30
0.0
 11
-308.60000000000008
 21
-25.799999999999731
 31
0.0
  0
LINE
  8
OUTLINE
  6
CONTINUOUS
 62
     3
 10
-308.80000000000018
 20
25.800000000000178
 30
0.0
 11
-308.60000000000008
 21
25.800000000000178
 31
0.0
  0
LINE
  8
OUTLINE
  6
CONTINUOUS
 62
     3
 10
-305.90000000000009
 20
33.200000000000273
 30
0.0
 11
-305.60000000000008
 21
33.200000000000273
 31
0.0
  0
LINE
  8
OUTLINE
  6
CONTINUOUS
 62
     3
 10
-270.19999999999999
 20
83.900000000000091
 30
0.0
 11
-297.80000000000018
 21
83.900000000000091
 31
0.0
  0
LINE
  8
OUTLINE
  6
CONTINUOUS
 62
     3
 10
-267.90000000000009
 20
86.593393632300376
 30
0.0
 11
-265.59999999999991
 21
86.593393632300376
 31
0.0
  0
LINE
  8
OUTLINE
  6
CONTINUOUS
 62
     3
 10
0.0
 20
-353.0
 30
0.0
 11
0.0
 21
353.00000000000023
 31
0.0
  0
LINE
  8
OUTLINE
  6
CONTINUOUS
 62
     3
 10
-3.0
 20
-353.0
 30
0.0
 11
-3.0
 21
-351.49999999999949
 31
0.0
  0
LINE
  8
OUTLINE
  6
CONTINUOUS
 62
     3
 10
-10.0
 20
-347.89999999999958
 30
0.0
 11
-10.0
 21
-344.6947605739997
 31
0.0
  0
LINE
  8
OUTLINE
  6
CONTINUOUS
 62
     3
 10
-10.0
 20
344.69476057390011
 30
0.0
 11
-10.0
 21
347.90000000000009
 31
0.0
  0
LINE
  8
OUTLINE
  6
CONTINUOUS
 62
     3
 10
-20.0
 20
-337.89999999999958
 30
0.0
 11
-20.0
 21
-314.03984489159973
 31
0.0
  0
LINE
  8
OUTLINE
  6
CONTINUOUS
 62
     3
 10
-20.0
 20
314.0398448916003
 30
0.0
 11
-20.0
 21
337.90000000000009
 31
0.0
  0
LINE
  8
OUTLINE
  6
CONTINUOUS
 62
     3
 10
-20.5
 20
-336.5
 30
0.0
 11
-20.5
 21
-328.11469035980008
 31
0.0
  0
LINE
  8
OUTLINE
  6
CONTINUOUS
 62
     3
 10
-227.59999999999991
 20
100.75701401340029
 30
0.0
 11
-265.59999999999991
 21
100.75701401340029
 31
0.0
  0
LINE
  8
OUTLINE
  6
CONTINUOUS
 62
     3
 10
-114.5
 20
312.62563132920008
 30
0.0
 11
-114.5
 21
302.72613639260021
 31
0.0
  0
LINE
  8
OUTLINE
  6
CONTINUOUS
 62
     3
 10
-114.5
 20
-302.72613639259998
 30
0.0
 11
-114.5
 21
-312.62563132929972
 31
0.0
  0
LINE
  8
OUTLINE
  6
CONTINUOUS
 62
     3
 10
-115.234378265
 20
349.51600000000008
 30
0.0
 11
-115.234378265
 21
302.72613639260021
 31
0.0
  0
LINE
  8
OUTLINE
  6
CONTINUOUS
 62
     3
 10
-115.234378265
 20
-302.72613639259998
 30
0.0
 11
-115.234378265
 21
-349.51599999999962
 31
0.0
  0
LINE
  8
OUTLINE
  6
CONTINUOUS
 62
     3
 10
-118.5
 20
-302.72613639259998
 30
0.0
 11
-118.5
 21
-306.33238097669982
 31
0.0
  0
LINE
  8
OUTLINE
  6
CONTINUOUS
 62
     3
 10
-119.234378265
 20
349.51600000000008
 30
0.0
 11
-119.234378265
 21
302.72613639260021
 31
0.0
  0
LINE
  8
OUTLINE
  6
CONTINUOUS
 62
     3
 10
-119.234378265
 20
-306.33238097669982
 30
0.0
 11
-119.234378265
 21
-349.51599999999962
 31
0.0
  0
LINE
  8
OUTLINE
  6
CONTINUOUS
 62
     3
 10
-119.5
 20
-306.33238097669982
 30
0.0
 11
-119.5
 21
-307.08776461229991
 31
0.0
  0
LINE
  8
OUTLINE
  6
CONTINUOUS
 62
     3
 10
-123.0
 20
-306.33238097669982
 30
0.0
 11
-123.0
 21
-307.08776461229991
 31
0.0
  0
LINE
  8
OUTLINE
  6
CONTINUOUS
 62
     3
 10
-124.0
 20
-302.72613639259998
 30
0.0
 11
-124.0
 21
-306.33238097669982
 31
0.0
  0
LINE
  8
OUTLINE
  6
CONTINUOUS
 62
     3
 10
-227.59999999999991
 20
224.23728368090039
 30
0.0
 11
-227.59999999999991
 21
100.75701401340029
 31
0.0
  0
LINE
  8
OUTLINE
  6
CONTINUOUS
 62
     3
 10
-227.59813012240011
 20
-108.7292632245999
 30
0.0
 11
-227.6451339912287
 21
-224.23728368094149
 31
0.0
  0
LINE
  8
OUTLINE
  6
CONTINUOUS
 62
     3
 10
-125.59999999999989
 20
302.72613639260021
 30
0.0
 11
-114.5
 21
302.72613639260021
 31
0.0
  0
LINE
  8
OUTLINE
  6
CONTINUOUS
 62
     3
 10
-20.0
 20
314.03984489160013
 30
0.0
 11
-112.5
 21
314.0398448916003
 31
0.0
  0
LINE
  8
OUTLINE
  6
CONTINUOUS
 62
     3
 10
-16.400000000000091
 20
341.50000000000023
 30
0.0
 11
-13.86763733420003
 21
341.50000000000023
 31
0.0
  0
LINE
  8
OUTLINE
  6
CONTINUOUS
 62
     3
 10
-6.4000000000000909
 20
351.50000000000023
 30
0.0
 11
-3.0
 21
351.50000000000023
 31
0.0
  0
LINE
  8
OUTLINE
  6
CONTINUOUS
 62
     3
 10
-286.60816413409998
 20
-90.075046665399896
 30
0.0
 11
-286.42057384169988
 21
-90.996979078799995
 31
0.0
  0
LINE
  8
OUTLINE
  6
CONTINUOUS
 62
     3
 10
-286.42057384169988
 20
-90.996979078799995
 30
0.0
 11
-286.34281214290007
 21
-91.416633151699898
 31
0.0
  0
LINE
  8
OUTLINE
  6
CONTINUOUS
 62
     3
 10
-286.34281214290007
 20
-91.416633151699898
 30
0.0
 11
-286.27206415320012
 21
-91.825091671999871
 31
0.0
  0
LINE
  8
OUTLINE
  6
CONTINUOUS
 62
     3
 10
-286.27206415320012
 20
-91.825091671999871
 30
0.0
 11
-286.20745422139998
 21
-92.223380746399926
 31
0.0
  0
LINE
  8
OUTLINE
  6
CONTINUOUS
 62
     3
 10
-286.20745422139998
 20
-92.223380746399926
 30
0.0
 11
-286.14810669640019
 21
-92.612526481299938
 31
0.0
  0
LINE
  8
OUTLINE
  6
CONTINUOUS
 62
     3
 10
-286.14810669640019
 20
-92.612526481299938
 30
0.0
 11
-286.09314592700002
 21
-92.993554983600006
 31
0.0
  0
LINE
  8
OUTLINE
  6
CONTINUOUS
 62
     3
 10
-286.09314592700002
 20
-92.993554983600006
 30
0.0
 11
-286.03172428149992
 21
-93.441662351699961
 31
0.0
  0
LINE
  8
OUTLINE
  6
CONTINUOUS
 62
     3
 10
-286.03172428149992
 20
-93.441662351699961
 30
0.0
 11
-285.97368756410009
 21
-93.882190537099632
 31
0.0
  0
LINE
  8
OUTLINE
  6
CONTINUOUS
 62
     3
 10
-285.97368756410009
 20
-93.882190537099632
 30
0.0
 11
-285.86108466330012
 21
-94.751037514699874
 31
0.0
  0
LINE
  8
OUTLINE
  6
CONTINUOUS
 62
     3
 10
-285.86108466330012
 20
-94.751037514699874
 30
0.0
 11
-285.80317635509999
 21
-95.184620384499794
 31
0.0
  0
LINE
  8
OUTLINE
  6
CONTINUOUS
 62
     3
 10
-285.80317635509999
 20
-95.184620384499794
 30
0.0
 11
-285.74160828010008
 21
-95.62117092769995
 31
0.0
  0
LINE
  8
OUTLINE
  6
CONTINUOUS
 62
     3
 10
-285.74160828010008
 20
-95.62117092769995
 30
0.0
 11
-285.67290715190012
 21
-96.063414688600005
 31
0.0
  0
LINE
  8
OUTLINE
  6
CONTINUOUS
 62
     3
 10
-285.67290715190012
 20
-96.063414688600005
 30
0.0
 11
-285.59323923930009
 21
-96.51409591249967
 31
0.0
  0
LINE
  8
OUTLINE
  6
CONTINUOUS
 62
     3
 10
-285.59323923930009
 20
-96.51409591249967
 30
0.0
 11
-285.49877081099999
 21
-96.975958844700017
 31
0.0
  0
LINE
  8
OUTLINE
  6
CONTINUOUS
 62
     3
 10
-285.49877081099999
 20
-96.975958844700017
 30
0.0
 11
-285.38566813570009
 21
-97.451747730399802
 31
0.0
  0
LINE
  8
OUTLINE
  6
CONTINUOUS
 62
     3
 10
-285.38566813570009
 20
-97.451747730399802
 30
0.0
 11
-285.27413340439989
 21
-97.860478211999634
 31
0.0
  0
LINE
  8
OUTLINE
  6
CONTINUOUS
 62
     3
 10
-285.27413340439989
 20
-97.860478211999634
 30
0.0
 11
-285.14308435700008
 21
-98.280105474299944
 31
0.0
  0
LINE
  8
OUTLINE
  6
CONTINUOUS
 62
     3
 10
-285.14308435700008
 20
-98.280105474299944
 30
0.0
 11
-284.98860943960022
 21
-98.709949771299762
 31
0.0
  0
LINE
  8
OUTLINE
  6
CONTINUOUS
 62
     3
 10
-284.98860943960022
 20
-98.709949771299762
 30
0.0
 11
-284.85512728430012
 21
-99.038374327499696
 31
0.0
  0
LINE
  8
OUTLINE
  6
CONTINUOUS
 62
     3
 10
-284.85512728430012
 20
-99.038374327499696
 30
0.0
 11
-284.70521946369968
 21
-99.370348726199609
 31
0.0
  0
LINE
  8
OUTLINE
  6
CONTINUOUS
 62
     3
 10
-284.70521946369968
 20
-99.370348726199609
 30
0.0
 11
-284.53783761310001
 21
-99.704058085299948
 31
0.0
  0
LINE
  8
OUTLINE
  6
CONTINUOUS
 62
     3
 10
-284.53783761310001
 20
-99.704058085299948
 30
0.0
 11
-284.35193336810022
 21
-100.0376875224997
 31
0.0
  0
LINE
  8
OUTLINE
  6
CONTINUOUS
 62
     3
 10
-284.35193336810022
 20
-100.0376875224997
 30
0.0
 11
-284.14676573409997
 21
-100.36929105830001
 31
0.0
  0
LINE
  8
OUTLINE
  6
CONTINUOUS
 62
     3
 10
-284.14676573409997
 20
-100.36929105830001
 30
0.0
 11
-283.92282319679998
 21
-100.6963983240998
 31
0.0
  0
LINE
  8
OUTLINE
  6
CONTINUOUS
 62
     3
 10
-283.92282319679998
 20
-100.6963983240998
 30
0.0
 11
-283.68090161240002
 21
-101.0164078539997
 31
0.0
  0
LINE
  8
OUTLINE
  6
CONTINUOUS
 62
     3
 10
-283.68090161240002
 20
-101.0164078539997
 30
0.0
 11
-283.4217968367002
 21
-101.3267181820997
 31
0.0
  0
LINE
  8
OUTLINE
  6
CONTINUOUS
 62
     3
 10
-283.4217968367002
 20
-101.3267181820997
 30
0.0
 11
-283.14650514250002
 21
-101.6249870690999
 31
0.0
  0
LINE
  8
OUTLINE
  6
CONTINUOUS
 62
     3
 10
-283.14650514250002
 20
-101.6249870690999
 30
0.0
 11
-282.85682446969992
 21
-101.9099091823996
 31
0.0
  0
LINE
  8
OUTLINE
  6
CONTINUOUS
 62
     3
 10
-282.85682446969992
 20
-101.9099091823996
 30
0.0
 11
-282.55475317519989
 21
-102.1804384159
 31
0.0
  0
LINE
  8
OUTLINE
  6
CONTINUOUS
 62
     3
 10
-282.55475317519989
 20
-102.1804384159
 30
0.0
 11
-282.24228961559987
 21
-102.4355286637997
 31
0.0
  0
LINE
  8
OUTLINE
  6
CONTINUOUS
 62
     3
 10
-282.24228961559987
 20
-102.4355286637997
 30
0.0
 11
-281.92128130830002
 21
-102.67442683589979
 31
0.0
  0
LINE
  8
OUTLINE
  6
CONTINUOUS
 62
     3
 10
-281.92128130830002
 20
-102.67442683589979
 30
0.0
 11
-281.5929724130001
 21
-102.89755190539969
 31
0.0
  0
LINE
  8
OUTLINE
  6
CONTINUOUS
 62
     3
 10
-281.5929724130001
 20
-102.89755190539969
 30
0.0
 11
-281.25845625020003
 21
-103.1056158615997
 31
0.0
  0
LINE
  8
OUTLINE
  6
CONTINUOUS
 62
     3
 10
-281.25845625020003
 20
-103.1056158615997
 30
0.0
 11
-280.91882614010001
 21
-103.29933069329989
 31
0.0
  0
LINE
  8
OUTLINE
  6
CONTINUOUS
 62
     3
 10
-280.91882614010001
 20
-103.29933069329989
 30
0.0
 11
-280.45944340300002
 21
-103.53672585209959
 31
0.0
  0
LINE
  8
OUTLINE
  6
CONTINUOUS
 62
     3
 10
-280.45944340300002
 20
-103.53672585209959
 30
0.0
 11
-279.99264095389998
 21
-103.7527587602999
 31
0.0
  0
LINE
  8
OUTLINE
  6
CONTINUOUS
 62
     3
 10
-279.99264095389998
 20
-103.7527587602999
 30
0.0
 11
-279.51814686220001
 21
-103.9503109634998
 31
0.0
  0
LINE
  8
OUTLINE
  6
CONTINUOUS
 62
     3
 10
-279.51814686220001
 20
-103.9503109634998
 30
0.0
 11
-279.0354308597
 21
-104.1320657455999
 31
0.0
  0
LINE
  8
OUTLINE
  6
CONTINUOUS
 62
     3
 10
-279.0354308597
 20
-104.1320657455999
 30
0.0
 11
-278.54292932829998
 21
-104.2999133444996
 31
0.0
  0
LINE
  8
OUTLINE
  6
CONTINUOUS
 62
     3
 10
-278.54292932829998
 20
-104.2999133444996
 30
0.0
 11
-278.03882031250009
 21
-104.4555457363999
 31
0.0
  0
LINE
  8
OUTLINE
  6
CONTINUOUS
 62
     3
 10
-278.03882031250009
 20
-104.4555457363999
 30
0.0
 11
-277.52128185670023
 21
-104.6006548977998
 31
0.0
  0
LINE
  8
OUTLINE
  6
CONTINUOUS
 62
     3
 10
-277.52128185670023
 20
-104.6006548977998
 30
0.0
 11
-276.98849200519999
 21
-104.73693280489989
 31
0.0
  0
LINE
  8
OUTLINE
  6
CONTINUOUS
 62
     3
 10
-276.98849200519999
 20
-104.73693280489989
 30
0.0
 11
-276.4386288026999
 21
-104.86607143409989
 31
0.0
  0
LINE
  8
OUTLINE
  6
CONTINUOUS
 62
     3
 10
-276.4386288026999
 20
-104.86607143409989
 30
0.0
 11
-275.95235904289979
 21
-104.9722549648
 31
0.0
  0
LINE
  8
OUTLINE
  6
CONTINUOUS
 62
     3
 10
-275.95235904289979
 20
-104.9722549648
 30
0.0
 11
-275.45112941050002
 21
-105.07485996769989
 31
0.0
  0
LINE
  8
OUTLINE
  6
CONTINUOUS
 62
     3
 10
-275.45112941050002
 20
-105.07485996769989
 30
0.0
 11
-274.93386229909993
 21
-105.17431001439989
 31
0.0
  0
LINE
  8
OUTLINE
  6
CONTINUOUS
 62
     3
 10
-274.93386229909993
 20
-105.17431001439989
 30
0.0
 11
-274.3994801023
 21
-105.27102867629991
 31
0.0
  0
LINE
  8
OUTLINE
  6
CONTINUOUS
 62
     3
 10
-274.3994801023
 20
-105.27102867629991
 30
0.0
 11
-273.84690521369998
 21
-105.3654395248
 31
0.0
  0
LINE
  8
OUTLINE
  6
CONTINUOUS
 62
     3
 10
-273.84690521369998
 20
-105.3654395248
 30
0.0
 11
-273.27506002680002
 21
-105.4579661312996
 31
0.0
  0
LINE
  8
OUTLINE
  6
CONTINUOUS
 62
     3
 10
-273.27506002680002
 20
-105.4579661312996
 30
0.0
 11
-272.6828669352999
 21
-105.5490320671997
 31
0.0
  0
LINE
  8
OUTLINE
  6
CONTINUOUS
 62
     3
 10
-293.66016005261957
 20
-86.520705492778688
 30
0.0
 11
-293.64008784399988
 21
-86.618334521899669
 31
0.0
  0
LINE
  8
OUTLINE
  6
CONTINUOUS
 62
     3
 10
-293.64008784399988
 20
-86.618334521899669
 30
0.0
 11
-293.49772749949989
 21
-87.01995411029975
 31
0.0
  0
LINE
  8
OUTLINE
  6
CONTINUOUS
 62
     3
 10
-293.49772749949989
 20
-87.01995411029975
 30
0.0
 11
-293.29646324250012
 21
-87.407552947999648
 31
0.0
  0
LINE
  8
OUTLINE
  6
CONTINUOUS
 62
     3
 10
-293.29646324250012
 20
-87.407552947999648
 30
0.0
 11
-293.03804898070013
 21
-87.773522509099621
 31
0.0
  0
LINE
  8
OUTLINE
  6
CONTINUOUS
 62
     3
 10
-293.03804898070013
 20
-87.773522509099621
 30
0.0
 11
-292.72725797230009
 21
-88.110395709599743
 31
0.0
  0
LINE
  8
OUTLINE
  6
CONTINUOUS
 62
     3
 10
-292.72725797230009
 20
-88.110395709599743
 30
0.0
 11
-292.36896813210001
 21
-88.414900699199734
 31
0.0
  0
LINE
  8
OUTLINE
  6
CONTINUOUS
 62
     3
 10
-292.36896813210001
 20
-88.414900699199734
 30
0.0
 11
-291.96322930209999
 21
-88.689451682299932
 31
0.0
  0
LINE
  8
OUTLINE
  6
CONTINUOUS
 62
     3
 10
-291.96322930209999
 20
-88.689451682299932
 30
0.0
 11
-291.50960944809998
 21
-88.936420663099852
 31
0.0
  0
LINE
  8
OUTLINE
  6
CONTINUOUS
 62
     3
 10
-291.50960944809998
 20
-88.936420663099852
 30
0.0
 11
-290.99783367700002
 21
-89.162070492999646
 31
0.0
  0
LINE
  8
OUTLINE
  6
CONTINUOUS
 62
     3
 10
-290.99783367700002
 20
-89.162070492999646
 30
0.0
 11
-290.41218623260011
 21
-89.371345922699675
 31
0.0
  0
LINE
  8
OUTLINE
  6
CONTINUOUS
 62
     3
 10
-290.41218623260011
 20
-89.371345922699675
 30
0.0
 11
-289.7576893941
 21
-89.560374885799774
 31
0.0
  0
LINE
  8
OUTLINE
  6
CONTINUOUS
 62
     3
 10
-289.7576893941
 20
-89.560374885799774
 30
0.0
 11
-289.03783379080011
 21
-89.72744508049982
 31
0.0
  0
LINE
  8
OUTLINE
  6
CONTINUOUS
 62
     3
 10
-289.03783379080011
 20
-89.72744508049982
 30
0.0
 11
-288.27407898880011
 21
-89.868386872299652
 31
0.0
  0
LINE
  8
OUTLINE
  6
CONTINUOUS
 62
     3
 10
-288.27407898880011
 20
-89.868386872299652
 30
0.0
 11
-287.50646610130002
 21
-89.97944116159988
 31
0.0
  0
LINE
  8
OUTLINE
  6
CONTINUOUS
 62
     3
 10
-287.50646610130002
 20
-89.97944116159988
 30
0.0
 11
-286.72483090079999
 21
-90.065758270699916
 31
0.0
  0
LINE
  8
OUTLINE
  6
CONTINUOUS
 62
     3
 10
-286.72483090079999
 20
-90.065758270699916
 30
0.0
 11
-286.60816413409998
 21
-90.075046665399896
 31
0.0
  0
LINE
  8
OUTLINE
  6
CONTINUOUS
 62
     3
 10
-297.5
 20
-83.899999999999636
 30
0.0
 11
-297.5
 21
-84.365625639599784
 31
0.0
  0
LINE
  8
OUTLINE
  6
CONTINUOUS
 62
     3
 10
-305.60000000000008
 20
76.099965314800102
 30
0.0
 11
-305.60000000000008
 21
33.200000000000273
 31
0.0
  0
LINE
  8
OUTLINE
  6
CONTINUOUS
 62
     3
 10
-308.60000000000008
 20
30.499966835900072
 30
0.0
 11
-308.60000000000008
 21
25.80000000000064
 31
0.0
  0
LINE
  8
OUTLINE
  6
CONTINUOUS
 62
     3
 10
-312.60000000000008
 20
22.0
 30
0.0
 11
-312.60000000000008
 21
-22.0
 31
0.0
  0
LINE
  8
OUTLINE
  6
CONTINUOUS
 62
     3
 10
-112.5
 20
314.0398448916003
 30
0.0
 11
-114.5
 21
312.62563132920008
 31
0.0
  0
ARC
  8
OUTLINE
  6
CONTINUOUS
 62
     3
 10
-69.400000000000091
 20
-353.5
 30
0.0
 40
49.399999999999999
 50
126.9801077634896
 51
158.11344462329211
  0
ARC
  8
OUTLINE
  6
CONTINUOUS
 62
     3
 10
-49.400000000000091
 20
-333.5
 30
0.0
 40
29.399999999999999
 50
0.0
 51
41.452033212504489
  0
ARC
  8
OUTLINE
  6
CONTINUOUS
 62
     3
 10
-6.4000000000000909
 20
-347.89999999999958
 30
0.0
 40
3.6000000000000001
 50
180.0
 51
270.0
  0
ARC
  8
OUTLINE
  6
CONTINUOUS
 62
     3
 10
-16.400000000000091
 20
-337.89999999999958
 30
0.0
 40
3.6000000000000001
 50
180.0
 51
270.0
  0
ARC
  8
OUTLINE
  6
CONTINUOUS
 62
     3
 10
-117.234378265
 20
-349.51599999999962
 30
0.0
 40
2.0
 50
180.0
 51
0.0
  0
ARC
  8
OUTLINE
  6
CONTINUOUS
 62
     3
 10
-1.5
 20
-353.0
 30
0.0
 40
1.5
 50
180.0
 51
0.0
  0
ARC
  8
OUTLINE
  6
CONTINUOUS
 62
     3
 10
-297.80000000000018
 20
-76.099999999999909
 30
0.0
 40
7.7999999999999998
 50
180.0
 51
270.0
  0
ARC
  8
OUTLINE
  6
CONTINUOUS
 62
     3
 10
-308.80000000000018
 20
-22.0
 30
0.0
 40
3.7999999999999998
 50
180.0
 51
270.0
  0
ARC
  8
OUTLINE
  6
CONTINUOUS
 62
     3
 10
-305.90000000000009
 20
-30.5
 30
0.0
 40
2.7000000000000002
 50
180.0
 51
270.0
  0
ARC
  8
OUTLINE
  6
CONTINUOUS
 62
     3
 10
-69.400000000000091
 20
353.50000000000023
 30
0.0
 40
49.399999999999999
 50
201.8865553767078
 51
233.0198922365104
  0
ARC
  8
OUTLINE
  6
CONTINUOUS
 62
     3
 10
-49.400000000000091
 20
333.50000000000023
 30
0.0
 40
29.399999999999999
 50
318.54796678749551
 51
0.0
  0
ARC
  8
OUTLINE
  6
CONTINUOUS
 62
     3
 10
-6.4000000000000909
 20
347.90000000000009
 30
0.0
 40
3.6000000000000001
 50
90.0
 51
180.0
  0
ARC
  8
OUTLINE
  6
CONTINUOUS
 62
     3
 10
-16.400000000000091
 20
337.90000000000009
 30
0.0
 40
3.6000000000000001
 50
90.0
 51
180.0
  0
ARC
  8
OUTLINE
  6
CONTINUOUS
 62
     3
 10
-117.234378265
 20
349.51600000000008
 30
0.0
 40
2.0
 50
0.0
 51
180.0
  0
ARC
  8
OUTLINE
  6
CONTINUOUS
 62
     3
 10
-1.5
 20
353.00000000000023
 30
0.0
 40
1.5
 50
0.0
 51
180.0
  0
ARC
  8
OUTLINE
  6
CONTINUOUS
 62
     3
 10
-297.80000000000018
 20
76.100000000000364
 30
0.0
 40
7.7999999999999998
 50
90.0
 51
180.0
  0
ARC
  8
OUTLINE
  6
CONTINUOUS
 62
     3
 10
-308.80000000000018
 20
22.0
 30
0.0
 40
3.7999999999999998
 50
90.0
 51
180.0
  0
ARC
  8
OUTLINE
  6
CONTINUOUS
 62
     3
 10
-305.90000000000009
 20
30.5
 30
0.0
 40
2.7000000000000002
 50
90.0
 51
180.0
  0
ARC
  8
OUTLINE
  6
CONTINUOUS
 62
     3
 10
-270.19999999999999
 20
86.200000000000273
 30
0.0
 40
2.2999999999999998
 50
270.0
 51
0.0
  0
ARC
  8
OUTLINE
  6
CONTINUOUS
 62
     3
 10
-293.38741924626453
 20
-81.089533099451955
 30
0.0
 40
5.4380162847753732
 50
232.4342702774957
 51
267.12515461274199
  0
LINE
  8
OUTLINE
  6
CONTINUOUS
 62
     3
 10
-3.0
 20
351.50000000000023
 30
0.0
 11
-3.0
 21
353.00000000000023
 31
0.0
  0
LINE
  8
OUTLINE
  6
CONTINUOUS
 62
     3
 10
-305.60000000000008
 20
-33.199999999999363
 30
0.0
 11
-305.60000000000008
 21
-76.099965314799647
 31
0.0
  0
LINE
  8
OUTLINE
  6
CONTINUOUS
 62
     3
 10
-308.60000000000008
 20
-25.799999999999731
 30
0.0
 11
-308.60000000000008
 21
-30.499966835999661
 31
0.0
  0
LINE
  8
OUTLINE
  6
CONTINUOUS
 62
     3
 10
-267.90000000000009
 20
86.593393632300376
 30
0.0
 11
-267.90000000000009
 21
86.200000000000273
 31
0.0
  0
LINE
  8
OUTLINE
  6
CONTINUOUS
 62
     3
 10
-265.59999999999991
 20
100.75701401340029
 30
0.0
 11
-265.59999999999991
 21
86.593393632300376
 31
0.0
  0
LINE
  8
BASIS
  6
DASHDOT
 62
     6
 10
-342.97854719718271
 20
0.0
 30
0.0
 11
53.557268927348559
 21
0.0
 31
0.0
  0
CIRCLE
  8
FIX
  6
CONTINUOUS
 62
    11
 10
0.0
 20
325.0
 30
0.0
 40
7.0
  0
LINE
  8
NOTE
  6
CONTINUOUS
 62
     4
 10
18.546847567183701
 20
325.0
 30
0.0
 11
-24.853765971884059
 21
325.0
 31
0.0
  0
CIRCLE
  8
FIX
  6
CONTINUOUS
 62
    11
 10
0.0
 20
-325.0
 30
0.0
 40
7.0
  0
LINE
  8
NOTE
  6
CONTINUOUS
 62
     4
 10
18.546847567183701
 20
-325.0
 30
0.0
 11
-24.853765971884059
 21
-325.0
 31
0.0
  0
LINE
  8
SIZE
  6
CONTINUOUS
 62
    30
 10
38.546847567183697
 20
325.0
 30
0.0
 11
252.56464314825459
 21
325.0
 31
0.0
  0
LINE
  8
SIZE
  6
CONTINUOUS
 62
    30
 10
38.546847567183697
 20
-325.0
 30
0.0
 11
252.5646431482551
 21
-325.0
 31
0.0
  0
LINE
  8
SIZE
  6
CONTINUOUS
 62
    30
 10
232.56464314825459
 20
313.0
 30
0.0
 11
232.56464314825459
 21
-313.0
 31
0.0
  0
CIRCLE
  8
SIZE
  6
CONTINUOUS
 62
    30
 10
232.56464314825459
 20
325.0
 30
0.0
 40
6.0
  0
LINE
  8
SIZE
  6
CONTINUOUS
 62
    30
 10
232.56464314825459
 20
325.0
 30
0.0
 11
232.56464314825459
 21
313.0
 31
0.0
  0
CIRCLE
  8
SIZE
  6
CONTINUOUS
 62
    30
 10
232.5646431482551
 20
-325.0
 30
0.0
 40
6.0
  0
LINE
  8
SIZE
  6
CONTINUOUS
 62
    30
 10
232.5646431482551
 20
-325.0
 30
0.0
 11
232.5646431482551
 21
-313.0
 31
0.0
  0
TEXT
  8
SIZE
  6
CONTINUOUS
 62
    30
 10
207.56464314825459
 20
-74.057142857143077
 30
0.0
 40
64.0
  1
650
 50
90.0
 41
0.9
 72
     1
 11
207.56464314825459
 21
-0.0000000000002274
 31
0.0
  0
POINT
  8
DEFPOINTS
  6
CONTINUOUS
 62
    30
 10
18.546847567183701
 20
325.0
 30
0.0
  0
POINT
  8
DEFPOINTS
  6
CONTINUOUS
 62
    30
 10
18.546847567183701
 20
-325.0
 30
0.0
  0
POINT
  8
DEFPOINTS
  6
CONTINUOUS
 62
    30
 10
232.5646431482551
 20
-325.0
 30
0.0
  0
LINE
  8
SIZE
  6
CONTINUOUS
 62
    30
 10
18.5
 20
-354.5
 30
0.0
 11
442.59925944025099
 21
-354.5
 31
0.0
  0
LINE
  8
SIZE
  6
CONTINUOUS
 62
    30
 10
18.5
 20
354.50000000000023
 30
0.0
 11
442.59925944025099
 21
354.50000000000051
 31
0.0
  0
LINE
  8
SIZE
  6
CONTINUOUS
 62
    30
 10
422.59925944025099
 20
-342.5
 30
0.0
 11
422.59925944025099
 21
342.50000000000051
 31
0.0
  0
CIRCLE
  8
SIZE
  6
CONTINUOUS
 62
    30
 10
422.59925944025099
 20
-354.5
 30
0.0
 40
6.0
  0
LINE
  8
SIZE
  6
CONTINUOUS
 62
    30
 10
422.59925944025099
 20
-354.5
 30
0.0
 11
422.59925944025099
 21
-342.5
 31
0.0
  0
CIRCLE
  8
SIZE
  6
CONTINUOUS
 62
    30
 10
422.59925944025099
 20
354.50000000000051
 30
0.0
 40
6.0
  0
LINE
  8
SIZE
  6
CONTINUOUS
 62
    30
 10
422.59925944025099
 20
354.50000000000051
 30
0.0
 11
422.59925944025099
 21
342.50000000000051
 31
0.0
  0
TEXT
  8
SIZE
  6
CONTINUOUS
 62
    30
 10
397.59925944025048
 20
-68.571428571428342
 30
0.0
 40
64.0
  1
710
 50
90.0
 41
0.9
 72
     1
 11
397.59925944025048
 21
0.0000000000002274
 31
0.0
  0
POINT
  8
DEFPOINTS
  6
CONTINUOUS
 62
    30
 10
-1.5
 20
-354.5
 30
0.0
  0
POINT
  8
DEFPOINTS
  6
CONTINUOUS
 62
    30
 10
-1.5
 20
354.50000000000023
 30
0.0
  0
POINT
  8
DEFPOINTS
  6
CONTINUOUS
 62
    30
 10
422.59925944025099
 20
354.50000000000051
 30
0.0
  0
LINE
  8
SIZE
  6
CONTINUOUS
 62
    30
 10
0.0
 20
373.0
 30
0.0
 11
0.0
 21
788.33372169880522
 31
0.0
  0
LINE
  8
SIZE
  6
CONTINUOUS
 62
    30
 10
-312.60000000000008
 20
20.0
 30
0.0
 11
-312.60000000000008
 21
788.33372169880522
 31
0.0
  0
LINE
  8
SIZE
  6
CONTINUOUS
 62
    30
 10
-12.0
 20
768.33372169880522
 30
0.0
 11
-300.60000000000008
 21
768.33372169880522
 31
0.0
  0
CIRCLE
  8
SIZE
  6
CONTINUOUS
 62
    30
 10
0.0
 20
768.33372169880522
 30
0.0
 40
6.0
  0
LINE
  8
SIZE
  6
CONTINUOUS
 62
    30
 10
0.0
 20
768.33372169880522
 30
0.0
 11
-12.0
 21
768.33372169880522
 31
0.0
  0
CIRCLE
  8
SIZE
  6
CONTINUOUS
 62
    30
 10
-312.60000000000008
 20
768.33372169880522
 30
0.0
 40
6.0
  0
LINE
  8
SIZE
  6
CONTINUOUS
 62
    30
 10
-312.60000000000008
 20
768.33372169880522
 30
0.0
 11
-300.60000000000008
 21
768.33372169880522
 31
0.0
  0
TEXT
  8
SIZE
  6
CONTINUOUS
 62
    30
 10
-224.87142857142871
 20
793.33372169880522
 30
0.0
 40
64.0
  1
313
 41
0.9
 72
     1
 11
-156.30000000000021
 21
793.33372169880522
 31
0.0
  0
POINT
  8
DEFPOINTS
  6
CONTINUOUS
 62
    30
 10
0.0
 20
353.0
 30
0.0
  0
POINT
  8
DEFPOINTS
  6
CONTINUOUS
 62
    30
 10
-312.60000000000008
 20
0.0
 30
0.0
  0
POINT
  8
DEFPOINTS
  6
CONTINUOUS
 62
    30
 10
-312.60000000000008
 20
768.33372169880522
 30
0.0
  0
LINE
  8
SIZE
  6
CONTINUOUS
 62
    30
 10
0.0
 20
373.0
 30
0.0
 11
0.0
 21
442.46241272776342
 31
0.0
  0
LINE
  8
SIZE
  6
CONTINUOUS
 62
    30
 10
-20.0
 20
353.5
 30
0.0
 11
-20.0
 21
442.46241272776342
 31
0.0
  0
LINE
  8
SIZE
  6
CONTINUOUS
 62
    30
 10
-32.0
 20
422.46241272776342
 30
0.0
 11
-44.0
 21
422.46241272776342
 31
0.0
  0
LINE
  8
SIZE
  6
CONTINUOUS
 62
    30
 10
12.0
 20
422.46241272776342
 30
0.0
 11
178.81450008706091
 21
422.46241272776342
 31
0.0
  0
LINE
  8
SIZE
  6
CONTINUOUS
 62
    30
 10
-20.0
 20
422.46241272776342
 30
0.0
 11
0.0
 21
422.46241272776342
 31
0.0
  0
CIRCLE
  8
SIZE
  6
CONTINUOUS
 62
    30
 10
-20.0
 20
422.46241272776342
 30
0.0
 40
6.0
  0
LINE
  8
SIZE
  6
CONTINUOUS
 62
    30
 10
-20.0
 20
422.46241272776342
 30
0.0
 11
-32.0
 21
422.46241272776342
 31
0.0
  0
CIRCLE
  8
SIZE
  6
CONTINUOUS
 62
    30
 10
0.0
 20
422.46241272776342
 30
0.0
 40
6.0
  0
LINE
  8
SIZE
  6
CONTINUOUS
 62
    30
 10
0.0
 20
422.46241272776342
 30
0.0
 11
12.0
 21
422.46241272776342
 31
0.0
  0
TEXT
  8
SIZE
  6
CONTINUOUS
 62
    30
 10
60.557357229918082
 20
447.46241272776342
 30
0.0
 40
64.0
  1
20
 41
0.9
 72
     1
 11
107.1859286584895
 21
447.46241272776342
 31
0.0
  0
POINT
  8
DEFPOINTS
  6
CONTINUOUS
 62
    30
 10
0.0
 20
353.0
 30
0.0
  0
POINT
  8
DEFPOINTS
  6
CONTINUOUS
 62
    30
 10
-20.0
 20
333.5
 30
0.0
  0
POINT
  8
DEFPOINTS
  6
CONTINUOUS
 62
    30
 10
-20.0
 20
422.46241272776342
 30
0.0
  0
LINE
  8
SIZE
  6
CONTINUOUS
 62
    30
 10
-215.59999999999991
 20
100.7570140134001
 30
0.0
 11
-455.25164731359041
 21
100.7570140134001
 31
0.0
  0
LINE
  8
SIZE
  6
CONTINUOUS
 62
    30
 10
-215.59999999999991
 20
-100.7570140134
 30
0.0
 11
-455.25164731359041
 21
-100.7570140134
 31
0.0
  0
LINE
  8
SIZE
  6
CONTINUOUS
 62
    30
 10
-435.25164731359041
 20
112.7570140134001
 30
0.0
 11
-435.25164731359041
 21
124.7570140134001
 31
0.0
  0
LINE
  8
SIZE
  6
CONTINUOUS
 62
    30
 10
-435.25164731359041
 20
-112.7570140134
 30
0.0
 11
-435.25164731359041
 21
-124.7570140134
 31
0.0
  0
LINE
  8
SIZE
  6
CONTINUOUS
 62
    30
 10
-435.25164731359041
 20
100.7570140134001
 30
0.0
 11
-435.25164731359041
 21
-100.7570140134
 31
0.0
  0
CIRCLE
  8
SIZE
  6
CONTINUOUS
 62
    30
 10
-435.25164731359041
 20
100.7570140134001
 30
0.0
 40
6.0
  0
LINE
  8
SIZE
  6
CONTINUOUS
 62
    30
 10
-435.25164731359041
 20
100.7570140134001
 30
0.0
 11
-435.25164731359041
 21
112.7570140134001
 31
0.0
  0
CIRCLE
  8
SIZE
  6
CONTINUOUS
 62
    30
 10
-435.25164731359041
 20
-100.7570140134
 30
0.0
 40
6.0
  0
LINE
  8
SIZE
  6
CONTINUOUS
 62
    30
 10
-435.25164731359041
 20
-100.7570140134
 30
0.0
 11
-435.25164731359041
 21
-112.7570140134
 31
0.0
  0
TEXT
  8
SIZE
  6
CONTINUOUS
 62
    30
 10
-460.25164731359018
 20
-114.3771428571426
 30
0.0
 40
64.0
  1
φ202
 50
90.0
 41
0.9
 72
     1
 11
-460.25164731359018
 21
0.0000000000002274
 31
0.0
  0
POINT
  8
DEFPOINTS
  6
CONTINUOUS
 62
    30
 10
-195.59999999999991
 20
100.7570140134001
 30
0.0
  0
POINT
  8
DEFPOINTS
  6
CONTINUOUS
 62
    30
 10
-195.59999999999991
 20
-100.7570140134
 30
0.0
  0
POINT
  8
DEFPOINTS
  6
CONTINUOUS
 62
    30
 10
-435.25164731359041
 20
-100.7570140134
 30
0.0
  0
LINE
  8
SIZE
  6
CONTINUOUS
 62
    30
 10
0.0
 20
373.0
 30
0.0
 11
0.0
 21
669.00491991715307
 31
0.0
  0
LINE
  8
SIZE
  6
CONTINUOUS
 62
    30
 10
-227.59999999999991
 20
244.23728368090019
 30
0.0
 11
-227.59999999999991
 21
669.00491991715307
 31
0.0
  0
LINE
  8
SIZE
  6
CONTINUOUS
 62
    30
 10
-12.0
 20
649.00491991715307
 30
0.0
 11
-215.59999999999991
 21
649.00491991715307
 31
0.0
  0
CIRCLE
  8
SIZE
  6
CONTINUOUS
 62
    30
 10
0.0
 20
649.00491991715307
 30
0.0
 40
6.0
  0
LINE
  8
SIZE
  6
CONTINUOUS
 62
    30
 10
0.0
 20
649.00491991715307
 30
0.0
 11
-12.0
 21
649.00491991715307
 31
0.0
  0
CIRCLE
  8
SIZE
  6
CONTINUOUS
 62
    30
 10
-227.59999999999991
 20
649.00491991715307
 30
0.0
 40
6.0
  0
LINE
  8
SIZE
  6
CONTINUOUS
 62
    30
 10
-227.59999999999991
 20
649.00491991715307
 30
0.0
 11
-215.59999999999991
 21
649.00491991715307
 31
0.0
  0
TEXT
  8
SIZE
  6
CONTINUOUS
 62
    30
 10
-187.8571428571428
 20
674.00491991715307
 30
0.0
 40
64.0
  1
228
 41
0.9
 72
     1
 11
-113.8
 21
674.00491991715307
 31
0.0
  0
POINT
  8
DEFPOINTS
  6
CONTINUOUS
 62
    30
 10
0.0
 20
353.0
 30
0.0
  0
POINT
  8
DEFPOINTS
  6
CONTINUOUS
 62
    30
 10
-227.59999999999991
 20
224.23728368090019
 30
0.0
  0
POINT
  8
DEFPOINTS
  6
CONTINUOUS
 62
    30
 10
-227.59999999999991
 20
649.00491991715307
 30
0.0
  0
TEXT
  8
NOTE
  6
CONTINUOUS
 62
     4
 10
-317.40153253590228
 20
-448.12774304824228
 30
0.0
 40
64.0
  1
EL
 41
0.9
 72
     2
 11
-232.37296110733089
 21
-448.12774304824228
 31
0.0
  0
LINE
  8
NOTE
  6
CONTINUOUS
 62
     4
 10
-73.714562000177466
 20
-319.95982411487188
 30
0.0
 11
-68.662496045426451
 21
-316.34577806109201
 31
0.0
  0
LINE
  8
NOTE
  6
CONTINUOUS
 62
     4
 10
-68.662496045426451
 20
-316.34577806109201
 30
0.0
 11
-71.230681953836438
 21
-322.00167060160612
 31
0.0
  0
LINE
  8
NOTE
  6
CONTINUOUS
 62
     4
 10
-68.662496045426451
 20
-316.34577806109201
 30
0.0
 11
-76.28274790858768
 21
-325.615716655386
 31
0.0
  0
LINE
  8
NOTE
  6
CONTINUOUS
 62
     4
 10
-76.28274790858768
 20
-325.615716655386
 30
0.0
 11
-198.02374663656519
 21
-473.71207920109617
 31
0.0
  0
LINE
  8
NOTE
  6
CONTINUOUS
 62
     4
 10
-198.02374663656519
 20
-473.71207920109617
 30
0.0
 11
-333.19123804823039
 21
-473.81666092553883
 31
0.0
  0
TEXT
  8
NOTE
  6
CONTINUOUS
 62
     4
 10
133.73906142525291
 20
-503.2709452754732
 30
0.0
 40
64.0
  1
4-φ14
 41
0.9
  0
LINE
  8
NOTE
  6
CONTINUOUS
 62
     4
 10
1.9466328506207451
 20
-330.89875578701822
 30
0.0
 11
0.0
 21
-325.0
 31
0.0
  0
LINE
  8
NOTE
  6
CONTINUOUS
 62
     4
 10
0.0
 20
-325.0
 30
0.0
 11
4.6352176254301867
 21
-329.13514895196067
 31
0.0
  0
LINE
  8
NOTE
  6
CONTINUOUS
 62
     4
 10
0.0
 20
-325.0
 30
0.0
 11
6.5818504760509313
 21
-335.03390473897889
 31
0.0
  0
LINE
  8
NOTE
  6
CONTINUOUS
 62
     4
 10
6.5818504760509313
 20
-335.03390473897889
 30
0.0
 11
126.4078544695171
 21
-517.70634825585887
 31
0.0
  0
LINE
  8
NOTE
  6
CONTINUOUS
 62
     4
 10
126.4078544695171
 20
-517.70634825585887
 30
0.0
 11
416.54215092769027
 21
-517.27451435099829
 31
0.0
  0
LINE
  8
SIZE
  6
CONTINUOUS
 62
    30
 10
0.0
 20
373.0
 30
0.0
 11
0.0
 21
560.44984725226777
 31
0.0
  0
LINE
  8
SIZE
  6
CONTINUOUS
 62
    30
 10
-119.234378265
 20
369.51600000000008
 30
0.0
 11
-119.234378265
 21
560.44984725226777
 31
0.0
  0
LINE
  8
SIZE
  6
CONTINUOUS
 62
    30
 10
-107.234378265
 20
540.44984725226777
 30
0.0
 11
-12.0
 21
540.44984725226777
 31
0.0
  0
LINE
  8
SIZE
  6
CONTINUOUS
 62
    30
 10
0.0
 20
540.44984725226777
 30
0.0
 11
185.42857142857159
 21
540.44984725226777
 31
0.0
  0
CIRCLE
  8
SIZE
  6
CONTINUOUS
 62
    30
 10
-119.234378265
 20
540.44984725226777
 30
0.0
 40
6.0
  0
LINE
  8
SIZE
  6
CONTINUOUS
 62
    30
 10
-119.234378265
 20
540.44984725226777
 30
0.0
 11
-107.234378265
 21
540.44984725226777
 31
0.0
  0
CIRCLE
  8
SIZE
  6
CONTINUOUS
 62
    30
 10
0.0
 20
540.44984725226777
 30
0.0
 40
6.0
  0
LINE
  8
SIZE
  6
CONTINUOUS
 62
    30
 10
0.0
 20
540.44984725226777
 30
0.0
 11
-12.0
 21
540.44984725226777
 31
0.0
  0
TEXT
  8
SIZE
  6
CONTINUOUS
 62
    30
 10
37.000000000000071
 20
565.44984725226777
 30
0.0
 40
64.0
  1
119
 41
0.9
 72
     1
 11
98.714285714285779
 21
565.44984725226777
 31
0.0
  0
POINT
  8
DEFPOINTS
  6
CONTINUOUS
 62
    30
 10
0.0
 20
353.0
 30
0.0
  0
POINT
  8
DEFPOINTS
  6
CONTINUOUS
 62
    30
 10
-119.234378265
 20
349.51600000000008
 30
0.0
  0
POINT
  8
DEFPOINTS
  6
CONTINUOUS
 62
    30
 10
-119.234378265
 20
540.44984725226777
 30
0.0
  0
ARC
  8
DETAIL
  6
CONTINUOUS
 62
     5
 10
-7.4690188183667487
 20
289.78181441947248
 30
0.0
 40
2.5500752034656649
 50
103.3576945235739
 51
176.41518307308851
  0
ARC
  8
DETAIL
  6
CONTINUOUS
 62
     5
 10
-11.429462501822851
 20
307.81805765164791
 30
0.0
 40
15.91629809325314
 50
282.22870109697482
 51
301.97066869851972
  0
ARC
  8
DETAIL
  6
CONTINUOUS
 62
     5
 10
-8.2634138336470642
 20
289.58223859767759
 30
0.0
 40
6.2673291849211523
 50
108.8484498337547
 51
176.7160319163404
  0
ARC
  8
DETAIL
  6
CONTINUOUS
 62
     5
 10
-13.32279112679316
 20
305.16791065612779
 30
0.0
 40
10.120114148579709
 50
287.44918523730979
 51
324.27303608777368
  0
ARC
  8
DETAIL
  6
CONTINUOUS
 62
     5
 10
-8.2415482873293513
 20
339.15456706228628
 30
0.0
 40
6.2888732111648302
 50
105.8742062610942
 51
176.77329226488581
  0
ARC
  8
DETAIL
  6
CONTINUOUS
 62
     5
 10
-13.04467031837339
 20
355.12299811677173
 30
0.0
 40
10.38743560808545
 50
287.26527000109718
 51
319.83073166501481
  0
ARC
  8
DETAIL
  6
CONTINUOUS
 62
     5
 10
-143.59686495105009
 20
-158.80324021402259
 30
0.0
 40
30.818057581637031
 50
274.39822499397832
 51
322.23472729462901
  0
ARC
  8
DETAIL
  6
CONTINUOUS
 62
     5
 10
-138.5996140701875
 20
-197.81855002252931
 30
0.0
 40
8.6964559370588539
 50
107.6298962717885
 51
203.80747548579359
  0
ARC
  8
DETAIL
  6
CONTINUOUS
 62
     5
 10
113.0690009635448
 20
-102.53789135478929
 30
0.0
 40
277.78563166200712
 50
200.83254750071109
 51
213.25184281245731
  0
ARC
  8
DETAIL
  6
CONTINUOUS
 62
     5
 10
-128.17165038638379
 20
-203.125409193536
 30
0.0
 40
70.656164458497628
 50
197.3853833153365
 51
272.08583731911239
  0
ARC
  8
DETAIL
  6
CONTINUOUS
 62
     5
 10
-130.40818278026109
 20
-195.13399207907381
 30
0.0
 40
101.4988978406538
 50
196.6625888463187
 51
274.18561566455998
  0
ARC
  8
DETAIL
  6
CONTINUOUS
 62
     5
 10
-127.26760793096101
 20
-199.36451295297229
 30
0.0
 40
103.41326056974449
 50
193.91712663427259
 51
271.81070889901162
  0
ARC
  8
DETAIL
  6
CONTINUOUS
 62
     5
 10
-7.4690188183667487
 20
-289.78181441947248
 30
0.0
 40
2.5500752034656649
 50
183.58481692691149
 51
256.64230547642597
  0
ARC
  8
DETAIL
  6
CONTINUOUS
 62
     5
 10
-11.429462501822851
 20
-307.81805765164791
 30
0.0
 40
15.91629809325314
 50
58.029331301480248
 51
77.771298903025226
  0
ARC
  8
DETAIL
  6
CONTINUOUS
 62
     5
 10
-8.2634138336470642
 20
-289.58223859767759
 30
0.0
 40
6.2673291849211523
 50
183.2839680836596
 51
251.1515501662453
  0
ARC
  8
DETAIL
  6
CONTINUOUS
 62
     5
 10
-13.32279112679316
 20
-305.16791065612819
 30
0.0
 40
10.120114148579709
 50
35.726963912226353
 51
72.550814762690194
  0
ARC
  8
DETAIL
  6
CONTINUOUS
 62
     5
 10
-8.2415482873293513
 20
-339.15456706228628
 30
0.0
 40
6.2888732111648302
 50
183.22670773511419
 51
254.1257937389058
  0
ARC
  8
DETAIL
  6
CONTINUOUS
 62
     5
 10
-13.04467031837339
 20
-355.12299811677178
 30
0.0
 40
10.38743560808545
 50
40.169268334985219
 51
72.734729998902765
  0
LINE
  8
DETAIL
  6
CONTINUOUS
 62
     5
 10
-23.23289672493047
 20
-407.88880758905981
 30
0.0
 11
-18.232896725279719
 21
-457.8888075887096
 31
0.0
  0
LINE
  8
DETAIL
  6
CONTINUOUS
 62
     5
 10
-20.247785154351732
 20
-407.59029643179178
 30
0.0
 11
-15.24778515470098
 21
-457.59029643196692
 31
0.0
  0
LINE
  8
DETAIL
  6
CONTINUOUS
 62
     5
 10
-24.327437634565289
 20
-407.99826167960259
 30
0.0
 11
-16.16813267466955
 21
-407.18233118398098
 31
0.0
  0
LINE
  8
DETAIL
  6
CONTINUOUS
 62
     5
 10
-18.232896725279719
 20
-457.8888075887096
 30
0.0
 11
-13.136992520201829
 21
-457.37921716856931
 31
0.0
  0
ARC
  8
DETAIL
  6
CONTINUOUS
 62
     5
 10
-100.4359559830518
 20
-377.97319373380537
 30
0.0
 40
78.184161644851457
 50
12.526638663621229
 51
55.425499861994979
  0
ARC
  8
DETAIL
  6
CONTINUOUS
 62
     5
 10
-90.33530860587075
 20
-370.30342040781329
 30
0.0
 40
57.804428666772218
 50
14.116686170311061
 51
76.766774293004943
  0
LINE
  8
DETAIL
  6
CONTINUOUS
 62
     5
 10
-17.262673583747532
 20
-407.29178527483913
 30
0.0
 11
-13.136992520201829
 21
-457.37921716856931
 31
0.0
  0
ARC
  8
DETAIL
  6
CONTINUOUS
 62
     5
 10
-274.67855959556982
 20
-427.90224986378121
 30
0.0
 40
259.33946066290201
 50
4.5825286912438559
 51
14.94618846377201
  0
ARC
  8
DETAIL
  6
CONTINUOUS
 62
     5
 10
-248.02941593652599
 20
-424.11753369011541
 30
0.0
 40
224.28197882656619
 50
4.1214332442900368
 51
17.625824176301659
  0
ARC
  8
DETAIL
  6
CONTINUOUS
 62
     5
 10
-367.82388347980418
 20
155.39509348243519
 30
0.0
 40
257.50957349454592
 50
15.12469838325848
 51
27.13963972918696
  0
ARC
  8
DETAIL
  6
CONTINUOUS
 62
     5
 10
-128.17165038638379
 20
203.12540919353589
 30
0.0
 40
70.656164458497628
 50
87.914162680887529
 51
162.61461668466339
  0
ARC
  8
DETAIL
  6
CONTINUOUS
 62
     5
 10
-130.40818278026109
 20
195.13399207907381
 30
0.0
 40
101.4988978406538
 50
85.814384335439996
 51
163.3374111536813
  0
ARC
  8
DETAIL
  6
CONTINUOUS
 62
     5
 10
-127.26760793096101
 20
199.36451295297229
 30
0.0
 40
103.41326056974449
 50
88.189291100988427
 51
166.08287336572741
  0
LINE
  8
DETAIL
  6
CONTINUOUS
 62
     5
 10
-265.59999999999991
 20
-96.874436765814039
 30
0.0
 11
-265.59999999999991
 21
100.75701401340029
 31
0.0
  0
LINE
  8
DETAIL
  6
CONTINUOUS
 62
     5
 10
-265.59999999999991
 20
100.75701401340029
 30
0.0
 11
-157.59999999999991
 21
100.75701401340029
 31
0.0
  0
LINE
  8
DETAIL
  6
CONTINUOUS
 62
     5
 10
-157.59999999999991
 20
100.75701401340029
 30
0.0
 11
-157.59999999999991
 21
-100.7570140133998
 31
0.0
  0
LINE
  8
DETAIL
  6
CONTINUOUS
 62
     5
 10
-157.59999999999991
 20
-100.7570140133998
 30
0.0
 11
-227.59999999999991
 21
-100.7570140133998
 31
0.0
  0
ARC
  8
DETAIL
  6
CONTINUOUS
 62
     5
 10
-224.4167262343199
 20
225.9760796423914
 30
0.0
 40
325.46661577357492
 50
260.79640781233832
 51
269.43971340284583
  0
ARC
  8
DETAIL
  6
CONTINUOUS
 62
     5
 10
-1086.4861276907991
 20
-209.31096044821561
 30
0.0
 40
817.99747504561083
 50
8.011823677265463
 51
8.4695417240095683
  0
ARC
  8
OUTLINE
  6
CONTINUOUS
 62
     3
 10
-8.2415482873293513
 20
339.15456706228628
 30
0.0
 40
6.2888732111648302
 50
105.8742062610942
 51
176.77329226488581
  0
ARC
  8
OUTLINE
  6
CONTINUOUS
 62
     3
 10
-127.26760793096101
 20
-199.36451295297229
 30
0.0
 40
103.41326056974449
 50
193.91712663427259
 51
271.81070889901162
  0
ARC
  8
OUTLINE
  6
CONTINUOUS
 62
     3
 10
-8.2415482873293513
 20
-339.15456706228628
 30
0.0
 40
6.2888732111648302
 50
183.22670773511419
 51
254.1257937389058
  0
ARC
  8
OUTLINE
  6
CONTINUOUS
 62
     3
 10
-127.26760793096101
 20
199.36451295297229
 30
0.0
 40
103.41326056974449
 50
88.189291100988427
 51
166.08287336572741
  0
ENDSEC
  0
EOF
