  0
SECTION
  2
HEADER
  9
$ACADVER
  1
AC1009
  9
$DWGCODEPAGE
  3
dos932
  9
$INSBASE
 10
0.0
 20
0.0
 30
0.0
  9
$EXTMIN
 10
-548.3550858897579
 20
-483.53575494086363
 30
-0.0072422162130579
  9
$EXTMAX
 10
1026.919567232158
 20
906.50940780354358
 30
0.0048289391259004
  9
$LIMMIN
 10
-2970.0
 20
-2100.0
  9
$LIMMAX
 10
2970.0
 20
2100.0
  9
$ORTHOMODE
 70
     1
  9
$REGENMODE
 70
     1
  9
$FILLMODE
 70
     1
  9
$QTEXTMODE
 70
     0
  9
$MIRRTEXT
 70
     0
  9
$LTSCALE
 40
20.0
  9
$ATTMODE
 70
     1
  9
$TEXTSIZE
 40
64.0
  9
$TRACEWID
 40
0.05
  9
$TEXTSTYLE
  7
STANDARD
  9
$CLAYER
  8
SIZE
  9
$CELTYPE
  6
CONTINUOUS
  9
$CECOLOR
 62
     7
  9
$DIMSCALE
 40
1.0
  9
$DIMASZ
 40
12.0
  9
$DIMEXO
 40
20.0
  9
$DIMDLI
 40
200.0
  9
$DIMRND
 40
0.0
  9
$DIMDLE
 40
0.0
  9
$DIMEXE
 40
20.0
  9
$DIMTP
 40
0.0
  9
$DIMTM
 40
0.0
  9
$DIMTXT
 40
64.0
  9
$DIMCEN
 40
0.09
  9
$DIMTSZ
 40
0.0
  9
$DIMTOL
 70
     0
  9
$DIMLIM
 70
     0
  9
$DIMTIH
 70
     0
  9
$DIMTOH
 70
     0
  9
$DIMSE1
 70
     0
  9
$DIMSE2
 70
     0
  9
$DIMTAD
 70
     1
  9
$DIMZIN
 70
     8
  9
$DIMBLK
  1

  9
$DIMASO
 70
     1
  9
$DIMSHO
 70
     0
  9
$DIMPOST
  1

  9
$DIMAPOST
  1

  9
$DIMALT
 70
     0
  9
$DIMALTD
 70
     2
  9
$DIMALTF
 40
25.399999999999999
  9
$DIMLFAC
 40
1.0
  9
$DIMTOFL
 70
     1
  9
$DIMTVP
 40
0.0
  9
$DIMTIX
 70
     1
  9
$DIMSOXD
 70
     0
  9
$DIMSAH
 70
     0
  9
$DIMBLK1
  1

  9
$DIMBLK2
  1

  9
$DIMSTYLE
  2
STANDARD
  9
$DIMCLRD
 70
     7
  9
$DIMCLRE
 70
     7
  9
$DIMCLRT
 70
     7
  9
$DIMTFAC
 40
1.0
  9
$DIMGAP
 40
25.0
  9
$LUNITS
 70
     2
  9
$LUPREC
 70
     4
  9
$SKETCHINC
 40
0.1
  9
$FILLETRAD
 40
3.0
  9
$AUNITS
 70
     1
  9
$AUPREC
 70
     3
  9
$MENU
  1
ACAD
  9
$ELEVATION
 40
0.0
  9
$PELEVATION
 40
0.0
  9
$THICKNESS
 40
0.0
  9
$LIMCHECK
 70
     0
  9
$CHAMFERA
 40
0.0
  9
$CHAMFERB
 40
0.0
  9
$SKPOLY
 70
     0
  9
$TDCREATE
 40
2453019.62301037
  9
$TDUPDATE
 40
2458949.450362928
  9
$TDINDWG
 40
1.7136733912
  9
$TDUSRTIMER
 40
1.7136733912
  9
$USRTIMER
 70
     1
  9
$ANGBASE
 50
0.0
  9
$ANGDIR
 70
     0
  9
$PDMODE
 70
     3
  9
$PDSIZE
 40
-2.0
  9
$PLINEWID
 40
0.0
  9
$SPLFRAME
 70
     0
  9
$SPLINETYPE
 70
     6
  9
$SPLINESEGS
 70
     8
  9
$SURFTAB1
 70
     6
  9
$SURFTAB2
 70
     6
  9
$SURFTYPE
 70
     6
  9
$SURFU
 70
     6
  9
$SURFV
 70
     6
  9
$UCSNAME
  2

  9
$UCSORG
 10
0.0
 20
0.0
 30
0.0
  9
$UCSXDIR
 10
1.0
 20
0.0
 30
0.0
  9
$UCSYDIR
 10
0.0
 20
1.0
 30
0.0
  9
$PUCSNAME
  2

  9
$PUCSORG
 10
0.0
 20
0.0
 30
0.0
  9
$PUCSXDIR
 10
1.0
 20
0.0
 30
0.0
  9
$PUCSYDIR
 10
0.0
 20
1.0
 30
0.0
  9
$USERI1
 70
     0
  9
$USERI2
 70
     0
  9
$USERI3
 70
     0
  9
$USERI4
 70
     0
  9
$USERI5
 70
     0
  9
$USERR1
 40
20.0
  9
$USERR2
 40
0.0
  9
$USERR3
 40
0.0
  9
$USERR4
 40
0.0
  9
$USERR5
 40
0.0
  9
$WORLDVIEW
 70
     1
  9
$SHADEDGE
 70
     3
  9
$SHADEDIF
 70
    70
  9
$TILEMODE
 70
     1
  9
$MAXACTVP
 70
    48
  9
$PINSBASE
 10
0.0
 20
0.0
 30
0.0
  9
$PLIMCHECK
 70
     0
  9
$PEXTMIN
 10
-100000000000000000000.0
 20
-100000000000000000000.0
 30
-100000000000000000000.0
  9
$PEXTMAX
 10
100000000000000000000.0
 20
100000000000000000000.0
 30
100000000000000000000.0
  9
$PLIMMIN
 10
0.0
 20
0.0
  9
$PLIMMAX
 10
12.0
 20
9.0
  9
$UNITMODE
 70
     0
  9
$VISRETAIN
 70
     0
  9
$PLINEGEN
 70
     0
  9
$PSLTSCALE
 70
     0
  9
$TREEDEPTH
 70
  3020
  9
$ATTDIA
 70
     0
  9
$ATTREQ
 70
     1
  9
$BLIPMODE
 70
     1
  9
$COORDS
 70
     1
  9
$DRAGMODE
 70
     2
  9
$OSMODE
 70
     0
  9
$HANDLING
 70
     0
  9
$HANDSEED
  5
11EE5
  0
ENDSEC
  0
SECTION
  2
TABLES
  0
TABLE
  2
LTYPE
 70
     2
  0
LTYPE
  2
CONTINUOUS
 70
     0
  3
実線
 72
    65
 73
     0
 40
0.0
  0
LTYPE
  2
DASHDOT
 70
     0
  3
____ _ ____ _ ____ _ ____ _ ____ _ ____ _ ____
 72
    65
 73
     4
 40
5.5
 49
4.0
 49
-0.6
 49
0.3
 49
-0.6
  0
ENDTAB
  0
TABLE
  2
LAYER
 70
    12
  0
LAYER
  2
0
 70
     0
 62
     7
  6
CONTINUOUS
  0
LAYER
  2
BASIS
 70
     0
 62
     6
  6
DASHDOT
  0
LAYER
  2
OUTLINE
 70
     0
 62
     3
  6
CONTINUOUS
  0
LAYER
  2
DETAIL
 70
     0
 62
     5
  6
CONTINUOUS
  0
LAYER
  2
SIZE
 70
     0
 62
    30
  6
CONTINUOUS
  0
LAYER
  2
ARRANGE
 70
     0
 62
     1
  6
CONTINUOUS
  0
LAYER
  2
DEFPOINTS
 70
     0
 62
     7
  6
CONTINUOUS
  0
LAYER
  2
ETC
 70
     0
 62
    61
  6
CONTINUOUS
  0
LAYER
  2
FIX
 70
     0
 62
    11
  6
CONTINUOUS
  0
LAYER
  2
NOTE
 70
     0
 62
     4
  6
CONTINUOUS
  0
LAYER
  2
SERVICESPACE
 70
    64
 62
     2
  6
DASHDOT
  0
LAYER
  2
SYMBOLLINE
 70
    64
 62
    15
  6
CONTINUOUS
  0
ENDTAB
  0
TABLE
  2
STYLE
 70
     1
  0
STYLE
  2
STANDARD
 70
     0
 40
64.0
 41
0.9
 50
0.0
 71
     0
 42
64.0
  3
SIMPLEX.shx
  4
BIGFONT.shx
  0
ENDTAB
  0
TABLE
  2
APPID
 70
    19
  0
APPID
  2
ACAD
 70
     0
  0
APPID
  2
AUTOCAD_POSTSCRIPT_FIGURE
 70
     0
  0
APPID
  2
ACAD_EXEMPT_FROM_CAD_STANDARDS
 70
     0
  0
APPID
  2
ACAD_PSEXT
 70
     0
  0
APPID
  2
ACAUTHENVIRON
 70
     0
  0
APPID
  2
GENIUS_GENOENT_13
 70
     0
  0
APPID
  2
GENIUS_GENCFG_13
 70
     0
  0
APPID
  2
GENIUS_GENCFG0_13
 70
     0
  0
APPID
  2
GENIUS_GENCFG1_13
 70
     0
  0
APPID
  2
GENIUS_GENCFG2_13
 70
     0
  0
APPID
  2
GENIUS_GENCFG3_13
 70
     0
  0
APPID
  2
GENIUS_GENCFG4_13
 70
     0
  0
APPID
  2
GENIUS_GEVCFG0_13
 70
     0
  0
APPID
  2
CONTENTBLOCKICON
 70
     0
  0
APPID
  2
CONTENTBLOCKDESCRIPTION
 70
     0
  0
APPID
  2
ACAD_NAV_VCDISPLAY
 70
     0
  0
APPID
  2
ACAD_MLEADERVER
 70
     0
  0
APPID
  2
ACDBDYNAMICBLOCKTRUENAME
 70
     0
  0
APPID
  2
ACDBDYNAMICBLOCKGUID
 70
     0
  0
ENDTAB
  0
TABLE
  2
DIMSTYLE
 70
     1
  0
DIMSTYLE
  2
STANDARD
 70
     0
  3

  4

  5
_ORIGIN
  6

  7

 40
1.0
 41
12.0
 42
20.0
 43
200.0
 44
20.0
 45
0.0
 46
0.0
 47
0.0
 48
0.0
140
64.0
141
0.09
142
0.0
143
25.399999999999999
144
1.0
145
0.0
146
1.0
147
25.0
 71
     0
 72
     0
 73
     0
 74
     0
 75
     0
 76
     0
 77
     1
 78
     8
170
     0
171
     2
172
     1
173
     0
174
     1
175
     0
176
     7
177
     7
178
     7
  0
ENDTAB
  0
TABLE
  2
VIEW
 70
     1
  0
VIEW
  2
ALL
 70
     0
 40
4282.6198079999986
 10
0.0
 20
41.309904000000003
 41
5940.0
 11
0.0
 21
0.0
 31
1.0
 12
0.0
 22
0.0
 32
0.0
 42
50.0
 43
0.0
 44
0.0
 50
0.0
 71
     0
  0
ENDTAB
  0
TABLE
  2
UCS
 70
     0
  0
ENDTAB
  0
TABLE
  2
VPORT
 70
     1
  0
VPORT
  2
*ACTIVE
 70
     0
 10
0.0
 20
0.0
 11
1.0
 21
1.0
 12
239.2822406712003
 22
211.48682643133989
 13
0.0
 23
0.0
 14
1.0
 24
1.0
 15
0.0
 25
0.0
 16
0.0
 26
0.0
 36
1.0
 17
0.0
 27
0.0
 37
0.0
 40
1399.2609317791771
 41
1.747787610619469
 42
50.0
 43
0.0
 44
0.0
 50
0.0
 51
0.0
 71
     0
 72
  1000
 73
     1
 74
     3
 75
     0
 76
     0
 77
     0
 78
     0
  0
ENDTAB
  0
ENDSEC
  0
SECTION
  2
BLOCKS
  0
BLOCK
  8
0
  2
_ORIGIN
 70
     0
 10
0.0
 20
0.0
 30
0.0
  3
_ORIGIN
  1
_ORIGIN
  0
CIRCLE
  8
0
  6
CONTINUOUS
 62
     7
 10
0.0
 20
0.0
 30
0.0
 40
0.5
  0
LINE
  8
0
  6
CONTINUOUS
 62
     7
 10
0.0
 20
0.0
 30
0.0
 11
-1.0
 21
0.0
 31
0.0
  0
ENDBLK
  8
0
  0
ENDSEC
  0
SECTION
  2
ENTITIES
  0
POINT
  8
ARRANGE
  6
CONTINUOUS
 62
     1
 10
0.0
 20
0.0
 30
0.0
  0
CIRCLE
  8
ARRANGE
  6
CONTINUOUS
 62
     1
 10
0.0
 20
0.0
 30
0.0
 40
40.0
  0
TEXT
  8
ETC
  6
CONTINUOUS
 62
    61
 10
404.02204000962769
 20
447.1858687279846
 30
0.0
 40
64.0
  1
EWF-60HTA2_5
 41
0.9
  0
TEXT
  8
ETC
  6
CONTINUOUS
 62
    61
 10
399.83604600962713
 20
329.23055871315341
 30
0.0
 40
64.0
  1
有圧換気扇
 41
0.9
  0
TEXT
  8
ETC
  6
CONTINUOUS
 62
    61
 10
450.31959372674692
 20
221.74506344054609
 30
0.0
 40
40.0
  1
EWF-60HTA2
 41
0.9
  0
LINE
  8
DETAIL
  6
CONTINUOUS
 62
     5
 10
3.0000000000002269
 20
351.50000000000023
 30
0.0
 11
6.4000000000000909
 21
351.50000000000023
 31
0.0
  0
LINE
  8
DETAIL
  6
CONTINUOUS
 62
     5
 10
5.1000000000001364
 20
348.3345237791998
 30
0.0
 11
3.0000000000002269
 21
348.3345237791998
 31
0.0
  0
LINE
  8
DETAIL
  6
CONTINUOUS
 62
     5
 10
13.86763733420025
 20
341.50000000000023
 30
0.0
 11
16.400000000000091
 21
341.50000000000023
 31
0.0
  0
LINE
  8
DETAIL
  6
CONTINUOUS
 62
     5
 10
114.5
 20
312.62563132929989
 30
0.0
 11
112.5
 21
314.03984489160013
 31
0.0
  0
LINE
  8
DETAIL
  6
CONTINUOUS
 62
     5
 10
272.79828756830011
 20
69.078358506499853
 30
0.0
 11
272.84932060509982
 21
68.975153107899814
 31
0.0
  0
LINE
  8
DETAIL
  6
CONTINUOUS
 62
     5
 10
272.84932060509982
 20
68.975153107899814
 30
0.0
 11
272.88699024810012
 21
68.85301696800002
 31
0.0
  0
LINE
  8
DETAIL
  6
CONTINUOUS
 62
     5
 10
272.88699024810012
 20
68.85301696800002
 30
0.0
 11
272.90000000000009
 21
68.731602038699975
 31
0.0
  0
LINE
  8
DETAIL
  6
CONTINUOUS
 62
     5
 10
272.4534180126002
 20
62.407680453700102
 30
0.0
 11
272.58841816450013
 21
62.054190407799751
 31
0.0
  0
LINE
  8
DETAIL
  6
CONTINUOUS
 62
     5
 10
272.58841816450013
 20
62.054190407799751
 30
0.0
 11
272.69936130209999
 21
61.70732151820016
 31
0.0
  0
LINE
  8
DETAIL
  6
CONTINUOUS
 62
     5
 10
272.69936130209999
 20
61.70732151820016
 30
0.0
 11
272.78640765720002
 21
61.368299942699878
 31
0.0
  0
LINE
  8
DETAIL
  6
CONTINUOUS
 62
     5
 10
272.78640765720002
 20
61.368299942699878
 30
0.0
 11
272.84907653429991
 21
61.033447208299783
 31
0.0
  0
LINE
  8
DETAIL
  6
CONTINUOUS
 62
     5
 10
272.84907653429991
 20
61.033447208299783
 30
0.0
 11
272.88688723799987
 21
60.699084842000268
 31
0.0
  0
LINE
  8
DETAIL
  6
CONTINUOUS
 62
     5
 10
272.88688723799987
 20
60.699084842000268
 30
0.0
 11
272.90000000000009
 21
60.366439001400288
 31
0.0
  0
LINE
  8
DETAIL
  6
CONTINUOUS
 62
     5
 10
112.5
 20
314.03984489160013
 30
0.0
 11
14.5
 21
314.03984489160013
 31
0.0
  0
LINE
  8
DETAIL
  6
CONTINUOUS
 62
     5
 10
114.5
 20
302.7261363926998
 30
0.0
 11
125.59999999999989
 21
302.7261363926998
 31
0.0
  0
LINE
  8
DETAIL
  6
CONTINUOUS
 62
     5
 10
125.59999999999989
 20
296.36217536200019
 30
0.0
 11
114.5
 21
296.36217536200019
 31
0.0
  0
LINE
  8
DETAIL
  6
CONTINUOUS
 62
     5
 10
14.5
 20
291.41242789369988
 30
0.0
 11
112.5
 21
291.41242789369988
 31
0.0
  0
LINE
  8
DETAIL
  6
CONTINUOUS
 62
     5
 10
14.5
 20
288.23044737829991
 30
0.0
 11
112.5
 21
288.23044737829991
 31
0.0
  0
LINE
  8
DETAIL
  6
CONTINUOUS
 62
     5
 10
6.4000000000000909
 20
287.5233405970996
 30
0.0
 11
3.0000000000002269
 21
287.5233405970996
 31
0.0
  0
LINE
  8
DETAIL
  6
CONTINUOUS
 62
     5
 10
272.79816643869981
 20
69.078353809400369
 30
0.0
 11
272.90000000000009
 21
68.901972907299978
 31
0.0
  0
LINE
  8
DETAIL
  6
CONTINUOUS
 62
     5
 10
268.90000000000009
 20
58.901972907299978
 30
0.0
 11
269.00183356129992
 21
58.725592005300093
 31
0.0
  0
LINE
  8
DETAIL
  6
CONTINUOUS
 62
     5
 10
272.45341801260003
 20
-65.393555474800223
 30
0.0
 11
272.58841816450013
 21
-65.747045520700112
 31
0.0
  0
LINE
  8
DETAIL
  6
CONTINUOUS
 62
     5
 10
272.58841816450013
 20
-65.747045520700112
 30
0.0
 11
272.69936130209999
 21
-66.093914410300158
 31
0.0
  0
LINE
  8
DETAIL
  6
CONTINUOUS
 62
     5
 10
272.69936130209999
 20
-66.093914410300158
 30
0.0
 11
272.78640765720002
 21
-66.432935985799986
 31
0.0
  0
LINE
  8
DETAIL
  6
CONTINUOUS
 62
     5
 10
272.78640765720002
 20
-66.432935985799986
 30
0.0
 11
272.84907653429991
 21
-66.767788720200087
 31
0.0
  0
LINE
  8
DETAIL
  6
CONTINUOUS
 62
     5
 10
272.84907653429991
 20
-66.767788720200087
 30
0.0
 11
272.88688723799987
 21
-67.102151086500044
 31
0.0
  0
LINE
  8
DETAIL
  6
CONTINUOUS
 62
     5
 10
272.88688723799987
 20
-67.102151086500044
 30
0.0
 11
272.90000000000009
 21
-67.434796927100024
 31
0.0
  0
LINE
  8
DETAIL
  6
CONTINUOUS
 62
     5
 10
288.69838106930001
 20
-87.82559315559979
 30
0.0
 11
288.62859643910002
 21
-87.614358914600189
 31
0.0
  0
LINE
  8
DETAIL
  6
CONTINUOUS
 62
     5
 10
288.62859643910002
 20
-87.614358914600189
 30
0.0
 11
288.41503402050012
 21
-87.409686229000044
 31
0.0
  0
LINE
  8
DETAIL
  6
CONTINUOUS
 62
     5
 10
288.41503402050012
 20
-87.409686229000044
 30
0.0
 11
288.07031939779989
 21
-87.217368399599991
 31
0.0
  0
LINE
  8
DETAIL
  6
CONTINUOUS
 62
     5
 10
288.07031939779989
 20
-87.217368399599991
 30
0.0
 11
287.59916870979993
 21
-87.043943816000365
 31
0.0
  0
LINE
  8
DETAIL
  6
CONTINUOUS
 62
     5
 10
287.59916870979993
 20
-87.043943816000365
 30
0.0
 11
287.02110176550008
 21
-86.893738766600336
 31
0.0
  0
LINE
  8
DETAIL
  6
CONTINUOUS
 62
     5
 10
287.02110176550008
 20
-86.893738766600336
 30
0.0
 11
286.34919053459998
 21
-86.772479849200181
 31
0.0
  0
LINE
  8
DETAIL
  6
CONTINUOUS
 62
     5
 10
286.34919053459998
 20
-86.772479849200181
 30
0.0
 11
285.60885421490002
 21
-86.682669451899756
 31
0.0
  0
LINE
  8
DETAIL
  6
CONTINUOUS
 62
     5
 10
125.59999999999989
 20
273.73475836399962
 30
0.0
 11
14.5
 21
273.73475836399962
 31
0.0
  0
LINE
  8
DETAIL
  6
CONTINUOUS
 62
     5
 10
14.5
 20
257.82485578730012
 30
0.0
 11
10.0
 21
257.82485578730012
 31
0.0
  0
LINE
  8
DETAIL
  6
CONTINUOUS
 62
     5
 10
16.400000000000091
 20
245.8040405070999
 30
0.0
 11
13.0
 21
245.8040405070999
 31
0.0
  0
LINE
  8
DETAIL
  6
CONTINUOUS
 62
     5
 10
272.4534180126002
 20
69.478748265599961
 30
0.0
 11
272.5888679136001
 21
69.348828225600073
 31
0.0
  0
LINE
  8
DETAIL
  6
CONTINUOUS
 62
     5
 10
272.5888679136001
 20
69.348828225600073
 30
0.0
 11
272.70000164600037
 21
69.221589019400426
 31
0.0
  0
LINE
  8
DETAIL
  6
CONTINUOUS
 62
     5
 10
272.70000164600037
 20
69.221589019400426
 30
0.0
 11
272.78690514050032
 21
69.097520552600372
 31
0.0
  0
LINE
  8
DETAIL
  6
CONTINUOUS
 62
     5
 10
272.78690514050032
 20
69.097520552600372
 30
0.0
 11
272.79828756830011
 21
69.078358506499853
 31
0.0
  0
LINE
  8
DETAIL
  6
CONTINUOUS
 62
     5
 10
269.34658198739999
 20
58.325197548999988
 30
0.0
 11
269.21113766500002
 21
58.455110395700331
 31
0.0
  0
LINE
  8
DETAIL
  6
CONTINUOUS
 62
     5
 10
269.21113766500002
 20
58.455110395700331
 30
0.0
 11
269.10000564130002
 21
58.582347569500371
 31
0.0
  0
LINE
  8
DETAIL
  6
CONTINUOUS
 62
     5
 10
269.10000564130002
 20
58.582347569500371
 30
0.0
 11
269.0130984499001
 21
58.706421305600323
 31
0.0
  0
LINE
  8
DETAIL
  6
CONTINUOUS
 62
     5
 10
269.0130984499001
 20
58.706421305600323
 30
0.0
 11
269.00171353460019
 21
58.725587350900007
 31
0.0
  0
LINE
  8
DETAIL
  6
CONTINUOUS
 62
     5
 10
272.79830159509987
 20
-65.793944690199851
 30
0.0
 11
272.7868811623996
 21
-65.774720287900209
 31
0.0
  0
LINE
  8
DETAIL
  6
CONTINUOUS
 62
     5
 10
272.7868811623996
 20
-65.774720287900209
 30
0.0
 11
272.70000901499998
 21
-65.650724050099825
 31
0.0
  0
LINE
  8
DETAIL
  6
CONTINUOUS
 62
     5
 10
272.70000901499998
 20
-65.650724050099825
 30
0.0
 11
272.58887968989978
 21
-65.523497655400433
 31
0.0
  0
LINE
  8
DETAIL
  6
CONTINUOUS
 62
     5
 10
272.58887968989978
 20
-65.523497655400433
 30
0.0
 11
272.45341801260003
 21
-65.393555474800223
 31
0.0
  0
LINE
  8
DETAIL
  6
CONTINUOUS
 62
     5
 10
272.79816643869981
 20
-65.79394993100027
 30
0.0
 11
272.90000000000009
 21
-65.970330833099752
 31
0.0
  0
LINE
  8
DETAIL
  6
CONTINUOUS
 62
     5
 10
268.90000000000009
 20
-75.970330833099752
 30
0.0
 11
269.00183356129992
 21
-76.146711735100098
 31
0.0
  0
LINE
  8
DETAIL
  6
CONTINUOUS
 62
     5
 10
282.5014025511
 20
-87.82559315559979
 30
0.0
 11
282.53760813169993
 21
-87.911982139100246
 31
0.0
  0
LINE
  8
DETAIL
  6
CONTINUOUS
 62
     5
 10
282.53760813169993
 20
-87.911982139100246
 30
0.0
 11
282.64981035300002
 21
-87.993881715299949
 31
0.0
  0
LINE
  8
DETAIL
  6
CONTINUOUS
 62
     5
 10
282.64981035300002
 20
-87.993881715299949
 30
0.0
 11
282.82725277629987
 21
-88.067649708299768
 31
0.0
  0
LINE
  8
DETAIL
  6
CONTINUOUS
 62
     5
 10
282.82725277629987
 20
-88.067649708299768
 30
0.0
 11
283.06563977349992
 21
-88.128838661899636
 31
0.0
  0
LINE
  8
DETAIL
  6
CONTINUOUS
 62
     5
 10
283.06563977349992
 20
-88.128838661899636
 30
0.0
 11
283.34917439129998
 21
-88.175375008699802
 31
0.0
  0
LINE
  8
DETAIL
  6
CONTINUOUS
 62
     5
 10
283.34917439129998
 20
-88.175375008699802
 30
0.0
 11
283.65847419639999
 21
-88.203258189200142
 31
0.0
  0
LINE
  8
DETAIL
  6
CONTINUOUS
 62
     5
 10
283.65847419639999
 20
-88.203258189200142
 30
0.0
 11
284.0
 21
-88.213821723199771
 31
0.0
  0
LINE
  8
DETAIL
  6
CONTINUOUS
 62
     5
 10
269.00169954009971
 20
-76.146716932000118
 30
0.0
 11
269.01312272889982
 21
-76.165945767599851
 31
0.0
  0
LINE
  8
DETAIL
  6
CONTINUOUS
 62
     5
 10
269.01312272889982
 20
-76.165945767599851
 30
0.0
 11
269.09999872849988
 21
-76.289947419399823
 31
0.0
  0
LINE
  8
DETAIL
  6
CONTINUOUS
 62
     5
 10
269.09999872849988
 20
-76.289947419399823
 30
0.0
 11
269.21112622089998
 21
-76.417171613199798
 31
0.0
  0
LINE
  8
DETAIL
  6
CONTINUOUS
 62
     5
 10
269.21112622089998
 20
-76.417171613199798
 30
0.0
 11
269.34658198739999
 21
-76.54710619129969
 31
0.0
  0
LINE
  8
DETAIL
  6
CONTINUOUS
 62
     5
 10
154.19830045980009
 20
76.146716932000118
 30
0.0
 11
154.1868772711
 21
76.165945767600306
 31
0.0
  0
LINE
  8
DETAIL
  6
CONTINUOUS
 62
     5
 10
154.1868772711
 20
76.165945767600306
 30
0.0
 11
154.10000127140029
 21
76.289947419400278
 31
0.0
  0
LINE
  8
DETAIL
  6
CONTINUOUS
 62
     5
 10
154.10000127140029
 20
76.289947419400278
 30
0.0
 11
153.98887377900019
 21
76.417171613200253
 31
0.0
  0
LINE
  8
DETAIL
  6
CONTINUOUS
 62
     5
 10
153.98887377900019
 20
76.417171613200253
 30
0.0
 11
153.8534180125998
 21
76.547106191400189
 31
0.0
  0
LINE
  8
DETAIL
  6
CONTINUOUS
 62
     5
 10
150.40169840489989
 20
65.793944690199851
 30
0.0
 11
150.41311883750021
 21
65.774720288000253
 31
0.0
  0
LINE
  8
DETAIL
  6
CONTINUOUS
 62
     5
 10
150.41311883750021
 20
65.774720288000253
 30
0.0
 11
150.4999909850003
 21
65.65072405010028
 31
0.0
  0
LINE
  8
DETAIL
  6
CONTINUOUS
 62
     5
 10
150.4999909850003
 20
65.65072405010028
 30
0.0
 11
150.61112031010001
 21
65.523497655500023
 31
0.0
  0
LINE
  8
DETAIL
  6
CONTINUOUS
 62
     5
 10
150.61112031010001
 20
65.523497655500023
 30
0.0
 11
150.74658198740011
 21
65.393555474900268
 31
0.0
  0
LINE
  8
DETAIL
  6
CONTINUOUS
 62
     5
 10
154.30000000000021
 20
75.970330833100206
 30
0.0
 11
154.1981664386999
 21
76.146711735199688
 31
0.0
  0
LINE
  8
DETAIL
  6
CONTINUOUS
 62
     5
 10
150.40183356130001
 20
65.79394993109986
 30
0.0
 11
150.30000000000021
 21
65.970330833100206
 31
0.0
  0
LINE
  8
DETAIL
  6
CONTINUOUS
 62
     5
 10
150.74658198740011
 20
65.393555474900268
 30
0.0
 11
150.6115818354001
 21
65.747045520799702
 31
0.0
  0
LINE
  8
DETAIL
  6
CONTINUOUS
 62
     5
 10
150.6115818354001
 20
65.747045520799702
 30
0.0
 11
150.50063869780001
 21
66.093914410299703
 31
0.0
  0
LINE
  8
DETAIL
  6
CONTINUOUS
 62
     5
 10
150.50063869780001
 20
66.093914410299703
 30
0.0
 11
150.4135923428
 21
66.432935985799531
 31
0.0
  0
LINE
  8
DETAIL
  6
CONTINUOUS
 62
     5
 10
150.4135923428
 20
66.432935985799531
 30
0.0
 11
150.35092346560009
 21
66.767788720199633
 31
0.0
  0
LINE
  8
DETAIL
  6
CONTINUOUS
 62
     5
 10
150.35092346560009
 20
66.767788720199633
 30
0.0
 11
150.3131127620002
 21
67.102151086600088
 31
0.0
  0
LINE
  8
DETAIL
  6
CONTINUOUS
 62
     5
 10
150.3131127620002
 20
67.102151086600088
 30
0.0
 11
150.30000000000021
 21
67.434796927200068
 31
0.0
  0
LINE
  8
DETAIL
  6
CONTINUOUS
 62
     5
 10
150.74658198740011
 20
75.052813737799852
 30
0.0
 11
150.6111320863001
 21
75.182733777699696
 31
0.0
  0
LINE
  8
DETAIL
  6
CONTINUOUS
 62
     5
 10
150.6111320863001
 20
75.182733777699696
 30
0.0
 11
150.49999835390011
 21
75.309972983999842
 31
0.0
  0
LINE
  8
DETAIL
  6
CONTINUOUS
 62
     5
 10
150.49999835390011
 20
75.309972983999842
 30
0.0
 11
150.41309485950001
 21
75.434041450799896
 31
0.0
  0
LINE
  8
DETAIL
  6
CONTINUOUS
 62
     5
 10
150.41309485950001
 20
75.434041450799896
 30
0.0
 11
150.3506793949002
 21
75.556408895399954
 31
0.0
  0
LINE
  8
DETAIL
  6
CONTINUOUS
 62
     5
 10
150.3506793949002
 20
75.556408895399954
 30
0.0
 11
150.3130097518999
 21
75.678545035299749
 31
0.0
  0
LINE
  8
DETAIL
  6
CONTINUOUS
 62
     5
 10
150.3130097518999
 20
75.678545035299749
 30
0.0
 11
150.30000000000021
 21
75.799959964599793
 31
0.0
  0
LINE
  8
DETAIL
  6
CONTINUOUS
 62
     5
 10
272.45341801260003
 20
-75.052813737699807
 30
0.0
 11
272.5888679136001
 21
-75.182733777600106
 31
0.0
  0
LINE
  8
DETAIL
  6
CONTINUOUS
 62
     5
 10
272.5888679136001
 20
-75.182733777600106
 30
0.0
 11
272.70000164599992
 21
-75.309972983899797
 31
0.0
  0
LINE
  8
DETAIL
  6
CONTINUOUS
 62
     5
 10
272.70000164599992
 20
-75.309972983899797
 30
0.0
 11
272.78690514049998
 21
-75.434041450699851
 31
0.0
  0
LINE
  8
DETAIL
  6
CONTINUOUS
 62
     5
 10
272.78690514049998
 20
-75.434041450699851
 30
0.0
 11
272.84932060509982
 21
-75.55640889529991
 31
0.0
  0
LINE
  8
DETAIL
  6
CONTINUOUS
 62
     5
 10
272.84932060509982
 20
-75.55640889529991
 30
0.0
 11
272.88699024810012
 21
-75.678545035200159
 31
0.0
  0
LINE
  8
DETAIL
  6
CONTINUOUS
 62
     5
 10
272.88699024810012
 20
-75.678545035200159
 30
0.0
 11
272.90000000000009
 21
-75.799959964499749
 31
0.0
  0
LINE
  8
DETAIL
  6
CONTINUOUS
 62
     5
 10
279.45890539399988
 20
-88.622193045199992
 30
0.0
 11
279.37140356079999
 21
-88.519790309700284
 31
0.0
  0
LINE
  8
DETAIL
  6
CONTINUOUS
 62
     5
 10
279.37140356079999
 20
-88.519790309700284
 30
0.0
 11
279.30000000000001
 21
-88.308556068699772
 31
0.0
  0
LINE
  8
DETAIL
  6
CONTINUOUS
 62
     5
 10
150.74658198740011
 20
-62.407680453599603
 30
0.0
 11
150.6115818354001
 21
-62.054190407700162
 31
0.0
  0
LINE
  8
DETAIL
  6
CONTINUOUS
 62
     5
 10
150.6115818354001
 20
-62.054190407700162
 30
0.0
 11
150.50063869779979
 21
-61.707321518199713
 31
0.0
  0
LINE
  8
DETAIL
  6
CONTINUOUS
 62
     5
 10
150.50063869779979
 20
-61.707321518199713
 30
0.0
 11
150.4135923427998
 21
-61.368299942699878
 31
0.0
  0
LINE
  8
DETAIL
  6
CONTINUOUS
 62
     5
 10
150.4135923427998
 20
-61.368299942699878
 30
0.0
 11
150.35092346559961
 21
-61.033447208299783
 31
0.0
  0
LINE
  8
DETAIL
  6
CONTINUOUS
 62
     5
 10
150.35092346559961
 20
-61.033447208299783
 30
0.0
 11
150.31311276199969
 21
-60.699084841899783
 31
0.0
  0
LINE
  8
DETAIL
  6
CONTINUOUS
 62
     5
 10
150.31311276199969
 20
-60.699084841899783
 30
0.0
 11
150.2999999999997
 21
-60.366439001299803
 31
0.0
  0
LINE
  8
DETAIL
  6
CONTINUOUS
 62
     5
 10
279.45890539399988
 20
-88.622193045199992
 30
0.0
 11
279.83993164909998
 21
-88.963783237200232
 31
0.0
  0
LINE
  8
DETAIL
  6
CONTINUOUS
 62
     5
 10
279.83993164909998
 20
-88.963783237200232
 30
0.0
 11
280.23332611059982
 21
-89.265114177499754
 31
0.0
  0
LINE
  8
DETAIL
  6
CONTINUOUS
 62
     5
 10
280.23332611059982
 20
-89.265114177499754
 30
0.0
 11
280.6330701423999
 21
-89.526460231299779
 31
0.0
  0
LINE
  8
DETAIL
  6
CONTINUOUS
 62
     5
 10
280.6330701423999
 20
-89.526460231299779
 30
0.0
 11
281.03535676920001
 21
-89.749966909100067
 31
0.0
  0
LINE
  8
DETAIL
  6
CONTINUOUS
 62
     5
 10
281.03535676920001
 20
-89.749966909100067
 30
0.0
 11
281.43475404589981
 21
-89.937032199899704
 31
0.0
  0
LINE
  8
DETAIL
  6
CONTINUOUS
 62
     5
 10
281.43475404589981
 20
-89.937032199899704
 30
0.0
 11
281.83179617559972
 21
-90.091733425000029
 31
0.0
  0
LINE
  8
DETAIL
  6
CONTINUOUS
 62
     5
 10
281.83179617559972
 20
-90.091733425000029
 30
0.0
 11
282.23202141979982
 21
-90.218472618699934
 31
0.0
  0
LINE
  8
DETAIL
  6
CONTINUOUS
 62
     5
 10
154.2999999999997
 20
-58.901972907199927
 30
0.0
 11
154.1981664386999
 21
-58.725592005200042
 31
0.0
  0
LINE
  8
DETAIL
  6
CONTINUOUS
 62
     5
 10
150.40183356130001
 20
-69.07835380929987
 30
0.0
 11
150.2999999999997
 21
-68.901972907199934
 31
0.0
  0
LINE
  8
DETAIL
  6
CONTINUOUS
 62
     5
 10
150.40171243169991
 20
-69.078358506399809
 30
0.0
 11
150.3506793949
 21
-68.975153107800224
 31
0.0
  0
LINE
  8
DETAIL
  6
CONTINUOUS
 62
     5
 10
150.3506793949
 20
-68.975153107800224
 30
0.0
 11
150.3130097518997
 21
-68.853016967999565
 31
0.0
  0
LINE
  8
DETAIL
  6
CONTINUOUS
 62
     5
 10
150.3130097518997
 20
-68.853016967999565
 30
0.0
 11
150.2999999999997
 21
-68.731602038699975
 31
0.0
  0
LINE
  8
DETAIL
  6
CONTINUOUS
 62
     5
 10
112.5
 20
291.41242789369988
 30
0.0
 11
114.5
 21
292.82664145600012
 31
0.0
  0
LINE
  8
DETAIL
  6
CONTINUOUS
 62
     5
 10
114.5
 20
289.64466094070008
 30
0.0
 11
112.5
 21
288.23044737829991
 31
0.0
  0
LINE
  8
DETAIL
  6
CONTINUOUS
 62
     5
 10
267.90000000000009
 20
86.593393632300149
 30
0.0
 11
265.59999999999991
 21
86.593393632300149
 31
0.0
  0
LINE
  8
DETAIL
  6
CONTINUOUS
 62
     5
 10
155.30000000000021
 20
86.593393632300149
 30
0.0
 11
157.59999999999991
 21
86.593393632300149
 31
0.0
  0
LINE
  8
DETAIL
  6
CONTINUOUS
 62
     5
 10
153.0000000000002
 20
83.900000000000318
 30
0.0
 11
125.40000000000011
 21
83.900000000000318
 31
0.0
  0
LINE
  8
DETAIL
  6
CONTINUOUS
 62
     5
 10
270.20000000000027
 20
83.900000000000318
 30
0.0
 11
297.80000000000001
 21
83.900000000000318
 31
0.0
  0
LINE
  8
DETAIL
  6
CONTINUOUS
 62
     5
 10
154.30000000000021
 20
79.970330833100206
 30
0.0
 11
155.30000000000021
 21
79.970330833100206
 31
0.0
  0
LINE
  8
DETAIL
  6
CONTINUOUS
 62
     5
 10
195.59999999999991
 20
77.441627568800186
 30
0.0
 11
227.59999999999991
 21
77.441627568800186
 31
0.0
  0
LINE
  8
DETAIL
  6
CONTINUOUS
 62
     5
 10
284.69150288769993
 20
-85.589888037200353
 30
0.0
 11
284.54253554859997
 21
-85.492966373099762
 31
0.0
  0
LINE
  8
DETAIL
  6
CONTINUOUS
 62
     5
 10
284.54253554859997
 20
-85.492966373099762
 30
0.0
 11
284.40420707280009
 21
-85.37070123189983
 31
0.0
  0
LINE
  8
DETAIL
  6
CONTINUOUS
 62
     5
 10
284.40420707280009
 20
-85.37070123189983
 30
0.0
 11
284.28060525599989
 21
-85.217625362300396
 31
0.0
  0
LINE
  8
DETAIL
  6
CONTINUOUS
 62
     5
 10
284.28060525599989
 20
-85.217625362300396
 30
0.0
 11
284.18326814040012
 21
-85.037285073199882
 31
0.0
  0
LINE
  8
DETAIL
  6
CONTINUOUS
 62
     5
 10
284.18326814040012
 20
-85.037285073199882
 30
0.0
 11
284.12162427819999
 21
-84.83888586829994
 31
0.0
  0
LINE
  8
DETAIL
  6
CONTINUOUS
 62
     5
 10
284.12162427819999
 20
-84.83888586829994
 30
0.0
 11
284.09999999999991
 21
-84.626646482199931
 31
0.0
  0
LINE
  8
DETAIL
  6
CONTINUOUS
 62
     5
 10
153.8534180125996
 20
-58.325197548999988
 30
0.0
 11
153.98886233499979
 21
-58.455110395599831
 31
0.0
  0
LINE
  8
DETAIL
  6
CONTINUOUS
 62
     5
 10
153.98886233499979
 20
-58.455110395599831
 30
0.0
 11
154.09999435859979
 21
-58.582347569399872
 31
0.0
  0
LINE
  8
DETAIL
  6
CONTINUOUS
 62
     5
 10
154.09999435859979
 20
-58.582347569399872
 30
0.0
 11
154.1869015499999
 21
-58.706421305599861
 31
0.0
  0
LINE
  8
DETAIL
  6
CONTINUOUS
 62
     5
 10
154.1869015499999
 20
-58.706421305599861
 30
0.0
 11
154.19828646529979
 21
-58.725587350799969
 31
0.0
  0
LINE
  8
DETAIL
  6
CONTINUOUS
 62
     5
 10
150.74658198740011
 20
-69.478748265499917
 30
0.0
 11
150.6111320862999
 21
-69.348828225499574
 31
0.0
  0
LINE
  8
DETAIL
  6
CONTINUOUS
 62
     5
 10
150.6111320862999
 20
-69.348828225499574
 30
0.0
 11
150.49999835390011
 21
-69.221589019299927
 31
0.0
  0
LINE
  8
DETAIL
  6
CONTINUOUS
 62
     5
 10
150.49999835390011
 20
-69.221589019299927
 30
0.0
 11
150.41309485949981
 21
-69.097520552499873
 31
0.0
  0
LINE
  8
DETAIL
  6
CONTINUOUS
 62
     5
 10
150.41309485949981
 20
-69.097520552499873
 30
0.0
 11
150.40171243169991
 21
-69.078358506399809
 31
0.0
  0
LINE
  8
DETAIL
  6
CONTINUOUS
 62
     5
 10
153.8534180125998
 20
76.547106191400189
 30
0.0
 11
150.74658198740011
 21
76.547106191400189
 31
0.0
  0
LINE
  8
DETAIL
  6
CONTINUOUS
 62
     5
 10
306.96217782649978
 20
75.299999999999955
 30
0.0
 11
305.59999999999991
 21
75.299999999999955
 31
0.0
  0
LINE
  8
DETAIL
  6
CONTINUOUS
 62
     5
 10
153.8534180125998
 20
75.052813737799852
 30
0.0
 11
150.74658198740011
 21
75.052813737799852
 31
0.0
  0
LINE
  8
DETAIL
  6
CONTINUOUS
 62
     5
 10
267.90000000000009
 20
72.901972907299978
 30
0.0
 11
268.90000000000009
 21
72.901972907299978
 31
0.0
  0
LINE
  8
DETAIL
  6
CONTINUOUS
 62
     5
 10
308.54705825790012
 20
70.799999999999955
 30
0.0
 11
308.90000000000009
 21
70.799999999999955
 31
0.0
  0
LINE
  8
DETAIL
  6
CONTINUOUS
 62
     5
 10
269.34658198739999
 20
69.478748265599961
 30
0.0
 11
272.4534180126002
 21
69.478748265599961
 31
0.0
  0
LINE
  8
DETAIL
  6
CONTINUOUS
 62
     5
 10
153.8534180125998
 20
69.476038379500324
 30
0.0
 11
150.74658198740011
 21
69.476038379500324
 31
0.0
  0
LINE
  8
DETAIL
  6
CONTINUOUS
 62
     5
 10
269.34658198739999
 20
67.984455811900034
 30
0.0
 11
272.4534180126002
 21
67.984455811900034
 31
0.0
  0
LINE
  8
DETAIL
  6
CONTINUOUS
 62
     5
 10
306.96217782649978
 20
66.299999999999955
 30
0.0
 11
305.59999999999991
 21
66.299999999999955
 31
0.0
  0
LINE
  8
DETAIL
  6
CONTINUOUS
 62
     5
 10
153.8534180125998
 20
65.393555474900268
 30
0.0
 11
150.74658198740011
 21
65.393555474900268
 31
0.0
  0
LINE
  8
DETAIL
  6
CONTINUOUS
 62
     5
 10
269.34658198739999
 20
62.407680453700102
 30
0.0
 11
272.4534180126002
 21
62.407680453700102
 31
0.0
  0
LINE
  8
DETAIL
  6
CONTINUOUS
 62
     5
 10
154.30000000000021
 20
61.970330833100213
 30
0.0
 11
155.30000000000021
 21
61.970330833100213
 31
0.0
  0
LINE
  8
DETAIL
  6
CONTINUOUS
 62
     5
 10
269.34658198739999
 20
58.325197548999988
 30
0.0
 11
272.4534180126002
 21
58.325197548999988
 31
0.0
  0
LINE
  8
DETAIL
  6
CONTINUOUS
 62
     5
 10
267.90000000000009
 20
54.901972907299978
 30
0.0
 11
268.90000000000009
 21
54.901972907299978
 31
0.0
  0
LINE
  8
DETAIL
  6
CONTINUOUS
 62
     5
 10
305.90000000000009
 20
33.200000000000053
 30
0.0
 11
305.59999999999991
 21
33.200000000000053
 31
0.0
  0
LINE
  8
DETAIL
  6
CONTINUOUS
 62
     5
 10
308.80000000000001
 20
25.799999999999951
 30
0.0
 11
308.59999999999991
 21
25.799999999999951
 31
0.0
  0
LINE
  8
DETAIL
  6
CONTINUOUS
 62
     5
 10
282.23202141979982
 20
-90.218472618699934
 30
0.0
 11
282.61857527939992
 21
-90.314689599599888
 31
0.0
  0
LINE
  8
DETAIL
  6
CONTINUOUS
 62
     5
 10
130.6915028876997
 20
-85.589888037200353
 30
0.0
 11
131.03318773149999
 21
-85.770509487699883
 31
0.0
  0
LINE
  8
DETAIL
  6
CONTINUOUS
 62
     5
 10
131.03318773149999
 20
-85.770509487699883
 30
0.0
 11
131.3860959773001
 21
-85.935692401600363
 31
0.0
  0
LINE
  8
DETAIL
  6
CONTINUOUS
 62
     5
 10
131.3860959773001
 20
-85.935692401600363
 30
0.0
 11
131.75345203709981
 21
-86.086095850899937
 31
0.0
  0
LINE
  8
DETAIL
  6
CONTINUOUS
 62
     5
 10
131.75345203709981
 20
-86.086095850899937
 30
0.0
 11
132.11906671509971
 21
-86.215243289499767
 31
0.0
  0
LINE
  8
DETAIL
  6
CONTINUOUS
 62
     5
 10
132.11906671509971
 20
-86.215243289499767
 30
0.0
 11
132.46613717359989
 21
-86.31981923230046
 31
0.0
  0
LINE
  8
DETAIL
  6
CONTINUOUS
 62
     5
 10
132.46613717359989
 20
-86.31981923230046
 30
0.0
 11
132.79663811969999
 21
-86.403748225099889
 31
0.0
  0
LINE
  8
DETAIL
  6
CONTINUOUS
 62
     5
 10
132.79663811969999
 20
-86.403748225099889
 30
0.0
 11
133.10678070259971
 21
-86.469063318799954
 31
0.0
  0
LINE
  8
DETAIL
  6
CONTINUOUS
 62
     5
 10
133.10678070259971
 20
-86.469063318799954
 30
0.0
 11
133.39838459029991
 21
-86.518897930199955
 31
0.0
  0
LINE
  8
DETAIL
  6
CONTINUOUS
 62
     5
 10
133.39838459029991
 20
-86.518897930199955
 30
0.0
 11
133.67528161569999
 21
-86.556031376299643
 31
0.0
  0
LINE
  8
DETAIL
  6
CONTINUOUS
 62
     5
 10
133.67528161569999
 20
-86.556031376299643
 30
0.0
 11
133.93259346769989
 21
-86.58176713350008
 31
0.0
  0
LINE
  8
DETAIL
  6
CONTINUOUS
 62
     5
 10
133.93259346769989
 20
-86.58176713350008
 30
0.0
 11
134.17652398969969
 21
-86.598439003599879
 31
0.0
  0
LINE
  8
DETAIL
  6
CONTINUOUS
 62
     5
 10
134.17652398969969
 20
-86.598439003599879
 30
0.0
 11
134.4049567173997
 21
-86.607277238899997
 31
0.0
  0
LINE
  8
DETAIL
  6
CONTINUOUS
 62
     5
 10
19.05341801259965
 20
-271.90866718980061
 30
0.0
 11
19.188089248899811
 21
-272.40700502210012
 31
0.0
  0
LINE
  8
DETAIL
  6
CONTINUOUS
 62
     5
 10
19.188089248899811
 20
-272.40700502210012
 30
0.0
 11
19.29891283539996
 21
-272.89693492980058
 31
0.0
  0
LINE
  8
DETAIL
  6
CONTINUOUS
 62
     5
 10
19.29891283539996
 20
-272.89693492980058
 30
0.0
 11
19.386121939699709
 21
-273.37702921139982
 31
0.0
  0
LINE
  8
DETAIL
  6
CONTINUOUS
 62
     5
 10
19.386121939699709
 20
-273.37702921139982
 30
0.0
 11
19.449017058800109
 21
-273.85157097109942
 31
0.0
  0
LINE
  8
DETAIL
  6
CONTINUOUS
 62
     5
 10
19.449017058800109
 20
-273.85157097109942
 30
0.0
 11
19.486898689699959
 21
-274.32484331309962
 31
0.0
  0
LINE
  8
DETAIL
  6
CONTINUOUS
 62
     5
 10
19.486898689699959
 20
-274.32484331309962
 30
0.0
 11
19.5
 21
-274.79541853600062
 31
0.0
  0
LINE
  8
DETAIL
  6
CONTINUOUS
 62
     5
 10
308.80000000000001
 20
-25.799999999999951
 30
0.0
 11
308.59999999999991
 21
-25.799999999999951
 31
0.0
  0
LINE
  8
DETAIL
  6
CONTINUOUS
 62
     5
 10
305.90000000000009
 20
-33.200000000000053
 30
0.0
 11
305.59999999999991
 21
-33.200000000000053
 31
0.0
  0
LINE
  8
DETAIL
  6
CONTINUOUS
 62
     5
 10
287.50368483030002
 20
-86.534179993699809
 30
0.0
 11
287.24670302220011
 21
-86.494361099399839
 31
0.0
  0
LINE
  8
DETAIL
  6
CONTINUOUS
 62
     5
 10
287.24670302220011
 20
-86.494361099399839
 30
0.0
 11
286.98020193840011
 21
-86.44395506629985
 31
0.0
  0
LINE
  8
DETAIL
  6
CONTINUOUS
 62
     5
 10
286.98020193840011
 20
-86.44395506629985
 30
0.0
 11
286.7121210549999
 21
-86.383708995000006
 31
0.0
  0
LINE
  8
DETAIL
  6
CONTINUOUS
 62
     5
 10
286.7121210549999
 20
-86.383708995000006
 30
0.0
 11
286.44023318220002
 21
-86.312603171099681
 31
0.0
  0
LINE
  8
DETAIL
  6
CONTINUOUS
 62
     5
 10
286.44023318220002
 20
-86.312603171099681
 30
0.0
 11
286.16500511989989
 21
-86.230075109099971
 31
0.0
  0
LINE
  8
DETAIL
  6
CONTINUOUS
 62
     5
 10
286.16500511989989
 20
-86.230075109099971
 30
0.0
 11
285.88487617989989
 21
-86.134819835499684
 31
0.0
  0
LINE
  8
DETAIL
  6
CONTINUOUS
 62
     5
 10
285.88487617989989
 20
-86.134819835499684
 30
0.0
 11
285.5986200497
 21
-86.025295318999952
 31
0.0
  0
LINE
  8
DETAIL
  6
CONTINUOUS
 62
     5
 10
285.5986200497
 20
-86.025295318999952
 30
0.0
 11
285.30500013739987
 21
-85.899578111199617
 31
0.0
  0
LINE
  8
DETAIL
  6
CONTINUOUS
 62
     5
 10
285.30500013739987
 20
-85.899578111199617
 30
0.0
 11
285.0016814347
 21
-85.754730613499987
 31
0.0
  0
LINE
  8
DETAIL
  6
CONTINUOUS
 62
     5
 10
285.0016814347
 20
-85.754730613499987
 30
0.0
 11
284.69150288769993
 21
-85.589888037200353
 31
0.0
  0
LINE
  8
DETAIL
  6
CONTINUOUS
 62
     5
 10
282.61857527939992
 20
-90.314689599599888
 30
0.0
 11
282.98449757110012
 21
-90.38311857299982
 31
0.0
  0
LINE
  8
DETAIL
  6
CONTINUOUS
 62
     5
 10
282.98449757110012
 20
-90.38311857299982
 30
0.0
 11
283.33114765620007
 21
-90.428272023299769
 31
0.0
  0
LINE
  8
DETAIL
  6
CONTINUOUS
 62
     5
 10
283.33114765620007
 20
-90.428272023299769
 30
0.0
 11
283.66323110640002
 21
-90.453956711899764
 31
0.0
  0
LINE
  8
DETAIL
  6
CONTINUOUS
 62
     5
 10
283.66323110640002
 20
-90.453956711899764
 30
0.0
 11
284.0
 21
-90.462656519299571
 31
0.0
  0
LINE
  8
DETAIL
  6
CONTINUOUS
 62
     5
 10
19.386798040500029
 20
-269.75821338949959
 30
0.0
 11
19.449387319299831
 21
-269.9950994618996
 31
0.0
  0
LINE
  8
DETAIL
  6
CONTINUOUS
 62
     5
 10
19.449387319299831
 20
-269.9950994618996
 30
0.0
 11
19.487072422999741
 21
-270.23104882590007
 31
0.0
  0
LINE
  8
DETAIL
  6
CONTINUOUS
 62
     5
 10
19.487072422999741
 20
-270.23104882590007
 30
0.0
 11
19.5
 21
-270.46529151690021
 31
0.0
  0
LINE
  8
DETAIL
  6
CONTINUOUS
 62
     5
 10
154.2999999999997
 20
-54.901972907199927
 30
0.0
 11
155.2999999999997
 21
-54.901972907199927
 31
0.0
  0
LINE
  8
DETAIL
  6
CONTINUOUS
 62
     5
 10
153.8534180125996
 20
-58.325197548999988
 30
0.0
 11
150.74658198740011
 21
-58.325197548999988
 31
0.0
  0
LINE
  8
DETAIL
  6
CONTINUOUS
 62
     5
 10
267.90000000000009
 20
-61.970330833099752
 30
0.0
 11
268.90000000000009
 21
-61.970330833099752
 31
0.0
  0
LINE
  8
DETAIL
  6
CONTINUOUS
 62
     5
 10
153.8534180125996
 20
-62.407680453599603
 30
0.0
 11
150.74658198740011
 21
-62.407680453599603
 31
0.0
  0
LINE
  8
DETAIL
  6
CONTINUOUS
 62
     5
 10
269.34658198739999
 20
-65.393555474800223
 30
0.0
 11
272.45341801260003
 21
-65.393555474800223
 31
0.0
  0
LINE
  8
DETAIL
  6
CONTINUOUS
 62
     5
 10
153.8534180125996
 20
-67.984455811900034
 30
0.0
 11
150.74658198740011
 21
-67.984455811900034
 31
0.0
  0
LINE
  8
DETAIL
  6
CONTINUOUS
 62
     5
 10
269.34658198739999
 20
-69.476038379399824
 30
0.0
 11
272.45341801260003
 21
-69.476038379399824
 31
0.0
  0
LINE
  8
DETAIL
  6
CONTINUOUS
 62
     5
 10
153.8534180125996
 20
-69.478748265499917
 30
0.0
 11
150.74658198740011
 21
-69.478748265499917
 31
0.0
  0
LINE
  8
DETAIL
  6
CONTINUOUS
 62
     5
 10
154.2999999999997
 20
-72.901972907199934
 30
0.0
 11
155.2999999999997
 21
-72.901972907199934
 31
0.0
  0
LINE
  8
DETAIL
  6
CONTINUOUS
 62
     5
 10
269.34658198739999
 20
-75.052813737699807
 30
0.0
 11
272.45341801260003
 21
-75.052813737699807
 31
0.0
  0
LINE
  8
DETAIL
  6
CONTINUOUS
 62
     5
 10
269.34658198739999
 20
-76.54710619129969
 30
0.0
 11
272.45341801260003
 21
-76.54710619129969
 31
0.0
  0
LINE
  8
DETAIL
  6
CONTINUOUS
 62
     5
 10
195.59999999999991
 20
-77.441627568699687
 30
0.0
 11
227.59999999999991
 21
-77.441627568699687
 31
0.0
  0
LINE
  8
DETAIL
  6
CONTINUOUS
 62
     5
 10
267.90000000000009
 20
-79.970330833099752
 30
0.0
 11
268.90000000000009
 21
-79.970330833099752
 31
0.0
  0
LINE
  8
DETAIL
  6
CONTINUOUS
 62
     5
 10
152.9999999999998
 20
-83.899999999999864
 30
0.0
 11
144.75944381389991
 21
-83.899999999999864
 31
0.0
  0
LINE
  8
DETAIL
  6
CONTINUOUS
 62
     5
 10
137.4789259602999
 20
-83.899999999999864
 30
0.0
 11
125.40000000000011
 21
-83.899999999999864
 31
0.0
  0
LINE
  8
DETAIL
  6
CONTINUOUS
 62
     5
 10
270.19999999999982
 20
-83.899999999999864
 30
0.0
 11
280.05496367109998
 21
-83.899999999999864
 31
0.0
  0
LINE
  8
DETAIL
  6
CONTINUOUS
 62
     5
 10
293.09999999999991
 20
-83.899999999999864
 30
0.0
 11
297.80000000000001
 21
-83.899999999999864
 31
0.0
  0
LINE
  8
DETAIL
  6
CONTINUOUS
 62
     5
 10
267.90000000000009
 20
-86.593393632300149
 30
0.0
 11
265.59999999999991
 21
-86.593393632300149
 31
0.0
  0
LINE
  8
DETAIL
  6
CONTINUOUS
 62
     5
 10
155.2999999999997
 20
-86.593393632300149
 30
0.0
 11
157.59999999999991
 21
-86.593393632300149
 31
0.0
  0
LINE
  8
DETAIL
  6
CONTINUOUS
 62
     5
 10
292.01497327720023
 20
-86.682669451899756
 30
0.0
 11
285.5
 21
-86.682669451899756
 31
0.0
  0
LINE
  8
DETAIL
  6
CONTINUOUS
 62
     5
 10
282.5
 20
-86.682669451899756
 30
0.0
 11
275.98502672270001
 21
-86.682669451899756
 31
0.0
  0
LINE
  8
DETAIL
  6
CONTINUOUS
 62
     5
 10
134.4049567173997
 20
-86.607277238899997
 30
0.0
 11
134.63075490360009
 21
-86.609595967700216
 31
0.0
  0
LINE
  8
DETAIL
  6
CONTINUOUS
 62
     5
 10
288.60734189099998
 20
-86.609651680799971
 30
0.0
 11
288.40288198169992
 21
-86.607226371700335
 31
0.0
  0
LINE
  8
DETAIL
  6
CONTINUOUS
 62
     5
 10
288.40288198169992
 20
-86.607226371700335
 30
0.0
 11
288.1940481708998
 21
-86.59934875049953
 31
0.0
  0
LINE
  8
DETAIL
  6
CONTINUOUS
 62
     5
 10
288.1940481708998
 20
-86.59934875049953
 30
0.0
 11
287.97529129560007
 21
-86.585226602300054
 31
0.0
  0
LINE
  8
DETAIL
  6
CONTINUOUS
 62
     5
 10
287.97529129560007
 20
-86.585226602300054
 30
0.0
 11
287.74676236620007
 21
-86.564024122599903
 31
0.0
  0
LINE
  8
DETAIL
  6
CONTINUOUS
 62
     5
 10
287.74676236620007
 20
-86.564024122599903
 30
0.0
 11
287.50368483030002
 21
-86.534179993699809
 31
0.0
  0
LINE
  8
DETAIL
  6
CONTINUOUS
 62
     5
 10
284.0
 20
-89.525005580699826
 30
0.0
 11
283.18385356489989
 21
-89.506524979299911
 31
0.0
  0
LINE
  8
DETAIL
  6
CONTINUOUS
 62
     5
 10
283.18385356489989
 20
-89.506524979299911
 30
0.0
 11
282.39250532630012
 21
-89.451644698699738
 31
0.0
  0
LINE
  8
DETAIL
  6
CONTINUOUS
 62
     5
 10
282.39250532630012
 20
-89.451644698699738
 30
0.0
 11
281.65000000000009
 21
-89.3620322485001
 31
0.0
  0
LINE
  8
DETAIL
  6
CONTINUOUS
 62
     5
 10
281.65000000000009
 20
-89.3620322485001
 30
0.0
 11
280.97889823439982
 21
-89.240410457700136
 31
0.0
  0
LINE
  8
DETAIL
  6
CONTINUOUS
 62
     5
 10
280.97889823439982
 20
-89.240410457700136
 30
0.0
 11
280.39959111730008
 21
-89.090474742800097
 31
0.0
  0
LINE
  8
DETAIL
  6
CONTINUOUS
 62
     5
 10
280.39959111730008
 20
-89.090474742800097
 30
0.0
 11
279.92968060220011
 21
-88.916780824700027
 31
0.0
  0
LINE
  8
DETAIL
  6
CONTINUOUS
 62
     5
 10
279.92968060220011
 20
-88.916780824700027
 30
0.0
 11
279.58344468230013
 21
-88.724606305200041
 31
0.0
  0
LINE
  8
DETAIL
  6
CONTINUOUS
 62
     5
 10
279.58344468230013
 20
-88.724606305200041
 30
0.0
 11
279.45890539399988
 21
-88.622193045199992
 31
0.0
  0
LINE
  8
DETAIL
  6
CONTINUOUS
 62
     5
 10
284.0
 20
-89.042042667599844
 30
0.0
 11
283.17201671539988
 21
-89.022596396400104
 31
0.0
  0
LINE
  8
DETAIL
  6
CONTINUOUS
 62
     5
 10
283.17201671539988
 20
-89.022596396400104
 30
0.0
 11
282.39250532630012
 21
-88.968681785599756
 31
0.0
  0
LINE
  8
DETAIL
  6
CONTINUOUS
 62
     5
 10
282.39250532630012
 20
-88.968681785599756
 30
0.0
 11
281.65080946529997
 21
-88.878706461999855
 31
0.0
  0
LINE
  8
DETAIL
  6
CONTINUOUS
 62
     5
 10
281.65080946529997
 20
-88.878706461999855
 30
0.0
 11
280.97889823439982
 21
-88.757447544600154
 31
0.0
  0
LINE
  8
DETAIL
  6
CONTINUOUS
 62
     5
 10
280.97889823439982
 20
-88.757447544600154
 30
0.0
 11
280.40083129020007
 21
-88.607242495200126
 31
0.0
  0
LINE
  8
DETAIL
  6
CONTINUOUS
 62
     5
 10
280.40083129020007
 20
-88.607242495200126
 30
0.0
 11
279.92968060220011
 21
-88.433817911600045
 31
0.0
  0
LINE
  8
DETAIL
  6
CONTINUOUS
 62
     5
 10
279.92968060220011
 20
-88.433817911600045
 30
0.0
 11
279.58496597949988
 21
-88.241500082099947
 31
0.0
  0
LINE
  8
DETAIL
  6
CONTINUOUS
 62
     5
 10
279.58496597949988
 20
-88.241500082099947
 30
0.0
 11
279.37140356079999
 21
-88.036827396600302
 31
0.0
  0
LINE
  8
DETAIL
  6
CONTINUOUS
 62
     5
 10
279.37140356079999
 20
-88.036827396600302
 30
0.0
 11
279.30161893059989
 21
-87.82559315559979
 31
0.0
  0
LINE
  8
DETAIL
  6
CONTINUOUS
 62
     5
 10
288.90366022259991
 20
-86.56511472859961
 30
0.0
 11
288.85628215130009
 21
-86.563806553300083
 31
0.0
  0
LINE
  8
DETAIL
  6
CONTINUOUS
 62
     5
 10
288.85628215130009
 20
-86.563806553300083
 30
0.0
 11
288.8088915891999
 21
-86.562110703899862
 31
0.0
  0
LINE
  8
DETAIL
  6
CONTINUOUS
 62
     5
 10
288.8088915891999
 20
-86.562110703899862
 30
0.0
 11
288.78519234579989
 21
-86.561117426500232
 31
0.0
  0
LINE
  8
DETAIL
  6
CONTINUOUS
 62
     5
 10
288.78519234579989
 20
-86.561117426500232
 30
0.0
 11
288.73778737840013
 21
-86.558840226799703
 31
0.0
  0
LINE
  8
DETAIL
  6
CONTINUOUS
 62
     5
 10
288.73778737840013
 20
-86.558840226799703
 30
0.0
 11
288.70125007820002
 21
-86.556820963199925
 31
0.0
  0
LINE
  8
DETAIL
  6
CONTINUOUS
 62
     5
 10
288.05049166939989
 20
-86.590250212499768
 30
0.0
 11
288.03586584570007
 21
-86.589463140599719
 31
0.0
  0
LINE
  8
DETAIL
  6
CONTINUOUS
 62
     5
 10
281.91546194200009
 20
-90.118227835100015
 30
0.0
 11
281.89096655349999
 21
-90.116824181700167
 31
0.0
  0
LINE
  8
DETAIL
  6
CONTINUOUS
 62
     5
 10
281.89096655349999
 20
-90.116824181700167
 30
0.0
 11
281.10137902320002
 21
-90.048721463500215
 31
0.0
  0
LINE
  8
DETAIL
  6
CONTINUOUS
 62
     5
 10
281.10137902320002
 20
-90.048721463500215
 30
0.0
 11
280.32492628729977
 21
-89.957412433400123
 31
0.0
  0
LINE
  8
DETAIL
  6
CONTINUOUS
 62
     5
 10
280.32492628729977
 20
-89.957412433400123
 30
0.0
 11
279.55385649119989
 21
-89.839490080800033
 31
0.0
  0
LINE
  8
DETAIL
  6
CONTINUOUS
 62
     5
 10
279.55385649119989
 20
-89.839490080800033
 30
0.0
 11
278.82204001069999
 21
-89.697778510000035
 31
0.0
  0
LINE
  8
DETAIL
  6
CONTINUOUS
 62
     5
 10
278.82204001069999
 20
-89.697778510000035
 30
0.0
 11
278.14729168160011
 21
-89.535368595699993
 31
0.0
  0
LINE
  8
DETAIL
  6
CONTINUOUS
 62
     5
 10
278.14729168160011
 20
-89.535368595699993
 30
0.0
 11
277.54019386670012
 21
-89.355912173399929
 31
0.0
  0
LINE
  8
DETAIL
  6
CONTINUOUS
 62
     5
 10
277.54019386670012
 20
-89.355912173399929
 30
0.0
 11
277.01199697589982
 21
-89.165968958400072
 31
0.0
  0
LINE
  8
DETAIL
  6
CONTINUOUS
 62
     5
 10
277.01199697589982
 20
-89.165968958400072
 30
0.0
 11
276.54424851080012
 21
-88.962491808500317
 31
0.0
  0
LINE
  8
DETAIL
  6
CONTINUOUS
 62
     5
 10
276.54424851080012
 20
-88.962491808500317
 30
0.0
 11
276.12576670819999
 21
-88.742204498699948
 31
0.0
  0
LINE
  8
DETAIL
  6
CONTINUOUS
 62
     5
 10
276.12576670819999
 20
-88.742204498699948
 30
0.0
 11
275.7506340038999
 21
-88.502338412399922
 31
0.0
  0
LINE
  8
DETAIL
  6
CONTINUOUS
 62
     5
 10
275.7506340038999
 20
-88.502338412399922
 30
0.0
 11
275.41241514239982
 21
-88.237713545900306
 31
0.0
  0
LINE
  8
DETAIL
  6
CONTINUOUS
 62
     5
 10
275.41241514239982
 20
-88.237713545900306
 30
0.0
 11
275.11389099329989
 21
-87.948892683299846
 31
0.0
  0
LINE
  8
DETAIL
  6
CONTINUOUS
 62
     5
 10
275.11389099329989
 20
-87.948892683299846
 30
0.0
 11
274.85835188169989
 21
-87.639004762699869
 31
0.0
  0
LINE
  8
DETAIL
  6
CONTINUOUS
 62
     5
 10
274.85835188169989
 20
-87.639004762699869
 30
0.0
 11
274.64488441499998
 21
-87.307279578199768
 31
0.0
  0
LINE
  8
DETAIL
  6
CONTINUOUS
 62
     5
 10
274.64488441499998
 20
-87.307279578199768
 30
0.0
 11
274.47566773630001
 21
-86.956798380000009
 31
0.0
  0
LINE
  8
DETAIL
  6
CONTINUOUS
 62
     5
 10
274.47566773630001
 20
-86.956798380000009
 30
0.0
 11
274.35190960969999
 21
-86.588961244899792
 31
0.0
  0
LINE
  8
DETAIL
  6
CONTINUOUS
 62
     5
 10
274.35190960969999
 20
-86.588961244899792
 30
0.0
 11
274.3360196182
 21
-86.509064056300076
 31
0.0
  0
LINE
  8
DETAIL
  6
CONTINUOUS
 62
     5
 10
288.70125007299998
 20
-86.556820962900247
 30
0.0
 11
288.65383479130008
 21
-86.553857844500044
 31
0.0
  0
LINE
  8
DETAIL
  6
CONTINUOUS
 62
     5
 10
288.65383479130008
 20
-86.553857844500044
 30
0.0
 11
288.63012602200001
 21
-86.552231079600233
 31
0.0
  0
LINE
  8
DETAIL
  6
CONTINUOUS
 62
     5
 10
288.63012602200001
 20
-86.552231079600233
 30
0.0
 11
288.60000000259993
 21
-86.550024423300101
 31
0.0
  0
LINE
  8
DETAIL
  6
CONTINUOUS
 62
     5
 10
278.99607933589982
 20
-84.089481456000385
 30
0.0
 11
278.90205651209999
 21
-84.082547561799629
 31
0.0
  0
LINE
  8
DETAIL
  6
CONTINUOUS
 62
     5
 10
278.90205651209999
 20
-84.082547561799629
 30
0.0
 11
278.38528280159989
 21
-84.036707199700004
 31
0.0
  0
LINE
  8
DETAIL
  6
CONTINUOUS
 62
     5
 10
278.38528280159989
 20
-84.036707199700004
 30
0.0
 11
277.90631362609997
 21
-83.986047819999612
 31
0.0
  0
LINE
  8
DETAIL
  6
CONTINUOUS
 62
     5
 10
277.90631362609997
 20
-83.986047819999612
 30
0.0
 11
277.46711804939991
 21
-83.930994676700038
 31
0.0
  0
LINE
  8
DETAIL
  6
CONTINUOUS
 62
     5
 10
277.46711804939991
 20
-83.930994676700038
 30
0.0
 11
277.25763574680008
 21
-83.899999999999864
 31
0.0
  0
LINE
  8
DETAIL
  6
CONTINUOUS
 62
     5
 10
288.00663499790022
 20
-86.587597313400011
 30
0.0
 11
287.98957791359999
 21
-86.586327852199929
 31
0.0
  0
LINE
  8
DETAIL
  6
CONTINUOUS
 62
     5
 10
288.59999999999991
 20
-86.550024423100012
 30
0.0
 11
288.26820282490007
 21
-86.515381176600158
 31
0.0
  0
LINE
  8
DETAIL
  6
CONTINUOUS
 62
     5
 10
288.26820282490007
 20
-86.515381176600158
 30
0.0
 11
287.93719789040011
 21
-86.461861227999862
 31
0.0
  0
LINE
  8
DETAIL
  6
CONTINUOUS
 62
     5
 10
287.93719789040011
 20
-86.461861227999862
 30
0.0
 11
287.60777554520001
 21
-86.3895923683001
 31
0.0
  0
LINE
  8
DETAIL
  6
CONTINUOUS
 62
     5
 10
287.60777554520001
 20
-86.3895923683001
 30
0.0
 11
287.28072235949998
 21
-86.298747155700084
 31
0.0
  0
LINE
  8
DETAIL
  6
CONTINUOUS
 62
     5
 10
287.28072235949998
 20
-86.298747155700084
 30
0.0
 11
286.9338243354
 21
-86.181046264500083
 31
0.0
  0
LINE
  8
DETAIL
  6
CONTINUOUS
 62
     5
 10
286.9338243354
 20
-86.181046264500083
 30
0.0
 11
286.60479266620001
 21
-86.048396708699556
 31
0.0
  0
LINE
  8
DETAIL
  6
CONTINUOUS
 62
     5
 10
19.05341801259965
 20
-269.02191584379972
 30
0.0
 11
19.5
 21
-269.79541853569958
 31
0.0
  0
LINE
  8
DETAIL
  6
CONTINUOUS
 62
     5
 10
19.05341801259965
 20
-269.02191584379972
 30
0.0
 11
19.18866673859975
 21
-269.27239154499989
 31
0.0
  0
LINE
  8
DETAIL
  6
CONTINUOUS
 62
     5
 10
19.18866673859975
 20
-269.27239154499989
 30
0.0
 11
19.299744531800119
 21
-269.51808071500028
 31
0.0
  0
LINE
  8
DETAIL
  6
CONTINUOUS
 62
     5
 10
19.299744531800119
 20
-269.51808071500028
 30
0.0
 11
19.386798040500029
 21
-269.75821338949959
 31
0.0
  0
LINE
  8
DETAIL
  6
CONTINUOUS
 62
     5
 10
19.05341801259965
 20
-277.68216988170047
 30
0.0
 11
19.18866673859975
 21
-277.93264558279981
 31
0.0
  0
LINE
  8
DETAIL
  6
CONTINUOUS
 62
     5
 10
19.18866673859975
 20
-277.93264558279981
 30
0.0
 11
19.299744531800119
 21
-278.17833475290013
 31
0.0
  0
LINE
  8
DETAIL
  6
CONTINUOUS
 62
     5
 10
19.299744531800119
 20
-278.17833475290013
 30
0.0
 11
19.386798040200119
 21
-278.41846742500007
 31
0.0
  0
LINE
  8
DETAIL
  6
CONTINUOUS
 62
     5
 10
19.386798040200119
 20
-278.41846742500007
 30
0.0
 11
19.449387319299831
 21
-278.65535349980041
 31
0.0
  0
LINE
  8
DETAIL
  6
CONTINUOUS
 62
     5
 10
19.449387319299831
 20
-278.65535349980041
 30
0.0
 11
19.487072424499729
 21
-278.8913028776999
 31
0.0
  0
LINE
  8
DETAIL
  6
CONTINUOUS
 62
     5
 10
19.487072424499729
 20
-278.8913028776999
 30
0.0
 11
19.50000000399973
 21
-279.12554559200021
 31
0.0
  0
LINE
  8
DETAIL
  6
CONTINUOUS
 62
     5
 10
0.0000000000002274
 20
353.00000000000023
 30
0.0
 11
-0.0000000000002274
 21
-353.00000000000023
 31
0.0
  0
LINE
  8
DETAIL
  6
CONTINUOUS
 62
     5
 10
3.0000000000002269
 20
353.00000000000023
 30
0.0
 11
2.9999999999997731
 21
-353.00000000000023
 31
0.0
  0
LINE
  8
DETAIL
  6
CONTINUOUS
 62
     5
 10
5.1000000000001364
 20
348.3345237791998
 30
0.0
 11
5.1000000000001364
 21
298.43439365219979
 31
0.0
  0
LINE
  8
DETAIL
  6
CONTINUOUS
 62
     5
 10
5.0999999999999091
 20
-298.43439365220019
 30
0.0
 11
5.0999999999999091
 21
-348.33452377910021
 31
0.0
  0
LINE
  8
DETAIL
  6
CONTINUOUS
 62
     5
 10
10.0
 20
283.9233405970997
 30
0.0
 11
10.0
 21
289.53289256550011
 31
0.0
  0
LINE
  8
DETAIL
  6
CONTINUOUS
 62
     5
 10
10.0
 20
347.90000000000032
 30
0.0
 11
10.0
 21
344.69476057399987
 31
0.0
  0
LINE
  8
DETAIL
  6
CONTINUOUS
 62
     5
 10
10.0
 20
283.9233405970997
 30
0.0
 11
10.0
 21
-283.92334059710021
 31
0.0
  0
LINE
  8
DETAIL
  6
CONTINUOUS
 62
     5
 10
10.0
 20
-283.92334059710021
 30
0.0
 11
10.0
 21
-289.53289256540052
 31
0.0
  0
LINE
  8
DETAIL
  6
CONTINUOUS
 62
     5
 10
10.0
 20
-344.69476057389983
 30
0.0
 11
10.0
 21
-347.89999999999992
 31
0.0
  0
LINE
  8
DETAIL
  6
CONTINUOUS
 62
     5
 10
14.5
 20
339.03036724849989
 30
0.0
 11
14.5
 21
257.82485578730012
 31
0.0
  0
LINE
  8
DETAIL
  6
CONTINUOUS
 62
     5
 10
14.5
 20
-257.82485578720048
 30
0.0
 11
14.5
 21
-339.03036724849989
 31
0.0
  0
LINE
  8
DETAIL
  6
CONTINUOUS
 62
     5
 10
19.5
 20
-269.79541853569958
 30
0.0
 11
19.5
 21
-279.79541853569958
 31
0.0
  0
LINE
  8
DETAIL
  6
CONTINUOUS
 62
     5
 10
20.0
 20
337.90000000000032
 30
0.0
 11
20.0
 21
314.03984489160013
 31
0.0
  0
LINE
  8
DETAIL
  6
CONTINUOUS
 62
     5
 10
20.0
 20
273.73475836399962
 30
0.0
 11
20.0
 21
-272.29541853569958
 31
0.0
  0
LINE
  8
DETAIL
  6
CONTINUOUS
 62
     5
 10
20.0
 20
-314.03984489160052
 30
0.0
 11
20.0
 21
-337.89999999999992
 31
0.0
  0
LINE
  8
DETAIL
  6
CONTINUOUS
 62
     5
 10
20.400000000000091
 20
-277.29308095049993
 30
0.0
 11
20.400000000000091
 21
-272.29775612100008
 31
0.0
  0
LINE
  8
DETAIL
  6
CONTINUOUS
 62
     5
 10
20.5
 20
-314.03984489160052
 30
0.0
 11
20.5
 21
-336.50000000000028
 31
0.0
  0
LINE
  8
DETAIL
  6
CONTINUOUS
 62
     5
 10
21.400000000000091
 20
-277.79541853569958
 30
0.0
 11
21.400000000000091
 21
-271.79541853569958
 31
0.0
  0
LINE
  8
DETAIL
  6
CONTINUOUS
 62
     5
 10
19.5
 20
-274.79541853600062
 30
0.0
 11
19.486303770299859
 21
-275.27271795149989
 31
0.0
  0
LINE
  8
DETAIL
  6
CONTINUOUS
 62
     5
 10
19.486303770299859
 20
-275.27271795149989
 30
0.0
 11
19.447861934799679
 21
-275.74999326439968
 31
0.0
  0
LINE
  8
DETAIL
  6
CONTINUOUS
 62
     5
 10
19.447861934799679
 20
-275.74999326439968
 30
0.0
 11
19.384250776199679
 21
-276.22578720020027
 31
0.0
  0
LINE
  8
DETAIL
  6
CONTINUOUS
 62
     5
 10
19.384250776199679
 20
-276.22578720020027
 30
0.0
 11
19.296741446499709
 21
-276.70447158239972
 31
0.0
  0
LINE
  8
DETAIL
  6
CONTINUOUS
 62
     5
 10
19.296741446499709
 20
-276.70447158239972
 30
0.0
 11
19.186605097800111
 21
-277.19041823439989
 31
0.0
  0
LINE
  8
DETAIL
  6
CONTINUOUS
 62
     5
 10
19.186605097800111
 20
-277.19041823439989
 30
0.0
 11
19.05341801259965
 21
-277.68216988170047
 31
0.0
  0
LINE
  8
DETAIL
  6
CONTINUOUS
 62
     5
 10
255.69379604299999
 20
-107.2288302457998
 30
0.0
 11
254.58789380869959
 21
-107.3064137332001
 31
0.0
  0
LINE
  8
DETAIL
  6
CONTINUOUS
 62
     5
 10
254.58789380869959
 20
-107.3064137332001
 30
0.0
 11
253.4921166084998
 21
-107.3813255254997
 31
0.0
  0
LINE
  8
DETAIL
  6
CONTINUOUS
 62
     5
 10
253.4921166084998
 20
-107.3813255254997
 30
0.0
 11
252.40910083789981
 21
-107.4536354724999
 31
0.0
  0
LINE
  8
DETAIL
  6
CONTINUOUS
 62
     5
 10
252.40910083789981
 20
-107.4536354724999
 30
0.0
 11
251.3414828927996
 21
-107.52341342449991
 31
0.0
  0
LINE
  8
DETAIL
  6
CONTINUOUS
 62
     5
 10
251.3414828927996
 20
-107.52341342449991
 30
0.0
 11
250.2918991686997
 21
-107.5907292312997
 31
0.0
  0
LINE
  8
DETAIL
  6
CONTINUOUS
 62
     5
 10
250.2918991686997
 20
-107.5907292312997
 30
0.0
 11
249.4949676696001
 21
-107.6395507677
 31
0.0
  0
LINE
  8
DETAIL
  6
CONTINUOUS
 62
     5
 10
249.4949676696001
 20
-107.6395507677
 30
0.0
 11
248.70247595979981
 21
-107.68459195840001
 31
0.0
  0
LINE
  8
DETAIL
  6
CONTINUOUS
 62
     5
 10
248.70247595979981
 20
-107.68459195840001
 30
0.0
 11
247.9145575053999
 21
-107.7261500862999
 31
0.0
  0
LINE
  8
DETAIL
  6
CONTINUOUS
 62
     5
 10
247.9145575053999
 20
-107.7261500862999
 30
0.0
 11
247.1313457725
 21
-107.7645224342002
 31
0.0
  0
LINE
  8
DETAIL
  6
CONTINUOUS
 62
     5
 10
247.1313457725
 20
-107.7645224342002
 30
0.0
 11
246.3529742273997
 21
-107.8000062849999
 31
0.0
  0
LINE
  8
DETAIL
  6
CONTINUOUS
 62
     5
 10
246.3529742273997
 20
-107.8000062849999
 30
0.0
 11
245.5795763362996
 21
-107.8328989217005
 31
0.0
  0
LINE
  8
DETAIL
  6
CONTINUOUS
 62
     5
 10
245.5795763362996
 20
-107.8328989217005
 30
0.0
 11
244.81128556529961
 21
-107.8634976269998
 31
0.0
  0
LINE
  8
DETAIL
  6
CONTINUOUS
 62
     5
 10
244.81128556529961
 20
-107.8634976269998
 30
0.0
 11
244.04823538060009
 21
-107.8920996837999
 31
0.0
  0
LINE
  8
DETAIL
  6
CONTINUOUS
 62
     5
 10
244.04823538060009
 20
-107.8920996837999
 30
0.0
 11
243.2905592484997
 21
-107.91900237510001
 31
0.0
  0
LINE
  8
DETAIL
  6
CONTINUOUS
 62
     5
 10
243.2905592484997
 20
-107.91900237510001
 30
0.0
 11
242.53839063499981
 21
-107.9445029837
 31
0.0
  0
LINE
  8
DETAIL
  6
CONTINUOUS
 62
     5
 10
242.53839063499981
 20
-107.9445029837
 30
0.0
 11
241.79186300639981
 21
-107.9688987925999
 31
0.0
  0
LINE
  8
DETAIL
  6
CONTINUOUS
 62
     5
 10
134.8561170007001
 20
-86.605554414100197
 30
0.0
 11
135.0785615363998
 21
-86.595328545299935
 31
0.0
  0
LINE
  8
DETAIL
  6
CONTINUOUS
 62
     5
 10
135.0785615363998
 20
-86.595328545299935
 30
0.0
 11
135.3135453308
 21
-86.577769984500037
 31
0.0
  0
LINE
  8
DETAIL
  6
CONTINUOUS
 62
     5
 10
135.3135453308
 20
-86.577769984500037
 30
0.0
 11
135.56090372009999
 21
-86.55173693069969
 31
0.0
  0
LINE
  8
DETAIL
  6
CONTINUOUS
 62
     5
 10
135.56090372009999
 20
-86.55173693069969
 30
0.0
 11
135.82641240349969
 21
-86.515090847300371
 31
0.0
  0
LINE
  8
DETAIL
  6
CONTINUOUS
 62
     5
 10
287.57963182129993
 20
-82.740494374800392
 30
0.0
 11
286.82384204720012
 21
-82.770939594500078
 31
0.0
  0
LINE
  8
DETAIL
  6
CONTINUOUS
 62
     5
 10
286.82384204720012
 20
-82.770939594500078
 30
0.0
 11
286.14216506479988
 21
-82.815236971500099
 31
0.0
  0
LINE
  8
DETAIL
  6
CONTINUOUS
 62
     5
 10
286.14216506479988
 20
-82.815236971500099
 30
0.0
 11
285.52599941659992
 21
-82.874367640599985
 31
0.0
  0
LINE
  8
DETAIL
  6
CONTINUOUS
 62
     5
 10
285.52599941659992
 20
-82.874367640599985
 30
0.0
 11
285.00114947520001
 21
-82.945388197200145
 31
0.0
  0
LINE
  8
DETAIL
  6
CONTINUOUS
 62
     5
 10
285.00114947520001
 20
-82.945388197200145
 30
0.0
 11
284.58809039229982
 21
-83.026635725699862
 31
0.0
  0
LINE
  8
DETAIL
  6
CONTINUOUS
 62
     5
 10
284.58809039229982
 20
-83.026635725699862
 30
0.0
 11
284.29420837230009
 21
-83.115249893299961
 31
0.0
  0
LINE
  8
DETAIL
  6
CONTINUOUS
 62
     5
 10
284.29420837230009
 20
-83.115249893299961
 30
0.0
 11
284.13407687609993
 21
-83.208814630100051
 31
0.0
  0
LINE
  8
DETAIL
  6
CONTINUOUS
 62
     5
 10
284.13407687609993
 20
-83.208814630100051
 30
0.0
 11
284.1004329507
 21
-83.274622274299645
 31
0.0
  0
LINE
  8
DETAIL
  6
CONTINUOUS
 62
     5
 10
238.60367123899979
 20
-108.0697458906
 30
0.0
 11
237.76068867169991
 21
-108.0975080879996
 31
0.0
  0
LINE
  8
DETAIL
  6
CONTINUOUS
 62
     5
 10
237.76068867169991
 20
-108.0975080879996
 30
0.0
 11
236.9269326491999
 21
-108.12631441549981
 31
0.0
  0
LINE
  8
DETAIL
  6
CONTINUOUS
 62
     5
 10
236.9269326491999
 20
-108.12631441549981
 30
0.0
 11
236.10266603109989
 21
-108.1566120588998
 31
0.0
  0
LINE
  8
DETAIL
  6
CONTINUOUS
 62
     5
 10
236.10266603109989
 20
-108.1566120588998
 30
0.0
 11
235.28815167739981
 21
-108.1888482042998
 31
0.0
  0
LINE
  8
DETAIL
  6
CONTINUOUS
 62
     5
 10
235.28815167739981
 20
-108.1888482042998
 30
0.0
 11
234.48365244790011
 21
-108.22347003739991
 31
0.0
  0
LINE
  8
DETAIL
  6
CONTINUOUS
 62
     5
 10
234.48365244790011
 20
-108.22347003739991
 30
0.0
 11
233.6894312022998
 21
-108.2609247442003
 31
0.0
  0
LINE
  8
DETAIL
  6
CONTINUOUS
 62
     5
 10
233.6894312022998
 20
-108.2609247442003
 30
0.0
 11
232.90575080049959
 21
-108.30165951059981
 31
0.0
  0
LINE
  8
DETAIL
  6
CONTINUOUS
 62
     5
 10
232.90575080049959
 20
-108.30165951059981
 30
0.0
 11
232.13287410229989
 21
-108.3461215225
 31
0.0
  0
LINE
  8
DETAIL
  6
CONTINUOUS
 62
     5
 10
232.13287410229989
 20
-108.3461215225
 30
0.0
 11
231.37106396749999
 21
-108.3947579656999
 31
0.0
  0
LINE
  8
DETAIL
  6
CONTINUOUS
 62
     5
 10
231.37106396749999
 20
-108.3947579656999
 30
0.0
 11
230.59044808510001
 21
-108.45025090520021
 31
0.0
  0
LINE
  8
DETAIL
  6
CONTINUOUS
 62
     5
 10
230.59044808510001
 20
-108.45025090520021
 30
0.0
 11
229.82247226629991
 21
-108.5110976229
 31
0.0
  0
LINE
  8
DETAIL
  6
CONTINUOUS
 62
     5
 10
229.82247226629991
 20
-108.5110976229
 30
0.0
 11
229.0675110042998
 21
-108.5776483967995
 31
0.0
  0
LINE
  8
DETAIL
  6
CONTINUOUS
 62
     5
 10
229.0675110042998
 20
-108.5776483967995
 30
0.0
 11
228.32593879199999
 21
-108.6502535047
 31
0.0
  0
LINE
  8
DETAIL
  6
CONTINUOUS
 62
     5
 10
228.32593879199999
 20
-108.6502535047
 30
0.0
 11
227.59813012240011
 21
-108.7292632245001
 31
0.0
  0
LINE
  8
DETAIL
  6
CONTINUOUS
 62
     5
 10
241.79186300639981
 20
-107.9688987925999
 30
0.0
 11
240.31626456849969
 21
-108.0155651423004
 31
0.0
  0
LINE
  8
DETAIL
  6
CONTINUOUS
 62
     5
 10
240.31626456849969
 20
-108.0155651423004
 30
0.0
 11
238.60367123899979
 21
-108.0697458906
 31
0.0
  0
LINE
  8
DETAIL
  6
CONTINUOUS
 62
     5
 10
284.0
 20
-88.213821723199771
 30
0.0
 11
284.34152580350002
 21
-88.203258189200142
 31
0.0
  0
LINE
  8
DETAIL
  6
CONTINUOUS
 62
     5
 10
284.34152580350002
 20
-88.203258189200142
 30
0.0
 11
284.65082560870002
 21
-88.175375008699802
 31
0.0
  0
LINE
  8
DETAIL
  6
CONTINUOUS
 62
     5
 10
284.65082560870002
 20
-88.175375008699802
 30
0.0
 11
284.93436022639997
 21
-88.128838661899636
 31
0.0
  0
LINE
  8
DETAIL
  6
CONTINUOUS
 62
     5
 10
284.93436022639997
 20
-88.128838661899636
 30
0.0
 11
285.17274722370013
 21
-88.067649708299768
 31
0.0
  0
LINE
  8
DETAIL
  6
CONTINUOUS
 62
     5
 10
285.17274722370013
 20
-88.067649708299768
 30
0.0
 11
285.35018964689988
 21
-87.993881715299949
 31
0.0
  0
LINE
  8
DETAIL
  6
CONTINUOUS
 62
     5
 10
285.35018964689988
 20
-87.993881715299949
 30
0.0
 11
285.46239186819997
 21
-87.911982139100246
 31
0.0
  0
LINE
  8
DETAIL
  6
CONTINUOUS
 62
     5
 10
285.46239186819997
 20
-87.911982139100246
 30
0.0
 11
285.49859744880001
 21
-87.82559315559979
 31
0.0
  0
LINE
  8
DETAIL
  6
CONTINUOUS
 62
     5
 10
284.0
 20
-88.343231245800098
 30
0.0
 11
284.40899210369997
 21
-88.332292201299651
 31
0.0
  0
LINE
  8
DETAIL
  6
CONTINUOUS
 62
     5
 10
284.40899210369997
 20
-88.332292201299651
 30
0.0
 11
284.80709059269998
 21
-88.299211130700087
 31
0.0
  0
LINE
  8
DETAIL
  6
CONTINUOUS
 62
     5
 10
284.80709059269998
 20
-88.299211130700087
 30
0.0
 11
285.16991534999988
 21
-88.245430681899734
 31
0.0
  0
LINE
  8
DETAIL
  6
CONTINUOUS
 62
     5
 10
285.16991534999988
 20
-88.245430681899734
 30
0.0
 11
285.47691068120002
 21
-88.174637755699905
 31
0.0
  0
LINE
  8
DETAIL
  6
CONTINUOUS
 62
     5
 10
285.47691068120002
 20
-88.174637755699905
 30
0.0
 11
285.7250273384002
 21
-88.087535506799895
 31
0.0
  0
LINE
  8
DETAIL
  6
CONTINUOUS
 62
     5
 10
285.7250273384002
 20
-88.087535506799895
 30
0.0
 11
285.89775202329997
 21
-87.988985120299958
 31
0.0
  0
LINE
  8
DETAIL
  6
CONTINUOUS
 62
     5
 10
285.89775202329997
 20
-87.988985120299958
 30
0.0
 11
285.98753583830012
 21
-87.883293720800111
 31
0.0
  0
LINE
  8
DETAIL
  6
CONTINUOUS
 62
     5
 10
285.98753583830012
 20
-87.883293720800111
 30
0.0
 11
285.99112392919977
 21
-87.776879107999548
 31
0.0
  0
LINE
  8
DETAIL
  6
CONTINUOUS
 62
     5
 10
285.99112392919977
 20
-87.776879107999548
 30
0.0
 11
285.90848065699993
 21
-87.670798251000406
 31
0.0
  0
LINE
  8
DETAIL
  6
CONTINUOUS
 62
     5
 10
285.90848065699993
 20
-87.670798251000406
 30
0.0
 11
285.74242762220001
 21
-87.571482674100253
 31
0.0
  0
LINE
  8
DETAIL
  6
CONTINUOUS
 62
     5
 10
285.74242762220001
 20
-87.571482674100253
 30
0.0
 11
285.50024865329988
 21
-87.483280728599539
 31
0.0
  0
LINE
  8
DETAIL
  6
CONTINUOUS
 62
     5
 10
284.0
 20
-90.462656519299571
 30
0.0
 11
284.30885244310002
 21
-90.455339935200072
 31
0.0
  0
LINE
  8
DETAIL
  6
CONTINUOUS
 62
     5
 10
284.30885244310002
 20
-90.455339935200072
 30
0.0
 11
284.60965920879988
 21
-90.4341015374996
 31
0.0
  0
LINE
  8
DETAIL
  6
CONTINUOUS
 62
     5
 10
284.60965920879988
 20
-90.4341015374996
 30
0.0
 11
284.9156080404
 21
-90.39807167549975
 31
0.0
  0
LINE
  8
DETAIL
  6
CONTINUOUS
 62
     5
 10
284.9156080404
 20
-90.39807167549975
 30
0.0
 11
285.23318444860001
 21
-90.345018919599852
 31
0.0
  0
LINE
  8
DETAIL
  6
CONTINUOUS
 62
     5
 10
284.0
 20
-89.042042667599844
 30
0.0
 11
284.82798328450008
 21
-89.022596396400104
 31
0.0
  0
LINE
  8
DETAIL
  6
CONTINUOUS
 62
     5
 10
284.82798328450008
 20
-89.022596396400104
 30
0.0
 11
285.60749467360012
 21
-88.968681785599756
 31
0.0
  0
LINE
  8
DETAIL
  6
CONTINUOUS
 62
     5
 10
285.60749467360012
 20
-88.968681785599756
 30
0.0
 11
286.34919053459998
 21
-88.878706461999855
 31
0.0
  0
LINE
  8
DETAIL
  6
CONTINUOUS
 62
     5
 10
286.34919053459998
 20
-88.878706461999855
 30
0.0
 11
287.02110176550008
 21
-88.757447544600154
 31
0.0
  0
LINE
  8
DETAIL
  6
CONTINUOUS
 62
     5
 10
287.02110176550008
 20
-88.757447544600154
 30
0.0
 11
287.59916870979993
 21
-88.607242495200126
 31
0.0
  0
LINE
  8
DETAIL
  6
CONTINUOUS
 62
     5
 10
287.59916870979993
 20
-88.607242495200126
 30
0.0
 11
288.07031939779989
 21
-88.433817911600045
 31
0.0
  0
LINE
  8
DETAIL
  6
CONTINUOUS
 62
     5
 10
288.07031939779989
 20
-88.433817911600045
 30
0.0
 11
288.41503402050012
 21
-88.241500082099947
 31
0.0
  0
LINE
  8
DETAIL
  6
CONTINUOUS
 62
     5
 10
288.41503402050012
 20
-88.241500082099947
 30
0.0
 11
288.62859643910002
 21
-88.036827396600302
 31
0.0
  0
LINE
  8
DETAIL
  6
CONTINUOUS
 62
     5
 10
288.62859643910002
 20
-88.036827396600302
 30
0.0
 11
288.69838106930001
 21
-87.82559315559979
 31
0.0
  0
LINE
  8
DETAIL
  6
CONTINUOUS
 62
     5
 10
284.0
 20
-89.525005580699826
 30
0.0
 11
284.81614643500012
 21
-89.506524979299911
 31
0.0
  0
LINE
  8
DETAIL
  6
CONTINUOUS
 62
     5
 10
284.81614643500012
 20
-89.506524979299911
 30
0.0
 11
285.60749467360012
 21
-89.451644698699738
 31
0.0
  0
LINE
  8
DETAIL
  6
CONTINUOUS
 62
     5
 10
285.60749467360012
 20
-89.451644698699738
 30
0.0
 11
286.34999999999991
 21
-89.3620322485001
 31
0.0
  0
LINE
  8
DETAIL
  6
CONTINUOUS
 62
     5
 10
286.34999999999991
 20
-89.3620322485001
 30
0.0
 11
287.02110176550008
 21
-89.240410457700136
 31
0.0
  0
LINE
  8
DETAIL
  6
CONTINUOUS
 62
     5
 10
287.02110176550008
 20
-89.240410457700136
 30
0.0
 11
287.60040888259982
 21
-89.090474742800097
 31
0.0
  0
LINE
  8
DETAIL
  6
CONTINUOUS
 62
     5
 10
287.60040888259982
 20
-89.090474742800097
 30
0.0
 11
288.07031939779989
 21
-88.916780824700027
 31
0.0
  0
LINE
  8
DETAIL
  6
CONTINUOUS
 62
     5
 10
288.07031939779989
 20
-88.916780824700027
 30
0.0
 11
288.41655531769987
 21
-88.724606305200041
 31
0.0
  0
LINE
  8
DETAIL
  6
CONTINUOUS
 62
     5
 10
288.41655531769987
 20
-88.724606305200041
 30
0.0
 11
288.54109460590013
 21
-88.622193045199992
 31
0.0
  0
LINE
  8
DETAIL
  6
CONTINUOUS
 62
     5
 10
134.63075490360009
 20
-86.609595967700216
 30
0.0
 11
134.8561170007001
 21
-86.605554414100197
 31
0.0
  0
LINE
  8
DETAIL
  6
CONTINUOUS
 62
     5
 10
287.57963182129993
 20
-82.740494374800392
 30
0.0
 11
288.36804499009992
 21
-82.727126383400218
 31
0.0
  0
LINE
  8
DETAIL
  6
CONTINUOUS
 62
     5
 10
288.36804499009992
 20
-82.727126383400218
 30
0.0
 11
289.14017003919997
 21
-82.730175467399704
 31
0.0
  0
LINE
  8
DETAIL
  6
CONTINUOUS
 62
     5
 10
289.14017003919997
 20
-82.730175467399704
 30
0.0
 11
289.90727981800001
 21
-82.75005887400016
 31
0.0
  0
LINE
  8
DETAIL
  6
CONTINUOUS
 62
     5
 10
289.90727981800001
 20
-82.75005887400016
 30
0.0
 11
290.63555577829987
 21
-82.785524861799558
 31
0.0
  0
LINE
  8
DETAIL
  6
CONTINUOUS
 62
     5
 10
290.63555577829987
 20
-82.785524861799558
 30
0.0
 11
291.30060140260002
 21
-82.83618364580002
 31
0.0
  0
LINE
  8
DETAIL
  6
CONTINUOUS
 62
     5
 10
291.30060140260002
 20
-82.83618364580002
 30
0.0
 11
291.88542344899997
 21
-82.899866604200042
 31
0.0
  0
LINE
  8
DETAIL
  6
CONTINUOUS
 62
     5
 10
291.88542344899997
 20
-82.899866604200042
 30
0.0
 11
292.36819060149992
 21
-82.975190568699645
 31
0.0
  0
LINE
  8
DETAIL
  6
CONTINUOUS
 62
     5
 10
292.36819060149992
 20
-82.975190568699645
 30
0.0
 11
292.73902056399987
 21
-83.059409392900079
 31
0.0
  0
LINE
  8
DETAIL
  6
CONTINUOUS
 62
     5
 10
292.73902056399987
 20
-83.059409392900079
 30
0.0
 11
292.98128040130001
 21
-83.150313356000197
 31
0.0
  0
LINE
  8
DETAIL
  6
CONTINUOUS
 62
     5
 10
292.98128040130001
 20
-83.150313356000197
 30
0.0
 11
293.09339071350001
 21
-83.244910012999526
 31
0.0
  0
LINE
  8
DETAIL
  6
CONTINUOUS
 62
     5
 10
293.09339071350001
 20
-83.244910012999526
 30
0.0
 11
293.0995670492
 21
-83.274621970999988
 31
0.0
  0
LINE
  8
DETAIL
  6
CONTINUOUS
 62
     5
 10
288.82689031609988
 20
-86.606437111700188
 30
0.0
 11
288.60734189099998
 21
-86.609651680799971
 31
0.0
  0
LINE
  8
DETAIL
  6
CONTINUOUS
 62
     5
 10
19.5
 20
-270.46529151690021
 30
0.0
 11
19.48705908379975
 21
-270.69958972920023
 31
0.0
  0
LINE
  8
DETAIL
  6
CONTINUOUS
 62
     5
 10
19.48705908379975
 20
-270.69958972920023
 30
0.0
 11
19.449373683399699
 21
-270.93554745679938
 31
0.0
  0
LINE
  8
DETAIL
  6
CONTINUOUS
 62
     5
 10
19.449373683399699
 20
-270.93554745679938
 30
0.0
 11
19.386804375599699
 21
-271.17237134549958
 31
0.0
  0
LINE
  8
DETAIL
  6
CONTINUOUS
 62
     5
 10
19.386804375599699
 20
-271.17237134549958
 30
0.0
 11
19.29976943009979
 21
-271.41244145819962
 31
0.0
  0
LINE
  8
DETAIL
  6
CONTINUOUS
 62
     5
 10
19.29976943009979
 20
-271.41244145819962
 30
0.0
 11
19.1886871168997
 21
-271.65813785770052
 31
0.0
  0
LINE
  8
DETAIL
  6
CONTINUOUS
 62
     5
 10
19.1886871168997
 20
-271.65813785770052
 30
0.0
 11
19.05341801259965
 21
-271.90866718980061
 31
0.0
  0
LINE
  8
DETAIL
  6
CONTINUOUS
 62
     5
 10
19.50000000399973
 20
-279.12554559200021
 30
0.0
 11
19.487059085000059
 21
-279.35984378230052
 31
0.0
  0
LINE
  8
DETAIL
  6
CONTINUOUS
 62
     5
 10
19.487059085000059
 20
-279.35984378230052
 30
0.0
 11
19.449373682999749
 21
-279.59580149660007
 31
0.0
  0
LINE
  8
DETAIL
  6
CONTINUOUS
 62
     5
 10
19.449373682999749
 20
-279.59580149660007
 30
0.0
 11
19.386804374899839
 21
-279.83262538270009
 31
0.0
  0
LINE
  8
DETAIL
  6
CONTINUOUS
 62
     5
 10
19.386804374899839
 20
-279.83262538270009
 30
0.0
 11
19.29976942970006
 21
-280.07269549699981
 31
0.0
  0
LINE
  8
DETAIL
  6
CONTINUOUS
 62
     5
 10
19.29976942970006
 20
-280.07269549699981
 30
0.0
 11
19.188687116600018
 21
-280.31839189600049
 31
0.0
  0
LINE
  8
DETAIL
  6
CONTINUOUS
 62
     5
 10
19.188687116600018
 20
-280.31839189600049
 30
0.0
 11
19.05341801259965
 21
-280.5689212275995
 31
0.0
  0
LINE
  8
DETAIL
  6
CONTINUOUS
 62
     5
 10
153.8534180125998
 20
75.052813737799852
 30
0.0
 11
153.98886233500019
 21
75.182726584400143
 31
0.0
  0
LINE
  8
DETAIL
  6
CONTINUOUS
 62
     5
 10
153.98886233500019
 20
75.182726584400143
 30
0.0
 11
154.0999943586003
 21
75.309963758200183
 31
0.0
  0
LINE
  8
DETAIL
  6
CONTINUOUS
 62
     5
 10
154.0999943586003
 20
75.309963758200183
 30
0.0
 11
154.1869015500001
 21
75.434037494400172
 31
0.0
  0
LINE
  8
DETAIL
  6
CONTINUOUS
 62
     5
 10
154.1869015500001
 20
75.434037494400172
 30
0.0
 11
154.24932150950011
 21
75.556411087600054
 31
0.0
  0
LINE
  8
DETAIL
  6
CONTINUOUS
 62
     5
 10
154.24932150950011
 20
75.556411087600054
 30
0.0
 11
154.28699183730009
 21
75.678547832600316
 31
0.0
  0
LINE
  8
DETAIL
  6
CONTINUOUS
 62
     5
 10
154.28699183730009
 20
75.678547832600316
 30
0.0
 11
154.30000000000021
 21
75.799959964599793
 31
0.0
  0
LINE
  8
DETAIL
  6
CONTINUOUS
 62
     5
 10
135.82641240349969
 20
-86.515090847300371
 30
0.0
 11
136.13143423700009
 21
-86.46170437429987
 31
0.0
  0
LINE
  8
DETAIL
  6
CONTINUOUS
 62
     5
 10
136.13143423700009
 20
-86.46170437429987
 30
0.0
 11
136.44654302629991
 21
-86.393630984100355
 31
0.0
  0
LINE
  8
DETAIL
  6
CONTINUOUS
 62
     5
 10
136.44654302629991
 20
-86.393630984100355
 30
0.0
 11
136.76603287870009
 21
-86.310843371799592
 31
0.0
  0
LINE
  8
DETAIL
  6
CONTINUOUS
 62
     5
 10
136.76603287870009
 20
-86.310843371799592
 30
0.0
 11
137.0936476659997
 21
-86.211084109700323
 31
0.0
  0
LINE
  8
DETAIL
  6
CONTINUOUS
 62
     5
 10
137.0936476659997
 20
-86.211084109700323
 30
0.0
 11
137.43209098540001
 21
-86.091584112700048
 31
0.0
  0
LINE
  8
DETAIL
  6
CONTINUOUS
 62
     5
 10
137.43209098540001
 20
-86.091584112700048
 30
0.0
 11
137.78070017659999
 21
-85.950169251000034
 31
0.0
  0
LINE
  8
DETAIL
  6
CONTINUOUS
 62
     5
 10
134.72948017259981
 20
-86.607928483500245
 30
0.0
 11
134.72618053709971
 21
-86.608294406799587
 31
0.0
  0
LINE
  8
DETAIL
  6
CONTINUOUS
 62
     5
 10
134.72618053709971
 20
-86.608294406799587
 30
0.0
 11
134.72287936399971
 21
-86.608562869100069
 31
0.0
  0
LINE
  8
DETAIL
  6
CONTINUOUS
 62
     5
 10
134.72287936399971
 20
-86.608562869100069
 30
0.0
 11
134.71957669379981
 21
-86.608733867300316
 31
0.0
  0
LINE
  8
DETAIL
  6
CONTINUOUS
 62
     5
 10
134.71957669379981
 20
-86.608733867300316
 30
0.0
 11
134.7172185231
 21
-86.608796307399871
 31
0.0
  0
LINE
  8
DETAIL
  6
CONTINUOUS
 62
     5
 10
112.5
 20
-288.23044737829991
 30
0.0
 11
114.5
 21
-289.64466094059958
 31
0.0
  0
LINE
  8
DETAIL
  6
CONTINUOUS
 62
     5
 10
114.5
 20
-292.82664145600052
 30
0.0
 11
112.5
 21
-291.4124278935999
 31
0.0
  0
LINE
  8
DETAIL
  6
CONTINUOUS
 62
     5
 10
112.5
 20
-291.4124278935999
 30
0.0
 11
112.5
 21
-288.23044737829991
 31
0.0
  0
LINE
  8
DETAIL
  6
CONTINUOUS
 62
     5
 10
112.5
 20
291.41242789369988
 30
0.0
 11
112.5
 21
288.23044737829991
 31
0.0
  0
LINE
  8
DETAIL
  6
CONTINUOUS
 62
     5
 10
150.40183356130001
 20
76.146711735199688
 30
0.0
 11
150.30000000000021
 21
75.970330833100206
 31
0.0
  0
LINE
  8
DETAIL
  6
CONTINUOUS
 62
     5
 10
154.30000000000021
 20
65.970330833100206
 30
0.0
 11
154.1981664386999
 21
65.79394993109986
 31
0.0
  0
LINE
  8
DETAIL
  6
CONTINUOUS
 62
     5
 10
150.40169840489989
 20
76.146716976000107
 30
0.0
 11
150.41311883750021
 21
76.165941378200159
 31
0.0
  0
LINE
  8
DETAIL
  6
CONTINUOUS
 62
     5
 10
150.41311883750021
 20
76.165941378200159
 30
0.0
 11
150.4999909850003
 21
76.289937616100133
 31
0.0
  0
LINE
  8
DETAIL
  6
CONTINUOUS
 62
     5
 10
150.4999909850003
 20
76.289937616100133
 30
0.0
 11
150.61112031010001
 21
76.417164010799524
 31
0.0
  0
LINE
  8
DETAIL
  6
CONTINUOUS
 62
     5
 10
150.61112031010001
 20
76.417164010799524
 30
0.0
 11
150.74658198740011
 21
76.547106191400189
 31
0.0
  0
LINE
  8
DETAIL
  6
CONTINUOUS
 62
     5
 10
154.19830045980009
 20
65.79394473419984
 30
0.0
 11
154.1868772711
 21
65.774715898600107
 31
0.0
  0
LINE
  8
DETAIL
  6
CONTINUOUS
 62
     5
 10
154.1868772711
 20
65.774715898600107
 30
0.0
 11
154.10000127140029
 21
65.650714246800135
 31
0.0
  0
LINE
  8
DETAIL
  6
CONTINUOUS
 62
     5
 10
154.10000127140029
 20
65.650714246800135
 30
0.0
 11
153.98887377900019
 21
65.52349005300016
 31
0.0
  0
LINE
  8
DETAIL
  6
CONTINUOUS
 62
     5
 10
153.98887377900019
 20
65.52349005300016
 30
0.0
 11
153.8534180125998
 21
65.393555474900268
 31
0.0
  0
LINE
  8
DETAIL
  6
CONTINUOUS
 62
     5
 10
137.78070017659999
 20
-85.950169251000034
 30
0.0
 11
138.14074479759961
 21
-85.7834353894998
 31
0.0
  0
LINE
  8
DETAIL
  6
CONTINUOUS
 62
     5
 10
138.14074479759961
 20
-85.7834353894998
 30
0.0
 11
138.50849711230009
 21
-85.589888037200353
 31
0.0
  0
LINE
  8
DETAIL
  6
CONTINUOUS
 62
     5
 10
290.74340142980009
 20
-86.317172934700238
 30
0.0
 11
290.42373885279989
 21
-86.39900541369957
 31
0.0
  0
LINE
  8
DETAIL
  6
CONTINUOUS
 62
     5
 10
290.42373885279989
 20
-86.39900541369957
 30
0.0
 11
290.1164024878999
 21
-86.464623287100267
 31
0.0
  0
LINE
  8
DETAIL
  6
CONTINUOUS
 62
     5
 10
290.1164024878999
 20
-86.464623287100267
 30
0.0
 11
289.82523217170001
 21
-86.515273852800192
 31
0.0
  0
LINE
  8
DETAIL
  6
CONTINUOUS
 62
     5
 10
289.82523217170001
 20
-86.515273852800192
 30
0.0
 11
289.55103566700001
 21
-86.552924695299907
 31
0.0
  0
LINE
  8
DETAIL
  6
CONTINUOUS
 62
     5
 10
289.55103566700001
 20
-86.552924695299907
 30
0.0
 11
289.29598090450008
 21
-86.579323369999884
 31
0.0
  0
LINE
  8
DETAIL
  6
CONTINUOUS
 62
     5
 10
289.29598090450008
 20
-86.579323369999884
 30
0.0
 11
289.05754387029992
 21
-86.596560287399598
 31
0.0
  0
LINE
  8
DETAIL
  6
CONTINUOUS
 62
     5
 10
289.05754387029992
 20
-86.596560287399598
 30
0.0
 11
288.82689031609988
 21
-86.606437111700188
 31
0.0
  0
LINE
  8
DETAIL
  6
CONTINUOUS
 62
     5
 10
285.23318444860001
 20
-90.345018919599852
 30
0.0
 11
285.56841268810012
 21
-90.271276756999896
 31
0.0
  0
LINE
  8
DETAIL
  6
CONTINUOUS
 62
     5
 10
290.13769356749998
 20
-86.46048309449975
 30
0.0
 11
290.11260577489998
 21
-86.465338622999525
 31
0.0
  0
LINE
  8
DETAIL
  6
CONTINUOUS
 62
     5
 10
290.11260577510012
 20
-86.465338622999525
 30
0.0
 11
290.06634161429997
 21
-86.473986274100071
 31
0.0
  0
LINE
  8
DETAIL
  6
CONTINUOUS
 62
     5
 10
290.06634161429997
 20
-86.473986274100071
 30
0.0
 11
290.04318259259981
 21
-86.47816638900008
 31
0.0
  0
LINE
  8
DETAIL
  6
CONTINUOUS
 62
     5
 10
290.04318259259981
 20
-86.47816638900008
 30
0.0
 11
289.99681207730009
 21
-86.486238943299895
 31
0.0
  0
LINE
  8
DETAIL
  6
CONTINUOUS
 62
     5
 10
289.99681207730009
 20
-86.486238943299895
 30
0.0
 11
289.97360114880013
 21
-86.490131284200061
 31
0.0
  0
LINE
  8
DETAIL
  6
CONTINUOUS
 62
     5
 10
289.97360114880013
 20
-86.490131284200061
 30
0.0
 11
289.93247286640008
 21
-86.496785953400149
 31
0.0
  0
LINE
  8
DETAIL
  6
CONTINUOUS
 62
     5
 10
288.59999999999991
 20
-86.550024423100012
 30
0.0
 11
288.51147997200002
 21
-86.565618274299823
 31
0.0
  0
LINE
  8
DETAIL
  6
CONTINUOUS
 62
     5
 10
288.51147997200002
 20
-86.565618274299823
 30
0.0
 11
288.42299877189998
 21
-86.577722377099917
 31
0.0
  0
LINE
  8
DETAIL
  6
CONTINUOUS
 62
     5
 10
288.42299877189998
 20
-86.577722377099917
 30
0.0
 11
288.33459521039998
 21
-86.586331422399553
 31
0.0
  0
LINE
  8
DETAIL
  6
CONTINUOUS
 62
     5
 10
288.33459521039998
 20
-86.586331422399553
 30
0.0
 11
288.24630806409982
 21
-86.591441633799832
 31
0.0
  0
LINE
  8
DETAIL
  6
CONTINUOUS
 62
     5
 10
288.24630806409982
 20
-86.591441633799832
 30
0.0
 11
288.14350518999998
 21
-86.59297850489952
 31
0.0
  0
LINE
  8
DETAIL
  6
CONTINUOUS
 62
     5
 10
288.14350518999998
 20
-86.59297850489952
 30
0.0
 11
288.05049169040012
 21
-86.590250213500212
 31
0.0
  0
LINE
  8
DETAIL
  6
CONTINUOUS
 62
     5
 10
272.6828669352999
 20
-105.5490320672
 30
0.0
 11
272.31200464440008
 21
-105.6039348611996
 31
0.0
  0
LINE
  8
DETAIL
  6
CONTINUOUS
 62
     5
 10
272.31200464440008
 20
-105.6039348611996
 30
0.0
 11
271.93624601179999
 21
-105.6580582679001
 31
0.0
  0
LINE
  8
DETAIL
  6
CONTINUOUS
 62
     5
 10
271.93624601179999
 20
-105.6580582679001
 30
0.0
 11
271.55574115029998
 21
-105.71141307160021
 31
0.0
  0
LINE
  8
DETAIL
  6
CONTINUOUS
 62
     5
 10
271.55574115029998
 20
-105.71141307160021
 30
0.0
 11
271.1706401724
 21
-105.7640100566002
 31
0.0
  0
LINE
  8
DETAIL
  6
CONTINUOUS
 62
     5
 10
271.1706401724
 20
-105.7640100566002
 30
0.0
 11
270.78109319099963
 21
-105.8158600073004
 31
0.0
  0
LINE
  8
DETAIL
  6
CONTINUOUS
 62
     5
 10
270.78109319099963
 20
-105.8158600073004
 30
0.0
 11
270.3872503186999
 21
-105.86697370809971
 31
0.0
  0
LINE
  8
DETAIL
  6
CONTINUOUS
 62
     5
 10
270.3872503186999
 20
-105.86697370809971
 30
0.0
 11
269.98926166829978
 21
-105.91736194319969
 31
0.0
  0
LINE
  8
DETAIL
  6
CONTINUOUS
 62
     5
 10
269.98926166829978
 20
-105.91736194319969
 30
0.0
 11
269.58727735249983
 21
-105.9670354969001
 31
0.0
  0
LINE
  8
DETAIL
  6
CONTINUOUS
 62
     5
 10
269.58727735249983
 20
-105.9670354969001
 30
0.0
 11
269.18144748399959
 21
-106.01600515369979
 31
0.0
  0
LINE
  8
DETAIL
  6
CONTINUOUS
 62
     5
 10
269.18144748399959
 20
-106.01600515369979
 30
0.0
 11
268.77192217550009
 21
-106.0642816976999
 31
0.0
  0
LINE
  8
DETAIL
  6
CONTINUOUS
 62
     5
 10
268.77192217550009
 20
-106.0642816976999
 30
0.0
 11
268.35885153970003
 21
-106.1118759133999
 31
0.0
  0
LINE
  8
DETAIL
  6
CONTINUOUS
 62
     5
 10
268.35885153970003
 20
-106.1118759133999
 30
0.0
 11
267.94238568949982
 21
-106.1587985850999
 31
0.0
  0
LINE
  8
DETAIL
  6
CONTINUOUS
 62
     5
 10
267.94238568949982
 20
-106.1587985850999
 30
0.0
 11
267.52267473739988
 21
-106.20506049710021
 31
0.0
  0
LINE
  8
DETAIL
  6
CONTINUOUS
 62
     5
 10
267.52267473739988
 20
-106.20506049710021
 30
0.0
 11
267.0998687962001
 21
-106.25067243369971
 31
0.0
  0
LINE
  8
DETAIL
  6
CONTINUOUS
 62
     5
 10
267.0998687962001
 20
-106.25067243369971
 30
0.0
 11
266.67411797859972
 21
-106.29564517920041
 31
0.0
  0
LINE
  8
DETAIL
  6
CONTINUOUS
 62
     5
 10
266.67411797859972
 20
-106.29564517920041
 30
0.0
 11
266.24557239739988
 21
-106.3399895180999
 31
0.0
  0
LINE
  8
DETAIL
  6
CONTINUOUS
 62
     5
 10
266.24557239739988
 20
-106.3399895180999
 30
0.0
 11
265.81438216519967
 21
-106.3837162345001
 31
0.0
  0
LINE
  8
DETAIL
  6
CONTINUOUS
 62
     5
 10
265.81438216519967
 20
-106.3837162345001
 30
0.0
 11
265.38069739479988
 21
-106.42683611290001
 31
0.0
  0
LINE
  8
DETAIL
  6
CONTINUOUS
 62
     5
 10
265.38069739479988
 20
-106.42683611290001
 30
0.0
 11
264.94466819889982
 21
-106.4693599375998
 31
0.0
  0
LINE
  8
DETAIL
  6
CONTINUOUS
 62
     5
 10
264.94466819889982
 20
-106.4693599375998
 30
0.0
 11
264.50644469019971
 21
-106.51129849280029
 31
0.0
  0
LINE
  8
DETAIL
  6
CONTINUOUS
 62
     5
 10
264.50644469019971
 20
-106.51129849280029
 30
0.0
 11
264.06617698140008
 21
-106.5526625629998
 31
0.0
  0
LINE
  8
DETAIL
  6
CONTINUOUS
 62
     5
 10
264.06617698140008
 20
-106.5526625629998
 30
0.0
 11
263.62401518529992
 21
-106.5934629323999
 31
0.0
  0
LINE
  8
DETAIL
  6
CONTINUOUS
 62
     5
 10
263.62401518529992
 20
-106.5934629323999
 30
0.0
 11
263.18010941449978
 21
-106.63371038539999
 31
0.0
  0
LINE
  8
DETAIL
  6
CONTINUOUS
 62
     5
 10
263.18010941449978
 20
-106.63371038539999
 30
0.0
 11
262.73460978189968
 21
-106.67341570629991
 31
0.0
  0
LINE
  8
DETAIL
  6
CONTINUOUS
 62
     5
 10
262.73460978189968
 20
-106.67341570629991
 30
0.0
 11
262.28766639999998
 21
-106.7125896793998
 31
0.0
  0
LINE
  8
DETAIL
  6
CONTINUOUS
 62
     5
 10
262.28766639999998
 20
-106.7125896793998
 30
0.0
 11
261.83942938159998
 21
-106.7512430890999
 31
0.0
  0
LINE
  8
DETAIL
  6
CONTINUOUS
 62
     5
 10
261.83942938159998
 20
-106.7512430890999
 30
0.0
 11
261.28290887499998
 21
-106.7983926289
 31
0.0
  0
LINE
  8
DETAIL
  6
CONTINUOUS
 62
     5
 10
261.28290887499998
 20
-106.7983926289
 30
0.0
 11
260.72496503330012
 21
-106.8447694696999
 31
0.0
  0
LINE
  8
DETAIL
  6
CONTINUOUS
 62
     5
 10
260.72496503330012
 20
-106.8447694696999
 30
0.0
 11
260.16592740609963
 21
-106.8903823429998
 31
0.0
  0
LINE
  8
DETAIL
  6
CONTINUOUS
 62
     5
 10
260.16592740609963
 20
-106.8903823429998
 30
0.0
 11
259.60612554279987
 21
-106.93523997989971
 31
0.0
  0
LINE
  8
DETAIL
  6
CONTINUOUS
 62
     5
 10
259.60612554279987
 20
-106.93523997989971
 30
0.0
 11
259.04588899279997
 21
-106.9793511117002
 31
0.0
  0
LINE
  8
DETAIL
  6
CONTINUOUS
 62
     5
 10
259.04588899279997
 20
-106.9793511117002
 30
0.0
 11
258.48554730559999
 21
-107.02272446970009
 31
0.0
  0
LINE
  8
DETAIL
  6
CONTINUOUS
 62
     5
 10
258.48554730559999
 20
-107.02272446970009
 30
0.0
 11
257.92543003069977
 21
-107.06536878499971
 31
0.0
  0
LINE
  8
DETAIL
  6
CONTINUOUS
 62
     5
 10
257.92543003069977
 20
-107.06536878499971
 30
0.0
 11
257.36586671750001
 21
-107.1072927891003
 31
0.0
  0
LINE
  8
DETAIL
  6
CONTINUOUS
 62
     5
 10
257.36586671750001
 20
-107.1072927891003
 30
0.0
 11
256.8071869155001
 21
-107.14850521309999
 31
0.0
  0
LINE
  8
DETAIL
  6
CONTINUOUS
 62
     5
 10
256.8071869155001
 20
-107.14850521309999
 30
0.0
 11
256.24972017419992
 21
-107.1890147881998
 31
0.0
  0
LINE
  8
DETAIL
  6
CONTINUOUS
 62
     5
 10
256.24972017419992
 20
-107.1890147881998
 30
0.0
 11
255.69379604299999
 21
-107.2288302457998
 31
0.0
  0
LINE
  8
DETAIL
  6
CONTINUOUS
 62
     5
 10
289.93247286719998
 20
-86.496785953300105
 30
0.0
 11
289.76935160829998
 21
-86.520149044800064
 31
0.0
  0
LINE
  8
DETAIL
  6
CONTINUOUS
 62
     5
 10
289.76935160829998
 20
-86.520149044800064
 30
0.0
 11
289.60553222269982
 21
-86.53878940970003
 31
0.0
  0
LINE
  8
DETAIL
  6
CONTINUOUS
 62
     5
 10
289.60553222269982
 20
-86.53878940970003
 30
0.0
 11
289.44111251379991
 21
-86.552695919500138
 31
0.0
  0
LINE
  8
DETAIL
  6
CONTINUOUS
 62
     5
 10
289.44111251379991
 20
-86.552695919500138
 30
0.0
 11
289.25259512159982
 21
-86.562781995499563
 31
0.0
  0
LINE
  8
DETAIL
  6
CONTINUOUS
 62
     5
 10
289.25259512159982
 20
-86.562781995499563
 30
0.0
 11
289.08721993280011
 21
-86.56652020460001
 31
0.0
  0
LINE
  8
DETAIL
  6
CONTINUOUS
 62
     5
 10
289.08721993280011
 20
-86.56652020460001
 30
0.0
 11
288.90366026570001
 21
-86.565114729600054
 31
0.0
  0
LINE
  8
DETAIL
  6
CONTINUOUS
 62
     5
 10
150.74658198740011
 20
-67.984455811900034
 30
0.0
 11
150.6111320862999
 21
-67.499587621899764
 31
0.0
  0
LINE
  8
DETAIL
  6
CONTINUOUS
 62
     5
 10
150.6111320862999
 20
-67.499587621899764
 30
0.0
 11
150.49999835390011
 21
-67.024724439399733
 31
0.0
  0
LINE
  8
DETAIL
  6
CONTINUOUS
 62
     5
 10
150.49999835390011
 20
-67.024724439399733
 30
0.0
 11
150.41309485949981
 21
-66.561694617699914
 31
0.0
  0
LINE
  8
DETAIL
  6
CONTINUOUS
 62
     5
 10
150.41309485949981
 20
-66.561694617699914
 30
0.0
 11
150.3506793949
 21
-66.105013097100027
 31
0.0
  0
LINE
  8
DETAIL
  6
CONTINUOUS
 62
     5
 10
150.3506793949
 20
-66.105013097100027
 30
0.0
 11
150.3130097518997
 21
-65.649194817700163
 31
0.0
  0
LINE
  8
DETAIL
  6
CONTINUOUS
 62
     5
 10
150.3130097518997
 20
-65.649194817700163
 30
0.0
 11
150.2999999999997
 21
-65.196068132800292
 31
0.0
  0
LINE
  8
DETAIL
  6
CONTINUOUS
 62
     5
 10
154.2999999999997
 20
-68.731602038699975
 30
0.0
 11
154.2869534166
 21
-68.610097805400301
 31
0.0
  0
LINE
  8
DETAIL
  6
CONTINUOUS
 62
     5
 10
154.2869534166
 20
-68.610097805400301
 30
0.0
 11
154.24927143409991
 21
-68.487931818500101
 31
0.0
  0
LINE
  8
DETAIL
  6
CONTINUOUS
 62
     5
 10
154.24927143409991
 20
-68.487931818500101
 30
0.0
 11
154.1868772710998
 21
-68.365616235599873
 31
0.0
  0
LINE
  8
DETAIL
  6
CONTINUOUS
 62
     5
 10
154.1868772710998
 20
-68.365616235599873
 30
0.0
 11
154.1000012713998
 21
-68.241614583799901
 31
0.0
  0
LINE
  8
DETAIL
  6
CONTINUOUS
 62
     5
 10
154.1000012713998
 20
-68.241614583799901
 30
0.0
 11
153.9888737789997
 21
-68.114390389999926
 31
0.0
  0
LINE
  8
DETAIL
  6
CONTINUOUS
 62
     5
 10
153.9888737789997
 20
-68.114390389999926
 30
0.0
 11
153.8534180125996
 21
-67.984455811900034
 31
0.0
  0
LINE
  8
DETAIL
  6
CONTINUOUS
 62
     5
 10
130.09999999999991
 20
-84.626646482199931
 30
0.0
 11
130.1213069504997
 21
-84.837337149700261
 31
0.0
  0
LINE
  8
DETAIL
  6
CONTINUOUS
 62
     5
 10
130.1213069504997
 20
-84.837337149700261
 30
0.0
 11
130.1824643518996
 21
-85.035374814899797
 31
0.0
  0
LINE
  8
DETAIL
  6
CONTINUOUS
 62
     5
 10
130.1824643518996
 20
-85.035374814899797
 30
0.0
 11
130.28003242129989
 21
-85.216768810799977
 31
0.0
  0
LINE
  8
DETAIL
  6
CONTINUOUS
 62
     5
 10
130.28003242129989
 20
-85.216768810799977
 30
0.0
 11
130.40438320599969
 21
-85.370883787200228
 31
0.0
  0
LINE
  8
DETAIL
  6
CONTINUOUS
 62
     5
 10
130.40438320599969
 20
-85.370883787200228
 30
0.0
 11
130.54290140489999
 21
-85.493242576900002
 31
0.0
  0
LINE
  8
DETAIL
  6
CONTINUOUS
 62
     5
 10
130.54290140489999
 20
-85.493242576900002
 30
0.0
 11
130.6915028876997
 21
-85.589888037200353
 31
0.0
  0
LINE
  8
DETAIL
  6
CONTINUOUS
 62
     5
 10
154.2999999999997
 20
-60.366439001299803
 30
0.0
 11
154.2865881340999
 21
-60.031446693900079
 31
0.0
  0
LINE
  8
DETAIL
  6
CONTINUOUS
 62
     5
 10
154.2865881340999
 20
-60.031446693900079
 30
0.0
 11
154.24851812679981
 21
-59.695751536999751
 31
0.0
  0
LINE
  8
DETAIL
  6
CONTINUOUS
 62
     5
 10
154.24851812679981
 20
-59.695751536999751
 30
0.0
 11
154.1855548951996
 21
-59.360650084400049
 31
0.0
  0
LINE
  8
DETAIL
  6
CONTINUOUS
 62
     5
 10
154.1855548951996
 20
-59.360650084400049
 30
0.0
 11
154.0984036883001
 21
-59.022252674200217
 31
0.0
  0
LINE
  8
DETAIL
  6
CONTINUOUS
 62
     5
 10
154.0984036883001
 20
-59.022252674200217
 30
0.0
 11
153.98776975510009
 21
-58.676669644399908
 31
0.0
  0
LINE
  8
DETAIL
  6
CONTINUOUS
 62
     5
 10
153.98776975510009
 20
-58.676669644399908
 30
0.0
 11
153.8534180125996
 21
-58.325197548999988
 31
0.0
  0
LINE
  8
DETAIL
  6
CONTINUOUS
 62
     5
 10
154.2999999999997
 20
-65.196068132800292
 30
0.0
 11
154.2869534166
 21
-64.742608160799819
 31
0.0
  0
LINE
  8
DETAIL
  6
CONTINUOUS
 62
     5
 10
154.2869534166
 20
-64.742608160799819
 30
0.0
 11
154.24927143409991
 21
-64.286678490699842
 31
0.0
  0
LINE
  8
DETAIL
  6
CONTINUOUS
 62
     5
 10
154.24927143409991
 20
-64.286678490699842
 30
0.0
 11
154.1868772710998
 21
-63.83019052090026
 31
0.0
  0
LINE
  8
DETAIL
  6
CONTINUOUS
 62
     5
 10
154.1868772710998
 20
-63.83019052090026
 30
0.0
 11
154.1000012713998
 21
-63.367410056099523
 31
0.0
  0
LINE
  8
DETAIL
  6
CONTINUOUS
 62
     5
 10
154.1000012713998
 20
-63.367410056099523
 30
0.0
 11
153.9888737789997
 21
-62.892602900900101
 31
0.0
  0
LINE
  8
DETAIL
  6
CONTINUOUS
 62
     5
 10
153.9888737789997
 20
-62.892602900900101
 30
0.0
 11
153.8534180125996
 21
-62.407680453599603
 31
0.0
  0
LINE
  8
DETAIL
  6
CONTINUOUS
 62
     5
 10
114.5
 20
-312.62563132919968
 30
0.0
 11
114.5
 21
-289.64466094059958
 31
0.0
  0
LINE
  8
DETAIL
  6
CONTINUOUS
 62
     5
 10
114.5
 20
312.62563132929989
 30
0.0
 11
114.5
 21
289.64466094070008
 31
0.0
  0
LINE
  8
DETAIL
  6
CONTINUOUS
 62
     5
 10
115.2343782649998
 20
-349.51599999999979
 30
0.0
 11
115.2343782649998
 21
-302.72613639260021
 31
0.0
  0
LINE
  8
DETAIL
  6
CONTINUOUS
 62
     5
 10
115.2343782649998
 20
-273.73475836389957
 30
0.0
 11
115.234378265
 21
273.73475836399962
 31
0.0
  0
LINE
  8
DETAIL
  6
CONTINUOUS
 62
     5
 10
115.234378265
 20
302.7261363926998
 30
0.0
 11
115.234378265
 21
349.5160000000003
 31
0.0
  0
LINE
  8
DETAIL
  6
CONTINUOUS
 62
     5
 10
119.2343782649998
 20
-349.51599999999979
 30
0.0
 11
119.2343782649998
 21
-302.72613639260021
 31
0.0
  0
LINE
  8
DETAIL
  6
CONTINUOUS
 62
     5
 10
119.2343782649998
 20
-273.73475836389957
 30
0.0
 11
119.234378265
 21
273.73475836399962
 31
0.0
  0
LINE
  8
DETAIL
  6
CONTINUOUS
 62
     5
 10
119.234378265
 20
302.7261363926998
 30
0.0
 11
119.234378265
 21
349.5160000000003
 31
0.0
  0
LINE
  8
DETAIL
  6
CONTINUOUS
 62
     5
 10
119.5
 20
-307.08776461219998
 30
0.0
 11
119.5
 21
-302.72613639260021
 31
0.0
  0
LINE
  8
DETAIL
  6
CONTINUOUS
 62
     5
 10
123.0
 20
-307.08776461219998
 30
0.0
 11
123.0
 21
-302.72613639260021
 31
0.0
  0
LINE
  8
DETAIL
  6
CONTINUOUS
 62
     5
 10
124.0
 20
-306.33238097660001
 30
0.0
 11
124.0
 21
-302.72613639260021
 31
0.0
  0
LINE
  8
DETAIL
  6
CONTINUOUS
 62
     5
 10
130.09999999999991
 20
-84.626646482199931
 30
0.0
 11
130.09999999999991
 21
-83.899999999999864
 31
0.0
  0
LINE
  8
DETAIL
  6
CONTINUOUS
 62
     5
 10
150.2999999999997
 20
-68.901972907199934
 30
0.0
 11
150.2999999999997
 21
-58.901972907199927
 31
0.0
  0
LINE
  8
DETAIL
  6
CONTINUOUS
 62
     5
 10
150.30000000000021
 20
65.970330833100206
 30
0.0
 11
150.30000000000021
 21
75.970330833100206
 31
0.0
  0
LINE
  8
DETAIL
  6
CONTINUOUS
 62
     5
 10
154.30000000000021
 20
79.970243269299999
 30
0.0
 11
154.30000000000021
 21
61.970418396900413
 31
0.0
  0
LINE
  8
DETAIL
  6
CONTINUOUS
 62
     5
 10
154.2999999999997
 20
-54.902060471000141
 30
0.0
 11
154.2999999999997
 21
-72.901885343500226
 31
0.0
  0
LINE
  8
DETAIL
  6
CONTINUOUS
 62
     5
 10
150.30000000000021
 20
72.264426058600066
 30
0.0
 11
150.31304817040021
 21
72.71789620190043
 31
0.0
  0
LINE
  8
DETAIL
  6
CONTINUOUS
 62
     5
 10
150.31304817040021
 20
72.71789620190043
 30
0.0
 11
150.35072939139991
 21
73.173823164799842
 31
0.0
  0
LINE
  8
DETAIL
  6
CONTINUOUS
 62
     5
 10
150.35072939139991
 20
73.173823164799842
 30
0.0
 11
150.41311883750021
 21
73.630287289099897
 31
0.0
  0
LINE
  8
DETAIL
  6
CONTINUOUS
 62
     5
 10
150.41311883750021
 20
73.630287289099897
 30
0.0
 11
150.4999909850003
 21
74.093047548800087
 31
0.0
  0
LINE
  8
DETAIL
  6
CONTINUOUS
 62
     5
 10
150.4999909850003
 20
74.093047548800087
 30
0.0
 11
150.61112031010001
 21
74.567862917699813
 31
0.0
  0
LINE
  8
DETAIL
  6
CONTINUOUS
 62
     5
 10
150.61112031010001
 20
74.567862917699813
 30
0.0
 11
150.74658198740011
 21
75.052813737799852
 31
0.0
  0
LINE
  8
DETAIL
  6
CONTINUOUS
 62
     5
 10
150.2999999999997
 20
-65.196068132800292
 30
0.0
 11
150.31304817040021
 21
-64.742597989399883
 31
0.0
  0
LINE
  8
DETAIL
  6
CONTINUOUS
 62
     5
 10
150.31304817040021
 20
-64.742597989399883
 30
0.0
 11
150.35072939139991
 21
-64.286671026600061
 31
0.0
  0
LINE
  8
DETAIL
  6
CONTINUOUS
 62
     5
 10
150.35072939139991
 20
-64.286671026600061
 30
0.0
 11
150.4131188374997
 21
-63.830206902300461
 31
0.0
  0
LINE
  8
DETAIL
  6
CONTINUOUS
 62
     5
 10
150.4131188374997
 20
-63.830206902300461
 30
0.0
 11
150.4999909850001
 21
-63.367446642599823
 31
0.0
  0
LINE
  8
DETAIL
  6
CONTINUOUS
 62
     5
 10
150.4999909850001
 20
-63.367446642599823
 30
0.0
 11
150.61112031010001
 21
-62.892631273699642
 31
0.0
  0
LINE
  8
DETAIL
  6
CONTINUOUS
 62
     5
 10
150.61112031010001
 20
-62.892631273699642
 30
0.0
 11
150.74658198740011
 21
-62.407680453599603
 31
0.0
  0
LINE
  8
DETAIL
  6
CONTINUOUS
 62
     5
 10
150.30000000000021
 20
67.434796927200068
 30
0.0
 11
150.31341237700011
 21
67.769788679699786
 31
0.0
  0
LINE
  8
DETAIL
  6
CONTINUOUS
 62
     5
 10
150.31341237700011
 20
67.769788679699786
 30
0.0
 11
150.35148088479991
 21
68.105477896800267
 31
0.0
  0
LINE
  8
DETAIL
  6
CONTINUOUS
 62
     5
 10
150.35148088479991
 20
68.105477896800267
 30
0.0
 11
150.41443891299991
 21
68.440562767799975
 31
0.0
  0
LINE
  8
DETAIL
  6
CONTINUOUS
 62
     5
 10
150.41443891299991
 20
68.440562767799975
 30
0.0
 11
150.50158629250021
 21
68.778948724400152
 31
0.0
  0
LINE
  8
DETAIL
  6
CONTINUOUS
 62
     5
 10
150.50158629250021
 20
68.778948724400152
 30
0.0
 11
150.61222285410011
 21
69.124541198499855
 31
0.0
  0
LINE
  8
DETAIL
  6
CONTINUOUS
 62
     5
 10
150.61222285410011
 20
69.124541198499855
 30
0.0
 11
150.74658198740011
 21
69.476038379500324
 31
0.0
  0
LINE
  8
DETAIL
  6
CONTINUOUS
 62
     5
 10
150.2999999999997
 20
-60.366439001299803
 30
0.0
 11
150.31341237700011
 21
-60.031447248800077
 31
0.0
  0
LINE
  8
DETAIL
  6
CONTINUOUS
 62
     5
 10
150.31341237700011
 20
-60.031447248800077
 30
0.0
 11
150.35148088479991
 21
-59.695758031700052
 31
0.0
  0
LINE
  8
DETAIL
  6
CONTINUOUS
 62
     5
 10
150.35148088479991
 20
-59.695758031700052
 30
0.0
 11
150.41443891299991
 21
-59.360673160699889
 31
0.0
  0
LINE
  8
DETAIL
  6
CONTINUOUS
 62
     5
 10
150.41443891299991
 20
-59.360673160699889
 30
0.0
 11
150.50158629250021
 21
-59.022287204100166
 31
0.0
  0
LINE
  8
DETAIL
  6
CONTINUOUS
 62
     5
 10
150.50158629250021
 20
-59.022287204100166
 30
0.0
 11
150.6122228540996
 21
-58.676694730000008
 31
0.0
  0
LINE
  8
DETAIL
  6
CONTINUOUS
 62
     5
 10
150.6122228540996
 20
-58.676694730000008
 30
0.0
 11
150.74658198740011
 21
-58.325197548999988
 31
0.0
  0
LINE
  8
DETAIL
  6
CONTINUOUS
 62
     5
 10
150.30000000000021
 20
75.799959964599793
 30
0.0
 11
150.31304817040021
 21
75.921466923299931
 31
0.0
  0
LINE
  8
DETAIL
  6
CONTINUOUS
 62
     5
 10
150.31304817040021
 20
75.921466923299931
 30
0.0
 11
150.35072939139991
 21
76.04363218479989
 31
0.0
  0
LINE
  8
DETAIL
  6
CONTINUOUS
 62
     5
 10
150.35072939139991
 20
76.04363218479989
 30
0.0
 11
150.40169840489989
 21
76.146716976000107
 31
0.0
  0
LINE
  8
DETAIL
  6
CONTINUOUS
 62
     5
 10
153.8534180125998
 20
69.476038379500324
 30
0.0
 11
153.98886233500019
 21
69.960879723599874
 31
0.0
  0
LINE
  8
DETAIL
  6
CONTINUOUS
 62
     5
 10
153.98886233500019
 20
69.960879723599874
 30
0.0
 11
154.0999943586003
 21
70.435735321000038
 31
0.0
  0
LINE
  8
DETAIL
  6
CONTINUOUS
 62
     5
 10
154.0999943586003
 20
70.435735321000038
 30
0.0
 11
154.1869015500001
 21
70.898784808200389
 31
0.0
  0
LINE
  8
DETAIL
  6
CONTINUOUS
 62
     5
 10
154.1869015500001
 20
70.898784808200389
 30
0.0
 11
154.24932150950011
 21
71.355489275600348
 31
0.0
  0
LINE
  8
DETAIL
  6
CONTINUOUS
 62
     5
 10
154.24932150950011
 20
71.355489275600348
 30
0.0
 11
154.28699183730009
 21
71.811309813600246
 31
0.0
  0
LINE
  8
DETAIL
  6
CONTINUOUS
 62
     5
 10
154.28699183730009
 20
71.811309813600246
 30
0.0
 11
154.30000000000021
 21
72.264426058600066
 31
0.0
  0
LINE
  8
DETAIL
  6
CONTINUOUS
 62
     5
 10
153.8534180125998
 20
65.393555474900268
 30
0.0
 11
153.98840467619991
 21
65.747000091400196
 31
0.0
  0
LINE
  8
DETAIL
  6
CONTINUOUS
 62
     5
 10
153.98840467619991
 20
65.747000091400196
 30
0.0
 11
154.0993428290999
 21
66.093850610400068
 31
0.0
  0
LINE
  8
DETAIL
  6
CONTINUOUS
 62
     5
 10
154.0993428290999
 20
66.093850610400068
 30
0.0
 11
154.18639561729989
 21
66.432889205899983
 31
0.0
  0
LINE
  8
DETAIL
  6
CONTINUOUS
 62
     5
 10
154.18639561729989
 20
66.432889205899983
 30
0.0
 11
154.24907360309999
 21
66.767769355899645
 31
0.0
  0
LINE
  8
DETAIL
  6
CONTINUOUS
 62
     5
 10
154.24907360309999
 20
66.767769355899645
 30
0.0
 11
154.28688734869999
 21
67.102144538299626
 31
0.0
  0
LINE
  8
DETAIL
  6
CONTINUOUS
 62
     5
 10
154.28688734869999
 20
67.102144538299626
 30
0.0
 11
154.30000000000021
 21
67.434796927200068
 31
0.0
  0
LINE
  8
DETAIL
  6
CONTINUOUS
 62
     5
 10
19.05341801259965
 20
-280.5689212275995
 30
0.0
 11
19.5
 21
-279.79541853569958
 31
0.0
  0
LINE
  8
DETAIL
  6
CONTINUOUS
 62
     5
 10
150.40183356130001
 20
-58.725592005200042
 30
0.0
 11
150.2999999999997
 21
-58.901972907199927
 31
0.0
  0
LINE
  8
DETAIL
  6
CONTINUOUS
 62
     5
 10
134.8802024250997
 20
-86.484063299699983
 30
0.0
 11
134.8578415813997
 21
-86.516093423099619
 31
0.0
  0
LINE
  8
DETAIL
  6
CONTINUOUS
 62
     5
 10
134.8578415813997
 20
-86.516093423099619
 30
0.0
 11
134.83209862019999
 21
-86.546918326799869
 31
0.0
  0
LINE
  8
DETAIL
  6
CONTINUOUS
 62
     5
 10
134.83209862019999
 20
-86.546918326799869
 30
0.0
 11
134.80617467539989
 21
-86.57155399160024
 31
0.0
  0
LINE
  8
DETAIL
  6
CONTINUOUS
 62
     5
 10
134.80617467539989
 20
-86.57155399160024
 30
0.0
 11
134.78335864899989
 21
-86.588017867499957
 31
0.0
  0
LINE
  8
DETAIL
  6
CONTINUOUS
 62
     5
 10
134.78335864899989
 20
-86.588017867499957
 30
0.0
 11
134.75714994410009
 21
-86.601000737199911
 31
0.0
  0
LINE
  8
DETAIL
  6
CONTINUOUS
 62
     5
 10
134.75714994410009
 20
-86.601000737199911
 30
0.0
 11
134.72948017030009
 21
-86.607928483799924
 31
0.0
  0
LINE
  8
DETAIL
  6
CONTINUOUS
 62
     5
 10
269.34658198739999
 20
69.478748265599961
 30
0.0
 11
269.21113766500002
 21
69.348835418900535
 31
0.0
  0
LINE
  8
DETAIL
  6
CONTINUOUS
 62
     5
 10
269.21113766500002
 20
69.348835418900535
 30
0.0
 11
269.10000564130002
 21
69.221598245100495
 31
0.0
  0
LINE
  8
DETAIL
  6
CONTINUOUS
 62
     5
 10
269.10000564130002
 20
69.221598245100495
 30
0.0
 11
269.0130984499001
 21
69.097524508999641
 31
0.0
  0
LINE
  8
DETAIL
  6
CONTINUOUS
 62
     5
 10
269.0130984499001
 20
69.097524508999641
 30
0.0
 11
269.00171353460019
 21
69.078358463699942
 31
0.0
  0
LINE
  8
DETAIL
  6
CONTINUOUS
 62
     5
 10
150.74658198740011
 20
-58.325197548999988
 30
0.0
 11
150.6111320862999
 21
-58.455117588899839
 31
0.0
  0
LINE
  8
DETAIL
  6
CONTINUOUS
 62
     5
 10
150.6111320862999
 20
-58.455117588899839
 30
0.0
 11
150.49999835390011
 21
-58.582356795199978
 31
0.0
  0
LINE
  8
DETAIL
  6
CONTINUOUS
 62
     5
 10
150.49999835390011
 20
-58.582356795199978
 30
0.0
 11
150.41309485949981
 21
-58.706425262000039
 31
0.0
  0
LINE
  8
DETAIL
  6
CONTINUOUS
 62
     5
 10
150.41309485949981
 20
-58.706425262000039
 30
0.0
 11
150.40171243169991
 21
-58.725587308099648
 31
0.0
  0
LINE
  8
DETAIL
  6
CONTINUOUS
 62
     5
 10
272.4534180126002
 20
58.325197548999988
 30
0.0
 11
272.5888679136001
 21
58.455117588999883
 31
0.0
  0
LINE
  8
DETAIL
  6
CONTINUOUS
 62
     5
 10
272.5888679136001
 20
58.455117588999883
 30
0.0
 11
272.70000164600037
 21
58.582356795300029
 31
0.0
  0
LINE
  8
DETAIL
  6
CONTINUOUS
 62
     5
 10
272.70000164600037
 20
58.582356795300029
 30
0.0
 11
272.78690514050032
 21
58.706425262000486
 31
0.0
  0
LINE
  8
DETAIL
  6
CONTINUOUS
 62
     5
 10
272.78690514050032
 20
58.706425262000486
 30
0.0
 11
272.79828756830011
 21
58.725587308100103
 31
0.0
  0
LINE
  8
DETAIL
  6
CONTINUOUS
 62
     5
 10
153.8534180125996
 20
-69.478748265499917
 30
0.0
 11
153.98886233499979
 21
-69.34883541890008
 31
0.0
  0
LINE
  8
DETAIL
  6
CONTINUOUS
 62
     5
 10
153.98886233499979
 20
-69.34883541890008
 30
0.0
 11
154.09999435859979
 21
-69.22159824510004
 31
0.0
  0
LINE
  8
DETAIL
  6
CONTINUOUS
 62
     5
 10
154.09999435859979
 20
-69.22159824510004
 30
0.0
 11
154.1869015499999
 21
-69.097524508900051
 31
0.0
  0
LINE
  8
DETAIL
  6
CONTINUOUS
 62
     5
 10
154.1869015499999
 20
-69.097524508900051
 30
0.0
 11
154.19828646529979
 21
-69.078358463699942
 31
0.0
  0
LINE
  8
DETAIL
  6
CONTINUOUS
 62
     5
 10
282.49975140300012
 20
-87.483280711999896
 30
0.0
 11
282.26099037950007
 21
-87.569919034700206
 31
0.0
  0
LINE
  8
DETAIL
  6
CONTINUOUS
 62
     5
 10
282.26099037950007
 20
-87.569919034700206
 30
0.0
 11
282.0936065674
 21
-87.669084853100003
 31
0.0
  0
LINE
  8
DETAIL
  6
CONTINUOUS
 62
     5
 10
282.0936065674
 20
-87.669084853100003
 30
0.0
 11
282.00954129630009
 21
-87.775090835200217
 31
0.0
  0
LINE
  8
DETAIL
  6
CONTINUOUS
 62
     5
 10
282.00954129630009
 20
-87.775090835200217
 30
0.0
 11
282.01170239330008
 21
-87.881508030199939
 31
0.0
  0
LINE
  8
DETAIL
  6
CONTINUOUS
 62
     5
 10
282.01170239330008
 20
-87.881508030199939
 30
0.0
 11
282.10006839329981
 21
-87.987279443199668
 31
0.0
  0
LINE
  8
DETAIL
  6
CONTINUOUS
 62
     5
 10
282.10006839329981
 20
-87.987279443199668
 30
0.0
 11
282.27147052139998
 21
-88.085984389599844
 31
0.0
  0
LINE
  8
DETAIL
  6
CONTINUOUS
 62
     5
 10
282.27147052139998
 20
-88.085984389599844
 30
0.0
 11
282.51841768219992
 21
-88.173308989499901
 31
0.0
  0
LINE
  8
DETAIL
  6
CONTINUOUS
 62
     5
 10
282.51841768219992
 20
-88.173308989499901
 30
0.0
 11
282.82446186309988
 21
-88.244377253899756
 31
0.0
  0
LINE
  8
DETAIL
  6
CONTINUOUS
 62
     5
 10
282.82446186309988
 20
-88.244377253899756
 30
0.0
 11
283.18656326349992
 21
-88.298483293199979
 31
0.0
  0
LINE
  8
DETAIL
  6
CONTINUOUS
 62
     5
 10
283.18656326349992
 20
-88.298483293199979
 30
0.0
 11
283.58421575249992
 21
-88.331921764400022
 31
0.0
  0
LINE
  8
DETAIL
  6
CONTINUOUS
 62
     5
 10
283.58421575249992
 20
-88.331921764400022
 30
0.0
 11
283.9999999147999
 21
-88.343231245800098
 31
0.0
  0
LINE
  8
DETAIL
  6
CONTINUOUS
 62
     5
 10
278.35430179529999
 20
-84.25893077420028
 30
0.0
 11
278.60756550410002
 21
-84.183017950899966
 31
0.0
  0
LINE
  8
DETAIL
  6
CONTINUOUS
 62
     5
 10
278.60756550410002
 20
-84.183017950899966
 30
0.0
 11
278.91596239279988
 21
-84.106277366400036
 31
0.0
  0
LINE
  8
DETAIL
  6
CONTINUOUS
 62
     5
 10
278.91596239279988
 20
-84.106277366400036
 30
0.0
 11
279.28277133379987
 21
-84.029378649800265
 31
0.0
  0
LINE
  8
DETAIL
  6
CONTINUOUS
 62
     5
 10
279.28277133379987
 20
-84.029378649800265
 30
0.0
 11
279.69815570979989
 21
-83.95469951040036
 31
0.0
  0
LINE
  8
DETAIL
  6
CONTINUOUS
 62
     5
 10
279.69815570979989
 20
-83.95469951040036
 30
0.0
 11
280.15570948470008
 21
-83.884555426700217
 31
0.0
  0
LINE
  8
DETAIL
  6
CONTINUOUS
 62
     5
 10
280.15570948470008
 20
-83.884555426700217
 30
0.0
 11
280.64841978769982
 21
-83.820417563799992
 31
0.0
  0
LINE
  8
DETAIL
  6
CONTINUOUS
 62
     5
 10
280.64841978769982
 20
-83.820417563799992
 30
0.0
 11
281.16894708689978
 21
-83.764096390100121
 31
0.0
  0
LINE
  8
DETAIL
  6
CONTINUOUS
 62
     5
 10
281.16894708689978
 20
-83.764096390100121
 30
0.0
 11
281.71186532950009
 21
-83.7165376129999
 31
0.0
  0
LINE
  8
DETAIL
  6
CONTINUOUS
 62
     5
 10
281.71186532950009
 20
-83.7165376129999
 30
0.0
 11
282.27060542240002
 21
-83.678817054800447
 31
0.0
  0
LINE
  8
DETAIL
  6
CONTINUOUS
 62
     5
 10
282.27060542240002
 20
-83.678817054800447
 30
0.0
 11
282.84125695479997
 21
-83.651452057399865
 31
0.0
  0
LINE
  8
DETAIL
  6
CONTINUOUS
 62
     5
 10
282.84125695479997
 20
-83.651452057399865
 30
0.0
 11
283.4187910472001
 21
-83.634889031999819
 31
0.0
  0
LINE
  8
DETAIL
  6
CONTINUOUS
 62
     5
 10
283.4187910472001
 20
-83.634889031999819
 30
0.0
 11
283.99999401370002
 21
-83.629355496600283
 31
0.0
  0
LINE
  8
DETAIL
  6
CONTINUOUS
 62
     5
 10
283.99999401370002
 20
-83.629355496600283
 30
0.0
 11
284.09999999999991
 21
-83.630307609200145
 31
0.0
  0
LINE
  8
DETAIL
  6
CONTINUOUS
 62
     5
 10
285.56841268810012
 20
-90.271276756999896
 30
0.0
 11
285.91238473729982
 21
-90.176003764600182
 31
0.0
  0
LINE
  8
DETAIL
  6
CONTINUOUS
 62
     5
 10
285.91238473729982
 20
-90.176003764600182
 30
0.0
 11
286.24944366640011
 21
-90.062493402399696
 31
0.0
  0
LINE
  8
DETAIL
  6
CONTINUOUS
 62
     5
 10
286.24944366640011
 20
-90.062493402399696
 30
0.0
 11
286.58418773419999
 21
-89.928894283199725
 31
0.0
  0
LINE
  8
DETAIL
  6
CONTINUOUS
 62
     5
 10
286.58418773419999
 20
-89.928894283199725
 30
0.0
 11
286.91493263349997
 21
-89.775066399399975
 31
0.0
  0
LINE
  8
DETAIL
  6
CONTINUOUS
 62
     5
 10
286.91493263349997
 20
-89.775066399399975
 30
0.0
 11
287.24283643630002
 21
-89.599398350000001
 31
0.0
  0
LINE
  8
DETAIL
  6
CONTINUOUS
 62
     5
 10
287.24283643630002
 20
-89.599398350000001
 30
0.0
 11
287.56755306370002
 21
-89.40052014429989
 31
0.0
  0
LINE
  8
DETAIL
  6
CONTINUOUS
 62
     5
 10
287.56755306370002
 20
-89.40052014429989
 30
0.0
 11
287.89159224439982
 21
-89.174515701999781
 31
0.0
  0
LINE
  8
DETAIL
  6
CONTINUOUS
 62
     5
 10
287.89159224439982
 20
-89.174515701999781
 30
0.0
 11
288.21816926029987
 21
-88.915099013300051
 31
0.0
  0
LINE
  8
DETAIL
  6
CONTINUOUS
 62
     5
 10
288.21816926029987
 20
-88.915099013300051
 30
0.0
 11
288.54109460590013
 21
-88.622193045199992
 31
0.0
  0
LINE
  8
DETAIL
  6
CONTINUOUS
 62
     5
 10
278.35430179529999
 20
-86.330487067300282
 30
0.0
 11
278.57182410519999
 21
-86.270886282300353
 31
0.0
  0
LINE
  8
DETAIL
  6
CONTINUOUS
 62
     5
 10
278.57182410519999
 20
-86.270886282300353
 30
0.0
 11
278.8377230223
 21
-86.20960760840012
 31
0.0
  0
LINE
  8
DETAIL
  6
CONTINUOUS
 62
     5
 10
278.8377230223
 20
-86.20960760840012
 30
0.0
 11
279.15380030609998
 21
-86.146841739299589
 31
0.0
  0
LINE
  8
DETAIL
  6
CONTINUOUS
 62
     5
 10
279.15380030609998
 20
-86.146841739299589
 30
0.0
 11
279.51465067830009
 21
-86.084375623300048
 31
0.0
  0
LINE
  8
DETAIL
  6
CONTINUOUS
 62
     5
 10
279.51465067830009
 20
-86.084375623300048
 30
0.0
 11
279.91716616560012
 21
-86.023911196999734
 31
0.0
  0
LINE
  8
DETAIL
  6
CONTINUOUS
 62
     5
 10
279.91716616560012
 20
-86.023911196999734
 30
0.0
 11
280.35625661140011
 21
-85.966752576600129
 31
0.0
  0
LINE
  8
DETAIL
  6
CONTINUOUS
 62
     5
 10
280.35625661140011
 20
-85.966752576600129
 30
0.0
 11
280.82855718309997
 21
-85.914428715400163
 31
0.0
  0
LINE
  8
DETAIL
  6
CONTINUOUS
 62
     5
 10
280.82855718309997
 20
-85.914428715400163
 30
0.0
 11
281.32578393509988
 21
-85.868165823899972
 31
0.0
  0
LINE
  8
DETAIL
  6
CONTINUOUS
 62
     5
 10
281.32578393509988
 20
-85.868165823899972
 30
0.0
 11
281.83898401739998
 21
-85.829495880100012
 31
0.0
  0
LINE
  8
DETAIL
  6
CONTINUOUS
 62
     5
 10
281.83898401739998
 20
-85.829495880100012
 30
0.0
 11
282.36679931070012
 21
-85.798757515399984
 31
0.0
  0
LINE
  8
DETAIL
  6
CONTINUOUS
 62
     5
 10
282.36679931070012
 20
-85.798757515399984
 30
0.0
 11
282.90684931599998
 21
-85.77641484460014
 31
0.0
  0
LINE
  8
DETAIL
  6
CONTINUOUS
 62
     5
 10
282.90684931599998
 20
-85.77641484460014
 30
0.0
 11
283.45324832239999
 21
-85.7628428016003
 31
0.0
  0
LINE
  8
DETAIL
  6
CONTINUOUS
 62
     5
 10
283.45324832239999
 20
-85.7628428016003
 30
0.0
 11
283.99907773189989
 21
-85.75828940299948
 31
0.0
  0
LINE
  8
DETAIL
  6
CONTINUOUS
 62
     5
 10
283.99907773189989
 20
-85.75828940299948
 30
0.0
 11
284.54505570650008
 21
-85.762814902900345
 31
0.0
  0
LINE
  8
DETAIL
  6
CONTINUOUS
 62
     5
 10
284.54505570650008
 20
-85.762814902900345
 30
0.0
 11
285.04455163000011
 21
-85.775202943300201
 31
0.0
  0
LINE
  8
DETAIL
  6
CONTINUOUS
 62
     5
 10
13.0
 20
-245.8040405070999
 30
0.0
 11
16.400000000000091
 21
-245.8040405070999
 31
0.0
  0
LINE
  8
DETAIL
  6
CONTINUOUS
 62
     5
 10
150.74658198740011
 20
69.476038379500324
 30
0.0
 11
150.6111320863001
 21
69.960906569500139
 31
0.0
  0
LINE
  8
DETAIL
  6
CONTINUOUS
 62
     5
 10
150.6111320863001
 20
69.960906569500139
 30
0.0
 11
150.49999835390011
 21
70.435769752000169
 31
0.0
  0
LINE
  8
DETAIL
  6
CONTINUOUS
 62
     5
 10
150.49999835390011
 20
70.435769752000169
 30
0.0
 11
150.41309485950001
 21
70.898799573599945
 31
0.0
  0
LINE
  8
DETAIL
  6
CONTINUOUS
 62
     5
 10
150.41309485950001
 20
70.898799573599945
 30
0.0
 11
150.3506793949002
 21
71.35548109430033
 31
0.0
  0
LINE
  8
DETAIL
  6
CONTINUOUS
 62
     5
 10
150.3506793949002
 20
71.35548109430033
 30
0.0
 11
150.3130097518999
 21
71.811299373700194
 31
0.0
  0
LINE
  8
DETAIL
  6
CONTINUOUS
 62
     5
 10
150.3130097518999
 20
71.811299373700194
 30
0.0
 11
150.30000000000021
 21
72.264426058600066
 31
0.0
  0
LINE
  8
DETAIL
  6
CONTINUOUS
 62
     5
 10
154.30000000000021
 20
75.799959964599793
 30
0.0
 11
154.2869534166002
 21
75.921464197899923
 31
0.0
  0
LINE
  8
DETAIL
  6
CONTINUOUS
 62
     5
 10
154.2869534166002
 20
75.921464197899923
 30
0.0
 11
154.24927143410039
 21
76.043630184800122
 31
0.0
  0
LINE
  8
DETAIL
  6
CONTINUOUS
 62
     5
 10
154.24927143410039
 20
76.043630184800122
 30
0.0
 11
154.19830045980009
 21
76.146716932000118
 31
0.0
  0
LINE
  8
DETAIL
  6
CONTINUOUS
 62
     5
 10
154.30000000000021
 20
67.434796927200068
 30
0.0
 11
154.2865881340999
 21
67.769789234599784
 31
0.0
  0
LINE
  8
DETAIL
  6
CONTINUOUS
 62
     5
 10
154.2865881340999
 20
67.769789234599784
 30
0.0
 11
154.24851812680001
 21
68.105484391499658
 31
0.0
  0
LINE
  8
DETAIL
  6
CONTINUOUS
 62
     5
 10
154.24851812680001
 20
68.105484391499658
 30
0.0
 11
154.18555489520011
 21
68.440585844099814
 31
0.0
  0
LINE
  8
DETAIL
  6
CONTINUOUS
 62
     5
 10
154.18555489520011
 20
68.440585844099814
 30
0.0
 11
154.0984036883001
 21
68.778983254300101
 31
0.0
  0
LINE
  8
DETAIL
  6
CONTINUOUS
 62
     5
 10
154.0984036883001
 20
68.778983254300101
 30
0.0
 11
153.98776975510009
 21
69.124566284099956
 31
0.0
  0
LINE
  8
DETAIL
  6
CONTINUOUS
 62
     5
 10
153.98776975510009
 20
69.124566284099956
 30
0.0
 11
153.8534180125998
 21
69.476038379500324
 31
0.0
  0
LINE
  8
DETAIL
  6
CONTINUOUS
 62
     5
 10
154.30000000000021
 20
72.264426058600066
 30
0.0
 11
154.2869534166002
 21
72.717886030600084
 31
0.0
  0
LINE
  8
DETAIL
  6
CONTINUOUS
 62
     5
 10
154.2869534166002
 20
72.717886030600084
 30
0.0
 11
154.24927143410039
 21
73.173815700700061
 31
0.0
  0
LINE
  8
DETAIL
  6
CONTINUOUS
 62
     5
 10
154.24927143410039
 20
73.173815700700061
 30
0.0
 11
154.1868772711
 21
73.630303670500098
 31
0.0
  0
LINE
  8
DETAIL
  6
CONTINUOUS
 62
     5
 10
154.1868772711
 20
73.630303670500098
 30
0.0
 11
154.10000127140029
 21
74.093084135299932
 31
0.0
  0
LINE
  8
DETAIL
  6
CONTINUOUS
 62
     5
 10
154.10000127140029
 20
74.093084135299932
 30
0.0
 11
153.98887377900019
 21
74.567891290500256
 31
0.0
  0
LINE
  8
DETAIL
  6
CONTINUOUS
 62
     5
 10
153.98887377900019
 20
74.567891290500256
 30
0.0
 11
153.8534180125998
 21
75.052813737799852
 31
0.0
  0
LINE
  8
DETAIL
  6
CONTINUOUS
 62
     5
 10
155.2999999999997
 20
-86.593346445599991
 30
0.0
 11
155.30000000000021
 21
86.593346445599991
 31
0.0
  0
LINE
  8
DETAIL
  6
CONTINUOUS
 62
     5
 10
195.59999999999991
 20
77.441627568800186
 30
0.0
 11
195.59999999999991
 21
224.23728368089971
 31
0.0
  0
LINE
  8
DETAIL
  6
CONTINUOUS
 62
     5
 10
195.59999999999991
 20
-77.441627568699687
 30
0.0
 11
195.59999999999991
 21
-224.23728368090019
 31
0.0
  0
LINE
  8
DETAIL
  6
CONTINUOUS
 62
     5
 10
150.2999999999997
 20
-68.731602038699975
 30
0.0
 11
150.31304817040021
 21
-68.610095079999837
 31
0.0
  0
LINE
  8
DETAIL
  6
CONTINUOUS
 62
     5
 10
150.31304817040021
 20
-68.610095079999837
 30
0.0
 11
150.35072939139991
 21
-68.487929818500334
 31
0.0
  0
LINE
  8
DETAIL
  6
CONTINUOUS
 62
     5
 10
150.35072939139991
 20
-68.487929818500334
 30
0.0
 11
150.4131188374997
 21
-68.36562062500002
 31
0.0
  0
LINE
  8
DETAIL
  6
CONTINUOUS
 62
     5
 10
150.4131188374997
 20
-68.36562062500002
 30
0.0
 11
150.4999909850001
 21
-68.241624387100046
 31
0.0
  0
LINE
  8
DETAIL
  6
CONTINUOUS
 62
     5
 10
150.4999909850001
 20
-68.241624387100046
 30
0.0
 11
150.61112031010001
 21
-68.114397992499789
 31
0.0
  0
LINE
  8
DETAIL
  6
CONTINUOUS
 62
     5
 10
150.61112031010001
 20
-68.114397992499789
 30
0.0
 11
150.74658198740011
 21
-67.984455811900034
 31
0.0
  0
LINE
  8
DETAIL
  6
CONTINUOUS
 62
     5
 10
153.8534180125996
 20
-67.984455811900034
 30
0.0
 11
153.98886233499979
 21
-67.499614467800029
 31
0.0
  0
LINE
  8
DETAIL
  6
CONTINUOUS
 62
     5
 10
153.98886233499979
 20
-67.499614467800029
 30
0.0
 11
154.09999435859979
 21
-67.024758870400319
 31
0.0
  0
LINE
  8
DETAIL
  6
CONTINUOUS
 62
     5
 10
154.09999435859979
 20
-67.024758870400319
 30
0.0
 11
154.1869015499999
 21
-66.561709383199968
 31
0.0
  0
LINE
  8
DETAIL
  6
CONTINUOUS
 62
     5
 10
154.1869015499999
 20
-66.561709383199968
 30
0.0
 11
154.24932150950011
 21
-66.105004915800009
 31
0.0
  0
LINE
  8
DETAIL
  6
CONTINUOUS
 62
     5
 10
154.24932150950011
 20
-66.105004915800009
 30
0.0
 11
154.28699183729989
 21
-65.649184377800111
 31
0.0
  0
LINE
  8
DETAIL
  6
CONTINUOUS
 62
     5
 10
154.28699183729989
 20
-65.649184377800111
 30
0.0
 11
154.2999999999997
 21
-65.196068132800292
 31
0.0
  0
LINE
  8
DETAIL
  6
CONTINUOUS
 62
     5
 10
153.8534180125996
 20
-62.407680453599603
 30
0.0
 11
153.98840467619991
 21
-62.054235837100123
 31
0.0
  0
LINE
  8
DETAIL
  6
CONTINUOUS
 62
     5
 10
153.98840467619991
 20
-62.054235837100123
 30
0.0
 11
154.0993428290999
 21
-61.707385318099803
 31
0.0
  0
LINE
  8
DETAIL
  6
CONTINUOUS
 62
     5
 10
154.0993428290999
 20
-61.707385318099803
 30
0.0
 11
154.1863956172997
 21
-61.368346722599881
 31
0.0
  0
LINE
  8
DETAIL
  6
CONTINUOUS
 62
     5
 10
154.1863956172997
 20
-61.368346722599881
 30
0.0
 11
154.24907360309999
 21
-61.033466572599757
 31
0.0
  0
LINE
  8
DETAIL
  6
CONTINUOUS
 62
     5
 10
154.24907360309999
 20
-61.033466572599757
 30
0.0
 11
154.28688734869999
 21
-60.699091390200238
 31
0.0
  0
LINE
  8
DETAIL
  6
CONTINUOUS
 62
     5
 10
154.28688734869999
 20
-60.699091390200238
 30
0.0
 11
154.2999999999997
 21
-60.366439001299803
 31
0.0
  0
LINE
  8
DETAIL
  6
CONTINUOUS
 62
     5
 10
154.19828646529979
 20
-69.078358463699942
 30
0.0
 11
154.24932150950011
 21
-68.975150915699714
 31
0.0
  0
LINE
  8
DETAIL
  6
CONTINUOUS
 62
     5
 10
154.24932150950011
 20
-68.975150915699714
 30
0.0
 11
154.28699183729989
 21
-68.853014170599863
 31
0.0
  0
LINE
  8
DETAIL
  6
CONTINUOUS
 62
     5
 10
154.28699183729989
 20
-68.853014170599863
 30
0.0
 11
154.2999999999997
 21
-68.731602038699975
 31
0.0
  0
LINE
  8
DETAIL
  6
CONTINUOUS
 62
     5
 10
154.2999999999997
 20
-68.901972907199934
 30
0.0
 11
154.1981664386999
 21
-69.07835380929987
 31
0.0
  0
LINE
  8
DETAIL
  6
CONTINUOUS
 62
     5
 10
268.90000000000009
 20
68.901972907299978
 30
0.0
 11
269.00183356129992
 21
69.078353809400369
 31
0.0
  0
LINE
  8
DETAIL
  6
CONTINUOUS
 62
     5
 10
292.50849711230012
 20
-85.589888037200353
 30
0.0
 11
292.1440174162999
 21
-85.78181899929973
 31
0.0
  0
LINE
  8
DETAIL
  6
CONTINUOUS
 62
     5
 10
292.1440174162999
 20
-85.78181899929973
 30
0.0
 11
291.78230461549992
 21
-85.949473827200336
 31
0.0
  0
LINE
  8
DETAIL
  6
CONTINUOUS
 62
     5
 10
291.78230461549992
 20
-85.949473827200336
 30
0.0
 11
291.42481280750007
 21
-86.094335062099844
 31
0.0
  0
LINE
  8
DETAIL
  6
CONTINUOUS
 62
     5
 10
291.42481280750007
 20
-86.094335062099844
 30
0.0
 11
291.07647680539998
 21
-86.216695543300148
 31
0.0
  0
LINE
  8
DETAIL
  6
CONTINUOUS
 62
     5
 10
291.07647680539998
 20
-86.216695543300148
 30
0.0
 11
290.74340142980009
 21
-86.317172934700238
 31
0.0
  0
LINE
  8
DETAIL
  6
CONTINUOUS
 62
     5
 10
14.5
 20
-257.82485578720048
 30
0.0
 11
10.0
 21
-257.82485578720048
 31
0.0
  0
LINE
  8
DETAIL
  6
CONTINUOUS
 62
     5
 10
14.5
 20
-269.02191584379972
 30
0.0
 11
19.05341801259965
 21
-269.02191584379972
 31
0.0
  0
LINE
  8
DETAIL
  6
CONTINUOUS
 62
     5
 10
19.5
 20
-271.79541853569958
 30
0.0
 11
21.400000000000091
 21
-271.79541853569958
 31
0.0
  0
LINE
  8
DETAIL
  6
CONTINUOUS
 62
     5
 10
14.5
 20
-271.90866718980061
 30
0.0
 11
19.05341801259965
 21
-271.90866718980061
 31
0.0
  0
LINE
  8
DETAIL
  6
CONTINUOUS
 62
     5
 10
20.400000000000091
 20
-272.29541853569958
 30
0.0
 11
19.5
 21
-272.29541853569958
 31
0.0
  0
LINE
  8
DETAIL
  6
CONTINUOUS
 62
     5
 10
125.59999999999989
 20
-273.73475836389957
 30
0.0
 11
20.400000000000091
 21
-273.73475836389957
 31
0.0
  0
LINE
  8
DETAIL
  6
CONTINUOUS
 62
     5
 10
20.400000000000091
 20
-277.29541853569958
 30
0.0
 11
19.5
 21
-277.29541853569958
 31
0.0
  0
LINE
  8
DETAIL
  6
CONTINUOUS
 62
     5
 10
14.5
 20
-277.68216988170047
 30
0.0
 11
19.05341801259965
 21
-277.68216988170047
 31
0.0
  0
LINE
  8
DETAIL
  6
CONTINUOUS
 62
     5
 10
19.5
 20
-277.79541853569958
 30
0.0
 11
21.400000000000091
 21
-277.79541853569958
 31
0.0
  0
LINE
  8
DETAIL
  6
CONTINUOUS
 62
     5
 10
14.5
 20
-280.5689212275995
 30
0.0
 11
19.05341801259965
 21
-280.5689212275995
 31
0.0
  0
LINE
  8
DETAIL
  6
CONTINUOUS
 62
     5
 10
2.9999999999997731
 20
-287.5233405970996
 30
0.0
 11
6.3999999999998636
 21
-287.5233405970996
 31
0.0
  0
LINE
  8
DETAIL
  6
CONTINUOUS
 62
     5
 10
112.5
 20
-288.23044737829991
 30
0.0
 11
14.5
 21
-288.23044737829991
 31
0.0
  0
LINE
  8
DETAIL
  6
CONTINUOUS
 62
     5
 10
112.5
 20
-291.4124278935999
 30
0.0
 11
14.5
 21
-291.4124278935999
 31
0.0
  0
LINE
  8
DETAIL
  6
CONTINUOUS
 62
     5
 10
227.59999999999991
 20
-224.23728368090019
 30
0.0
 11
227.59999999999991
 21
-77.441627568699687
 31
0.0
  0
LINE
  8
DETAIL
  6
CONTINUOUS
 62
     5
 10
227.59999999999991
 20
77.441627568800186
 30
0.0
 11
227.6451339912303
 21
224.237283680937
 31
0.0
  0
LINE
  8
DETAIL
  6
CONTINUOUS
 62
     5
 10
269.34658198739999
 20
62.407680453700102
 30
0.0
 11
269.21159532379988
 21
62.054235837199712
 31
0.0
  0
LINE
  8
DETAIL
  6
CONTINUOUS
 62
     5
 10
269.21159532379988
 20
62.054235837199712
 30
0.0
 11
269.10065717079988
 21
61.707385318200288
 31
0.0
  0
LINE
  8
DETAIL
  6
CONTINUOUS
 62
     5
 10
269.10065717079988
 20
61.707385318200288
 30
0.0
 11
269.01360438260008
 21
61.368346722699933
 31
0.0
  0
LINE
  8
DETAIL
  6
CONTINUOUS
 62
     5
 10
269.01360438260008
 20
61.368346722699933
 30
0.0
 11
268.95092639680018
 21
61.033466572699808
 31
0.0
  0
LINE
  8
DETAIL
  6
CONTINUOUS
 62
     5
 10
268.95092639680018
 20
61.033466572699808
 30
0.0
 11
268.91311265130003
 21
60.699091390299827
 31
0.0
  0
LINE
  8
DETAIL
  6
CONTINUOUS
 62
     5
 10
268.91311265130003
 20
60.699091390299827
 30
0.0
 11
268.90000000000009
 21
60.366439001400288
 31
0.0
  0
LINE
  8
DETAIL
  6
CONTINUOUS
 62
     5
 10
269.00171353460019
 20
69.078358463699942
 30
0.0
 11
268.95067849040038
 21
68.975150915700169
 31
0.0
  0
LINE
  8
DETAIL
  6
CONTINUOUS
 62
     5
 10
268.95067849040038
 20
68.975150915700169
 30
0.0
 11
268.91300816259991
 21
68.853014170700362
 31
0.0
  0
LINE
  8
DETAIL
  6
CONTINUOUS
 62
     5
 10
268.91300816259991
 20
68.853014170700362
 30
0.0
 11
268.90000000000009
 21
68.731602038699975
 31
0.0
  0
LINE
  8
DETAIL
  6
CONTINUOUS
 62
     5
 10
272.79816643869981
 20
58.725592005300093
 30
0.0
 11
272.90000000000009
 21
58.901972907299978
 31
0.0
  0
LINE
  8
DETAIL
  6
CONTINUOUS
 62
     5
 10
269.34658198739999
 20
-75.052813737699807
 30
0.0
 11
269.21113766500002
 21
-75.182726584299644
 31
0.0
  0
LINE
  8
DETAIL
  6
CONTINUOUS
 62
     5
 10
269.21113766500002
 20
-75.182726584299644
 30
0.0
 11
269.10000564129967
 21
-75.309963758099684
 31
0.0
  0
LINE
  8
DETAIL
  6
CONTINUOUS
 62
     5
 10
269.10000564129967
 20
-75.309963758099684
 30
0.0
 11
269.0130984499001
 21
-75.434037494299673
 31
0.0
  0
LINE
  8
DETAIL
  6
CONTINUOUS
 62
     5
 10
269.0130984499001
 20
-75.434037494299673
 30
0.0
 11
268.95067849040021
 21
-75.55641108750001
 31
0.0
  0
LINE
  8
DETAIL
  6
CONTINUOUS
 62
     5
 10
268.95067849040021
 20
-75.55641108750001
 30
0.0
 11
268.91300816259968
 21
-75.678547832599861
 31
0.0
  0
LINE
  8
DETAIL
  6
CONTINUOUS
 62
     5
 10
268.91300816259968
 20
-75.678547832599861
 30
0.0
 11
268.90000000000009
 21
-75.799959964499749
 31
0.0
  0
LINE
  8
DETAIL
  6
CONTINUOUS
 62
     5
 10
286.30000000000001
 20
-86.579629643400267
 30
0.0
 11
286.2801595546
 21
-86.595524086600335
 31
0.0
  0
LINE
  8
DETAIL
  6
CONTINUOUS
 62
     5
 10
286.2801595546
 20
-86.595524086600335
 30
0.0
 11
286.22238515869998
 21
-86.609662677399911
 31
0.0
  0
LINE
  8
DETAIL
  6
CONTINUOUS
 62
     5
 10
286.22238515869998
 20
-86.609662677399911
 30
0.0
 11
286.1256989126
 21
-86.622272724099957
 31
0.0
  0
LINE
  8
DETAIL
  6
CONTINUOUS
 62
     5
 10
286.1256989126
 20
-86.622272724099957
 30
0.0
 11
285.9930345153
 21
-86.63314103739981
 31
0.0
  0
LINE
  8
DETAIL
  6
CONTINUOUS
 62
     5
 10
285.9930345153
 20
-86.63314103739981
 30
0.0
 11
285.82576066600001
 21
-86.642241956499902
 31
0.0
  0
LINE
  8
DETAIL
  6
CONTINUOUS
 62
     5
 10
285.82576066600001
 20
-86.642241956499902
 30
0.0
 11
285.62759446379982
 21
-86.649687292200042
 31
0.0
  0
LINE
  8
DETAIL
  6
CONTINUOUS
 62
     5
 10
285.62759446379982
 20
-86.649687292200042
 30
0.0
 11
285.40119468000012
 21
-86.655584876399871
 31
0.0
  0
LINE
  8
DETAIL
  6
CONTINUOUS
 62
     5
 10
285.40119468000012
 20
-86.655584876399871
 30
0.0
 11
285.15110499699989
 21
-86.660113822399808
 31
0.0
  0
LINE
  8
DETAIL
  6
CONTINUOUS
 62
     5
 10
285.15110499699989
 20
-86.660113822399808
 30
0.0
 11
284.88106876009988
 21
-86.663414401199816
 31
0.0
  0
LINE
  8
DETAIL
  6
CONTINUOUS
 62
     5
 10
284.88106876009988
 20
-86.663414401199816
 30
0.0
 11
284.59614575270012
 21
-86.665658951000069
 31
0.0
  0
LINE
  8
DETAIL
  6
CONTINUOUS
 62
     5
 10
284.59614575270012
 20
-86.665658951000069
 30
0.0
 11
284.3008988652
 21
-86.666945680499566
 31
0.0
  0
LINE
  8
DETAIL
  6
CONTINUOUS
 62
     5
 10
284.3008988652
 20
-86.666945680499566
 30
0.0
 11
284.00056212229993
 21
-86.667373843800078
 31
0.0
  0
LINE
  8
DETAIL
  6
CONTINUOUS
 62
     5
 10
289.84163102220009
 20
-85.956558844500023
 30
0.0
 11
289.64277847089988
 21
-86.100380894499949
 31
0.0
  0
LINE
  8
DETAIL
  6
CONTINUOUS
 62
     5
 10
289.64277847089988
 20
-86.100380894499949
 30
0.0
 11
289.44143605099998
 21
-86.226317149200213
 31
0.0
  0
LINE
  8
DETAIL
  6
CONTINUOUS
 62
     5
 10
289.44143605099998
 20
-86.226317149200213
 30
0.0
 11
289.2380845130001
 21
-86.334066907399801
 31
0.0
  0
LINE
  8
DETAIL
  6
CONTINUOUS
 62
     5
 10
289.2380845130001
 20
-86.334066907399801
 30
0.0
 11
289.03320940439988
 21
-86.423372892200177
 31
0.0
  0
LINE
  8
DETAIL
  6
CONTINUOUS
 62
     5
 10
289.03320940439988
 20
-86.423372892200177
 30
0.0
 11
288.81256548809961
 21
-86.498349572499819
 31
0.0
  0
LINE
  8
DETAIL
  6
CONTINUOUS
 62
     5
 10
288.81256548809961
 20
-86.498349572499819
 30
0.0
 11
288.60000001629987
 21
-86.550024419899501
 31
0.0
  0
LINE
  8
DETAIL
  6
CONTINUOUS
 62
     5
 10
296.70282096049982
 20
-85.400000891600257
 30
0.0
 11
297.05098359930003
 21
-85.174136627699909
 31
0.0
  0
LINE
  8
DETAIL
  6
CONTINUOUS
 62
     5
 10
297.05098359930003
 20
-85.174136627699909
 30
0.0
 11
297.29990098539997
 21
-84.926883654000221
 31
0.0
  0
LINE
  8
DETAIL
  6
CONTINUOUS
 62
     5
 10
297.29990098539997
 20
-84.926883654000221
 30
0.0
 11
297.44977418220009
 21
-84.656708660100094
 31
0.0
  0
LINE
  8
DETAIL
  6
CONTINUOUS
 62
     5
 10
297.44977418220009
 20
-84.656708660100094
 30
0.0
 11
297.5
 21
-84.365625639600012
 31
0.0
  0
LINE
  8
DETAIL
  6
CONTINUOUS
 62
     5
 10
114.5
 20
-296.3621753619002
 30
0.0
 11
125.59999999999989
 21
-296.3621753619002
 31
0.0
  0
LINE
  8
DETAIL
  6
CONTINUOUS
 62
     5
 10
5.0999999999999091
 20
-298.83704909609992
 30
0.0
 11
2.9999999999997731
 21
-298.83704909609992
 31
0.0
  0
LINE
  8
DETAIL
  6
CONTINUOUS
 62
     5
 10
125.59999999999989
 20
-302.72613639260021
 30
0.0
 11
114.5
 21
-302.72613639260021
 31
0.0
  0
LINE
  8
DETAIL
  6
CONTINUOUS
 62
     5
 10
119.2343782649998
 20
-302.79684707070032
 30
0.0
 11
119.5
 21
-302.79684707070032
 31
0.0
  0
LINE
  8
DETAIL
  6
CONTINUOUS
 62
     5
 10
119.2343782649998
 20
-306.33238097660001
 30
0.0
 11
119.5
 21
-306.33238097660001
 31
0.0
  0
LINE
  8
DETAIL
  6
CONTINUOUS
 62
     5
 10
123.0
 20
-306.33238097660001
 30
0.0
 11
124.0
 21
-306.33238097660001
 31
0.0
  0
LINE
  8
DETAIL
  6
CONTINUOUS
 62
     5
 10
123.0
 20
-307.08808545499983
 30
0.0
 11
119.5
 21
-307.08808545499983
 31
0.0
  0
LINE
  8
DETAIL
  6
CONTINUOUS
 62
     5
 10
14.5
 20
-314.03984489160052
 30
0.0
 11
112.5
 21
-314.03984489160052
 31
0.0
  0
LINE
  8
DETAIL
  6
CONTINUOUS
 62
     5
 10
20.5
 20
-336.50000000000028
 30
0.0
 11
20.0
 21
-336.50000000000028
 31
0.0
  0
LINE
  8
DETAIL
  6
CONTINUOUS
 62
     5
 10
272.45341801260003
 20
-69.476038379399824
 30
0.0
 11
272.5888679136001
 21
-69.96090656939964
 31
0.0
  0
LINE
  8
DETAIL
  6
CONTINUOUS
 62
     5
 10
272.5888679136001
 20
-69.96090656939964
 30
0.0
 11
272.70000164599992
 21
-70.43576975189967
 31
0.0
  0
LINE
  8
DETAIL
  6
CONTINUOUS
 62
     5
 10
272.70000164599992
 20
-70.43576975189967
 30
0.0
 11
272.78690514049998
 21
-70.89879957359949
 31
0.0
  0
LINE
  8
DETAIL
  6
CONTINUOUS
 62
     5
 10
272.78690514049998
 20
-70.89879957359949
 30
0.0
 11
272.84932060509982
 21
-71.355481094200286
 31
0.0
  0
LINE
  8
DETAIL
  6
CONTINUOUS
 62
     5
 10
272.84932060509982
 20
-71.355481094200286
 30
0.0
 11
272.88699024810012
 21
-71.81129937369974
 31
0.0
  0
LINE
  8
DETAIL
  6
CONTINUOUS
 62
     5
 10
272.88699024810012
 20
-71.81129937369974
 30
0.0
 11
272.90000000000009
 21
-72.264426058599611
 31
0.0
  0
LINE
  8
DETAIL
  6
CONTINUOUS
 62
     5
 10
272.4534180126002
 20
67.984455811900034
 30
0.0
 11
272.5888679136001
 21
67.499587621900218
 31
0.0
  0
LINE
  8
DETAIL
  6
CONTINUOUS
 62
     5
 10
272.5888679136001
 20
67.499587621900218
 30
0.0
 11
272.70000164600037
 21
67.024724439500233
 31
0.0
  0
LINE
  8
DETAIL
  6
CONTINUOUS
 62
     5
 10
272.70000164600037
 20
67.024724439500233
 30
0.0
 11
272.78690514050032
 21
66.561694617799958
 31
0.0
  0
LINE
  8
DETAIL
  6
CONTINUOUS
 62
     5
 10
272.78690514050032
 20
66.561694617799958
 30
0.0
 11
272.84932060509982
 21
66.105013097099572
 31
0.0
  0
LINE
  8
DETAIL
  6
CONTINUOUS
 62
     5
 10
272.84932060509982
 20
66.105013097099572
 30
0.0
 11
272.88699024810012
 21
65.649194817699708
 31
0.0
  0
LINE
  8
DETAIL
  6
CONTINUOUS
 62
     5
 10
272.88699024810012
 20
65.649194817699708
 30
0.0
 11
272.90000000000009
 21
65.196068132799837
 31
0.0
  0
LINE
  8
DETAIL
  6
CONTINUOUS
 62
     5
 10
270.5
 20
-84.365625639600012
 30
0.0
 11
270.55022581279968
 21
-84.656708655699958
 31
0.0
  0
LINE
  8
DETAIL
  6
CONTINUOUS
 62
     5
 10
270.55022581279968
 20
-84.656708655699958
 30
0.0
 11
270.70009900649978
 21
-84.926883643699739
 31
0.0
  0
LINE
  8
DETAIL
  6
CONTINUOUS
 62
     5
 10
270.70009900649978
 20
-84.926883643699739
 30
0.0
 11
270.94901639469981
 21
-85.174136620200215
 31
0.0
  0
LINE
  8
DETAIL
  6
CONTINUOUS
 62
     5
 10
270.94901639469981
 20
-85.174136620200215
 30
0.0
 11
271.29717903949972
 21
-85.400000891600257
 31
0.0
  0
LINE
  8
DETAIL
  6
CONTINUOUS
 62
     5
 10
268.90000000000009
 20
-75.799959964499749
 30
0.0
 11
268.9130465833
 21
-75.921464197800333
 31
0.0
  0
LINE
  8
DETAIL
  6
CONTINUOUS
 62
     5
 10
268.9130465833
 20
-75.921464197800333
 30
0.0
 11
268.95072856590008
 21
-76.043630184700078
 31
0.0
  0
LINE
  8
DETAIL
  6
CONTINUOUS
 62
     5
 10
268.95072856590008
 20
-76.043630184700078
 30
0.0
 11
269.00169954009971
 21
-76.146716932000118
 31
0.0
  0
LINE
  8
DETAIL
  6
CONTINUOUS
 62
     5
 10
268.90000000000009
 20
68.731602038699975
 30
0.0
 11
268.9130465833
 21
68.61009780549989
 31
0.0
  0
LINE
  8
DETAIL
  6
CONTINUOUS
 62
     5
 10
268.9130465833
 20
68.61009780549989
 30
0.0
 11
268.95072856590008
 21
68.487931818500101
 31
0.0
  0
LINE
  8
DETAIL
  6
CONTINUOUS
 62
     5
 10
268.95072856590008
 20
68.487931818500101
 30
0.0
 11
269.01312272890033
 21
68.365616235700372
 31
0.0
  0
LINE
  8
DETAIL
  6
CONTINUOUS
 62
     5
 10
269.01312272890033
 20
68.365616235700372
 30
0.0
 11
269.09999872850022
 21
68.2416145839004
 31
0.0
  0
LINE
  8
DETAIL
  6
CONTINUOUS
 62
     5
 10
269.09999872850022
 20
68.2416145839004
 30
0.0
 11
269.2111262209005
 21
68.114390390100425
 31
0.0
  0
LINE
  8
DETAIL
  6
CONTINUOUS
 62
     5
 10
269.2111262209005
 20
68.114390390100425
 30
0.0
 11
269.34658198739999
 21
67.984455811900034
 31
0.0
  0
LINE
  8
DETAIL
  6
CONTINUOUS
 62
     5
 10
268.90000000000009
 20
-67.434796927100024
 30
0.0
 11
268.91341186589972
 21
-67.76978923449974
 31
0.0
  0
LINE
  8
DETAIL
  6
CONTINUOUS
 62
     5
 10
268.91341186589972
 20
-67.76978923449974
 30
0.0
 11
268.95148187310002
 21
-68.105484391500113
 31
0.0
  0
LINE
  8
DETAIL
  6
CONTINUOUS
 62
     5
 10
268.95148187310002
 20
-68.105484391500113
 30
0.0
 11
269.01444510479968
 21
-68.440585844000225
 31
0.0
  0
LINE
  8
DETAIL
  6
CONTINUOUS
 62
     5
 10
269.01444510479968
 20
-68.440585844000225
 30
0.0
 11
269.10159631169972
 21
-68.778983254200057
 31
0.0
  0
LINE
  8
DETAIL
  6
CONTINUOUS
 62
     5
 10
269.10159631169972
 20
-68.778983254200057
 30
0.0
 11
269.21223024489967
 21
-69.124566283999911
 31
0.0
  0
LINE
  8
DETAIL
  6
CONTINUOUS
 62
     5
 10
269.21223024489967
 20
-69.124566283999911
 30
0.0
 11
269.34658198739999
 21
-69.476038379399824
 31
0.0
  0
LINE
  8
DETAIL
  6
CONTINUOUS
 62
     5
 10
268.90000000000009
 20
60.366439001400288
 30
0.0
 11
268.91341186589989
 21
60.031446693999669
 31
0.0
  0
LINE
  8
DETAIL
  6
CONTINUOUS
 62
     5
 10
268.91341186589989
 20
60.031446693999669
 30
0.0
 11
268.95148187310002
 21
59.695751537000213
 31
0.0
  0
LINE
  8
DETAIL
  6
CONTINUOUS
 62
     5
 10
268.95148187310002
 20
59.695751537000213
 30
0.0
 11
269.01444510480019
 21
59.360650084500087
 31
0.0
  0
LINE
  8
DETAIL
  6
CONTINUOUS
 62
     5
 10
269.01444510480019
 20
59.360650084500087
 30
0.0
 11
269.10159631170018
 21
59.022252674300262
 31
0.0
  0
LINE
  8
DETAIL
  6
CONTINUOUS
 62
     5
 10
269.10159631170018
 20
59.022252674300262
 30
0.0
 11
269.21223024490018
 21
58.676669644500407
 31
0.0
  0
LINE
  8
DETAIL
  6
CONTINUOUS
 62
     5
 10
269.21223024490018
 20
58.676669644500407
 30
0.0
 11
269.34658198739999
 21
58.325197548999988
 31
0.0
  0
LINE
  8
DETAIL
  6
CONTINUOUS
 62
     5
 10
268.90000000000009
 20
-72.264426058599611
 30
0.0
 11
268.9130465833
 21
-72.71788603059963
 31
0.0
  0
LINE
  8
DETAIL
  6
CONTINUOUS
 62
     5
 10
268.9130465833
 20
-72.71788603059963
 30
0.0
 11
268.95072856590008
 21
-73.173815700700061
 31
0.0
  0
LINE
  8
DETAIL
  6
CONTINUOUS
 62
     5
 10
268.95072856590008
 20
-73.173815700700061
 30
0.0
 11
269.01312272889982
 21
-73.630303670400053
 31
0.0
  0
LINE
  8
DETAIL
  6
CONTINUOUS
 62
     5
 10
269.01312272889982
 20
-73.630303670400053
 30
0.0
 11
269.09999872849988
 21
-74.093084135199888
 31
0.0
  0
LINE
  8
DETAIL
  6
CONTINUOUS
 62
     5
 10
269.09999872849988
 20
-74.093084135199888
 30
0.0
 11
269.21112622089998
 21
-74.567891290499801
 31
0.0
  0
LINE
  8
DETAIL
  6
CONTINUOUS
 62
     5
 10
269.21112622089998
 20
-74.567891290499801
 30
0.0
 11
269.34658198739999
 21
-75.052813737699807
 31
0.0
  0
LINE
  8
DETAIL
  6
CONTINUOUS
 62
     5
 10
268.90000000000009
 20
65.196068132799837
 30
0.0
 11
268.9130465833
 21
64.742608160799819
 31
0.0
  0
LINE
  8
DETAIL
  6
CONTINUOUS
 62
     5
 10
268.9130465833
 20
64.742608160799819
 30
0.0
 11
268.95072856590008
 21
64.286678490700297
 31
0.0
  0
LINE
  8
DETAIL
  6
CONTINUOUS
 62
     5
 10
268.95072856590008
 20
64.286678490700297
 30
0.0
 11
269.01312272890033
 21
63.830190520999849
 31
0.0
  0
LINE
  8
DETAIL
  6
CONTINUOUS
 62
     5
 10
269.01312272890033
 20
63.830190520999849
 30
0.0
 11
269.09999872850022
 21
63.367410056200008
 31
0.0
  0
LINE
  8
DETAIL
  6
CONTINUOUS
 62
     5
 10
269.09999872850022
 20
63.367410056200008
 30
0.0
 11
269.2111262209005
 21
62.892602900899647
 31
0.0
  0
LINE
  8
DETAIL
  6
CONTINUOUS
 62
     5
 10
269.2111262209005
 20
62.892602900899647
 30
0.0
 11
269.34658198739999
 21
62.407680453700102
 31
0.0
  0
LINE
  8
DETAIL
  6
CONTINUOUS
 62
     5
 10
267.90000000000009
 20
86.593346445599991
 30
0.0
 11
267.90000000000009
 21
-86.593346445599991
 31
0.0
  0
LINE
  8
DETAIL
  6
CONTINUOUS
 62
     5
 10
268.90000000000009
 20
72.901885343499771
 30
0.0
 11
268.90000000000009
 21
54.902060471100192
 31
0.0
  0
LINE
  8
DETAIL
  6
CONTINUOUS
 62
     5
 10
268.90000000000009
 20
-61.970418396799907
 30
0.0
 11
268.90000000000009
 21
-79.970243269299544
 31
0.0
  0
LINE
  8
DETAIL
  6
CONTINUOUS
 62
     5
 10
270.5
 20
-83.899999999999864
 30
0.0
 11
270.5
 21
-84.365625639600012
 31
0.0
  0
LINE
  8
DETAIL
  6
CONTINUOUS
 62
     5
 10
272.90000000000009
 20
68.901972907299978
 30
0.0
 11
272.90000000000009
 21
58.901972907299978
 31
0.0
  0
LINE
  8
DETAIL
  6
CONTINUOUS
 62
     5
 10
272.90000000000009
 20
-65.970330833099752
 30
0.0
 11
272.90000000000009
 21
-75.970330833099752
 31
0.0
  0
LINE
  8
DETAIL
  6
CONTINUOUS
 62
     5
 10
279.30000000000001
 20
-88.308556068699772
 30
0.0
 11
279.30000000000001
 21
-87.82559315559979
 31
0.0
  0
LINE
  8
DETAIL
  6
CONTINUOUS
 62
     5
 10
272.90000000000009
 20
65.196068132799837
 30
0.0
 11
272.88695182950028
 21
64.742597989500382
 31
0.0
  0
LINE
  8
DETAIL
  6
CONTINUOUS
 62
     5
 10
272.88695182950028
 20
64.742597989500382
 30
0.0
 11
272.84927060849992
 21
64.286671026700105
 31
0.0
  0
LINE
  8
DETAIL
  6
CONTINUOUS
 62
     5
 10
272.84927060849992
 20
64.286671026700105
 30
0.0
 11
272.78688116239982
 21
63.830206902300013
 31
0.0
  0
LINE
  8
DETAIL
  6
CONTINUOUS
 62
     5
 10
272.78688116239982
 20
63.830206902300013
 30
0.0
 11
272.70000901499998
 21
63.367446642600271
 31
0.0
  0
LINE
  8
DETAIL
  6
CONTINUOUS
 62
     5
 10
272.70000901499998
 20
63.367446642600271
 30
0.0
 11
272.58887968990012
 21
62.892631273800127
 31
0.0
  0
LINE
  8
DETAIL
  6
CONTINUOUS
 62
     5
 10
272.58887968990012
 20
62.892631273800127
 30
0.0
 11
272.4534180126002
 21
62.407680453700102
 31
0.0
  0
LINE
  8
DETAIL
  6
CONTINUOUS
 62
     5
 10
272.90000000000009
 20
-72.264426058599611
 30
0.0
 11
272.88695182949982
 21
-72.717896201899975
 31
0.0
  0
LINE
  8
DETAIL
  6
CONTINUOUS
 62
     5
 10
272.88695182949982
 20
-72.717896201899975
 30
0.0
 11
272.84927060849992
 21
-73.173823164700252
 31
0.0
  0
LINE
  8
DETAIL
  6
CONTINUOUS
 62
     5
 10
272.84927060849992
 20
-73.173823164700252
 30
0.0
 11
272.7868811623996
 21
-73.630287288999853
 31
0.0
  0
LINE
  8
DETAIL
  6
CONTINUOUS
 62
     5
 10
272.7868811623996
 20
-73.630287288999853
 30
0.0
 11
272.70000901499998
 21
-74.093047548800087
 31
0.0
  0
LINE
  8
DETAIL
  6
CONTINUOUS
 62
     5
 10
272.70000901499998
 20
-74.093047548800087
 30
0.0
 11
272.58887968989978
 21
-74.567862917599768
 31
0.0
  0
LINE
  8
DETAIL
  6
CONTINUOUS
 62
     5
 10
272.58887968989978
 20
-74.567862917599768
 30
0.0
 11
272.45341801260003
 21
-75.052813737699807
 31
0.0
  0
LINE
  8
DETAIL
  6
CONTINUOUS
 62
     5
 10
272.90000000000009
 20
60.366439001400288
 30
0.0
 11
272.88658762290038
 21
60.031447248800077
 31
0.0
  0
LINE
  8
DETAIL
  6
CONTINUOUS
 62
     5
 10
272.88658762290038
 20
60.031447248800077
 30
0.0
 11
272.84851911509992
 21
59.695758031800104
 31
0.0
  0
LINE
  8
DETAIL
  6
CONTINUOUS
 62
     5
 10
272.84851911509992
 20
59.695758031800104
 30
0.0
 11
272.78556108690009
 21
59.360673160799927
 31
0.0
  0
LINE
  8
DETAIL
  6
CONTINUOUS
 62
     5
 10
272.78556108690009
 20
59.360673160799927
 30
0.0
 11
272.69841370740028
 21
59.022287204099712
 31
0.0
  0
LINE
  8
DETAIL
  6
CONTINUOUS
 62
     5
 10
272.69841370740028
 20
59.022287204099712
 30
0.0
 11
272.58777714590002
 21
58.676694730000008
 31
0.0
  0
LINE
  8
DETAIL
  6
CONTINUOUS
 62
     5
 10
272.58777714590002
 20
58.676694730000008
 30
0.0
 11
272.4534180126002
 21
58.325197548999988
 31
0.0
  0
LINE
  8
DETAIL
  6
CONTINUOUS
 62
     5
 10
272.90000000000009
 20
-67.434796927100024
 30
0.0
 11
272.88658762289992
 21
-67.769788679700241
 31
0.0
  0
LINE
  8
DETAIL
  6
CONTINUOUS
 62
     5
 10
272.88658762289992
 20
-67.769788679700241
 30
0.0
 11
272.84851911509958
 21
-68.105477896700222
 31
0.0
  0
LINE
  8
DETAIL
  6
CONTINUOUS
 62
     5
 10
272.84851911509958
 20
-68.105477896700222
 30
0.0
 11
272.78556108690009
 21
-68.44056276769993
 31
0.0
  0
LINE
  8
DETAIL
  6
CONTINUOUS
 62
     5
 10
272.78556108690009
 20
-68.44056276769993
 30
0.0
 11
272.69841370739982
 21
-68.778948724399697
 31
0.0
  0
LINE
  8
DETAIL
  6
CONTINUOUS
 62
     5
 10
272.69841370739982
 20
-68.778948724399697
 30
0.0
 11
272.58777714589968
 21
-69.12454119850031
 31
0.0
  0
LINE
  8
DETAIL
  6
CONTINUOUS
 62
     5
 10
272.58777714589968
 20
-69.12454119850031
 30
0.0
 11
272.45341801260003
 21
-69.476038379399824
 31
0.0
  0
LINE
  8
DETAIL
  6
CONTINUOUS
 62
     5
 10
272.90000000000009
 20
68.731602038699975
 30
0.0
 11
272.88695182950028
 21
68.610095080100336
 31
0.0
  0
LINE
  8
DETAIL
  6
CONTINUOUS
 62
     5
 10
272.88695182950028
 20
68.610095080100336
 30
0.0
 11
272.84927060849992
 21
68.487929818599923
 31
0.0
  0
LINE
  8
DETAIL
  6
CONTINUOUS
 62
     5
 10
272.84927060849992
 20
68.487929818599923
 30
0.0
 11
272.78688116239982
 21
68.365620625100064
 31
0.0
  0
LINE
  8
DETAIL
  6
CONTINUOUS
 62
     5
 10
272.78688116239982
 20
68.365620625100064
 30
0.0
 11
272.70000901499998
 21
68.24162438720009
 31
0.0
  0
LINE
  8
DETAIL
  6
CONTINUOUS
 62
     5
 10
272.70000901499998
 20
68.24162438720009
 30
0.0
 11
272.58887968990012
 21
68.114397992500244
 31
0.0
  0
LINE
  8
DETAIL
  6
CONTINUOUS
 62
     5
 10
272.58887968990012
 20
68.114397992500244
 30
0.0
 11
272.4534180126002
 21
67.984455811900034
 31
0.0
  0
LINE
  8
DETAIL
  6
CONTINUOUS
 62
     5
 10
272.90000000000009
 20
-75.799959964499749
 30
0.0
 11
272.88695182949982
 21
-75.921466923199887
 31
0.0
  0
LINE
  8
DETAIL
  6
CONTINUOUS
 62
     5
 10
272.88695182949982
 20
-75.921466923199887
 30
0.0
 11
272.84927060849992
 21
-76.0436321847003
 31
0.0
  0
LINE
  8
DETAIL
  6
CONTINUOUS
 62
     5
 10
272.84927060849992
 20
-76.0436321847003
 30
0.0
 11
272.79830159509987
 21
-76.146716975900063
 31
0.0
  0
LINE
  8
DETAIL
  6
CONTINUOUS
 62
     5
 10
269.34658198739999
 20
67.984455811900034
 30
0.0
 11
269.21113766500002
 21
67.499614467900074
 31
0.0
  0
LINE
  8
DETAIL
  6
CONTINUOUS
 62
     5
 10
269.21113766500002
 20
67.499614467900074
 30
0.0
 11
269.10000564130002
 21
67.024758870499909
 31
0.0
  0
LINE
  8
DETAIL
  6
CONTINUOUS
 62
     5
 10
269.10000564130002
 20
67.024758870499909
 30
0.0
 11
269.0130984499001
 21
66.561709383299558
 31
0.0
  0
LINE
  8
DETAIL
  6
CONTINUOUS
 62
     5
 10
269.0130984499001
 20
66.561709383299558
 30
0.0
 11
268.95067849040038
 21
66.105004915900054
 31
0.0
  0
LINE
  8
DETAIL
  6
CONTINUOUS
 62
     5
 10
268.95067849040038
 20
66.105004915900054
 30
0.0
 11
268.91300816259991
 21
65.649184377900156
 31
0.0
  0
LINE
  8
DETAIL
  6
CONTINUOUS
 62
     5
 10
268.91300816259991
 20
65.649184377900156
 30
0.0
 11
268.90000000000009
 21
65.196068132799837
 31
0.0
  0
LINE
  8
DETAIL
  6
CONTINUOUS
 62
     5
 10
269.34658198739999
 20
-69.476038379399824
 30
0.0
 11
269.21113766500002
 21
-69.960879723500284
 31
0.0
  0
LINE
  8
DETAIL
  6
CONTINUOUS
 62
     5
 10
269.21113766500002
 20
-69.960879723500284
 30
0.0
 11
269.10000564129967
 21
-70.435735320899994
 31
0.0
  0
LINE
  8
DETAIL
  6
CONTINUOUS
 62
     5
 10
269.10000564129967
 20
-70.435735320899994
 30
0.0
 11
269.0130984499001
 21
-70.89878480809989
 31
0.0
  0
LINE
  8
DETAIL
  6
CONTINUOUS
 62
     5
 10
269.0130984499001
 20
-70.89878480809989
 30
0.0
 11
268.95067849040021
 21
-71.355489275499849
 31
0.0
  0
LINE
  8
DETAIL
  6
CONTINUOUS
 62
     5
 10
268.95067849040021
 20
-71.355489275499849
 30
0.0
 11
268.91300816259968
 21
-71.811309813500202
 31
0.0
  0
LINE
  8
DETAIL
  6
CONTINUOUS
 62
     5
 10
268.91300816259968
 20
-71.811309813500202
 30
0.0
 11
268.90000000000009
 21
-72.264426058599611
 31
0.0
  0
LINE
  8
DETAIL
  6
CONTINUOUS
 62
     5
 10
269.34658198739999
 20
-65.393555474800223
 30
0.0
 11
269.21159532379988
 21
-65.747000091299697
 31
0.0
  0
LINE
  8
DETAIL
  6
CONTINUOUS
 62
     5
 10
269.21159532379988
 20
-65.747000091299697
 30
0.0
 11
269.10065717079988
 21
-66.093850610300024
 31
0.0
  0
LINE
  8
DETAIL
  6
CONTINUOUS
 62
     5
 10
269.10065717079988
 20
-66.093850610300024
 30
0.0
 11
269.01360438260008
 21
-66.432889205799938
 31
0.0
  0
LINE
  8
DETAIL
  6
CONTINUOUS
 62
     5
 10
269.01360438260008
 20
-66.432889205799938
 30
0.0
 11
268.95092639679979
 21
-66.767769355800056
 31
0.0
  0
LINE
  8
DETAIL
  6
CONTINUOUS
 62
     5
 10
268.95092639679979
 20
-66.767769355800056
 30
0.0
 11
268.9131126512998
 21
-67.102144538200037
 31
0.0
  0
LINE
  8
DETAIL
  6
CONTINUOUS
 62
     5
 10
268.9131126512998
 20
-67.102144538200037
 30
0.0
 11
268.90000000000009
 21
-67.434796927100024
 31
0.0
  0
LINE
  8
DETAIL
  6
CONTINUOUS
 62
     5
 10
268.90000000000009
 20
-65.970330833099752
 30
0.0
 11
269.00183356129992
 21
-65.79394993100027
 31
0.0
  0
LINE
  8
DETAIL
  6
CONTINUOUS
 62
     5
 10
272.79816643869981
 20
-76.146711735100098
 30
0.0
 11
272.90000000000009
 21
-75.970330833099752
 31
0.0
  0
LINE
  8
DETAIL
  6
CONTINUOUS
 62
     5
 10
269.00169954009971
 20
-65.793944734200295
 30
0.0
 11
269.01312272889982
 21
-65.774715898599652
 31
0.0
  0
LINE
  8
DETAIL
  6
CONTINUOUS
 62
     5
 10
269.01312272889982
 20
-65.774715898599652
 30
0.0
 11
269.09999872849988
 21
-65.65071424670009
 31
0.0
  0
LINE
  8
DETAIL
  6
CONTINUOUS
 62
     5
 10
269.09999872849988
 20
-65.65071424670009
 30
0.0
 11
269.21112622089998
 21
-65.523490052900115
 31
0.0
  0
LINE
  8
DETAIL
  6
CONTINUOUS
 62
     5
 10
269.21112622089998
 20
-65.523490052900115
 30
0.0
 11
269.34658198739999
 21
-65.393555474800223
 31
0.0
  0
LINE
  8
DETAIL
  6
CONTINUOUS
 62
     5
 10
272.79830159509987
 20
-76.146716975900063
 30
0.0
 11
272.7868811623996
 21
-76.165941378199705
 31
0.0
  0
LINE
  8
DETAIL
  6
CONTINUOUS
 62
     5
 10
272.7868811623996
 20
-76.165941378199705
 30
0.0
 11
272.70000901499998
 21
-76.289937616099678
 31
0.0
  0
LINE
  8
DETAIL
  6
CONTINUOUS
 62
     5
 10
272.70000901499998
 20
-76.289937616099678
 30
0.0
 11
272.58887968989978
 21
-76.417164010699935
 31
0.0
  0
LINE
  8
DETAIL
  6
CONTINUOUS
 62
     5
 10
272.58887968989978
 20
-76.417164010699935
 30
0.0
 11
272.45341801260003
 21
-76.54710619129969
 31
0.0
  0
LINE
  8
DETAIL
  6
CONTINUOUS
 62
     5
 10
281.69999999999999
 20
-86.386947568900041
 30
0.0
 11
281.7198404454
 21
-86.358251535900081
 31
0.0
  0
LINE
  8
DETAIL
  6
CONTINUOUS
 62
     5
 10
281.7198404454
 20
-86.358251535900081
 30
0.0
 11
281.77761484130002
 21
-86.329168551799967
 31
0.0
  0
LINE
  8
DETAIL
  6
CONTINUOUS
 62
     5
 10
281.77761484130002
 20
-86.329168551799967
 30
0.0
 11
281.87430108730001
 21
-86.299542510599849
 31
0.0
  0
LINE
  8
DETAIL
  6
CONTINUOUS
 62
     5
 10
281.87430108730001
 20
-86.299542510599849
 30
0.0
 11
282.0069654847
 21
-86.270311716799597
 31
0.0
  0
LINE
  8
DETAIL
  6
CONTINUOUS
 62
     5
 10
282.0069654847
 20
-86.270311716799597
 30
0.0
 11
282.17423933399982
 21
-86.242298366199748
 31
0.0
  0
LINE
  8
DETAIL
  6
CONTINUOUS
 62
     5
 10
282.17423933399982
 20
-86.242298366199748
 30
0.0
 11
282.3724055360999
 21
-86.216138429800367
 31
0.0
  0
LINE
  8
DETAIL
  6
CONTINUOUS
 62
     5
 10
282.3724055360999
 20
-86.216138429800367
 30
0.0
 11
282.59880531999988
 21
-86.192615344599972
 31
0.0
  0
LINE
  8
DETAIL
  6
CONTINUOUS
 62
     5
 10
282.59880531999988
 20
-86.192615344599972
 30
0.0
 11
282.84889500290001
 21
-86.17229912489961
 31
0.0
  0
LINE
  8
DETAIL
  6
CONTINUOUS
 62
     5
 10
282.84889500290001
 20
-86.17229912489961
 30
0.0
 11
283.11893123980008
 21
-86.155878147999601
 31
0.0
  0
LINE
  8
DETAIL
  6
CONTINUOUS
 62
     5
 10
283.11893123980008
 20
-86.155878147999601
 30
0.0
 11
283.40385424719989
 21
-86.143727933799937
 31
0.0
  0
LINE
  8
DETAIL
  6
CONTINUOUS
 62
     5
 10
283.40385424719989
 20
-86.143727933799937
 30
0.0
 11
283.6991011348
 21
-86.13633194909994
 31
0.0
  0
LINE
  8
DETAIL
  6
CONTINUOUS
 62
     5
 10
283.6991011348
 20
-86.13633194909994
 30
0.0
 11
283.99943787770007
 21
-86.133792724600198
 31
0.0
  0
LINE
  8
DETAIL
  6
CONTINUOUS
 62
     5
 10
283.99943787770007
 20
-86.133792724600198
 30
0.0
 11
284.29980205520002
 21
-86.136313782599927
 31
0.0
  0
LINE
  8
DETAIL
  6
CONTINUOUS
 62
     5
 10
284.29980205520002
 20
-86.136313782599927
 30
0.0
 11
284.59511596450011
 21
-86.143693193699846
 31
0.0
  0
LINE
  8
DETAIL
  6
CONTINUOUS
 62
     5
 10
284.59511596450011
 20
-86.143693193699846
 30
0.0
 11
284.88014093880003
 21
-86.155830589599873
 31
0.0
  0
LINE
  8
DETAIL
  6
CONTINUOUS
 62
     5
 10
284.88014093880003
 20
-86.155830589599873
 30
0.0
 11
285.15029744999993
 21
-86.172241994299611
 31
0.0
  0
LINE
  8
DETAIL
  6
CONTINUOUS
 62
     5
 10
285.15029744999993
 20
-86.172241994299611
 30
0.0
 11
285.40050735429992
 21
-86.1925520753
 31
0.0
  0
LINE
  8
DETAIL
  6
CONTINUOUS
 62
     5
 10
285.40050735429992
 20
-86.1925520753
 30
0.0
 11
285.62702783290001
 21
-86.216072026700431
 31
0.0
  0
LINE
  8
DETAIL
  6
CONTINUOUS
 62
     5
 10
285.62702783290001
 20
-86.216072026700431
 30
0.0
 11
285.82531021990008
 21
-86.242231590300207
 31
0.0
  0
LINE
  8
DETAIL
  6
CONTINUOUS
 62
     5
 10
285.82531021990008
 20
-86.242231590300207
 30
0.0
 11
285.99269391299998
 21
-86.270246670400184
 31
0.0
  0
LINE
  8
DETAIL
  6
CONTINUOUS
 62
     5
 10
285.99269391299998
 20
-86.270246670400184
 30
0.0
 11
286.1254581301996
 21
-86.299477360599894
 31
0.0
  0
LINE
  8
DETAIL
  6
CONTINUOUS
 62
     5
 10
286.1254581301996
 20
-86.299477360599894
 30
0.0
 11
286.22223474430012
 21
-86.329111099399825
 31
0.0
  0
LINE
  8
DETAIL
  6
CONTINUOUS
 62
     5
 10
286.22223474430012
 20
-86.329111099399825
 30
0.0
 11
286.28008931909989
 21
-86.358217467399527
 31
0.0
  0
LINE
  8
DETAIL
  6
CONTINUOUS
 62
     5
 10
286.28008931909989
 20
-86.358217467399527
 30
0.0
 11
286.30000000000001
 21
-86.386947568900041
 31
0.0
  0
LINE
  8
DETAIL
  6
CONTINUOUS
 62
     5
 10
288.54109460590013
 20
-88.622193045199992
 30
0.0
 11
288.62859643910002
 21
-88.519790309700284
 31
0.0
  0
LINE
  8
DETAIL
  6
CONTINUOUS
 62
     5
 10
288.62859643910002
 20
-88.519790309700284
 30
0.0
 11
288.69999999999999
 21
-88.308556068699772
 31
0.0
  0
LINE
  8
DETAIL
  6
CONTINUOUS
 62
     5
 10
16.400000000000091
 20
-341.50000000000028
 30
0.0
 11
13.86763733420003
 21
-341.50000000000028
 31
0.0
  0
LINE
  8
DETAIL
  6
CONTINUOUS
 62
     5
 10
2.9999999999997731
 20
-348.33452377910021
 30
0.0
 11
5.0999999999999091
 21
-348.33452377910021
 31
0.0
  0
LINE
  8
DETAIL
  6
CONTINUOUS
 62
     5
 10
6.3999999999998636
 20
-351.50000000000023
 30
0.0
 11
2.9999999999997731
 21
-351.50000000000023
 31
0.0
  0
LINE
  8
DETAIL
  6
CONTINUOUS
 62
     5
 10
281.69999999999999
 20
-86.579629643400267
 30
0.0
 11
281.69999999999999
 21
-86.386947568900041
 31
0.0
  0
LINE
  8
DETAIL
  6
CONTINUOUS
 62
     5
 10
282.0
 20
-87.82559315559979
 30
0.0
 11
282.0
 21
-86.271846466500165
 31
0.0
  0
LINE
  8
DETAIL
  6
CONTINUOUS
 62
     5
 10
282.5
 20
-87.82559315559979
 30
0.0
 11
282.5
 21
-86.202881281799591
 31
0.0
  0
LINE
  8
DETAIL
  6
CONTINUOUS
 62
     5
 10
284.09999999999991
 20
-84.626646482199931
 30
0.0
 11
284.09999999999991
 21
-83.274622122700066
 31
0.0
  0
LINE
  8
DETAIL
  6
CONTINUOUS
 62
     5
 10
285.5
 20
-87.82559315559979
 30
0.0
 11
285.5
 21
-86.202882541700319
 31
0.0
  0
LINE
  8
DETAIL
  6
CONTINUOUS
 62
     5
 10
286.0
 20
-87.82559315559979
 30
0.0
 11
286.0
 21
-86.271855251099851
 31
0.0
  0
LINE
  8
DETAIL
  6
CONTINUOUS
 62
     5
 10
286.30000000000001
 20
-86.579629643400267
 30
0.0
 11
286.30000000000001
 21
-86.386947568900041
 31
0.0
  0
LINE
  8
DETAIL
  6
CONTINUOUS
 62
     5
 10
288.69999999999999
 20
-88.308556068699772
 30
0.0
 11
288.69999999999999
 21
-87.82559315559979
 31
0.0
  0
LINE
  8
DETAIL
  6
CONTINUOUS
 62
     5
 10
293.09999999999991
 20
-84.626646482199931
 30
0.0
 11
293.09999999999991
 21
-83.274622122700066
 31
0.0
  0
LINE
  8
DETAIL
  6
CONTINUOUS
 62
     5
 10
297.5
 20
-83.899999999999864
 30
0.0
 11
297.5
 21
-84.365625639600012
 31
0.0
  0
LINE
  8
DETAIL
  6
CONTINUOUS
 62
     5
 10
305.59999999999991
 20
-76.099965314800329
 30
0.0
 11
305.59999999999991
 21
76.099965314799874
 31
0.0
  0
LINE
  8
DETAIL
  6
CONTINUOUS
 62
     5
 10
308.59999999999991
 20
-30.499966835900299
 30
0.0
 11
308.59999999999991
 21
30.499966835999889
 31
0.0
  0
LINE
  8
DETAIL
  6
CONTINUOUS
 62
     5
 10
312.59999999999991
 20
-21.999999999999769
 30
0.0
 11
312.59999999999991
 21
22.000000000000231
 31
0.0
  0
LINE
  8
DETAIL
  6
CONTINUOUS
 62
     5
 10
293.09999999999991
 20
-84.626646482199931
 30
0.0
 11
293.07869304950009
 21
-84.837337149700261
 31
0.0
  0
LINE
  8
DETAIL
  6
CONTINUOUS
 62
     5
 10
293.07869304950009
 20
-84.837337149700261
 30
0.0
 11
293.01753564799992
 21
-85.035374814899797
 31
0.0
  0
LINE
  8
DETAIL
  6
CONTINUOUS
 62
     5
 10
293.01753564799992
 20
-85.035374814899797
 30
0.0
 11
292.91996757869993
 21
-85.216768810799977
 31
0.0
  0
LINE
  8
DETAIL
  6
CONTINUOUS
 62
     5
 10
292.91996757869993
 20
-85.216768810799977
 30
0.0
 11
292.79561679390008
 21
-85.370883787200228
 31
0.0
  0
LINE
  8
DETAIL
  6
CONTINUOUS
 62
     5
 10
292.79561679390008
 20
-85.370883787200228
 30
0.0
 11
292.65709859510002
 21
-85.493242576900002
 31
0.0
  0
LINE
  8
DETAIL
  6
CONTINUOUS
 62
     5
 10
292.65709859510002
 20
-85.493242576900002
 30
0.0
 11
292.50849711230012
 21
-85.589888037200353
 31
0.0
  0
LINE
  8
DETAIL
  6
CONTINUOUS
 62
     5
 10
285.97368756409992
 20
-93.882190536999815
 30
0.0
 11
285.86108466329978
 21
-94.751037514600057
 31
0.0
  0
LINE
  8
DETAIL
  6
CONTINUOUS
 62
     5
 10
285.86108466329978
 20
-94.751037514600057
 30
0.0
 11
285.80317635500001
 21
-95.184620384399977
 31
0.0
  0
LINE
  8
DETAIL
  6
CONTINUOUS
 62
     5
 10
285.80317635500001
 20
-95.184620384399977
 30
0.0
 11
285.74160827999998
 21
-95.621170927700177
 31
0.0
  0
LINE
  8
DETAIL
  6
CONTINUOUS
 62
     5
 10
285.74160827999998
 20
-95.621170927700177
 30
0.0
 11
285.67290715189978
 21
-96.063414688599778
 31
0.0
  0
LINE
  8
DETAIL
  6
CONTINUOUS
 62
     5
 10
285.67290715189978
 20
-96.063414688599778
 30
0.0
 11
285.59323923929992
 21
-96.514095912499897
 31
0.0
  0
LINE
  8
DETAIL
  6
CONTINUOUS
 62
     5
 10
285.59323923929992
 20
-96.514095912499897
 30
0.0
 11
285.49877081099999
 21
-96.9759588446002
 31
0.0
  0
LINE
  8
DETAIL
  6
CONTINUOUS
 62
     5
 10
285.49877081099999
 20
-96.9759588446002
 30
0.0
 11
285.38566813569992
 21
-97.451747730400029
 31
0.0
  0
LINE
  8
DETAIL
  6
CONTINUOUS
 62
     5
 10
285.38566813569992
 20
-97.451747730400029
 30
0.0
 11
285.27413340439989
 21
-97.860478211899817
 31
0.0
  0
LINE
  8
DETAIL
  6
CONTINUOUS
 62
     5
 10
285.27413340439989
 20
-97.860478211899817
 30
0.0
 11
285.14308435690009
 21
-98.280105474299717
 31
0.0
  0
LINE
  8
DETAIL
  6
CONTINUOUS
 62
     5
 10
285.14308435690009
 20
-98.280105474299717
 30
0.0
 11
284.98860943960022
 21
-98.709949771199945
 31
0.0
  0
LINE
  8
DETAIL
  6
CONTINUOUS
 62
     5
 10
284.98860943960022
 20
-98.709949771199945
 30
0.0
 11
284.85512728430012
 21
-99.038374327399879
 31
0.0
  0
LINE
  8
DETAIL
  6
CONTINUOUS
 62
     5
 10
284.85512728430012
 20
-99.038374327399879
 30
0.0
 11
284.70521946360009
 21
-99.370348726199836
 31
0.0
  0
LINE
  8
DETAIL
  6
CONTINUOUS
 62
     5
 10
284.70521946360009
 20
-99.370348726199836
 30
0.0
 11
284.53783761310001
 21
-99.704058085200131
 31
0.0
  0
LINE
  8
DETAIL
  6
CONTINUOUS
 62
     5
 10
284.53783761310001
 20
-99.704058085200131
 30
0.0
 11
284.35193336809988
 21
-100.03768752239991
 31
0.0
  0
LINE
  8
DETAIL
  6
CONTINUOUS
 62
     5
 10
284.35193336809988
 20
-100.03768752239991
 30
0.0
 11
284.14676573399993
 21
-100.36929105830021
 31
0.0
  0
LINE
  8
DETAIL
  6
CONTINUOUS
 62
     5
 10
284.14676573399993
 20
-100.36929105830021
 30
0.0
 11
283.92282319679998
 21
-100.6963983241001
 31
0.0
  0
LINE
  8
DETAIL
  6
CONTINUOUS
 62
     5
 10
283.92282319679998
 20
-100.6963983241001
 30
0.0
 11
283.68090161240002
 21
-101.01640785399989
 31
0.0
  0
LINE
  8
DETAIL
  6
CONTINUOUS
 62
     5
 10
283.68090161240002
 20
-101.01640785399989
 30
0.0
 11
283.4217968367002
 21
-101.3267181821
 31
0.0
  0
LINE
  8
DETAIL
  6
CONTINUOUS
 62
     5
 10
283.4217968367002
 20
-101.3267181821
 30
0.0
 11
283.14650514250002
 21
-101.6249870690001
 31
0.0
  0
LINE
  8
DETAIL
  6
CONTINUOUS
 62
     5
 10
283.14650514250002
 20
-101.6249870690001
 30
0.0
 11
282.85682446970009
 21
-101.9099091823002
 31
0.0
  0
LINE
  8
DETAIL
  6
CONTINUOUS
 62
     5
 10
282.85682446970009
 20
-101.9099091823002
 30
0.0
 11
282.5547531750999
 21
-102.1804384159002
 31
0.0
  0
LINE
  8
DETAIL
  6
CONTINUOUS
 62
     5
 10
282.5547531750999
 20
-102.1804384159002
 30
0.0
 11
282.24228961549989
 21
-102.4355286636999
 31
0.0
  0
LINE
  8
DETAIL
  6
CONTINUOUS
 62
     5
 10
282.24228961549989
 20
-102.4355286636999
 30
0.0
 11
281.92128130819992
 21
-102.67442683580001
 31
0.0
  0
LINE
  8
DETAIL
  6
CONTINUOUS
 62
     5
 10
281.92128130819992
 20
-102.67442683580001
 30
0.0
 11
281.5929724130001
 21
-102.89755190540041
 31
0.0
  0
LINE
  8
DETAIL
  6
CONTINUOUS
 62
     5
 10
281.5929724130001
 20
-102.89755190540041
 30
0.0
 11
281.25845625020003
 21
-103.1056158614999
 31
0.0
  0
LINE
  8
DETAIL
  6
CONTINUOUS
 62
     5
 10
281.25845625020003
 20
-103.1056158614999
 30
0.0
 11
280.91882614010001
 21
-103.29933069330011
 31
0.0
  0
LINE
  8
DETAIL
  6
CONTINUOUS
 62
     5
 10
280.91882614010001
 20
-103.29933069330011
 30
0.0
 11
280.45944340289998
 21
-103.5367258519998
 31
0.0
  0
LINE
  8
DETAIL
  6
CONTINUOUS
 62
     5
 10
280.45944340289998
 20
-103.5367258519998
 30
0.0
 11
279.99264095389998
 21
-103.7527587603001
 31
0.0
  0
LINE
  8
DETAIL
  6
CONTINUOUS
 62
     5
 10
279.99264095389998
 20
-103.7527587603001
 30
0.0
 11
279.51814686220018
 21
-103.9503109635
 31
0.0
  0
LINE
  8
DETAIL
  6
CONTINUOUS
 62
     5
 10
279.51814686220018
 20
-103.9503109635
 30
0.0
 11
279.0354308597
 21
-104.1320657455997
 31
0.0
  0
LINE
  8
DETAIL
  6
CONTINUOUS
 62
     5
 10
279.0354308597
 20
-104.1320657455997
 30
0.0
 11
278.54292932829998
 21
-104.2999133443998
 31
0.0
  0
LINE
  8
DETAIL
  6
CONTINUOUS
 62
     5
 10
278.54292932829998
 20
-104.2999133443998
 30
0.0
 11
278.03882031249992
 21
-104.4555457364002
 31
0.0
  0
LINE
  8
DETAIL
  6
CONTINUOUS
 62
     5
 10
278.03882031249992
 20
-104.4555457364002
 30
0.0
 11
277.52128185660013
 21
-104.6006548977
 31
0.0
  0
LINE
  8
DETAIL
  6
CONTINUOUS
 62
     5
 10
277.52128185660013
 20
-104.6006548977
 30
0.0
 11
276.98849200519999
 21
-104.73693280489969
 31
0.0
  0
LINE
  8
DETAIL
  6
CONTINUOUS
 62
     5
 10
276.98849200519999
 20
-104.73693280489969
 30
0.0
 11
276.4386288026999
 21
-104.86607143410011
 31
0.0
  0
LINE
  8
DETAIL
  6
CONTINUOUS
 62
     5
 10
276.4386288026999
 20
-104.86607143410011
 30
0.0
 11
275.95235904280003
 21
-104.9722549647001
 31
0.0
  0
LINE
  8
DETAIL
  6
CONTINUOUS
 62
     5
 10
275.95235904280003
 20
-104.9722549647001
 30
0.0
 11
275.45112941039997
 21
-105.0748599676001
 31
0.0
  0
LINE
  8
DETAIL
  6
CONTINUOUS
 62
     5
 10
275.45112941039997
 20
-105.0748599676001
 30
0.0
 11
274.93386229909993
 21
-105.17431001429961
 31
0.0
  0
LINE
  8
DETAIL
  6
CONTINUOUS
 62
     5
 10
274.93386229909993
 20
-105.17431001429961
 30
0.0
 11
274.3994801023
 21
-105.27102867619961
 31
0.0
  0
LINE
  8
DETAIL
  6
CONTINUOUS
 62
     5
 10
274.3994801023
 20
-105.27102867619961
 30
0.0
 11
273.84690521369998
 21
-105.36543952470019
 31
0.0
  0
LINE
  8
DETAIL
  6
CONTINUOUS
 62
     5
 10
273.84690521369998
 20
-105.36543952470019
 30
0.0
 11
273.27506002680002
 21
-105.4579661311998
 31
0.0
  0
LINE
  8
DETAIL
  6
CONTINUOUS
 62
     5
 10
273.27506002680002
 20
-105.4579661311998
 30
0.0
 11
272.6828669352999
 21
-105.5490320672
 31
0.0
  0
LINE
  8
DETAIL
  6
CONTINUOUS
 62
     5
 10
286.50622490070009
 20
-90.565103346499882
 30
0.0
 11
286.42057384169988
 21
-90.996979078699724
 31
0.0
  0
LINE
  8
DETAIL
  6
CONTINUOUS
 62
     5
 10
286.42057384169988
 20
-90.996979078699724
 30
0.0
 11
286.34281214290007
 21
-91.416633151700125
 31
0.0
  0
LINE
  8
DETAIL
  6
CONTINUOUS
 62
     5
 10
286.34281214290007
 20
-91.416633151700125
 30
0.0
 11
286.27206415320012
 21
-91.825091672000099
 31
0.0
  0
LINE
  8
DETAIL
  6
CONTINUOUS
 62
     5
 10
286.27206415320012
 20
-91.825091672000099
 30
0.0
 11
286.20745422139998
 21
-92.223380746299654
 31
0.0
  0
LINE
  8
DETAIL
  6
CONTINUOUS
 62
     5
 10
286.20745422139998
 20
-92.223380746299654
 30
0.0
 11
286.14810669630009
 21
-92.61252648129971
 31
0.0
  0
LINE
  8
DETAIL
  6
CONTINUOUS
 62
     5
 10
286.14810669630009
 20
-92.61252648129971
 30
0.0
 11
286.09314592700002
 21
-92.993554983599779
 31
0.0
  0
LINE
  8
DETAIL
  6
CONTINUOUS
 62
     5
 10
286.09314592700002
 20
-92.993554983599779
 30
0.0
 11
286.03172428149992
 21
-93.441662351700188
 31
0.0
  0
LINE
  8
DETAIL
  6
CONTINUOUS
 62
     5
 10
286.03172428149992
 20
-93.441662351700188
 30
0.0
 11
285.97368756409992
 21
-93.882190536999815
 31
0.0
  0
LINE
  8
DETAIL
  6
CONTINUOUS
 62
     5
 10
293.66249754879982
 20
-86.509336166600178
 30
0.0
 11
293.64008784399988
 21
-86.618334521799852
 31
0.0
  0
LINE
  8
DETAIL
  6
CONTINUOUS
 62
     5
 10
293.64008784399988
 20
-86.618334521799852
 30
0.0
 11
293.49772749940013
 21
-87.019954110299977
 31
0.0
  0
LINE
  8
DETAIL
  6
CONTINUOUS
 62
     5
 10
293.49772749940013
 20
-87.019954110299977
 30
0.0
 11
293.29646324250012
 21
-87.407552947900285
 31
0.0
  0
LINE
  8
DETAIL
  6
CONTINUOUS
 62
     5
 10
293.29646324250012
 20
-87.407552947900285
 30
0.0
 11
293.03804898070013
 21
-87.773522509000259
 31
0.0
  0
LINE
  8
DETAIL
  6
CONTINUOUS
 62
     5
 10
293.03804898070013
 20
-87.773522509000259
 30
0.0
 11
292.72725797229992
 21
-88.11039570959997
 31
0.0
  0
LINE
  8
DETAIL
  6
CONTINUOUS
 62
     5
 10
292.72725797229992
 20
-88.11039570959997
 30
0.0
 11
292.36896813210001
 21
-88.414900699100372
 31
0.0
  0
LINE
  8
DETAIL
  6
CONTINUOUS
 62
     5
 10
292.36896813210001
 20
-88.414900699100372
 30
0.0
 11
291.96322930209999
 21
-88.68945168230016
 31
0.0
  0
LINE
  8
DETAIL
  6
CONTINUOUS
 62
     5
 10
291.96322930209999
 20
-88.68945168230016
 30
0.0
 11
291.50960944809998
 21
-88.936420662999581
 31
0.0
  0
LINE
  8
DETAIL
  6
CONTINUOUS
 62
     5
 10
291.50960944809998
 20
-88.936420662999581
 30
0.0
 11
290.99783367700002
 21
-89.162070492900284
 31
0.0
  0
LINE
  8
DETAIL
  6
CONTINUOUS
 62
     5
 10
290.99783367700002
 20
-89.162070492900284
 30
0.0
 11
290.41218623260011
 21
-89.371345922699902
 31
0.0
  0
LINE
  8
DETAIL
  6
CONTINUOUS
 62
     5
 10
290.41218623260011
 20
-89.371345922699902
 30
0.0
 11
289.7576893941
 21
-89.560374885800002
 31
0.0
  0
LINE
  8
DETAIL
  6
CONTINUOUS
 62
     5
 10
289.7576893941
 20
-89.560374885800002
 30
0.0
 11
289.03783379079982
 21
-89.727445080499592
 31
0.0
  0
LINE
  8
DETAIL
  6
CONTINUOUS
 62
     5
 10
289.03783379079982
 20
-89.727445080499592
 30
0.0
 11
288.27407898879977
 21
-89.86838687220029
 31
0.0
  0
LINE
  8
DETAIL
  6
CONTINUOUS
 62
     5
 10
288.27407898879977
 20
-89.86838687220029
 30
0.0
 11
287.50646610119998
 21
-89.979441161600107
 31
0.0
  0
LINE
  8
DETAIL
  6
CONTINUOUS
 62
     5
 10
287.50646610119998
 20
-89.979441161600107
 30
0.0
 11
286.72483090079982
 21
-90.065758270599645
 31
0.0
  0
LINE
  8
DETAIL
  6
CONTINUOUS
 62
     5
 10
286.72483090079982
 20
-90.065758270599645
 30
0.0
 11
286.08956685369998
 21
-90.116334654999946
 31
0.0
  0
LINE
  8
DETAIL
  6
CONTINUOUS
 62
     5
 10
286.6078893496001
 20
-90.07590255980017
 30
0.0
 11
286.59479709990001
 21
-90.138230678899845
 31
0.0
  0
LINE
  8
DETAIL
  6
CONTINUOUS
 62
     5
 10
286.59479709990001
 20
-90.138230678899845
 30
0.0
 11
286.50622490070009
 21
-90.565103346499882
 31
0.0
  0
LINE
  8
DETAIL
  6
CONTINUOUS
 62
     5
 10
278.55183992399998
 20
-83.901316591000295
 30
0.0
 11
278.51828657599998
 21
-84.049388565499839
 31
0.0
  0
LINE
  8
DETAIL
  6
CONTINUOUS
 62
     5
 10
279.30161893059989
 20
-87.82559315559979
 30
0.0
 11
279.37140356079999
 21
-87.614358914600189
 31
0.0
  0
LINE
  8
DETAIL
  6
CONTINUOUS
 62
     5
 10
279.37140356079999
 20
-87.614358914600189
 30
0.0
 11
279.58496597949988
 21
-87.409686229000044
 31
0.0
  0
LINE
  8
DETAIL
  6
CONTINUOUS
 62
     5
 10
279.58496597949988
 20
-87.409686229000044
 30
0.0
 11
279.92968060220011
 21
-87.217368399599991
 31
0.0
  0
LINE
  8
DETAIL
  6
CONTINUOUS
 62
     5
 10
279.92968060220011
 20
-87.217368399599991
 30
0.0
 11
280.40083129020007
 21
-87.043943816000365
 31
0.0
  0
LINE
  8
DETAIL
  6
CONTINUOUS
 62
     5
 10
280.40083129020007
 20
-87.043943816000365
 30
0.0
 11
280.97889823439982
 21
-86.893738766600336
 31
0.0
  0
LINE
  8
DETAIL
  6
CONTINUOUS
 62
     5
 10
280.97889823439982
 20
-86.893738766600336
 30
0.0
 11
281.65080946529997
 21
-86.772479849200181
 31
0.0
  0
LINE
  8
DETAIL
  6
CONTINUOUS
 62
     5
 10
281.65080946529997
 20
-86.772479849200181
 30
0.0
 11
282.39114578499988
 21
-86.682669451899756
 31
0.0
  0
LINE
  8
DETAIL
  6
CONTINUOUS
 62
     5
 10
112.5
 20
-314.03984489160052
 30
0.0
 11
114.5
 21
-312.62563132919968
 31
0.0
  0
ARC
  8
DETAIL
  6
CONTINUOUS
 62
     5
 10
69.400000000000091
 20
353.50000000000023
 30
0.0
 40
49.399999999999999
 50
306.98010776350623
 51
338.11344462331027
  0
ARC
  8
DETAIL
  6
CONTINUOUS
 62
     5
 10
49.400000000000091
 20
333.50000000000023
 30
0.0
 40
29.399999999999999
 50
180.0
 51
221.4520332125044
  0
ARC
  8
DETAIL
  6
CONTINUOUS
 62
     5
 10
125.40000000000011
 20
76.100000000000136
 30
0.0
 40
7.7999999999999998
 50
90.0
 51
142.23902950149281
  0
ARC
  8
DETAIL
  6
CONTINUOUS
 62
     5
 10
6.4000000000000909
 20
347.90000000000032
 30
0.0
 40
3.6000000000000001
 50
0.0
 51
90.0
  0
ARC
  8
DETAIL
  6
CONTINUOUS
 62
     5
 10
6.4000000000000909
 20
283.9233405970997
 30
0.0
 40
3.6000000000000001
 50
0.0
 51
90.0
  0
ARC
  8
DETAIL
  6
CONTINUOUS
 62
     5
 10
16.400000000000091
 20
242.20404050709999
 30
0.0
 40
3.6000000000000001
 50
0.0
 51
90.0
  0
ARC
  8
DETAIL
  6
CONTINUOUS
 62
     5
 10
16.400000000000091
 20
337.90000000000032
 30
0.0
 40
3.6000000000000001
 50
0.0
 51
90.0
  0
ARC
  8
DETAIL
  6
CONTINUOUS
 62
     5
 10
13.0
 20
248.8040405070999
 30
0.0
 40
3.0
 50
180.0
 51
270.0
  0
ARC
  8
DETAIL
  6
CONTINUOUS
 62
     5
 10
153.0000000000002
 20
86.200000000000045
 30
0.0
 40
2.2999999999999998
 50
270.0
 51
0.0
  0
ARC
  8
DETAIL
  6
CONTINUOUS
 62
     5
 10
117.234378265
 20
349.5160000000003
 30
0.0
 40
2.0
 50
0.0
 51
180.0
  0
ARC
  8
DETAIL
  6
CONTINUOUS
 62
     5
 10
1.5000000000002269
 20
353.00000000000023
 30
0.0
 40
1.5
 50
0.0
 51
180.0
  0
ARC
  8
DETAIL
  6
CONTINUOUS
 62
     5
 10
300.90000000000009
 20
70.799999999999955
 30
0.0
 40
8.0
 50
330.00000000000199
 51
29.999999999997911
  0
ARC
  8
DETAIL
  6
CONTINUOUS
 62
     5
 10
297.80000000000001
 20
76.100000000000136
 30
0.0
 40
7.7999999999999998
 50
0.0
 51
90.0
  0
ARC
  8
DETAIL
  6
CONTINUOUS
 62
     5
 10
308.80000000000001
 20
22.000000000000231
 30
0.0
 40
3.7999999999999998
 50
0.0
 51
90.0
  0
ARC
  8
DETAIL
  6
CONTINUOUS
 62
     5
 10
305.90000000000009
 20
30.500000000000231
 30
0.0
 40
2.7000000000000002
 50
0.0
 51
90.0
  0
ARC
  8
DETAIL
  6
CONTINUOUS
 62
     5
 10
270.20000000000027
 20
86.200000000000045
 30
0.0
 40
2.2999999999999998
 50
180.0
 51
270.0
  0
ARC
  8
DETAIL
  6
CONTINUOUS
 62
     5
 10
306.96217782649978
 20
67.299999999999955
 30
0.0
 40
1.0
 50
270.0
 51
330.00000000000199
  0
ARC
  8
DETAIL
  6
CONTINUOUS
 62
     5
 10
306.96217782649978
 20
74.299999999999955
 30
0.0
 40
1.0
 50
29.999999999997911
 51
90.0
  0
ARC
  8
DETAIL
  6
CONTINUOUS
 62
     5
 10
69.400000000000091
 20
-353.50000000000023
 30
0.0
 40
49.399999999999999
 50
21.886555376689721
 51
53.019892236493753
  0
ARC
  8
DETAIL
  6
CONTINUOUS
 62
     5
 10
49.400000000000091
 20
-333.50000000000028
 30
0.0
 40
29.399999999999999
 50
138.54796678749571
 51
169.44436404609769
  0
ARC
  8
DETAIL
  6
CONTINUOUS
 62
     5
 10
125.40000000000011
 20
-76.099999999999682
 30
0.0
 40
7.7999999999999998
 50
217.7609704986109
 51
270.0
  0
ARC
  8
DETAIL
  6
CONTINUOUS
 62
     5
 10
6.3999999999998636
 20
-283.92334059710021
 30
0.0
 40
3.6000000000000001
 50
270.0
 51
0.0
  0
ARC
  8
DETAIL
  6
CONTINUOUS
 62
     5
 10
6.3999999999998636
 20
-347.89999999999992
 30
0.0
 40
3.6000000000000001
 50
270.0
 51
0.0
  0
ARC
  8
DETAIL
  6
CONTINUOUS
 62
     5
 10
16.400000000000091
 20
-242.20404050710039
 30
0.0
 40
3.6000000000000001
 50
270.0
 51
0.0
  0
ARC
  8
DETAIL
  6
CONTINUOUS
 62
     5
 10
16.400000000000091
 20
-337.89999999999992
 30
0.0
 40
3.6000000000000001
 50
270.0
 51
0.0
  0
ARC
  8
DETAIL
  6
CONTINUOUS
 62
     5
 10
13.0
 20
-248.8040405070999
 30
0.0
 40
3.0
 50
90.0
 51
180.0
  0
ARC
  8
DETAIL
  6
CONTINUOUS
 62
     5
 10
152.9999999999998
 20
-86.200000000000045
 30
0.0
 40
2.2999999999999998
 50
0.0
 51
90.0
  0
ARC
  8
DETAIL
  6
CONTINUOUS
 62
     5
 10
117.2343782649998
 20
-349.51599999999979
 30
0.0
 40
2.0
 50
180.0
 51
0.0
  0
ARC
  8
DETAIL
  6
CONTINUOUS
 62
     5
 10
1.4999999999997731
 20
-353.00000000000023
 30
0.0
 40
1.5
 50
180.0
 51
0.0
  0
ARC
  8
DETAIL
  6
CONTINUOUS
 62
     5
 10
297.80000000000001
 20
-76.099999999999682
 30
0.0
 40
7.7999999999999998
 50
270.0
 51
0.0
  0
ARC
  8
DETAIL
  6
CONTINUOUS
 62
     5
 10
308.80000000000001
 20
-21.999999999999769
 30
0.0
 40
3.7999999999999998
 50
270.0
 51
0.0
  0
ARC
  8
DETAIL
  6
CONTINUOUS
 62
     5
 10
305.90000000000009
 20
-30.499999999999769
 30
0.0
 40
2.7000000000000002
 50
270.0
 51
0.0
  0
ARC
  8
DETAIL
  6
CONTINUOUS
 62
     5
 10
270.19999999999982
 20
-86.200000000000045
 30
0.0
 40
2.2999999999999998
 50
90.0
 51
180.0
  0
ARC
  8
DETAIL
  6
CONTINUOUS
 62
     5
 10
276.05013883794908
 20
-77.144864818585802
 30
0.0
 40
9.5256442526330769
 50
240.0684742680109
 51
274.7593586020102
  0
ARC
  8
DETAIL
  6
CONTINUOUS
 62
     5
 10
277.29361269039441
 20
-84.986988774809276
 30
0.0
 40
1.7117386014289739
 50
254.650019672783
 51
308.29101856649811
  0
ARC
  8
DETAIL
  6
CONTINUOUS
 62
     5
 10
292.01728978775208
 20
-78.540549606128025
 30
0.0
 40
8.1424231112669272
 50
256.78028186596839
 51
263.95283488305171
  0
ARC
  8
DETAIL
  6
CONTINUOUS
 62
     5
 10
292.70717482013669
 20
-80.536760999049989
 30
0.0
 40
6.2941473076045984
 50
255.76558411967881
 51
309.40658301340238
  0
ARC
  8
DETAIL
  6
CONTINUOUS
 62
     5
 10
293.48310305786208
 20
-80.704263323959822
 30
0.0
 40
3.9448455532916711
 50
264.57033044732839
 51
305.89083679278281
  0
ARC
  8
DETAIL
  6
CONTINUOUS
 62
     5
 10
275.81751120093691
 20
-75.880390813170493
 30
0.0
 40
8.796117401248889
 50
245.74628271803351
 51
275.29394438788569
  0
ARC
  8
DETAIL
  6
CONTINUOUS
 62
     5
 10
277.11583642703039
 20
-82.742805087790657
 30
0.0
 40
1.9576602270830821
 50
255.60307942220399
 51
309.24407831594391
  0
LINE
  8
OUTLINE
  6
CONTINUOUS
 62
     3
 10
3.0000000000002269
 20
351.50000000000023
 30
0.0
 11
6.4000000000000909
 21
351.50000000000023
 31
0.0
  0
LINE
  8
OUTLINE
  6
CONTINUOUS
 62
     3
 10
13.86763733420025
 20
341.50000000000023
 30
0.0
 11
16.400000000000091
 21
341.50000000000023
 31
0.0
  0
LINE
  8
OUTLINE
  6
CONTINUOUS
 62
     3
 10
114.5
 20
312.62563132929989
 30
0.0
 11
112.5
 21
314.03984489160013
 31
0.0
  0
LINE
  8
OUTLINE
  6
CONTINUOUS
 62
     3
 10
112.5
 20
314.03984489160013
 30
0.0
 11
20.0
 21
314.03984489160013
 31
0.0
  0
LINE
  8
OUTLINE
  6
CONTINUOUS
 62
     3
 10
114.5
 20
302.7261363926998
 30
0.0
 11
125.59999999999989
 21
302.7261363926998
 31
0.0
  0
LINE
  8
OUTLINE
  6
CONTINUOUS
 62
     3
 10
227.59999999999991
 20
100.7570140133996
 30
0.0
 11
265.59999999999991
 21
100.7570140133996
 31
0.0
  0
LINE
  8
OUTLINE
  6
CONTINUOUS
 62
     3
 10
267.90000000000009
 20
86.593393632300149
 30
0.0
 11
265.59999999999991
 21
86.593393632300149
 31
0.0
  0
LINE
  8
OUTLINE
  6
CONTINUOUS
 62
     3
 10
270.20000000000027
 20
83.900000000000318
 30
0.0
 11
297.80000000000001
 21
83.900000000000318
 31
0.0
  0
LINE
  8
OUTLINE
  6
CONTINUOUS
 62
     3
 10
305.90000000000009
 20
33.200000000000053
 30
0.0
 11
305.59999999999991
 21
33.200000000000053
 31
0.0
  0
LINE
  8
OUTLINE
  6
CONTINUOUS
 62
     3
 10
308.80000000000001
 20
25.799999999999951
 30
0.0
 11
308.59999999999991
 21
25.799999999999951
 31
0.0
  0
LINE
  8
OUTLINE
  6
CONTINUOUS
 62
     3
 10
308.80000000000001
 20
-25.799999999999951
 30
0.0
 11
308.59999999999991
 21
-25.799999999999951
 31
0.0
  0
LINE
  8
OUTLINE
  6
CONTINUOUS
 62
     3
 10
305.90000000000009
 20
-33.200000000000053
 30
0.0
 11
305.59999999999991
 21
-33.200000000000053
 31
0.0
  0
LINE
  8
OUTLINE
  6
CONTINUOUS
 62
     3
 10
297.5
 20
-83.899999999999864
 30
0.0
 11
297.80000000000001
 21
-83.899999999999864
 31
0.0
  0
LINE
  8
OUTLINE
  6
CONTINUOUS
 62
     3
 10
0.0000000000002274
 20
353.00000000000023
 30
0.0
 11
-0.0000000000002274
 21
-353.00000000000023
 31
0.0
  0
LINE
  8
OUTLINE
  6
CONTINUOUS
 62
     3
 10
3.0000000000002269
 20
353.00000000000023
 30
0.0
 11
3.0000000000002269
 21
351.50000000000023
 31
0.0
  0
LINE
  8
OUTLINE
  6
CONTINUOUS
 62
     3
 10
10.0
 20
347.90000000000032
 30
0.0
 11
10.0
 21
344.69476057399987
 31
0.0
  0
LINE
  8
OUTLINE
  6
CONTINUOUS
 62
     3
 10
10.0
 20
-344.69476057389983
 30
0.0
 11
10.0
 21
-347.89999999999992
 31
0.0
  0
LINE
  8
OUTLINE
  6
CONTINUOUS
 62
     3
 10
20.0
 20
337.90000000000032
 30
0.0
 11
20.0
 21
314.03984489160013
 31
0.0
  0
LINE
  8
OUTLINE
  6
CONTINUOUS
 62
     3
 10
20.0
 20
-314.03984489160052
 30
0.0
 11
20.0
 21
-337.89999999999992
 31
0.0
  0
LINE
  8
OUTLINE
  6
CONTINUOUS
 62
     3
 10
20.5
 20
-314.03984489160052
 30
0.0
 11
20.5
 21
-336.50000000000028
 31
0.0
  0
LINE
  8
OUTLINE
  6
CONTINUOUS
 62
     3
 10
255.69379604299999
 20
-107.2288302457998
 30
0.0
 11
254.58789380869959
 21
-107.3064137332001
 31
0.0
  0
LINE
  8
OUTLINE
  6
CONTINUOUS
 62
     3
 10
254.58789380869959
 20
-107.3064137332001
 30
0.0
 11
253.4921166084998
 21
-107.3813255254997
 31
0.0
  0
LINE
  8
OUTLINE
  6
CONTINUOUS
 62
     3
 10
253.4921166084998
 20
-107.3813255254997
 30
0.0
 11
252.40910083789981
 21
-107.4536354724999
 31
0.0
  0
LINE
  8
OUTLINE
  6
CONTINUOUS
 62
     3
 10
252.40910083789981
 20
-107.4536354724999
 30
0.0
 11
251.3414828927996
 21
-107.52341342449991
 31
0.0
  0
LINE
  8
OUTLINE
  6
CONTINUOUS
 62
     3
 10
251.3414828927996
 20
-107.52341342449991
 30
0.0
 11
250.2918991686997
 21
-107.5907292312997
 31
0.0
  0
LINE
  8
OUTLINE
  6
CONTINUOUS
 62
     3
 10
250.2918991686997
 20
-107.5907292312997
 30
0.0
 11
249.4949676696001
 21
-107.6395507677
 31
0.0
  0
LINE
  8
OUTLINE
  6
CONTINUOUS
 62
     3
 10
249.4949676696001
 20
-107.6395507677
 30
0.0
 11
248.70247595979981
 21
-107.68459195840001
 31
0.0
  0
LINE
  8
OUTLINE
  6
CONTINUOUS
 62
     3
 10
248.70247595979981
 20
-107.68459195840001
 30
0.0
 11
247.9145575053999
 21
-107.7261500862999
 31
0.0
  0
LINE
  8
OUTLINE
  6
CONTINUOUS
 62
     3
 10
247.9145575053999
 20
-107.7261500862999
 30
0.0
 11
247.1313457725
 21
-107.7645224342002
 31
0.0
  0
LINE
  8
OUTLINE
  6
CONTINUOUS
 62
     3
 10
247.1313457725
 20
-107.7645224342002
 30
0.0
 11
246.3529742273997
 21
-107.8000062849999
 31
0.0
  0
LINE
  8
OUTLINE
  6
CONTINUOUS
 62
     3
 10
246.3529742273997
 20
-107.8000062849999
 30
0.0
 11
245.5795763362996
 21
-107.8328989217005
 31
0.0
  0
LINE
  8
OUTLINE
  6
CONTINUOUS
 62
     3
 10
245.5795763362996
 20
-107.8328989217005
 30
0.0
 11
244.81128556529961
 21
-107.8634976269998
 31
0.0
  0
LINE
  8
OUTLINE
  6
CONTINUOUS
 62
     3
 10
244.81128556529961
 20
-107.8634976269998
 30
0.0
 11
244.04823538060009
 21
-107.8920996837999
 31
0.0
  0
LINE
  8
OUTLINE
  6
CONTINUOUS
 62
     3
 10
244.04823538060009
 20
-107.8920996837999
 30
0.0
 11
243.2905592484997
 21
-107.91900237510001
 31
0.0
  0
LINE
  8
OUTLINE
  6
CONTINUOUS
 62
     3
 10
243.2905592484997
 20
-107.91900237510001
 30
0.0
 11
242.53839063499981
 21
-107.9445029837
 31
0.0
  0
LINE
  8
OUTLINE
  6
CONTINUOUS
 62
     3
 10
242.53839063499981
 20
-107.9445029837
 30
0.0
 11
241.79186300639981
 21
-107.9688987925999
 31
0.0
  0
LINE
  8
OUTLINE
  6
CONTINUOUS
 62
     3
 10
238.60367123899979
 20
-108.0697458906
 30
0.0
 11
237.76068867169991
 21
-108.0975080879996
 31
0.0
  0
LINE
  8
OUTLINE
  6
CONTINUOUS
 62
     3
 10
237.76068867169991
 20
-108.0975080879996
 30
0.0
 11
236.9269326491999
 21
-108.12631441549981
 31
0.0
  0
LINE
  8
OUTLINE
  6
CONTINUOUS
 62
     3
 10
236.9269326491999
 20
-108.12631441549981
 30
0.0
 11
236.10266603109989
 21
-108.1566120588998
 31
0.0
  0
LINE
  8
OUTLINE
  6
CONTINUOUS
 62
     3
 10
236.10266603109989
 20
-108.1566120588998
 30
0.0
 11
235.28815167739981
 21
-108.1888482042998
 31
0.0
  0
LINE
  8
OUTLINE
  6
CONTINUOUS
 62
     3
 10
235.28815167739981
 20
-108.1888482042998
 30
0.0
 11
234.48365244790011
 21
-108.22347003739991
 31
0.0
  0
LINE
  8
OUTLINE
  6
CONTINUOUS
 62
     3
 10
234.48365244790011
 20
-108.22347003739991
 30
0.0
 11
233.6894312022998
 21
-108.2609247442003
 31
0.0
  0
LINE
  8
OUTLINE
  6
CONTINUOUS
 62
     3
 10
233.6894312022998
 20
-108.2609247442003
 30
0.0
 11
232.90575080049959
 21
-108.30165951059981
 31
0.0
  0
LINE
  8
OUTLINE
  6
CONTINUOUS
 62
     3
 10
232.90575080049959
 20
-108.30165951059981
 30
0.0
 11
232.13287410229989
 21
-108.3461215225
 31
0.0
  0
LINE
  8
OUTLINE
  6
CONTINUOUS
 62
     3
 10
232.13287410229989
 20
-108.3461215225
 30
0.0
 11
231.37106396749999
 21
-108.3947579656999
 31
0.0
  0
LINE
  8
OUTLINE
  6
CONTINUOUS
 62
     3
 10
231.37106396749999
 20
-108.3947579656999
 30
0.0
 11
230.59044808510001
 21
-108.45025090520021
 31
0.0
  0
LINE
  8
OUTLINE
  6
CONTINUOUS
 62
     3
 10
230.59044808510001
 20
-108.45025090520021
 30
0.0
 11
229.82247226629991
 21
-108.5110976229
 31
0.0
  0
LINE
  8
OUTLINE
  6
CONTINUOUS
 62
     3
 10
229.82247226629991
 20
-108.5110976229
 30
0.0
 11
229.0675110042998
 21
-108.5776483967995
 31
0.0
  0
LINE
  8
OUTLINE
  6
CONTINUOUS
 62
     3
 10
229.0675110042998
 20
-108.5776483967995
 30
0.0
 11
228.32593879199999
 21
-108.6502535047
 31
0.0
  0
LINE
  8
OUTLINE
  6
CONTINUOUS
 62
     3
 10
228.32593879199999
 20
-108.6502535047
 30
0.0
 11
227.59813012240011
 21
-108.7292632245001
 31
0.0
  0
LINE
  8
OUTLINE
  6
CONTINUOUS
 62
     3
 10
241.79186300639981
 20
-107.9688987925999
 30
0.0
 11
240.31626456849969
 21
-108.0155651423004
 31
0.0
  0
LINE
  8
OUTLINE
  6
CONTINUOUS
 62
     3
 10
240.31626456849969
 20
-108.0155651423004
 30
0.0
 11
238.60367123899979
 21
-108.0697458906
 31
0.0
  0
LINE
  8
OUTLINE
  6
CONTINUOUS
 62
     3
 10
272.6828669352999
 20
-105.5490320672
 30
0.0
 11
272.31200464440008
 21
-105.6039348611996
 31
0.0
  0
LINE
  8
OUTLINE
  6
CONTINUOUS
 62
     3
 10
272.31200464440008
 20
-105.6039348611996
 30
0.0
 11
271.93624601179999
 21
-105.6580582679001
 31
0.0
  0
LINE
  8
OUTLINE
  6
CONTINUOUS
 62
     3
 10
271.93624601179999
 20
-105.6580582679001
 30
0.0
 11
271.55574115029998
 21
-105.71141307160021
 31
0.0
  0
LINE
  8
OUTLINE
  6
CONTINUOUS
 62
     3
 10
271.55574115029998
 20
-105.71141307160021
 30
0.0
 11
271.1706401724
 21
-105.7640100566002
 31
0.0
  0
LINE
  8
OUTLINE
  6
CONTINUOUS
 62
     3
 10
271.1706401724
 20
-105.7640100566002
 30
0.0
 11
270.78109319099963
 21
-105.8158600073004
 31
0.0
  0
LINE
  8
OUTLINE
  6
CONTINUOUS
 62
     3
 10
270.78109319099963
 20
-105.8158600073004
 30
0.0
 11
270.3872503186999
 21
-105.86697370809971
 31
0.0
  0
LINE
  8
OUTLINE
  6
CONTINUOUS
 62
     3
 10
270.3872503186999
 20
-105.86697370809971
 30
0.0
 11
269.98926166829978
 21
-105.91736194319969
 31
0.0
  0
LINE
  8
OUTLINE
  6
CONTINUOUS
 62
     3
 10
269.98926166829978
 20
-105.91736194319969
 30
0.0
 11
269.58727735249983
 21
-105.9670354969001
 31
0.0
  0
LINE
  8
OUTLINE
  6
CONTINUOUS
 62
     3
 10
269.58727735249983
 20
-105.9670354969001
 30
0.0
 11
269.18144748399959
 21
-106.01600515369979
 31
0.0
  0
LINE
  8
OUTLINE
  6
CONTINUOUS
 62
     3
 10
269.18144748399959
 20
-106.01600515369979
 30
0.0
 11
268.77192217550009
 21
-106.0642816976999
 31
0.0
  0
LINE
  8
OUTLINE
  6
CONTINUOUS
 62
     3
 10
268.77192217550009
 20
-106.0642816976999
 30
0.0
 11
268.35885153970003
 21
-106.1118759133999
 31
0.0
  0
LINE
  8
OUTLINE
  6
CONTINUOUS
 62
     3
 10
268.35885153970003
 20
-106.1118759133999
 30
0.0
 11
267.94238568949982
 21
-106.1587985850999
 31
0.0
  0
LINE
  8
OUTLINE
  6
CONTINUOUS
 62
     3
 10
267.94238568949982
 20
-106.1587985850999
 30
0.0
 11
267.52267473739988
 21
-106.20506049710021
 31
0.0
  0
LINE
  8
OUTLINE
  6
CONTINUOUS
 62
     3
 10
267.52267473739988
 20
-106.20506049710021
 30
0.0
 11
267.0998687962001
 21
-106.25067243369971
 31
0.0
  0
LINE
  8
OUTLINE
  6
CONTINUOUS
 62
     3
 10
267.0998687962001
 20
-106.25067243369971
 30
0.0
 11
266.67411797859972
 21
-106.29564517920041
 31
0.0
  0
LINE
  8
OUTLINE
  6
CONTINUOUS
 62
     3
 10
266.67411797859972
 20
-106.29564517920041
 30
0.0
 11
266.24557239739988
 21
-106.3399895180999
 31
0.0
  0
LINE
  8
OUTLINE
  6
CONTINUOUS
 62
     3
 10
266.24557239739988
 20
-106.3399895180999
 30
0.0
 11
265.81438216519967
 21
-106.3837162345001
 31
0.0
  0
LINE
  8
OUTLINE
  6
CONTINUOUS
 62
     3
 10
265.81438216519967
 20
-106.3837162345001
 30
0.0
 11
265.38069739479988
 21
-106.42683611290001
 31
0.0
  0
LINE
  8
OUTLINE
  6
CONTINUOUS
 62
     3
 10
265.38069739479988
 20
-106.42683611290001
 30
0.0
 11
264.94466819889982
 21
-106.4693599375998
 31
0.0
  0
LINE
  8
OUTLINE
  6
CONTINUOUS
 62
     3
 10
264.94466819889982
 20
-106.4693599375998
 30
0.0
 11
264.50644469019971
 21
-106.51129849280029
 31
0.0
  0
LINE
  8
OUTLINE
  6
CONTINUOUS
 62
     3
 10
264.50644469019971
 20
-106.51129849280029
 30
0.0
 11
264.06617698140008
 21
-106.5526625629998
 31
0.0
  0
LINE
  8
OUTLINE
  6
CONTINUOUS
 62
     3
 10
264.06617698140008
 20
-106.5526625629998
 30
0.0
 11
263.62401518529992
 21
-106.5934629323999
 31
0.0
  0
LINE
  8
OUTLINE
  6
CONTINUOUS
 62
     3
 10
263.62401518529992
 20
-106.5934629323999
 30
0.0
 11
263.18010941449978
 21
-106.63371038539999
 31
0.0
  0
LINE
  8
OUTLINE
  6
CONTINUOUS
 62
     3
 10
263.18010941449978
 20
-106.63371038539999
 30
0.0
 11
262.73460978189968
 21
-106.67341570629991
 31
0.0
  0
LINE
  8
OUTLINE
  6
CONTINUOUS
 62
     3
 10
262.73460978189968
 20
-106.67341570629991
 30
0.0
 11
262.28766639999998
 21
-106.7125896793998
 31
0.0
  0
LINE
  8
OUTLINE
  6
CONTINUOUS
 62
     3
 10
262.28766639999998
 20
-106.7125896793998
 30
0.0
 11
261.83942938159998
 21
-106.7512430890999
 31
0.0
  0
LINE
  8
OUTLINE
  6
CONTINUOUS
 62
     3
 10
261.83942938159998
 20
-106.7512430890999
 30
0.0
 11
261.28290887499998
 21
-106.7983926289
 31
0.0
  0
LINE
  8
OUTLINE
  6
CONTINUOUS
 62
     3
 10
261.28290887499998
 20
-106.7983926289
 30
0.0
 11
260.72496503330012
 21
-106.8447694696999
 31
0.0
  0
LINE
  8
OUTLINE
  6
CONTINUOUS
 62
     3
 10
260.72496503330012
 20
-106.8447694696999
 30
0.0
 11
260.16592740609963
 21
-106.8903823429998
 31
0.0
  0
LINE
  8
OUTLINE
  6
CONTINUOUS
 62
     3
 10
260.16592740609963
 20
-106.8903823429998
 30
0.0
 11
259.60612554279987
 21
-106.93523997989971
 31
0.0
  0
LINE
  8
OUTLINE
  6
CONTINUOUS
 62
     3
 10
259.60612554279987
 20
-106.93523997989971
 30
0.0
 11
259.04588899279997
 21
-106.9793511117002
 31
0.0
  0
LINE
  8
OUTLINE
  6
CONTINUOUS
 62
     3
 10
259.04588899279997
 20
-106.9793511117002
 30
0.0
 11
258.48554730559999
 21
-107.02272446970009
 31
0.0
  0
LINE
  8
OUTLINE
  6
CONTINUOUS
 62
     3
 10
258.48554730559999
 20
-107.02272446970009
 30
0.0
 11
257.92543003069977
 21
-107.06536878499971
 31
0.0
  0
LINE
  8
OUTLINE
  6
CONTINUOUS
 62
     3
 10
257.92543003069977
 20
-107.06536878499971
 30
0.0
 11
257.36586671750001
 21
-107.1072927891003
 31
0.0
  0
LINE
  8
OUTLINE
  6
CONTINUOUS
 62
     3
 10
257.36586671750001
 20
-107.1072927891003
 30
0.0
 11
256.8071869155001
 21
-107.14850521309999
 31
0.0
  0
LINE
  8
OUTLINE
  6
CONTINUOUS
 62
     3
 10
256.8071869155001
 20
-107.14850521309999
 30
0.0
 11
256.24972017419992
 21
-107.1890147881998
 31
0.0
  0
LINE
  8
OUTLINE
  6
CONTINUOUS
 62
     3
 10
256.24972017419992
 20
-107.1890147881998
 30
0.0
 11
255.69379604299999
 21
-107.2288302457998
 31
0.0
  0
LINE
  8
OUTLINE
  6
CONTINUOUS
 62
     3
 10
114.5
 20
-312.62563132919968
 30
0.0
 11
114.5
 21
-302.72613639260021
 31
0.0
  0
LINE
  8
OUTLINE
  6
CONTINUOUS
 62
     3
 10
114.5
 20
312.62563132929989
 30
0.0
 11
114.5
 21
302.7261363926998
 31
0.0
  0
LINE
  8
OUTLINE
  6
CONTINUOUS
 62
     3
 10
115.2343782649998
 20
-349.51599999999979
 30
0.0
 11
115.2343782649998
 21
-302.72613639260021
 31
0.0
  0
LINE
  8
OUTLINE
  6
CONTINUOUS
 62
     3
 10
115.234378265
 20
302.7261363926998
 30
0.0
 11
115.234378265
 21
349.5160000000003
 31
0.0
  0
LINE
  8
OUTLINE
  6
CONTINUOUS
 62
     3
 10
119.2343782649998
 20
-349.51599999999979
 30
0.0
 11
119.2343782649998
 21
-302.72613639260021
 31
0.0
  0
LINE
  8
OUTLINE
  6
CONTINUOUS
 62
     3
 10
119.234378265
 20
302.7261363926998
 30
0.0
 11
119.234378265
 21
349.5160000000003
 31
0.0
  0
LINE
  8
OUTLINE
  6
CONTINUOUS
 62
     3
 10
119.5
 20
-307.08776461219998
 30
0.0
 11
119.5
 21
-302.72613639260021
 31
0.0
  0
LINE
  8
OUTLINE
  6
CONTINUOUS
 62
     3
 10
123.0
 20
-307.08776461219998
 30
0.0
 11
123.0
 21
-302.72613639260021
 31
0.0
  0
LINE
  8
OUTLINE
  6
CONTINUOUS
 62
     3
 10
124.0
 20
-306.33238097660001
 30
0.0
 11
124.0
 21
-302.72613639260021
 31
0.0
  0
LINE
  8
OUTLINE
  6
CONTINUOUS
 62
     3
 10
227.59999999999991
 20
-224.23728368090019
 30
0.0
 11
227.59999999999991
 21
-108.72906023364349
 31
0.0
  0
LINE
  8
OUTLINE
  6
CONTINUOUS
 62
     3
 10
227.59999999999991
 20
100.7570140133997
 30
0.0
 11
227.6451339912303
 21
224.237283680937
 31
0.0
  0
LINE
  8
OUTLINE
  6
CONTINUOUS
 62
     3
 10
296.70282096049982
 20
-85.400000891600257
 30
0.0
 11
297.05098359930003
 21
-85.174136627699909
 31
0.0
  0
LINE
  8
OUTLINE
  6
CONTINUOUS
 62
     3
 10
297.05098359930003
 20
-85.174136627699909
 30
0.0
 11
297.29990098539997
 21
-84.926883654000221
 31
0.0
  0
LINE
  8
OUTLINE
  6
CONTINUOUS
 62
     3
 10
297.29990098539997
 20
-84.926883654000221
 30
0.0
 11
297.44977418220009
 21
-84.656708660100094
 31
0.0
  0
LINE
  8
OUTLINE
  6
CONTINUOUS
 62
     3
 10
297.44977418220009
 20
-84.656708660100094
 30
0.0
 11
297.5
 21
-84.365625639600012
 31
0.0
  0
LINE
  8
OUTLINE
  6
CONTINUOUS
 62
     3
 10
125.59999999999989
 20
-302.72613639260021
 30
0.0
 11
114.5
 21
-302.72613639260021
 31
0.0
  0
LINE
  8
OUTLINE
  6
CONTINUOUS
 62
     3
 10
119.2343782649998
 20
-302.79684707070032
 30
0.0
 11
119.5
 21
-302.79684707070032
 31
0.0
  0
LINE
  8
OUTLINE
  6
CONTINUOUS
 62
     3
 10
119.2343782649998
 20
-306.33238097660001
 30
0.0
 11
119.5
 21
-306.33238097660001
 31
0.0
  0
LINE
  8
OUTLINE
  6
CONTINUOUS
 62
     3
 10
123.0
 20
-306.33238097660001
 30
0.0
 11
124.0
 21
-306.33238097660001
 31
0.0
  0
LINE
  8
OUTLINE
  6
CONTINUOUS
 62
     3
 10
123.0
 20
-307.08808545499983
 30
0.0
 11
119.5
 21
-307.08808545499983
 31
0.0
  0
LINE
  8
OUTLINE
  6
CONTINUOUS
 62
     3
 10
20.0
 20
-314.03984489160052
 30
0.0
 11
112.5
 21
-314.03984489160052
 31
0.0
  0
LINE
  8
OUTLINE
  6
CONTINUOUS
 62
     3
 10
20.5
 20
-336.50000000000028
 30
0.0
 11
20.0
 21
-336.50000000000028
 31
0.0
  0
LINE
  8
OUTLINE
  6
CONTINUOUS
 62
     3
 10
265.59999999999991
 20
100.7570007251004
 30
0.0
 11
265.60000000000008
 21
86.593393632300149
 31
0.0
  0
LINE
  8
OUTLINE
  6
CONTINUOUS
 62
     3
 10
267.90000000000009
 20
86.593346445599991
 30
0.0
 11
267.90000000000009
 21
86.200000000000045
 31
0.0
  0
LINE
  8
OUTLINE
  6
CONTINUOUS
 62
     3
 10
16.400000000000091
 20
-341.50000000000028
 30
0.0
 11
13.86763733420003
 21
-341.50000000000028
 31
0.0
  0
LINE
  8
OUTLINE
  6
CONTINUOUS
 62
     3
 10
6.3999999999998636
 20
-351.50000000000023
 30
0.0
 11
2.9999999999997731
 21
-351.50000000000023
 31
0.0
  0
LINE
  8
OUTLINE
  6
CONTINUOUS
 62
     3
 10
297.5
 20
-83.899999999999864
 30
0.0
 11
297.5
 21
-84.365625639600012
 31
0.0
  0
LINE
  8
OUTLINE
  6
CONTINUOUS
 62
     3
 10
305.59999999999991
 20
-76.099965314800329
 30
0.0
 11
305.60000000000008
 21
-33.200000000000053
 31
0.0
  0
LINE
  8
OUTLINE
  6
CONTINUOUS
 62
     3
 10
308.59999999999991
 20
-30.499966835900299
 30
0.0
 11
308.59999999999991
 21
-25.799999999999951
 31
0.0
  0
LINE
  8
OUTLINE
  6
CONTINUOUS
 62
     3
 10
312.59999999999991
 20
-21.999999999999769
 30
0.0
 11
312.59999999999991
 21
22.000000000000231
 31
0.0
  0
LINE
  8
OUTLINE
  6
CONTINUOUS
 62
     3
 10
285.97368756409992
 20
-93.882190536999815
 30
0.0
 11
285.86108466329978
 21
-94.751037514600057
 31
0.0
  0
LINE
  8
OUTLINE
  6
CONTINUOUS
 62
     3
 10
285.86108466329978
 20
-94.751037514600057
 30
0.0
 11
285.80317635500001
 21
-95.184620384399977
 31
0.0
  0
LINE
  8
OUTLINE
  6
CONTINUOUS
 62
     3
 10
285.80317635500001
 20
-95.184620384399977
 30
0.0
 11
285.74160827999998
 21
-95.621170927700177
 31
0.0
  0
LINE
  8
OUTLINE
  6
CONTINUOUS
 62
     3
 10
285.74160827999998
 20
-95.621170927700177
 30
0.0
 11
285.67290715189978
 21
-96.063414688599778
 31
0.0
  0
LINE
  8
OUTLINE
  6
CONTINUOUS
 62
     3
 10
285.67290715189978
 20
-96.063414688599778
 30
0.0
 11
285.59323923929992
 21
-96.514095912499897
 31
0.0
  0
LINE
  8
OUTLINE
  6
CONTINUOUS
 62
     3
 10
285.59323923929992
 20
-96.514095912499897
 30
0.0
 11
285.49877081099999
 21
-96.9759588446002
 31
0.0
  0
LINE
  8
OUTLINE
  6
CONTINUOUS
 62
     3
 10
285.49877081099999
 20
-96.9759588446002
 30
0.0
 11
285.38566813569992
 21
-97.451747730400029
 31
0.0
  0
LINE
  8
OUTLINE
  6
CONTINUOUS
 62
     3
 10
285.38566813569992
 20
-97.451747730400029
 30
0.0
 11
285.27413340439989
 21
-97.860478211899817
 31
0.0
  0
LINE
  8
OUTLINE
  6
CONTINUOUS
 62
     3
 10
285.27413340439989
 20
-97.860478211899817
 30
0.0
 11
285.14308435690009
 21
-98.280105474299717
 31
0.0
  0
LINE
  8
OUTLINE
  6
CONTINUOUS
 62
     3
 10
285.14308435690009
 20
-98.280105474299717
 30
0.0
 11
284.98860943960022
 21
-98.709949771199945
 31
0.0
  0
LINE
  8
OUTLINE
  6
CONTINUOUS
 62
     3
 10
284.98860943960022
 20
-98.709949771199945
 30
0.0
 11
284.85512728430012
 21
-99.038374327399879
 31
0.0
  0
LINE
  8
OUTLINE
  6
CONTINUOUS
 62
     3
 10
284.85512728430012
 20
-99.038374327399879
 30
0.0
 11
284.70521946360009
 21
-99.370348726199836
 31
0.0
  0
LINE
  8
OUTLINE
  6
CONTINUOUS
 62
     3
 10
284.70521946360009
 20
-99.370348726199836
 30
0.0
 11
284.53783761310001
 21
-99.704058085200131
 31
0.0
  0
LINE
  8
OUTLINE
  6
CONTINUOUS
 62
     3
 10
284.53783761310001
 20
-99.704058085200131
 30
0.0
 11
284.35193336809988
 21
-100.03768752239991
 31
0.0
  0
LINE
  8
OUTLINE
  6
CONTINUOUS
 62
     3
 10
284.35193336809988
 20
-100.03768752239991
 30
0.0
 11
284.14676573399993
 21
-100.36929105830021
 31
0.0
  0
LINE
  8
OUTLINE
  6
CONTINUOUS
 62
     3
 10
284.14676573399993
 20
-100.36929105830021
 30
0.0
 11
283.92282319679998
 21
-100.6963983241001
 31
0.0
  0
LINE
  8
OUTLINE
  6
CONTINUOUS
 62
     3
 10
283.92282319679998
 20
-100.6963983241001
 30
0.0
 11
283.68090161240002
 21
-101.01640785399989
 31
0.0
  0
LINE
  8
OUTLINE
  6
CONTINUOUS
 62
     3
 10
283.68090161240002
 20
-101.01640785399989
 30
0.0
 11
283.4217968367002
 21
-101.3267181821
 31
0.0
  0
LINE
  8
OUTLINE
  6
CONTINUOUS
 62
     3
 10
283.4217968367002
 20
-101.3267181821
 30
0.0
 11
283.14650514250002
 21
-101.6249870690001
 31
0.0
  0
LINE
  8
OUTLINE
  6
CONTINUOUS
 62
     3
 10
283.14650514250002
 20
-101.6249870690001
 30
0.0
 11
282.85682446970009
 21
-101.9099091823002
 31
0.0
  0
LINE
  8
OUTLINE
  6
CONTINUOUS
 62
     3
 10
282.85682446970009
 20
-101.9099091823002
 30
0.0
 11
282.5547531750999
 21
-102.1804384159002
 31
0.0
  0
LINE
  8
OUTLINE
  6
CONTINUOUS
 62
     3
 10
282.5547531750999
 20
-102.1804384159002
 30
0.0
 11
282.24228961549989
 21
-102.4355286636999
 31
0.0
  0
LINE
  8
OUTLINE
  6
CONTINUOUS
 62
     3
 10
282.24228961549989
 20
-102.4355286636999
 30
0.0
 11
281.92128130819992
 21
-102.67442683580001
 31
0.0
  0
LINE
  8
OUTLINE
  6
CONTINUOUS
 62
     3
 10
281.92128130819992
 20
-102.67442683580001
 30
0.0
 11
281.5929724130001
 21
-102.89755190540041
 31
0.0
  0
LINE
  8
OUTLINE
  6
CONTINUOUS
 62
     3
 10
281.5929724130001
 20
-102.89755190540041
 30
0.0
 11
281.25845625020003
 21
-103.1056158614999
 31
0.0
  0
LINE
  8
OUTLINE
  6
CONTINUOUS
 62
     3
 10
281.25845625020003
 20
-103.1056158614999
 30
0.0
 11
280.91882614010001
 21
-103.29933069330011
 31
0.0
  0
LINE
  8
OUTLINE
  6
CONTINUOUS
 62
     3
 10
280.91882614010001
 20
-103.29933069330011
 30
0.0
 11
280.45944340289998
 21
-103.5367258519998
 31
0.0
  0
LINE
  8
OUTLINE
  6
CONTINUOUS
 62
     3
 10
280.45944340289998
 20
-103.5367258519998
 30
0.0
 11
279.99264095389998
 21
-103.7527587603001
 31
0.0
  0
LINE
  8
OUTLINE
  6
CONTINUOUS
 62
     3
 10
279.99264095389998
 20
-103.7527587603001
 30
0.0
 11
279.51814686220018
 21
-103.9503109635
 31
0.0
  0
LINE
  8
OUTLINE
  6
CONTINUOUS
 62
     3
 10
279.51814686220018
 20
-103.9503109635
 30
0.0
 11
279.0354308597
 21
-104.1320657455997
 31
0.0
  0
LINE
  8
OUTLINE
  6
CONTINUOUS
 62
     3
 10
279.0354308597
 20
-104.1320657455997
 30
0.0
 11
278.54292932829998
 21
-104.2999133443998
 31
0.0
  0
LINE
  8
OUTLINE
  6
CONTINUOUS
 62
     3
 10
278.54292932829998
 20
-104.2999133443998
 30
0.0
 11
278.03882031249992
 21
-104.4555457364002
 31
0.0
  0
LINE
  8
OUTLINE
  6
CONTINUOUS
 62
     3
 10
278.03882031249992
 20
-104.4555457364002
 30
0.0
 11
277.52128185660013
 21
-104.6006548977
 31
0.0
  0
LINE
  8
OUTLINE
  6
CONTINUOUS
 62
     3
 10
277.52128185660013
 20
-104.6006548977
 30
0.0
 11
276.98849200519999
 21
-104.73693280489969
 31
0.0
  0
LINE
  8
OUTLINE
  6
CONTINUOUS
 62
     3
 10
276.98849200519999
 20
-104.73693280489969
 30
0.0
 11
276.4386288026999
 21
-104.86607143410011
 31
0.0
  0
LINE
  8
OUTLINE
  6
CONTINUOUS
 62
     3
 10
276.4386288026999
 20
-104.86607143410011
 30
0.0
 11
275.95235904280003
 21
-104.9722549647001
 31
0.0
  0
LINE
  8
OUTLINE
  6
CONTINUOUS
 62
     3
 10
275.95235904280003
 20
-104.9722549647001
 30
0.0
 11
275.45112941039997
 21
-105.0748599676001
 31
0.0
  0
LINE
  8
OUTLINE
  6
CONTINUOUS
 62
     3
 10
275.45112941039997
 20
-105.0748599676001
 30
0.0
 11
274.93386229909993
 21
-105.17431001429961
 31
0.0
  0
LINE
  8
OUTLINE
  6
CONTINUOUS
 62
     3
 10
274.93386229909993
 20
-105.17431001429961
 30
0.0
 11
274.3994801023
 21
-105.27102867619961
 31
0.0
  0
LINE
  8
OUTLINE
  6
CONTINUOUS
 62
     3
 10
274.3994801023
 20
-105.27102867619961
 30
0.0
 11
273.84690521369998
 21
-105.36543952470019
 31
0.0
  0
LINE
  8
OUTLINE
  6
CONTINUOUS
 62
     3
 10
273.84690521369998
 20
-105.36543952470019
 30
0.0
 11
273.27506002680002
 21
-105.4579661311998
 31
0.0
  0
LINE
  8
OUTLINE
  6
CONTINUOUS
 62
     3
 10
273.27506002680002
 20
-105.4579661311998
 30
0.0
 11
272.6828669352999
 21
-105.5490320672
 31
0.0
  0
LINE
  8
OUTLINE
  6
CONTINUOUS
 62
     3
 10
286.50622490070009
 20
-90.565103346499882
 30
0.0
 11
286.42057384169988
 21
-90.996979078699724
 31
0.0
  0
LINE
  8
OUTLINE
  6
CONTINUOUS
 62
     3
 10
286.42057384169988
 20
-90.996979078699724
 30
0.0
 11
286.34281214290007
 21
-91.416633151700125
 31
0.0
  0
LINE
  8
OUTLINE
  6
CONTINUOUS
 62
     3
 10
286.34281214290007
 20
-91.416633151700125
 30
0.0
 11
286.27206415320012
 21
-91.825091672000099
 31
0.0
  0
LINE
  8
OUTLINE
  6
CONTINUOUS
 62
     3
 10
286.27206415320012
 20
-91.825091672000099
 30
0.0
 11
286.20745422139998
 21
-92.223380746299654
 31
0.0
  0
LINE
  8
OUTLINE
  6
CONTINUOUS
 62
     3
 10
286.20745422139998
 20
-92.223380746299654
 30
0.0
 11
286.14810669630009
 21
-92.61252648129971
 31
0.0
  0
LINE
  8
OUTLINE
  6
CONTINUOUS
 62
     3
 10
286.14810669630009
 20
-92.61252648129971
 30
0.0
 11
286.09314592700002
 21
-92.993554983599779
 31
0.0
  0
LINE
  8
OUTLINE
  6
CONTINUOUS
 62
     3
 10
286.09314592700002
 20
-92.993554983599779
 30
0.0
 11
286.03172428149992
 21
-93.441662351700188
 31
0.0
  0
LINE
  8
OUTLINE
  6
CONTINUOUS
 62
     3
 10
286.03172428149992
 20
-93.441662351700188
 30
0.0
 11
285.97368756409992
 21
-93.882190536999815
 31
0.0
  0
LINE
  8
OUTLINE
  6
CONTINUOUS
 62
     3
 10
293.66249754879982
 20
-86.509336166600178
 30
0.0
 11
293.64008784399988
 21
-86.618334521799852
 31
0.0
  0
LINE
  8
OUTLINE
  6
CONTINUOUS
 62
     3
 10
293.64008784399988
 20
-86.618334521799852
 30
0.0
 11
293.49772749940013
 21
-87.019954110299977
 31
0.0
  0
LINE
  8
OUTLINE
  6
CONTINUOUS
 62
     3
 10
293.49772749940013
 20
-87.019954110299977
 30
0.0
 11
293.29646324250012
 21
-87.407552947900285
 31
0.0
  0
LINE
  8
OUTLINE
  6
CONTINUOUS
 62
     3
 10
293.29646324250012
 20
-87.407552947900285
 30
0.0
 11
293.03804898070013
 21
-87.773522509000259
 31
0.0
  0
LINE
  8
OUTLINE
  6
CONTINUOUS
 62
     3
 10
293.03804898070013
 20
-87.773522509000259
 30
0.0
 11
292.72725797229992
 21
-88.11039570959997
 31
0.0
  0
LINE
  8
OUTLINE
  6
CONTINUOUS
 62
     3
 10
292.72725797229992
 20
-88.11039570959997
 30
0.0
 11
292.36896813210001
 21
-88.414900699100372
 31
0.0
  0
LINE
  8
OUTLINE
  6
CONTINUOUS
 62
     3
 10
292.36896813210001
 20
-88.414900699100372
 30
0.0
 11
291.96322930209999
 21
-88.68945168230016
 31
0.0
  0
LINE
  8
OUTLINE
  6
CONTINUOUS
 62
     3
 10
291.96322930209999
 20
-88.68945168230016
 30
0.0
 11
291.50960944809998
 21
-88.936420662999581
 31
0.0
  0
LINE
  8
OUTLINE
  6
CONTINUOUS
 62
     3
 10
291.50960944809998
 20
-88.936420662999581
 30
0.0
 11
290.99783367700002
 21
-89.162070492900284
 31
0.0
  0
LINE
  8
OUTLINE
  6
CONTINUOUS
 62
     3
 10
290.99783367700002
 20
-89.162070492900284
 30
0.0
 11
290.41218623260011
 21
-89.371345922699902
 31
0.0
  0
LINE
  8
OUTLINE
  6
CONTINUOUS
 62
     3
 10
290.41218623260011
 20
-89.371345922699902
 30
0.0
 11
289.7576893941
 21
-89.560374885800002
 31
0.0
  0
LINE
  8
OUTLINE
  6
CONTINUOUS
 62
     3
 10
289.7576893941
 20
-89.560374885800002
 30
0.0
 11
289.03783379079982
 21
-89.727445080499592
 31
0.0
  0
LINE
  8
OUTLINE
  6
CONTINUOUS
 62
     3
 10
289.03783379079982
 20
-89.727445080499592
 30
0.0
 11
288.27407898879977
 21
-89.86838687220029
 31
0.0
  0
LINE
  8
OUTLINE
  6
CONTINUOUS
 62
     3
 10
288.27407898879977
 20
-89.86838687220029
 30
0.0
 11
287.50646610119998
 21
-89.979441161600107
 31
0.0
  0
LINE
  8
OUTLINE
  6
CONTINUOUS
 62
     3
 10
287.50646610119998
 20
-89.979441161600107
 30
0.0
 11
286.72483090079982
 21
-90.065758270599645
 31
0.0
  0
LINE
  8
OUTLINE
  6
CONTINUOUS
 62
     3
 10
286.72483090079982
 20
-90.065758270599645
 30
0.0
 11
286.08956685369998
 21
-90.116334654999946
 31
0.0
  0
LINE
  8
OUTLINE
  6
CONTINUOUS
 62
     3
 10
286.6078893496001
 20
-90.07590255980017
 30
0.0
 11
286.59479709990001
 21
-90.138230678899845
 31
0.0
  0
LINE
  8
OUTLINE
  6
CONTINUOUS
 62
     3
 10
286.59479709990001
 20
-90.138230678899845
 30
0.0
 11
286.50622490070009
 21
-90.565103346499882
 31
0.0
  0
LINE
  8
OUTLINE
  6
CONTINUOUS
 62
     3
 10
112.5
 20
-314.03984489160052
 30
0.0
 11
114.5
 21
-312.62563132919968
 31
0.0
  0
ARC
  8
OUTLINE
  6
CONTINUOUS
 62
     3
 10
69.400000000000091
 20
353.50000000000023
 30
0.0
 40
49.399999999999999
 50
306.98010776350861
 51
338.11344462331027
  0
ARC
  8
OUTLINE
  6
CONTINUOUS
 62
     3
 10
49.400000000000091
 20
333.50000000000023
 30
0.0
 40
29.399999999999999
 50
180.0
 51
221.4520332125044
  0
ARC
  8
OUTLINE
  6
CONTINUOUS
 62
     3
 10
6.4000000000000909
 20
347.90000000000032
 30
0.0
 40
3.6000000000000001
 50
0.0
 51
90.0
  0
ARC
  8
OUTLINE
  6
CONTINUOUS
 62
     3
 10
16.400000000000091
 20
337.90000000000032
 30
0.0
 40
3.6000000000000001
 50
0.0
 51
90.0
  0
ARC
  8
OUTLINE
  6
CONTINUOUS
 62
     3
 10
117.234378265
 20
349.5160000000003
 30
0.0
 40
2.0
 50
0.0
 51
180.0
  0
ARC
  8
OUTLINE
  6
CONTINUOUS
 62
     3
 10
1.5000000000002269
 20
353.00000000000023
 30
0.0
 40
1.5
 50
0.0
 51
180.0
  0
ARC
  8
OUTLINE
  6
CONTINUOUS
 62
     3
 10
297.80000000000001
 20
76.100000000000136
 30
0.0
 40
7.7999999999999998
 50
0.0
 51
90.0
  0
ARC
  8
OUTLINE
  6
CONTINUOUS
 62
     3
 10
308.80000000000001
 20
22.000000000000231
 30
0.0
 40
3.7999999999999998
 50
0.0
 51
90.0
  0
ARC
  8
OUTLINE
  6
CONTINUOUS
 62
     3
 10
305.90000000000009
 20
30.500000000000231
 30
0.0
 40
2.7000000000000002
 50
0.0
 51
90.0
  0
ARC
  8
OUTLINE
  6
CONTINUOUS
 62
     3
 10
270.20000000000027
 20
86.200000000000045
 30
0.0
 40
2.2999999999999998
 50
180.0
 51
270.0
  0
ARC
  8
OUTLINE
  6
CONTINUOUS
 62
     3
 10
69.400000000000091
 20
-353.50000000000023
 30
0.0
 40
49.399999999999999
 50
21.886555376689721
 51
53.019892236491472
  0
ARC
  8
OUTLINE
  6
CONTINUOUS
 62
     3
 10
49.400000000000091
 20
-333.50000000000028
 30
0.0
 40
29.399999999999999
 50
138.54796678749571
 51
169.44436404609769
  0
ARC
  8
OUTLINE
  6
CONTINUOUS
 62
     3
 10
6.3999999999998636
 20
-347.89999999999992
 30
0.0
 40
3.6000000000000001
 50
270.0
 51
0.0
  0
ARC
  8
OUTLINE
  6
CONTINUOUS
 62
     3
 10
16.400000000000091
 20
-337.89999999999992
 30
0.0
 40
3.6000000000000001
 50
270.0
 51
0.0
  0
ARC
  8
OUTLINE
  6
CONTINUOUS
 62
     3
 10
117.2343782649998
 20
-349.51599999999979
 30
0.0
 40
2.0
 50
180.0
 51
0.0
  0
ARC
  8
OUTLINE
  6
CONTINUOUS
 62
     3
 10
1.4999999999997731
 20
-353.00000000000023
 30
0.0
 40
1.5
 50
180.0
 51
0.0
  0
ARC
  8
OUTLINE
  6
CONTINUOUS
 62
     3
 10
297.80000000000001
 20
-76.099999999999682
 30
0.0
 40
7.7999999999999998
 50
270.0
 51
0.0
  0
ARC
  8
OUTLINE
  6
CONTINUOUS
 62
     3
 10
308.80000000000001
 20
-21.999999999999769
 30
0.0
 40
3.7999999999999998
 50
270.0
 51
0.0
  0
ARC
  8
OUTLINE
  6
CONTINUOUS
 62
     3
 10
305.90000000000009
 20
-30.499999999999769
 30
0.0
 40
2.7000000000000002
 50
270.0
 51
0.0
  0
ARC
  8
OUTLINE
  6
CONTINUOUS
 62
     3
 10
293.50195255766312
 20
-81.4004857168934
 30
0.0
 40
5.1226633857429604
 50
271.76979486514949
 51
308.67078024648811
  0
LINE
  8
OUTLINE
  6
CONTINUOUS
 62
     3
 10
3.0
 20
-351.50000000000051
 30
0.0
 11
2.9999999999997731
 21
-353.00000000000023
 31
0.0
  0
LINE
  8
OUTLINE
  6
CONTINUOUS
 62
     3
 10
305.60000000000008
 20
33.200000000000053
 30
0.0
 11
305.59999999999991
 21
76.099965314799874
 31
0.0
  0
LINE
  8
OUTLINE
  6
CONTINUOUS
 62
     3
 10
308.59999999999991
 20
25.800000000000072
 30
0.0
 11
308.59999999999991
 21
30.499966835999889
 31
0.0
  0
LINE
  8
BASIS
  6
DASHDOT
 62
     6
 10
336.63081376431859
 20
0.0
 30
0.0
 11
-45.692659913659213
 21
0.0
 31
0.0
  0
CIRCLE
  8
FIX
  6
CONTINUOUS
 62
    11
 10
0.0000000000002274
 20
325.0
 30
0.0
 40
7.0
  0
LINE
  8
NOTE
  6
CONTINUOUS
 62
     4
 10
-22.666512094396129
 20
325.0
 30
0.0
 11
32.533798001569721
 21
325.0
 31
0.0
  0
CIRCLE
  8
FIX
  6
CONTINUOUS
 62
    11
 10
-0.0000000000002274
 20
-325.0
 30
0.0
 40
7.0
  0
LINE
  8
NOTE
  6
CONTINUOUS
 62
     4
 10
-22.666512094396349
 20
-325.0
 30
0.0
 11
32.533798001569721
 21
-325.0
 31
0.0
  0
LINE
  8
SIZE
  6
CONTINUOUS
 62
    30
 10
-42.666512094396133
 20
325.0
 30
0.0
 11
-243.26904432142621
 21
325.0
 31
0.0
  0
LINE
  8
SIZE
  6
CONTINUOUS
 62
    30
 10
-42.666512094396353
 20
-325.00000000000011
 30
0.0
 11
-243.26904432142601
 21
-325.00000000000028
 31
0.0
  0
LINE
  8
SIZE
  6
CONTINUOUS
 62
    30
 10
-223.26904432142621
 20
313.0
 30
0.0
 11
-223.26904432142601
 21
-313.00000000000028
 31
0.0
  0
CIRCLE
  8
SIZE
  6
CONTINUOUS
 62
    30
 10
-223.26904432142621
 20
325.0
 30
0.0
 40
6.0
  0
LINE
  8
SIZE
  6
CONTINUOUS
 62
    30
 10
-223.26904432142621
 20
325.0
 30
0.0
 11
-223.26904432142621
 21
313.0
 31
0.0
  0
CIRCLE
  8
SIZE
  6
CONTINUOUS
 62
    30
 10
-223.26904432142601
 20
-325.00000000000028
 30
0.0
 40
6.0
  0
LINE
  8
SIZE
  6
CONTINUOUS
 62
    30
 10
-223.26904432142601
 20
-325.00000000000028
 30
0.0
 11
-223.26904432142601
 21
-313.00000000000028
 31
0.0
  0
TEXT
  8
SIZE
  6
CONTINUOUS
 62
    30
 10
-248.26904432142601
 20
-74.05714285714285
 30
0.0
 40
64.0
  1
650
 50
90.0
 41
0.9
 72
     1
 11
-248.26904432142601
 21
0.0
 31
0.0
  0
POINT
  8
DEFPOINTS
  6
CONTINUOUS
 62
    30
 10
-22.666512094396129
 20
325.0
 30
0.0
  0
POINT
  8
DEFPOINTS
  6
CONTINUOUS
 62
    30
 10
-22.666512094396349
 20
-325.00000000000011
 30
0.0
  0
POINT
  8
DEFPOINTS
  6
CONTINUOUS
 62
    30
 10
-223.26904432142601
 20
-325.00000000000028
 30
0.0
  0
LINE
  8
SIZE
  6
CONTINUOUS
 62
    30
 10
-18.50000000000011
 20
-354.50000000000023
 30
0.0
 11
-479.21088062548762
 21
-354.5000000000004
 31
0.0
  0
LINE
  8
SIZE
  6
CONTINUOUS
 62
    30
 10
-18.49999999999989
 20
354.50000000000023
 30
0.0
 11
-479.21088062548768
 21
354.50000000000023
 31
0.0
  0
LINE
  8
SIZE
  6
CONTINUOUS
 62
    30
 10
-459.21088062548762
 20
-342.50000000000051
 30
0.0
 11
-459.21088062548768
 21
342.50000000000023
 31
0.0
  0
CIRCLE
  8
SIZE
  6
CONTINUOUS
 62
    30
 10
-459.21088062548762
 20
-354.50000000000051
 30
0.0
 40
6.0
  0
LINE
  8
SIZE
  6
CONTINUOUS
 62
    30
 10
-459.21088062548762
 20
-354.50000000000051
 30
0.0
 11
-459.21088062548762
 21
-342.50000000000051
 31
0.0
  0
CIRCLE
  8
SIZE
  6
CONTINUOUS
 62
    30
 10
-459.21088062548768
 20
354.50000000000023
 30
0.0
 40
6.0
  0
LINE
  8
SIZE
  6
CONTINUOUS
 62
    30
 10
-459.21088062548768
 20
354.50000000000023
 30
0.0
 11
-459.21088062548768
 21
342.50000000000023
 31
0.0
  0
TEXT
  8
SIZE
  6
CONTINUOUS
 62
    30
 10
-484.21088062548762
 20
-68.571428571428513
 30
0.0
 40
64.0
  1
710
 50
90.0
 41
0.9
 72
     1
 11
-484.21088062548762
 21
0.0000000000000568
 31
0.0
  0
POINT
  8
DEFPOINTS
  6
CONTINUOUS
 62
    30
 10
1.4999999999997731
 20
-354.50000000000023
 30
0.0
  0
POINT
  8
DEFPOINTS
  6
CONTINUOUS
 62
    30
 10
1.5000000000002269
 20
354.50000000000023
 30
0.0
  0
POINT
  8
DEFPOINTS
  6
CONTINUOUS
 62
    30
 10
-459.21088062548768
 20
354.50000000000023
 30
0.0
  0
LINE
  8
SIZE
  6
CONTINUOUS
 62
    30
 10
0.0000000000002274
 20
373.00000000000023
 30
0.0
 11
0.0000000000002274
 21
453.09973117658018
 31
0.0
  0
LINE
  8
SIZE
  6
CONTINUOUS
 62
    30
 10
20.000000000000231
 20
353.50000000000023
 30
0.0
 11
20.000000000000231
 21
453.09973117658018
 31
0.0
  0
LINE
  8
SIZE
  6
CONTINUOUS
 62
    30
 10
32.000000000000227
 20
433.09973117658018
 30
0.0
 11
44.000000000000227
 21
433.09973117658018
 31
0.0
  0
LINE
  8
SIZE
  6
CONTINUOUS
 62
    30
 10
-11.99999999999989
 20
433.09973117658018
 30
0.0
 11
-167.25714285714281
 21
433.09973117658018
 31
0.0
  0
LINE
  8
SIZE
  6
CONTINUOUS
 62
    30
 10
20.000000000000231
 20
433.09973117658018
 30
0.0
 11
0.0000000000002274
 21
433.09973117658018
 31
0.0
  0
CIRCLE
  8
SIZE
  6
CONTINUOUS
 62
    30
 10
20.000000000000231
 20
433.09973117658018
 30
0.0
 40
6.0
  0
LINE
  8
SIZE
  6
CONTINUOUS
 62
    30
 10
20.000000000000231
 20
433.09973117658018
 30
0.0
 11
32.000000000000227
 21
433.09973117658018
 31
0.0
  0
CIRCLE
  8
SIZE
  6
CONTINUOUS
 62
    30
 10
0.0000000000002274
 20
433.09973117658018
 30
0.0
 40
6.0
  0
LINE
  8
SIZE
  6
CONTINUOUS
 62
    30
 10
0.0000000000002274
 20
433.09973117658018
 30
0.0
 11
-11.99999999999989
 21
433.09973117658018
 31
0.0
  0
TEXT
  8
SIZE
  6
CONTINUOUS
 62
    30
 10
-142.25714285714281
 20
458.09973117658018
 30
0.0
 40
64.0
  1
20
 41
0.9
 72
     1
 11
-95.628571428571377
 21
458.09973117658018
 31
0.0
  0
POINT
  8
DEFPOINTS
  6
CONTINUOUS
 62
    30
 10
0.0000000000002274
 20
353.00000000000023
 30
0.0
  0
POINT
  8
DEFPOINTS
  6
CONTINUOUS
 62
    30
 10
20.000000000000231
 20
333.50000000000023
 30
0.0
  0
POINT
  8
DEFPOINTS
  6
CONTINUOUS
 62
    30
 10
20.000000000000231
 20
433.09973117658018
 30
0.0
  0
LINE
  8
SIZE
  6
CONTINUOUS
 62
    30
 10
0.0000000000002274
 20
368.3345237791998
 30
0.0
 11
0.0000000000002274
 21
707.91285079519866
 31
0.0
  0
LINE
  8
SIZE
  6
CONTINUOUS
 62
    30
 10
227.59999999999991
 20
120.7570140133997
 30
0.0
 11
227.60000000000011
 21
707.91285079519866
 31
0.0
  0
LINE
  8
SIZE
  6
CONTINUOUS
 62
    30
 10
215.60000000000011
 20
687.91285079519866
 30
0.0
 11
12.0
 21
687.91285079519866
 31
0.0
  0
LINE
  8
SIZE
  6
CONTINUOUS
 62
    30
 10
0.0000000000002274
 20
687.91285079519866
 30
0.0
 11
-210.1142857142855
 21
687.91285079519866
 31
0.0
  0
CIRCLE
  8
SIZE
  6
CONTINUOUS
 62
    30
 10
227.60000000000011
 20
687.91285079519866
 30
0.0
 40
6.0
  0
LINE
  8
SIZE
  6
CONTINUOUS
 62
    30
 10
227.60000000000011
 20
687.91285079519866
 30
0.0
 11
215.60000000000011
 21
687.91285079519866
 31
0.0
  0
CIRCLE
  8
SIZE
  6
CONTINUOUS
 62
    30
 10
0.0000000000002274
 20
687.91285079519866
 30
0.0
 40
6.0
  0
LINE
  8
SIZE
  6
CONTINUOUS
 62
    30
 10
0.0000000000002274
 20
687.91285079519866
 30
0.0
 11
12.0
 21
687.91285079519866
 31
0.0
  0
TEXT
  8
SIZE
  6
CONTINUOUS
 62
    30
 10
-185.1142857142855
 20
712.91285079519866
 30
0.0
 40
64.0
  1
228
 41
0.9
 72
     1
 11
-111.05714285714269
 21
712.91285079519866
 31
0.0
  0
POINT
  8
DEFPOINTS
  6
CONTINUOUS
 62
    30
 10
0.0000000000002274
 20
348.3345237791998
 30
0.0
  0
POINT
  8
DEFPOINTS
  6
CONTINUOUS
 62
    30
 10
227.59999999999991
 20
100.7570140133997
 30
0.0
  0
POINT
  8
DEFPOINTS
  6
CONTINUOUS
 62
    30
 10
227.60000000000011
 20
687.91285079519866
 30
0.0
  0
LINE
  8
SIZE
  6
CONTINUOUS
 62
    30
 10
0.0000000000002274
 20
373.00000000000023
 30
0.0
 11
0.0000000000002274
 21
837.24254320917998
 31
0.0
  0
LINE
  8
SIZE
  6
CONTINUOUS
 62
    30
 10
312.59999999999991
 20
20.0
 30
0.0
 11
312.60000000000008
 21
837.24254320917998
 31
0.0
  0
LINE
  8
SIZE
  6
CONTINUOUS
 62
    30
 10
12.0
 20
817.24254320917998
 30
0.0
 11
300.60000000000008
 21
817.24254320917998
 31
0.0
  0
CIRCLE
  8
SIZE
  6
CONTINUOUS
 62
    30
 10
0.0000000000002274
 20
817.24254320917998
 30
0.0
 40
6.0
  0
LINE
  8
SIZE
  6
CONTINUOUS
 62
    30
 10
0.0000000000002274
 20
817.24254320917998
 30
0.0
 11
12.0
 21
817.24254320917998
 31
0.0
  0
CIRCLE
  8
SIZE
  6
CONTINUOUS
 62
    30
 10
312.60000000000008
 20
817.24254320917998
 30
0.0
 40
6.0
  0
LINE
  8
SIZE
  6
CONTINUOUS
 62
    30
 10
312.60000000000008
 20
817.24254320917998
 30
0.0
 11
300.60000000000008
 21
817.24254320917998
 31
0.0
  0
TEXT
  8
SIZE
  6
CONTINUOUS
 62
    30
 10
87.728571428571627
 20
842.24254320917998
 30
0.0
 40
64.0
  1
313
 41
0.9
 72
     1
 11
156.30000000000021
 21
842.24254320917998
 31
0.0
  0
POINT
  8
DEFPOINTS
  6
CONTINUOUS
 62
    30
 10
0.0000000000002274
 20
353.00000000000023
 30
0.0
  0
POINT
  8
DEFPOINTS
  6
CONTINUOUS
 62
    30
 10
312.59999999999991
 20
0.0
 30
0.0
  0
POINT
  8
DEFPOINTS
  6
CONTINUOUS
 62
    30
 10
312.60000000000008
 20
817.24254320917998
 30
0.0
  0
LINE
  8
SIZE
  6
CONTINUOUS
 62
    30
 10
247.60000000000011
 20
100.7570140133997
 30
0.0
 11
504.56314140569611
 21
100.7570140133997
 31
0.0
  0
LINE
  8
SIZE
  6
CONTINUOUS
 62
    30
 10
247.59999999999991
 20
-100.7570140134001
 30
0.0
 11
504.56314140569611
 21
-100.7570140134001
 31
0.0
  0
LINE
  8
SIZE
  6
CONTINUOUS
 62
    30
 10
484.56314140569611
 20
88.757014013399726
 30
0.0
 11
484.56314140569611
 21
-88.757014013400067
 31
0.0
  0
LINE
  8
SIZE
  6
CONTINUOUS
 62
    30
 10
484.56314140569611
 20
-100.7570140134001
 30
0.0
 11
484.56314140569629
 21
-368.47129972768602
 31
0.0
  0
CIRCLE
  8
SIZE
  6
CONTINUOUS
 62
    30
 10
484.56314140569611
 20
100.7570140133997
 30
0.0
 40
6.0
  0
LINE
  8
SIZE
  6
CONTINUOUS
 62
    30
 10
484.56314140569611
 20
100.7570140133997
 30
0.0
 11
484.56314140569611
 21
88.757014013399726
 31
0.0
  0
CIRCLE
  8
SIZE
  6
CONTINUOUS
 62
    30
 10
484.56314140569611
 20
-100.7570140134001
 30
0.0
 40
6.0
  0
LINE
  8
SIZE
  6
CONTINUOUS
 62
    30
 10
484.56314140569611
 20
-100.7570140134001
 30
0.0
 11
484.56314140569611
 21
-88.757014013400067
 31
0.0
  0
TEXT
  8
SIZE
  6
CONTINUOUS
 62
    30
 10
459.56314140569611
 20
-354.99129972768611
 30
0.0
 40
64.0
  1
φ202
 50
90.0
 41
0.9
 72
     1
 11
459.56314140569611
 21
-240.61415687054321
 31
0.0
  0
POINT
  8
DEFPOINTS
  6
CONTINUOUS
 62
    30
 10
227.60000000000011
 20
100.7570140133997
 30
0.0
  0
POINT
  8
DEFPOINTS
  6
CONTINUOUS
 62
    30
 10
227.59999999999991
 20
-100.7570140134001
 30
0.0
  0
POINT
  8
DEFPOINTS
  6
CONTINUOUS
 62
    30
 10
484.56314140569611
 20
-100.7570140134001
 30
0.0
  0
TEXT
  8
NOTE
  6
CONTINUOUS
 62
     4
 10
-391.52894172444923
 20
-468.92421016530471
 30
0.0
 40
64.0
  1
4-φ14
 41
0.9
 72
     2
 11
-111.2089417244492
 21
-468.92421016530471
 31
0.0
  0
LINE
  8
NOTE
  6
CONTINUOUS
 62
     4
 10
-4.6352176254305277
 20
-329.13514895196067
 30
0.0
 11
-0.0000000000002274
 21
-325.0
 31
0.0
  0
LINE
  8
NOTE
  6
CONTINUOUS
 62
     4
 10
-0.0000000000002274
 20
-325.0
 30
0.0
 11
-1.9466328506210859
 21
-330.89875578701867
 31
0.0
  0
LINE
  8
NOTE
  6
CONTINUOUS
 62
     4
 10
-0.0000000000002274
 20
-325.0
 30
0.0
 11
-6.581850476051045
 21
-335.03390473897912
 31
0.0
  0
LINE
  8
NOTE
  6
CONTINUOUS
 62
     4
 10
-6.581850476051045
 20
-335.03390473897912
 30
0.0
 11
-103.8777347687134
 21
-483.35961314569022
 31
0.0
  0
LINE
  8
NOTE
  6
CONTINUOUS
 62
     4
 10
-103.8777347687134
 20
-483.35961314569022
 30
0.0
 11
-389.77483711538491
 21
-483.04947275809582
 31
0.0
  0
TEXT
  8
NOTE
  6
CONTINUOUS
 62
     4
 10
222.5256913374624
 20
-438.86541574608799
 30
0.0
 40
64.0
  1
EL
 41
0.9
  0
LINE
  8
NOTE
  6
CONTINUOUS
 62
     4
 10
70.906936459417466
 20
-322.89087284800138
 30
0.0
 11
68.164440746324544
 21
-317.31741642010462
 31
0.0
  0
LINE
  8
NOTE
  6
CONTINUOUS
 62
     4
 10
68.164440746324544
 20
-317.31741642010462
 30
0.0
 11
73.326245124830166
 21
-320.77291563845762
 31
0.0
  0
LINE
  8
NOTE
  6
CONTINUOUS
 62
     4
 10
68.164440746324544
 20
-317.31741642010462
 30
0.0
 11
76.068740837923542
 21
-326.34637206635421
 31
0.0
  0
LINE
  8
NOTE
  6
CONTINUOUS
 62
     4
 10
76.068740837923542
 20
-326.34637206635421
 30
0.0
 11
197.52569133746329
 21
-465.08470516109492
 31
0.0
  0
LINE
  8
NOTE
  6
CONTINUOUS
 62
     4
 10
197.52569133746329
 20
-465.08470516109492
 30
0.0
 11
316.74260028440631
 21
-464.55433362338431
 31
0.0
  0
LINE
  8
SIZE
  6
CONTINUOUS
 62
    30
 10
0.0000000000002274
 20
373.00000000000023
 30
0.0
 11
0.0000000000002274
 21
572.77799708335488
 31
0.0
  0
LINE
  8
SIZE
  6
CONTINUOUS
 62
    30
 10
119.234378265
 20
369.5160000000003
 30
0.0
 11
119.2343782650003
 21
572.77799708335488
 31
0.0
  0
LINE
  8
SIZE
  6
CONTINUOUS
 62
    30
 10
107.2343782650003
 20
552.77799708335488
 30
0.0
 11
12.0
 21
552.77799708335488
 31
0.0
  0
LINE
  8
SIZE
  6
CONTINUOUS
 62
    30
 10
0.0000000000002274
 20
552.77799708335488
 30
0.0
 11
-185.4285714285713
 21
552.77799708335488
 31
0.0
  0
CIRCLE
  8
SIZE
  6
CONTINUOUS
 62
    30
 10
119.2343782650003
 20
552.77799708335488
 30
0.0
 40
6.0
  0
LINE
  8
SIZE
  6
CONTINUOUS
 62
    30
 10
119.2343782650003
 20
552.77799708335488
 30
0.0
 11
107.2343782650003
 21
552.77799708335488
 31
0.0
  0
CIRCLE
  8
SIZE
  6
CONTINUOUS
 62
    30
 10
0.0000000000002274
 20
552.77799708335488
 30
0.0
 40
6.0
  0
LINE
  8
SIZE
  6
CONTINUOUS
 62
    30
 10
0.0000000000002274
 20
552.77799708335488
 30
0.0
 11
12.0
 21
552.77799708335488
 31
0.0
  0
TEXT
  8
SIZE
  6
CONTINUOUS
 62
    30
 10
-160.42857142857139
 20
577.77799708335488
 30
0.0
 40
64.0
  1
119
 41
0.9
 72
     1
 11
-98.714285714285666
 21
577.77799708335488
 31
0.0
  0
POINT
  8
DEFPOINTS
  6
CONTINUOUS
 62
    30
 10
0.0000000000002274
 20
353.00000000000023
 30
0.0
  0
POINT
  8
DEFPOINTS
  6
CONTINUOUS
 62
    30
 10
119.234378265
 20
349.5160000000003
 30
0.0
  0
POINT
  8
DEFPOINTS
  6
CONTINUOUS
 62
    30
 10
119.2343782650003
 20
552.77799708335488
 30
0.0
  0
ARC
  8
DETAIL
  6
CONTINUOUS
 62
     5
 10
7.4690188183667487
 20
289.78181441947248
 30
0.0
 40
2.5500752034656649
 50
3.5848169269114298
 51
76.64230547642569
  0
ARC
  8
DETAIL
  6
CONTINUOUS
 62
     5
 10
11.429462501822851
 20
307.81805765164791
 30
0.0
 40
15.91629809325314
 50
238.02933130147849
 51
257.77129890302518
  0
ARC
  8
DETAIL
  6
CONTINUOUS
 62
     5
 10
8.2634138336470642
 20
289.58223859767759
 30
0.0
 40
6.2673291849211523
 50
3.2839680836659131
 51
71.151550166243993
  0
ARC
  8
DETAIL
  6
CONTINUOUS
 62
     5
 10
13.32279112679316
 20
305.16791065612779
 30
0.0
 40
10.120114148579709
 50
215.72696391222789
 51
252.5508147626897
  0
ARC
  8
DETAIL
  6
CONTINUOUS
 62
     5
 10
8.2415482873293513
 20
339.15456706228628
 30
0.0
 40
6.2888732111648302
 50
3.2267077351205091
 51
74.125793738904861
  0
ARC
  8
DETAIL
  6
CONTINUOUS
 62
     5
 10
13.04467031837339
 20
355.12299811677178
 30
0.0
 40
10.38743560808545
 50
220.16926833497109
 51
252.7347299989018
  0
ARC
  8
DETAIL
  6
CONTINUOUS
 62
     5
 10
143.59686495105049
 20
-158.80324021402259
 30
0.0
 40
30.818057581637031
 50
217.76527270535789
 51
265.60177500600872
  0
ARC
  8
DETAIL
  6
CONTINUOUS
 62
     5
 10
138.5996140701873
 20
-197.81855002252931
 30
0.0
 40
8.6964559370588539
 50
336.19252451421193
 51
72.370103728224407
  0
ARC
  8
DETAIL
  6
CONTINUOUS
 62
     5
 10
-113.06900096354499
 20
-102.53789135478929
 30
0.0
 40
277.78563166200712
 50
326.74815718754593
 51
339.16745249928528
  0
ARC
  8
DETAIL
  6
CONTINUOUS
 62
     5
 10
128.17165038638359
 20
-203.125409193536
 30
0.0
 40
70.656164458497628
 50
267.91416268090052
 51
342.61461668466779
  0
ARC
  8
DETAIL
  6
CONTINUOUS
 62
     5
 10
130.40818278026109
 20
-195.13399207907381
 30
0.0
 40
101.4988978406538
 50
265.81438433542712
 51
343.33741115368099
  0
ARC
  8
DETAIL
  6
CONTINUOUS
 62
     5
 10
127.2676079309613
 20
-199.36451295297229
 30
0.0
 40
103.41326056974449
 50
268.18929110100152
 51
346.0828733657371
  0
ARC
  8
DETAIL
  6
CONTINUOUS
 62
     5
 10
7.4690188183667487
 20
-289.78181441947248
 30
0.0
 40
2.5500752034656649
 50
283.35769452357442
 51
356.4151830730886
  0
ARC
  8
DETAIL
  6
CONTINUOUS
 62
     5
 10
11.429462501822851
 20
-307.81805765164802
 30
0.0
 40
15.91629809325314
 50
102.2287010969748
 51
121.97066869852149
  0
ARC
  8
DETAIL
  6
CONTINUOUS
 62
     5
 10
8.2634138336470642
 20
-289.58223859767759
 30
0.0
 40
6.2673291849211523
 50
288.84844983375598
 51
356.71603191633409
  0
ARC
  8
DETAIL
  6
CONTINUOUS
 62
     5
 10
13.32279112679316
 20
-305.16791065612819
 30
0.0
 40
10.120114148579709
 50
107.4491852373103
 51
144.27303608777211
  0
ARC
  8
DETAIL
  6
CONTINUOUS
 62
     5
 10
8.2415482873293513
 20
-339.15456706228628
 30
0.0
 40
6.2888732111648302
 50
285.87420626109508
 51
356.7732922648795
  0
ARC
  8
DETAIL
  6
CONTINUOUS
 62
     5
 10
13.04467031837339
 20
-355.12299811677178
 30
0.0
 40
10.38743560808545
 50
107.2652700010982
 51
139.83073166502891
  0
LINE
  8
DETAIL
  6
CONTINUOUS
 62
     5
 10
23.23289672493047
 20
-407.88880758905981
 30
0.0
 11
18.232896725279719
 21
-457.88880758870971
 31
0.0
  0
LINE
  8
DETAIL
  6
CONTINUOUS
 62
     5
 10
20.247785154351732
 20
-407.59029643179178
 30
0.0
 11
15.24778515470098
 21
-457.59029643196692
 31
0.0
  0
LINE
  8
DETAIL
  6
CONTINUOUS
 62
     5
 10
24.327437634565289
 20
-407.99826167960259
 30
0.0
 11
16.168132674669319
 21
-407.18233118398092
 31
0.0
  0
LINE
  8
DETAIL
  6
CONTINUOUS
 62
     5
 10
18.232896725279719
 20
-457.88880758870971
 30
0.0
 11
13.1369925202016
 21
-457.37921716856931
 31
0.0
  0
ARC
  8
DETAIL
  6
CONTINUOUS
 62
     5
 10
100.4359559830518
 20
-377.97319373380537
 30
0.0
 40
78.184161644851457
 50
124.5745001380032
 51
167.47336133638319
  0
ARC
  8
DETAIL
  6
CONTINUOUS
 62
     5
 10
90.335308605870523
 20
-370.30342040781318
 30
0.0
 40
57.804428666772218
 50
103.2332257069954
 51
165.88331382968951
  0
LINE
  8
DETAIL
  6
CONTINUOUS
 62
     5
 10
17.262673583747532
 20
-407.29178527483913
 30
0.0
 11
13.1369925202016
 21
-457.37921716856931
 31
0.0
  0
ARC
  8
DETAIL
  6
CONTINUOUS
 62
     5
 10
274.67855959556982
 20
-427.90224986378121
 30
0.0
 40
259.33946066290201
 50
165.0538115362246
 51
175.41747130875649
  0
ARC
  8
DETAIL
  6
CONTINUOUS
 62
     5
 10
248.02941593652579
 20
-424.11753369011541
 30
0.0
 40
224.28197882656619
 50
162.3741758237019
 51
175.87856675570319
  0
ARC
  8
DETAIL
  6
CONTINUOUS
 62
     5
 10
367.82388347980401
 20
155.39509348243519
 30
0.0
 40
257.50957349454592
 50
152.86036027081519
 51
164.8753016167432
  0
ARC
  8
DETAIL
  6
CONTINUOUS
 62
     5
 10
128.17165038638359
 20
203.12540919353589
 30
0.0
 40
70.656164458497628
 50
17.385383315332231
 51
92.085837319099525
  0
ARC
  8
DETAIL
  6
CONTINUOUS
 62
     5
 10
130.40818278026109
 20
195.13399207907381
 30
0.0
 40
101.4988978406538
 50
16.66258884631895
 51
94.185615664572879
  0
ARC
  8
DETAIL
  6
CONTINUOUS
 62
     5
 10
127.2676079309613
 20
199.36451295297229
 30
0.0
 40
103.41326056974449
 50
13.91712663426291
 51
91.810708898998612
  0
ARC
  8
DETAIL
  6
CONTINUOUS
 62
     5
 10
224.4167262343199
 20
225.97607964239131
 30
0.0
 40
325.46661577357492
 50
277.26947183628999
 51
279.20359218766168
  0
ARC
  8
DETAIL
  6
CONTINUOUS
 62
     5
 10
1086.4861276908
 20
-209.3109604482157
 30
0.0
 40
817.99747504561083
 50
171.5304582760028
 51
171.98817632272869
  0
LINE
  8
DETAIL
  6
CONTINUOUS
 62
     5
 10
157.59999999999991
 20
100.75701401340029
 30
0.0
 11
265.59999999999991
 21
100.75701401340029
 31
0.0
  0
LINE
  8
DETAIL
  6
CONTINUOUS
 62
     5
 10
265.59999999999991
 20
100.75701401340029
 30
0.0
 11
265.59999999999991
 21
-100.7570140134001
 31
0.0
  0
LINE
  8
DETAIL
  6
CONTINUOUS
 62
     5
 10
265.59999999999991
 20
-100.7570140134001
 30
0.0
 11
157.59999999999991
 21
-100.7570140134001
 31
0.0
  0
LINE
  8
DETAIL
  6
CONTINUOUS
 62
     5
 10
157.59999999999991
 20
-100.7570140134001
 30
0.0
 11
157.59999999999991
 21
100.75701401340029
 31
0.0
  0
ARC
  8
DETAIL
  6
CONTINUOUS
 62
     5
 10
-1578.4168872802741
 20
-604.29118856124876
 30
0.0
 40
1799.852808927018
 50
16.4744245221973
 51
19.401023982237671
  0
ARC
  8
DETAIL
  6
CONTINUOUS
 62
     5
 10
337.44101044758008
 20
39.3668644002272
 30
0.0
 40
234.91809432933721
 50
201.74179615854479
 51
215.05222460282741
  0
ARC
  8
DETAIL
  6
CONTINUOUS
 62
     5
 10
145.64995003196009
 20
-93.722605805366129
 30
0.0
 40
1.9017413343260861
 50
254.14135327382141
 51
355.38104750563599
  0
ARC
  8
OUTLINE
  6
CONTINUOUS
 62
     3
 10
8.2415482873293513
 20
339.15456706228628
 30
0.0
 40
6.2888732111648302
 50
3.2267077351205091
 51
74.125793738904861
  0
ARC
  8
OUTLINE
  6
CONTINUOUS
 62
     3
 10
127.2676079309613
 20
-199.36451295297229
 30
0.0
 40
103.41326056974449
 50
268.18929110100152
 51
346.0828733657371
  0
ARC
  8
OUTLINE
  6
CONTINUOUS
 62
     3
 10
8.2415482873293513
 20
-339.15456706228628
 30
0.0
 40
6.2888732111648302
 50
285.87420626109508
 51
356.7732922648795
  0
ARC
  8
OUTLINE
  6
CONTINUOUS
 62
     3
 10
127.2676079309613
 20
199.36451295297229
 30
0.0
 40
103.41326056974449
 50
13.91712663426291
 51
91.810708898998612
  0
ENDSEC
  0
EOF
