  0
SECTION
  2
HEADER
  9
$ACADVER
  1
AC1009
  9
$DWGCODEPAGE
  3
dos932
  9
$INSBASE
 10
0.0
 20
0.0
 30
0.0
  9
$EXTMIN
 10
-584.60996874446391
 20
-275.57371856595091
 30
-0.0015258207003583
  9
$EXTMAX
 10
953.95661548706266
 20
558.83789860973775
 30
0.0000000349246037
  9
$LIMMIN
 10
-2970.0
 20
-2100.0
  9
$LIMMAX
 10
2970.0
 20
2100.0
  9
$ORTHOMODE
 70
     1
  9
$REGENMODE
 70
     1
  9
$FILLMODE
 70
     1
  9
$QTEXTMODE
 70
     0
  9
$MIRRTEXT
 70
     0
  9
$LTSCALE
 40
20.0
  9
$ATTMODE
 70
     1
  9
$TEXTSIZE
 40
64.0
  9
$TRACEWID
 40
0.05
  9
$TEXTSTYLE
  7
STANDARD
  9
$CLAYER
  8
SIZE
  9
$CELTYPE
  6
CONTINUOUS
  9
$CECOLOR
 62
     7
  9
$DIMSCALE
 40
1.0
  9
$DIMASZ
 40
12.0
  9
$DIMEXO
 40
20.0
  9
$DIMDLI
 40
200.0
  9
$DIMRND
 40
0.0
  9
$DIMDLE
 40
0.0
  9
$DIMEXE
 40
20.0
  9
$DIMTP
 40
0.0
  9
$DIMTM
 40
0.0
  9
$DIMTXT
 40
64.0
  9
$DIMCEN
 40
0.09
  9
$DIMTSZ
 40
0.0
  9
$DIMTOL
 70
     0
  9
$DIMLIM
 70
     0
  9
$DIMTIH
 70
     0
  9
$DIMTOH
 70
     0
  9
$DIMSE1
 70
     0
  9
$DIMSE2
 70
     0
  9
$DIMTAD
 70
     1
  9
$DIMZIN
 70
     8
  9
$DIMBLK
  1

  9
$DIMASO
 70
     1
  9
$DIMSHO
 70
     0
  9
$DIMPOST
  1

  9
$DIMAPOST
  1

  9
$DIMALT
 70
     0
  9
$DIMALTD
 70
     2
  9
$DIMALTF
 40
25.399999999999999
  9
$DIMLFAC
 40
1.0
  9
$DIMTOFL
 70
     1
  9
$DIMTVP
 40
0.0
  9
$DIMTIX
 70
     1
  9
$DIMSOXD
 70
     0
  9
$DIMSAH
 70
     0
  9
$DIMBLK1
  1

  9
$DIMBLK2
  1

  9
$DIMSTYLE
  2
STANDARD
  9
$DIMCLRD
 70
     7
  9
$DIMCLRE
 70
     7
  9
$DIMCLRT
 70
     7
  9
$DIMTFAC
 40
1.0
  9
$DIMGAP
 40
25.0
  9
$LUNITS
 70
     2
  9
$LUPREC
 70
     4
  9
$SKETCHINC
 40
0.1
  9
$FILLETRAD
 40
3.0
  9
$AUNITS
 70
     1
  9
$AUPREC
 70
     3
  9
$MENU
  1
ACAD
  9
$ELEVATION
 40
0.0
  9
$PELEVATION
 40
0.0
  9
$THICKNESS
 40
0.0
  9
$LIMCHECK
 70
     0
  9
$CHAMFERA
 40
0.0
  9
$CHAMFERB
 40
0.0
  9
$SKPOLY
 70
     0
  9
$TDCREATE
 40
2453019.62301037
  9
$TDUPDATE
 40
2458949.450897928
  9
$TDINDWG
 40
1.7131525579
  9
$TDUSRTIMER
 40
1.7131525579
  9
$USRTIMER
 70
     1
  9
$ANGBASE
 50
0.0
  9
$ANGDIR
 70
     0
  9
$PDMODE
 70
     3
  9
$PDSIZE
 40
-2.0
  9
$PLINEWID
 40
0.0
  9
$SPLFRAME
 70
     0
  9
$SPLINETYPE
 70
     6
  9
$SPLINESEGS
 70
     8
  9
$SURFTAB1
 70
     6
  9
$SURFTAB2
 70
     6
  9
$SURFTYPE
 70
     6
  9
$SURFU
 70
     6
  9
$SURFV
 70
     6
  9
$UCSNAME
  2

  9
$UCSORG
 10
0.0
 20
0.0
 30
0.0
  9
$UCSXDIR
 10
1.0
 20
0.0
 30
0.0
  9
$UCSYDIR
 10
0.0
 20
1.0
 30
0.0
  9
$PUCSNAME
  2

  9
$PUCSORG
 10
0.0
 20
0.0
 30
0.0
  9
$PUCSXDIR
 10
1.0
 20
0.0
 30
0.0
  9
$PUCSYDIR
 10
0.0
 20
1.0
 30
0.0
  9
$USERI1
 70
     0
  9
$USERI2
 70
     0
  9
$USERI3
 70
     0
  9
$USERI4
 70
     0
  9
$USERI5
 70
     0
  9
$USERR1
 40
20.0
  9
$USERR2
 40
0.0
  9
$USERR3
 40
0.0
  9
$USERR4
 40
0.0
  9
$USERR5
 40
0.0
  9
$WORLDVIEW
 70
     1
  9
$SHADEDGE
 70
     3
  9
$SHADEDIF
 70
    70
  9
$TILEMODE
 70
     1
  9
$MAXACTVP
 70
    48
  9
$PINSBASE
 10
0.0
 20
0.0
 30
0.0
  9
$PLIMCHECK
 70
     0
  9
$PEXTMIN
 10
-100000000000000000000.0
 20
-100000000000000000000.0
 30
-100000000000000000000.0
  9
$PEXTMAX
 10
100000000000000000000.0
 20
100000000000000000000.0
 30
100000000000000000000.0
  9
$PLIMMIN
 10
0.0
 20
0.0
  9
$PLIMMAX
 10
12.0
 20
9.0
  9
$UNITMODE
 70
     0
  9
$VISRETAIN
 70
     0
  9
$PLINEGEN
 70
     0
  9
$PSLTSCALE
 70
     0
  9
$TREEDEPTH
 70
  3020
  9
$ATTDIA
 70
     0
  9
$ATTREQ
 70
     1
  9
$BLIPMODE
 70
     1
  9
$COORDS
 70
     1
  9
$DRAGMODE
 70
     2
  9
$OSMODE
 70
     0
  9
$HANDLING
 70
     0
  9
$HANDSEED
  5
F213
  0
ENDSEC
  0
SECTION
  2
TABLES
  0
TABLE
  2
LTYPE
 70
     2
  0
LTYPE
  2
CONTINUOUS
 70
     0
  3
実線
 72
    65
 73
     0
 40
0.0
  0
LTYPE
  2
DASHDOT
 70
     0
  3
____ _ ____ _ ____ _ ____ _ ____ _ ____ _ ____
 72
    65
 73
     4
 40
5.5
 49
4.0
 49
-0.6
 49
0.3
 49
-0.6
  0
ENDTAB
  0
TABLE
  2
LAYER
 70
    12
  0
LAYER
  2
0
 70
     0
 62
     7
  6
CONTINUOUS
  0
LAYER
  2
BASIS
 70
     0
 62
     6
  6
DASHDOT
  0
LAYER
  2
OUTLINE
 70
     0
 62
     3
  6
CONTINUOUS
  0
LAYER
  2
DETAIL
 70
     0
 62
     5
  6
CONTINUOUS
  0
LAYER
  2
SIZE
 70
     0
 62
    30
  6
CONTINUOUS
  0
LAYER
  2
ARRANGE
 70
     0
 62
     1
  6
CONTINUOUS
  0
LAYER
  2
DEFPOINTS
 70
     0
 62
     7
  6
CONTINUOUS
  0
LAYER
  2
ETC
 70
     0
 62
    61
  6
CONTINUOUS
  0
LAYER
  2
FIX
 70
     0
 62
    11
  6
CONTINUOUS
  0
LAYER
  2
NOTE
 70
     0
 62
     4
  6
CONTINUOUS
  0
LAYER
  2
SERVICESPACE
 70
    64
 62
     2
  6
DASHDOT
  0
LAYER
  2
SYMBOLLINE
 70
    64
 62
    15
  6
CONTINUOUS
  0
ENDTAB
  0
TABLE
  2
STYLE
 70
     1
  0
STYLE
  2
STANDARD
 70
     0
 40
64.0
 41
0.9
 50
0.0
 71
     0
 42
64.0
  3
SIMPLEX.shx
  4
BIGFONT.shx
  0
ENDTAB
  0
TABLE
  2
APPID
 70
    19
  0
APPID
  2
ACAD
 70
     0
  0
APPID
  2
AUTOCAD_POSTSCRIPT_FIGURE
 70
     0
  0
APPID
  2
ACAD_EXEMPT_FROM_CAD_STANDARDS
 70
     0
  0
APPID
  2
ACAD_PSEXT
 70
     0
  0
APPID
  2
ACAUTHENVIRON
 70
     0
  0
APPID
  2
GENIUS_GENOENT_13
 70
     0
  0
APPID
  2
GENIUS_GENCFG_13
 70
     0
  0
APPID
  2
GENIUS_GENCFG0_13
 70
     0
  0
APPID
  2
GENIUS_GENCFG1_13
 70
     0
  0
APPID
  2
GENIUS_GENCFG2_13
 70
     0
  0
APPID
  2
GENIUS_GENCFG3_13
 70
     0
  0
APPID
  2
GENIUS_GENCFG4_13
 70
     0
  0
APPID
  2
GENIUS_GEVCFG0_13
 70
     0
  0
APPID
  2
CONTENTBLOCKICON
 70
     0
  0
APPID
  2
CONTENTBLOCKDESCRIPTION
 70
     0
  0
APPID
  2
ACAD_NAV_VCDISPLAY
 70
     0
  0
APPID
  2
ACAD_MLEADERVER
 70
     0
  0
APPID
  2
ACDBDYNAMICBLOCKTRUENAME
 70
     0
  0
APPID
  2
ACDBDYNAMICBLOCKGUID
 70
     0
  0
ENDTAB
  0
TABLE
  2
DIMSTYLE
 70
     1
  0
DIMSTYLE
  2
STANDARD
 70
     0
  3

  4

  5
_ORIGIN
  6

  7

 40
1.0
 41
12.0
 42
20.0
 43
200.0
 44
20.0
 45
0.0
 46
0.0
 47
0.0
 48
0.0
140
64.0
141
0.09
142
0.0
143
25.399999999999999
144
1.0
145
0.0
146
1.0
147
25.0
 71
     0
 72
     0
 73
     0
 74
     0
 75
     0
 76
     0
 77
     1
 78
     8
170
     0
171
     2
172
     1
173
     0
174
     1
175
     0
176
     7
177
     7
178
     7
  0
ENDTAB
  0
TABLE
  2
VIEW
 70
     1
  0
VIEW
  2
ALL
 70
     0
 40
4282.6198079999986
 10
0.0
 20
41.309904000000003
 41
5940.0
 11
0.0
 21
0.0
 31
1.0
 12
0.0
 22
0.0
 32
0.0
 42
50.0
 43
0.0
 44
0.0
 50
0.0
 71
     0
  0
ENDTAB
  0
TABLE
  2
UCS
 70
     0
  0
ENDTAB
  0
TABLE
  2
VPORT
 70
     1
  0
VPORT
  2
*ACTIVE
 70
     0
 10
0.0
 20
0.0
 11
1.0
 21
1.0
 12
184.6733233712994
 22
141.63209002189339
 13
0.0
 23
0.0
 14
1.0
 24
1.0
 15
0.0
 25
0.0
 16
0.0
 26
0.0
 36
1.0
 17
0.0
 27
0.0
 37
0.0
 40
883.63298651793866
 41
1.747787610619469
 42
50.0
 43
0.0
 44
0.0
 50
0.0
 51
0.0
 71
     0
 72
  1000
 73
     1
 74
     3
 75
     0
 76
     0
 77
     0
 78
     0
  0
ENDTAB
  0
ENDSEC
  0
SECTION
  2
BLOCKS
  0
BLOCK
  8
0
  2
_ORIGIN
 70
     0
 10
0.0
 20
0.0
 30
0.0
  3
_ORIGIN
  1
_ORIGIN
  0
CIRCLE
  8
0
  6
CONTINUOUS
 62
     7
 10
0.0
 20
0.0
 30
0.0
 40
0.5
  0
LINE
  8
0
  6
CONTINUOUS
 62
     7
 10
0.0
 20
0.0
 30
0.0
 11
-1.0
 21
0.0
 31
0.0
  0
ENDBLK
  8
0
  0
ENDSEC
  0
SECTION
  2
ENTITIES
  0
CIRCLE
  8
ARRANGE
  6
CONTINUOUS
 62
     1
 10
0.0
 20
-0.0000000000001137
 30
0.0
 40
40.0
  0
POINT
  8
ARRANGE
  6
CONTINUOUS
 62
     1
 10
0.0
 20
-0.0000000000001137
 30
0.0
 50
359.99829045418988
  0
TEXT
  8
ETC
  6
CONTINUOUS
 62
    61
 10
344.87539504366401
 20
494.56101113953292
 30
0.0
 40
64.0
  1
EWG-40BSA2_1
 41
0.9
  0
TEXT
  8
ETC
  6
CONTINUOUS
 62
    61
 10
340.68940104366362
 20
376.60570112470168
 30
0.0
 40
64.0
  1
産業扇
 41
0.9
  0
TEXT
  8
ETC
  6
CONTINUOUS
 62
    61
 10
391.39079929221953
 20
268.45692823847639
 30
0.0
 40
40.0
  1
EWG-40BSA2
 41
0.9
  0
TEXT
  8
ETC
  6
CONTINUOUS
 62
    61
 10
391.39079929221953
 20
202.45692823847639
 30
0.0
 40
40.0
  1
EWG-40BTA2
 41
0.9
  0
LINE
  8
SIZE
  6
CONTINUOUS
 62
    30
 10
-259.99999722098443
 20
18.5
 30
0.0
 11
-259.99999722098443
 21
264.96668498765212
 31
0.0
  0
LINE
  8
SIZE
  6
CONTINUOUS
 62
    30
 10
259.99124255832879
 20
18.65911678100144
 30
0.0
 11
259.99124255832879
 21
264.96668498765212
 31
0.0
  0
LINE
  8
SIZE
  6
CONTINUOUS
 62
    30
 10
-247.9999972209844
 20
244.96668498765209
 30
0.0
 11
247.99124255832879
 21
244.96668498765209
 31
0.0
  0
CIRCLE
  8
SIZE
  6
CONTINUOUS
 62
    30
 10
-259.99999722098443
 20
244.96668498765209
 30
0.0
 40
6.0
  0
LINE
  8
SIZE
  6
CONTINUOUS
 62
    30
 10
-259.99999722098443
 20
244.96668498765209
 30
0.0
 11
-247.9999972209844
 21
244.96668498765209
 31
0.0
  0
CIRCLE
  8
SIZE
  6
CONTINUOUS
 62
    30
 10
259.99124255832879
 20
244.96668498765209
 30
0.0
 40
6.0
  0
LINE
  8
SIZE
  6
CONTINUOUS
 62
    30
 10
259.99124255832879
 20
244.96668498765209
 30
0.0
 11
247.99124255832879
 21
244.96668498765209
 31
0.0
  0
TEXT
  8
SIZE
  6
CONTINUOUS
 62
    30
 10
-74.057142857371133
 20
269.96668498765212
 30
0.0
 40
64.0
  1
520
 41
0.9
 72
     1
 11
-0.0000000002282832
 21
269.96668498765212
 31
0.0
  0
POINT
  8
DEFPOINTS
  6
CONTINUOUS
 62
    30
 10
-259.99999722098443
 20
-1.5
 30
0.0
  0
POINT
  8
DEFPOINTS
  6
CONTINUOUS
 62
    30
 10
259.99124255832879
 20
-1.3408832189986699
 30
0.0
  0
POINT
  8
DEFPOINTS
  6
CONTINUOUS
 62
    30
 10
259.99124255832879
 20
244.96668498765209
 30
0.0
  0
LINE
  8
SIZE
  6
CONTINUOUS
 62
    30
 10
-230.4431599229288
 20
36.901938740462242
 30
0.0
 11
-230.4431599229288
 21
151.39419561661629
 31
0.0
  0
LINE
  8
SIZE
  6
CONTINUOUS
 62
    30
 10
230.4431599229292
 20
36.901938740462242
 30
0.0
 11
230.4431599229292
 21
151.39419561661629
 31
0.0
  0
LINE
  8
SIZE
  6
CONTINUOUS
 62
    30
 10
-218.4431599229288
 20
131.39419561661629
 30
0.0
 11
218.4431599229292
 21
131.39419561661629
 31
0.0
  0
CIRCLE
  8
SIZE
  6
CONTINUOUS
 62
    30
 10
-230.4431599229288
 20
131.39419561661629
 30
0.0
 40
6.0
  0
LINE
  8
SIZE
  6
CONTINUOUS
 62
    30
 10
-230.4431599229288
 20
131.39419561661629
 30
0.0
 11
-218.4431599229288
 21
131.39419561661629
 31
0.0
  0
CIRCLE
  8
SIZE
  6
CONTINUOUS
 62
    30
 10
230.4431599229292
 20
131.39419561661629
 30
0.0
 40
6.0
  0
LINE
  8
SIZE
  6
CONTINUOUS
 62
    30
 10
230.4431599229292
 20
131.39419561661629
 30
0.0
 11
218.4431599229292
 21
131.39419561661629
 31
0.0
  0
TEXT
  8
SIZE
  6
CONTINUOUS
 62
    30
 10
-74.05714285714285
 20
156.39419561661629
 30
0.0
 40
64.0
  1
460
 41
0.9
 72
     1
 11
0.0
 21
156.39419561661629
 31
0.0
  0
POINT
  8
DEFPOINTS
  6
CONTINUOUS
 62
    30
 10
-230.4431599229288
 20
16.901938740462239
 30
0.0
  0
POINT
  8
DEFPOINTS
  6
CONTINUOUS
 62
    30
 10
230.4431599229292
 20
16.901938740462239
 30
0.0
  0
POINT
  8
DEFPOINTS
  6
CONTINUOUS
 62
    30
 10
230.4431599229292
 20
131.39419561661629
 30
0.0
  0
CIRCLE
  8
FIX
  6
CONTINUOUS
 62
    11
 10
-230.4431599229288
 20
0.247200003400053
 30
0.0
 40
7.0
  0
CIRCLE
  8
FIX
  6
CONTINUOUS
 62
    11
 10
230.4431599229292
 20
0.0
 30
0.0
 40
7.0
  0
LINE
  8
SIZE
  6
CONTINUOUS
 62
    30
 10
278.49710982658962
 20
0.0
 30
0.0
 11
404.81452190754771
 21
0.0
 31
0.0
  0
LINE
  8
SIZE
  6
CONTINUOUS
 62
    30
 10
273.38728323699428
 20
-10.019267822735969
 30
0.0
 11
404.81452190754771
 21
-10.019267822736079
 31
0.0
  0
LINE
  8
SIZE
  6
CONTINUOUS
 62
    30
 10
384.81452190754771
 20
-22.019267822735969
 30
0.0
 11
384.81452190754771
 21
-34.019267822735969
 31
0.0
  0
LINE
  8
SIZE
  6
CONTINUOUS
 62
    30
 10
384.81452190754771
 20
11.99999999999989
 30
0.0
 11
384.81452190754771
 21
156.28571428571419
 31
0.0
  0
LINE
  8
SIZE
  6
CONTINUOUS
 62
    30
 10
384.81452190754771
 20
-10.019267822736079
 30
0.0
 11
384.81452190754771
 21
0.0
 31
0.0
  0
CIRCLE
  8
SIZE
  6
CONTINUOUS
 62
    30
 10
384.81452190754771
 20
-10.019267822736079
 30
0.0
 40
6.0
  0
LINE
  8
SIZE
  6
CONTINUOUS
 62
    30
 10
384.81452190754771
 20
-10.019267822736079
 30
0.0
 11
384.81452190754771
 21
-22.019267822735969
 31
0.0
  0
CIRCLE
  8
SIZE
  6
CONTINUOUS
 62
    30
 10
384.81452190754771
 20
0.0
 30
0.0
 40
6.0
  0
LINE
  8
SIZE
  6
CONTINUOUS
 62
    30
 10
384.81452190754771
 20
0.0
 30
0.0
 11
384.81452190754771
 21
11.99999999999989
 31
0.0
  0
TEXT
  8
SIZE
  6
CONTINUOUS
 62
    30
 10
359.81452190754771
 20
49.000000000000092
 30
0.0
 40
64.0
  1
10
 50
90.0
 41
0.9
 72
     1
 11
359.81452190754771
 21
90.142857142857224
 31
0.0
  0
POINT
  8
DEFPOINTS
  6
CONTINUOUS
 62
    30
 10
258.49710982658962
 20
0.0
 30
0.0
  0
POINT
  8
DEFPOINTS
  6
CONTINUOUS
 62
    30
 10
253.38728323699431
 20
-10.019267822735969
 30
0.0
  0
POINT
  8
DEFPOINTS
  6
CONTINUOUS
 62
    30
 10
384.81452190754771
 20
-10.019267822736079
 30
0.0
  0
LINE
  8
SIZE
  6
CONTINUOUS
 62
    30
 10
273.38728323699428
 20
-10.019267822735969
 30
0.0
 11
404.81452190754771
 21
-10.019267822736079
 31
0.0
  0
LINE
  8
SIZE
  6
CONTINUOUS
 62
    30
 10
263.36801541425763
 20
-20.038535645471939
 30
0.0
 11
404.81452190754771
 21
-20.038535645472049
 31
0.0
  0
LINE
  8
SIZE
  6
CONTINUOUS
 62
    30
 10
384.81452190754771
 20
1.9807321772640309
 30
0.0
 11
384.81452190754771
 21
13.980732177263921
 31
0.0
  0
LINE
  8
SIZE
  6
CONTINUOUS
 62
    30
 10
384.81452190754771
 20
-32.038535645472052
 30
0.0
 11
384.81452190754771
 21
-257.26694449511137
 31
0.0
  0
LINE
  8
SIZE
  6
CONTINUOUS
 62
    30
 10
384.81452190754771
 20
-10.019267822736079
 30
0.0
 11
384.81452190754771
 21
-20.038535645472049
 31
0.0
  0
CIRCLE
  8
SIZE
  6
CONTINUOUS
 62
    30
 10
384.81452190754771
 20
-10.019267822736079
 30
0.0
 40
6.0
  0
LINE
  8
SIZE
  6
CONTINUOUS
 62
    30
 10
384.81452190754771
 20
-10.019267822736079
 30
0.0
 11
384.81452190754771
 21
1.9807321772640309
 31
0.0
  0
CIRCLE
  8
SIZE
  6
CONTINUOUS
 62
    30
 10
384.81452190754771
 20
-20.038535645472049
 30
0.0
 40
6.0
  0
LINE
  8
SIZE
  6
CONTINUOUS
 62
    30
 10
384.81452190754771
 20
-20.038535645472049
 30
0.0
 11
384.81452190754771
 21
-32.038535645472052
 31
0.0
  0
TEXT
  8
SIZE
  6
CONTINUOUS
 62
    30
 10
359.81452190754771
 20
-232.2669444951112
 30
0.0
 40
64.0
  1
10
 50
90.0
 41
0.9
 72
     1
 11
359.81452190754771
 21
-191.12408735225409
 31
0.0
  0
POINT
  8
DEFPOINTS
  6
CONTINUOUS
 62
    30
 10
253.38728323699431
 20
-10.019267822735969
 30
0.0
  0
POINT
  8
DEFPOINTS
  6
CONTINUOUS
 62
    30
 10
243.3680154142576
 20
-20.038535645471939
 30
0.0
  0
POINT
  8
DEFPOINTS
  6
CONTINUOUS
 62
    30
 10
384.81452190754771
 20
-20.038535645472049
 30
0.0
  0
LINE
  8
SIZE
  6
CONTINUOUS
 62
    30
 10
278.49710982658962
 20
0.0
 30
0.0
 11
531.55286783170322
 21
0.0
 31
0.0
  0
LINE
  8
SIZE
  6
CONTINUOUS
 62
    30
 10
258.33333333333297
 20
-99.591522157995996
 30
0.0
 11
531.55286783170322
 21
-99.591522157996053
 31
0.0
  0
LINE
  8
SIZE
  6
CONTINUOUS
 62
    30
 10
511.55286783170322
 20
-12.00000000000011
 30
0.0
 11
511.55286783170322
 21
-87.591522157996053
 31
0.0
  0
LINE
  8
SIZE
  6
CONTINUOUS
 62
    30
 10
511.55286783170322
 20
-99.591522157996053
 30
0.0
 11
511.55286783170322
 21
-275.42009358656742
 31
0.0
  0
CIRCLE
  8
SIZE
  6
CONTINUOUS
 62
    30
 10
511.55286783170322
 20
0.0
 30
0.0
 40
6.0
  0
LINE
  8
SIZE
  6
CONTINUOUS
 62
    30
 10
511.55286783170322
 20
0.0
 30
0.0
 11
511.55286783170322
 21
-12.00000000000011
 31
0.0
  0
CIRCLE
  8
SIZE
  6
CONTINUOUS
 62
    30
 10
511.55286783170322
 20
-99.591522157996053
 30
0.0
 40
6.0
  0
LINE
  8
SIZE
  6
CONTINUOUS
 62
    30
 10
511.55286783170322
 20
-99.591522157996053
 30
0.0
 11
511.55286783170322
 21
-87.591522157996053
 31
0.0
  0
TEXT
  8
SIZE
  6
CONTINUOUS
 62
    30
 10
486.55286783170322
 20
-250.42009358656739
 30
0.0
 40
64.0
  1
99
 50
90.0
 41
0.9
 72
     1
 11
486.55286783170322
 21
-205.16295072942461
 31
0.0
  0
POINT
  8
DEFPOINTS
  6
CONTINUOUS
 62
    30
 10
258.49710982658962
 20
0.0
 30
0.0
  0
POINT
  8
DEFPOINTS
  6
CONTINUOUS
 62
    30
 10
238.333333333333
 20
-99.591522157995996
 30
0.0
  0
POINT
  8
DEFPOINTS
  6
CONTINUOUS
 62
    30
 10
511.55286783170322
 20
-99.591522157996053
 30
0.0
  0
TEXT
  8
NOTE
  6
CONTINUOUS
 62
     4
 10
-577.23322031510816
 20
89.813382410918052
 30
0.0
 40
64.0
  1
4-φ14
 41
0.9
  0
LINE
  8
OUTLINE
  6
CONTINUOUS
 62
     3
 10
40.077071290944332
 20
-222.92870905587679
 30
0.0
 11
5.0096339113679278
 21
-222.92870905587679
 31
0.0
  0
LINE
  8
OUTLINE
  6
CONTINUOUS
 62
     3
 10
-5.0096339113679278
 20
-222.92870905587679
 30
0.0
 11
-40.077071290944332
 21
-222.92870905587679
 31
0.0
  0
LINE
  8
OUTLINE
  6
CONTINUOUS
 62
     3
 10
-134.26846303665889
 20
-207.39884393063599
 30
0.0
 11
-68.231213872832086
 21
-207.39884393063599
 31
0.0
  0
LINE
  8
OUTLINE
  6
CONTINUOUS
 62
     3
 10
68.231213872832541
 20
-207.39884393063599
 30
0.0
 11
134.26846303665889
 21
-207.39884393063599
 31
0.0
  0
LINE
  8
OUTLINE
  6
CONTINUOUS
 62
     3
 10
-256.99421965317919
 20
-6.4123314065510613
 30
0.0
 11
-256.99421965317919
 21
-3.0057803468207571
 31
0.0
  0
LINE
  8
OUTLINE
  6
CONTINUOUS
 62
     3
 10
-246.9749518304429
 20
-16.431599229287031
 30
0.0
 11
-246.9749518304429
 21
-13.89435725220812
 31
0.0
  0
LINE
  8
OUTLINE
  6
CONTINUOUS
 62
     3
 10
-238.333333333333
 20
-99.591522157995882
 30
0.0
 11
-206.53232368060429
 21
-99.591522157995882
 31
0.0
  0
LINE
  8
OUTLINE
  6
CONTINUOUS
 62
     3
 10
206.53232368060429
 20
-99.591522157995882
 30
0.0
 11
238.333333333333
 21
-99.591522157995882
 31
0.0
  0
LINE
  8
OUTLINE
  6
CONTINUOUS
 62
     3
 10
-238.333333333333
 20
-95.583815028901768
 30
0.0
 11
-206.53232368060429
 21
-95.583815028901768
 31
0.0
  0
LINE
  8
OUTLINE
  6
CONTINUOUS
 62
     3
 10
206.53232368060429
 20
-95.583815028901768
 30
0.0
 11
238.333333333333
 21
-95.583815028901768
 31
0.0
  0
LINE
  8
OUTLINE
  6
CONTINUOUS
 62
     3
 10
-206.53232368060429
 20
-105.2023121387284
 30
0.0
 11
-206.53232368060429
 21
-37.251153402688601
 31
0.0
  0
LINE
  8
OUTLINE
  6
CONTINUOUS
 62
     3
 10
208.42899310817481
 20
-78.901734104046341
 30
0.0
 11
207.01572659314891
 21
-78.901734104046341
 31
0.0
  0
LINE
  8
OUTLINE
  6
CONTINUOUS
 62
     3
 10
208.42899310817481
 20
-75.394990366088791
 30
0.0
 11
206.53232368060429
 21
-75.394990366088791
 31
0.0
  0
LINE
  8
OUTLINE
  6
CONTINUOUS
 62
     3
 10
243.36801541425851
 20
-20.038535645472049
 30
0.0
 11
232.78695340168821
 21
-20.04342622592662
 31
0.0
  0
LINE
  8
OUTLINE
  6
CONTINUOUS
 62
     3
 10
-233.3236994219651
 20
-20.038535645471939
 30
0.0
 11
-243.36801541425851
 21
-20.038535645472049
 31
0.0
  0
LINE
  8
OUTLINE
  6
CONTINUOUS
 62
     3
 10
253.38728323699431
 20
-10.019267822736079
 30
0.0
 11
250.1758680125113
 21
-10.019267822736079
 31
0.0
  0
LINE
  8
OUTLINE
  6
CONTINUOUS
 62
     3
 10
-250.1758680125117
 20
-10.019267822736079
 30
0.0
 11
-253.38728323699431
 21
-10.019267822736079
 31
0.0
  0
LINE
  8
OUTLINE
  6
CONTINUOUS
 62
     3
 10
258.49710982658962
 20
-3.0057803468207571
 30
0.0
 11
256.99421965317919
 21
-3.0057803468207571
 31
0.0
  0
LINE
  8
OUTLINE
  6
CONTINUOUS
 62
     3
 10
258.49710982658962
 20
0.0
 30
0.0
 11
-258.49710982658962
 21
0.0
 31
0.0
  0
LINE
  8
OUTLINE
  6
CONTINUOUS
 62
     3
 10
-68.231213872832086
 20
-211.9075144508671
 30
0.0
 11
-68.231213872832086
 21
-207.39884393063599
 31
0.0
  0
LINE
  8
OUTLINE
  6
CONTINUOUS
 62
     3
 10
-40.077071290944332
 20
-222.92870905587679
 30
0.0
 11
-40.077071290944332
 21
-221.92678227360301
 31
0.0
  0
LINE
  8
OUTLINE
  6
CONTINUOUS
 62
     3
 10
40.077071290944332
 20
-222.92870905587679
 30
0.0
 11
40.077071290944332
 21
-221.92678227360301
 31
0.0
  0
LINE
  8
OUTLINE
  6
CONTINUOUS
 62
     3
 10
207.90520007947359
 20
-76.396917148362377
 30
0.0
 11
207.19673085749309
 21
-75.394990366088791
 31
0.0
  0
LINE
  8
OUTLINE
  6
CONTINUOUS
 62
     3
 10
68.231213872832541
 20
-211.9075144508671
 30
0.0
 11
68.231213872832541
 21
-207.39884393063599
 31
0.0
  0
LINE
  8
OUTLINE
  6
CONTINUOUS
 62
     3
 10
206.53232368060429
 20
-37.251153402688601
 30
0.0
 11
206.53232368060429
 21
-105.2023121387284
 31
0.0
  0
LINE
  8
OUTLINE
  6
CONTINUOUS
 62
     3
 10
207.90520007947359
 20
-76.396917148362377
 30
0.0
 11
207.90520007947359
 21
-77.899807321772755
 31
0.0
  0
LINE
  8
OUTLINE
  6
CONTINUOUS
 62
     3
 10
208.4292526104646
 20
-75.394990366088791
 30
0.0
 11
208.4292526104646
 21
-78.901734104046341
 31
0.0
  0
LINE
  8
OUTLINE
  6
CONTINUOUS
 62
     3
 10
246.97495183044339
 20
-13.89435725220812
 30
0.0
 11
246.97495183044339
 21
-16.431599229287031
 31
0.0
  0
LINE
  8
OUTLINE
  6
CONTINUOUS
 62
     3
 10
256.99421965317919
 20
-3.0057803468207571
 30
0.0
 11
256.99421965317919
 21
-6.4123314065510613
 31
0.0
  0
LINE
  8
OUTLINE
  6
CONTINUOUS
 62
     3
 10
207.19673085749309
 20
-78.901734104046341
 30
0.0
 11
207.90520007947359
 21
-77.899807321772755
 31
0.0
  0
ARC
  8
OUTLINE
  6
CONTINUOUS
 62
     3
 10
-253.38728323699431
 20
-6.4123314065510613
 30
0.0
 40
3.606936416185023
 50
180.0
 51
270.0
  0
ARC
  8
OUTLINE
  6
CONTINUOUS
 62
     3
 10
-243.36801541425851
 20
-16.431599229287031
 30
0.0
 40
3.606936416184908
 50
180.0
 51
270.0
  0
ARC
  8
OUTLINE
  6
CONTINUOUS
 62
     3
 10
-238.333333333333
 20
-97.587668593449166
 30
0.0
 40
2.0038535645471711
 50
90.0
 51
270.0
  0
ARC
  8
OUTLINE
  6
CONTINUOUS
 62
     3
 10
-258.49710982658962
 20
-1.5028901734103779
 30
0.0
 40
1.5028901734102651
 50
90.0
 51
270.0
  0
ARC
  8
OUTLINE
  6
CONTINUOUS
 62
     3
 10
243.36801541425851
 20
-16.431599229287031
 30
0.0
 40
3.606936416184908
 50
270.0
 51
0.0
  0
ARC
  8
OUTLINE
  6
CONTINUOUS
 62
     3
 10
253.38728323699431
 20
-6.4123314065510613
 30
0.0
 40
3.606936416184908
 50
270.0
 51
0.0
  0
ARC
  8
OUTLINE
  6
CONTINUOUS
 62
     3
 10
238.333333333333
 20
-97.587668593449166
 30
0.0
 40
2.003853564547057
 50
270.0
 51
90.0
  0
ARC
  8
OUTLINE
  6
CONTINUOUS
 62
     3
 10
258.49710982658962
 20
-1.5028901734103779
 30
0.0
 40
1.5028901734103779
 50
270.0
 51
90.0
  0
LINE
  8
OUTLINE
  6
CONTINUOUS
 62
     3
 10
206.53232368060429
 20
-105.2023121387284
 30
0.0
 11
206.53087756468631
 21
-105.755515421674
 31
0.0
  0
LINE
  8
OUTLINE
  6
CONTINUOUS
 62
     3
 10
206.53087756468631
 20
-105.755515421674
 30
0.0
 11
206.52808893725609
 21
-106.30871588522299
 31
0.0
  0
LINE
  8
OUTLINE
  6
CONTINUOUS
 62
     3
 10
51.636822913695141
 20
-221.92678227360301
 30
0.0
 11
40.077071290944332
 21
-221.92678227360301
 31
0.0
  0
LINE
  8
OUTLINE
  6
CONTINUOUS
 62
     3
 10
66.628131021194349
 20
-213.51059730250481
 30
0.0
 11
62.08186543652846
 21
-213.51059730250481
 31
0.0
  0
LINE
  8
OUTLINE
  6
CONTINUOUS
 62
     3
 10
-59.387725451342703
 20
-214.8323960706152
 30
0.0
 11
-55.281837779746184
 21
-220.13846629272089
 31
0.0
  0
LINE
  8
OUTLINE
  6
CONTINUOUS
 62
     3
 10
238.333333333333
 20
-99.591522157995882
 30
0.0
 11
206.53232368060429
 21
-99.591522157995882
 31
0.0
  0
LINE
  8
OUTLINE
  6
CONTINUOUS
 62
     3
 10
-206.53232368060429
 20
-99.591522157995882
 30
0.0
 11
-238.333333333333
 21
-99.591522157995882
 31
0.0
  0
LINE
  8
OUTLINE
  6
CONTINUOUS
 62
     3
 10
59.387725451992992
 20
-214.8323960706152
 30
0.0
 11
55.281837779746184
 21
-220.13846629272089
 31
0.0
  0
ARC
  8
OUTLINE
  6
CONTINUOUS
 62
     3
 10
-51.636821767334823
 20
-217.31791907514449
 30
0.0
 40
4.6088631984586712
 50
217.733036872513
 51
270.0
  0
ARC
  8
OUTLINE
  6
CONTINUOUS
 62
     3
 10
-62.081864642143962
 20
-216.917148362235
 30
0.0
 40
3.4065503713934508
 50
37.733068570302343
 51
90.0
  0
ARC
  8
OUTLINE
  6
CONTINUOUS
 62
     3
 10
-66.628131021194349
 20
-211.9075144508671
 30
0.0
 40
1.603082851637794
 50
180.0
 51
270.0
  0
ARC
  8
OUTLINE
  6
CONTINUOUS
 62
     3
 10
-238.333333333333
 20
-64.524084778419933
 30
0.0
 40
34.46628131021189
 50
295.68763667250971
 51
337.34310834579748
  0
ARC
  8
OUTLINE
  6
CONTINUOUS
 62
     3
 10
-233.3236994219651
 20
-49.495183044315702
 30
0.0
 40
29.456647398843881
 50
24.53934114489337
 51
90.0
  0
ARC
  8
OUTLINE
  6
CONTINUOUS
 62
     3
 10
51.636821032154778
 20
-217.31791907514449
 30
0.0
 40
4.6088631984587076
 50
270.0
 51
322.26696872109858
  0
ARC
  8
OUTLINE
  6
CONTINUOUS
 62
     3
 10
62.08186543652846
 20
-216.917148362235
 30
0.0
 40
3.406550608212418
 50
90.0
 51
142.2669396033921
  0
ARC
  8
OUTLINE
  6
CONTINUOUS
 62
     3
 10
66.628131021194349
 20
-211.9075144508671
 30
0.0
 40
1.603082851637623
 50
270.0
 51
0.0
  0
ARC
  8
OUTLINE
  6
CONTINUOUS
 62
     3
 10
238.333333333333
 20
-64.524084778419933
 30
0.0
 40
34.466281310211897
 50
202.6568916542025
 51
244.31236332749029
  0
ARC
  8
OUTLINE
  6
CONTINUOUS
 62
     3
 10
233.3236994219651
 20
-49.495183044315702
 30
0.0
 40
29.45664739884392
 50
91.044076173411327
 51
155.4606588551066
  0
LINE
  8
DETAIL
  6
CONTINUOUS
 62
     5
 10
40.077071290944332
 20
-222.92870905587679
 30
0.0
 11
5.0096339113679278
 21
-222.92870905587679
 31
0.0
  0
LINE
  8
DETAIL
  6
CONTINUOUS
 62
     5
 10
5.0096339113679278
 20
-222.92870905587679
 30
0.0
 11
-40.077071290944332
 21
-222.92870905587679
 31
0.0
  0
LINE
  8
DETAIL
  6
CONTINUOUS
 62
     5
 10
-68.231213872832086
 20
-209.40269749518311
 30
0.0
 11
-61.428469583965118
 21
-209.40269749518311
 31
0.0
  0
LINE
  8
DETAIL
  6
CONTINUOUS
 62
     5
 10
61.428469583965118
 20
-209.40269749518311
 30
0.0
 11
68.231213872832541
 21
-209.40269749518311
 31
0.0
  0
LINE
  8
DETAIL
  6
CONTINUOUS
 62
     5
 10
-134.26846303665889
 20
-207.39884393063599
 30
0.0
 11
-62.620423892100007
 21
-207.39884393063599
 31
0.0
  0
LINE
  8
DETAIL
  6
CONTINUOUS
 62
     5
 10
62.620423892100007
 20
-207.39884393063599
 30
0.0
 11
134.26846303665889
 21
-207.39884393063599
 31
0.0
  0
LINE
  8
DETAIL
  6
CONTINUOUS
 62
     5
 10
-35.812212391161673
 20
-191.21585878913001
 30
0.0
 11
-57.554647873583242
 21
-197.30374077591759
 31
0.0
  0
LINE
  8
DETAIL
  6
CONTINUOUS
 62
     5
 10
-33.269735370718081
 20
-190.86705202312109
 30
0.0
 11
33.269735370718081
 21
-190.86705202312109
 31
0.0
  0
LINE
  8
DETAIL
  6
CONTINUOUS
 62
     5
 10
-131.08035153742179
 20
-175.3371868978808
 30
0.0
 11
-61.179741691614709
 21
-175.3371868978808
 31
0.0
  0
LINE
  8
DETAIL
  6
CONTINUOUS
 62
     5
 10
62.620423892100007
 20
-175.3371868978808
 30
0.0
 11
131.08035153807299
 21
-175.3371868978808
 31
0.0
  0
LINE
  8
DETAIL
  6
CONTINUOUS
 62
     5
 10
-63.622289249105513
 20
-173.73410404624281
 30
0.0
 11
-63.288154779570959
 21
-173.73410404624281
 31
0.0
  0
LINE
  8
DETAIL
  6
CONTINUOUS
 62
     5
 10
-48.523892879263258
 20
-168.1233140655105
 30
0.0
 11
-40.508478621074573
 21
-168.1233140655105
 31
0.0
  0
LINE
  8
DETAIL
  6
CONTINUOUS
 62
     5
 10
40.508478621074573
 20
-168.1233140655105
 30
0.0
 11
48.523892879914001
 21
-168.1233140655105
 31
0.0
  0
LINE
  8
DETAIL
  6
CONTINUOUS
 62
     5
 10
-46.520039314716087
 20
-164.917148362235
 30
0.0
 11
-42.512332185621737
 21
-164.917148362235
 31
0.0
  0
LINE
  8
DETAIL
  6
CONTINUOUS
 62
     5
 10
-16.541811175336989
 20
-164.917148362235
 30
0.0
 11
-13.53603082851623
 21
-164.917148362235
 31
0.0
  0
LINE
  8
DETAIL
  6
CONTINUOUS
 62
     5
 10
42.512332186272033
 20
-164.917148362235
 30
0.0
 11
46.52003931536683
 21
-164.917148362235
 31
0.0
  0
LINE
  8
DETAIL
  6
CONTINUOUS
 62
     5
 10
-49.19460500963396
 20
-148.25638973400379
 30
0.0
 11
49.19460500963396
 21
-148.25638973400379
 31
0.0
  0
LINE
  8
DETAIL
  6
CONTINUOUS
 62
     5
 10
-48.192678227360368
 20
-146.52100164141811
 30
0.0
 11
48.192678227360368
 21
-146.52100164141811
 31
0.0
  0
LINE
  8
DETAIL
  6
CONTINUOUS
 62
     5
 10
57.554647874233517
 20
-197.3037407752673
 30
0.0
 11
35.812212391161673
 21
-191.21585878913001
 31
0.0
  0
LINE
  8
DETAIL
  6
CONTINUOUS
 62
     5
 10
-256.99421965317919
 20
-6.4123314065510613
 30
0.0
 11
-256.99421965317919
 21
-3.0057803468207571
 31
0.0
  0
LINE
  8
DETAIL
  6
CONTINUOUS
 62
     5
 10
-253.8226442489304
 20
-3.0057803468207571
 30
0.0
 11
-253.8226442489304
 21
-5.1098265895954
 31
0.0
  0
LINE
  8
DETAIL
  6
CONTINUOUS
 62
     5
 10
-246.9749518304429
 20
-16.431599229287031
 30
0.0
 11
-246.9749518304429
 21
-13.89435725220812
 31
0.0
  0
LINE
  8
DETAIL
  6
CONTINUOUS
 62
     5
 10
-41.57996146435471
 20
-122.0346820809247
 30
0.0
 11
-16.339192820108561
 21
-122.0346820809247
 31
0.0
  0
LINE
  8
DETAIL
  6
CONTINUOUS
 62
     5
 10
-238.333333333333
 20
-99.591522157995882
 30
0.0
 11
-206.53232368060429
 21
-99.591522157995882
 31
0.0
  0
LINE
  8
DETAIL
  6
CONTINUOUS
 62
     5
 10
-180.67319707734671
 20
-99.591522157995882
 30
0.0
 11
180.67319707734671
 21
-99.591522157995882
 31
0.0
  0
LINE
  8
DETAIL
  6
CONTINUOUS
 62
     5
 10
206.53232368060429
 20
-99.591522157995882
 30
0.0
 11
238.333333333333
 21
-99.591522157995882
 31
0.0
  0
LINE
  8
DETAIL
  6
CONTINUOUS
 62
     5
 10
-238.333333333333
 20
-95.583815028901768
 30
0.0
 11
-206.53232368060429
 21
-95.583815028901768
 31
0.0
  0
LINE
  8
DETAIL
  6
CONTINUOUS
 62
     5
 10
-180.67319707734671
 20
-95.583815028901768
 30
0.0
 11
180.67319707734671
 21
-95.583815028901768
 31
0.0
  0
LINE
  8
DETAIL
  6
CONTINUOUS
 62
     5
 10
206.53232368060429
 20
-95.583815028901768
 30
0.0
 11
238.333333333333
 21
-95.583815028901768
 31
0.0
  0
LINE
  8
DETAIL
  6
CONTINUOUS
 62
     5
 10
1.5940557496187471
 20
-201.9794122043389
 30
0.0
 11
-1.59405579711256
 21
-198.7913006576083
 31
0.0
  0
LINE
  8
DETAIL
  6
CONTINUOUS
 62
     5
 10
-206.53232368060429
 20
-105.2023121387284
 30
0.0
 11
-206.53232368060429
 21
-14.52793834296733
 31
0.0
  0
LINE
  8
DETAIL
  6
CONTINUOUS
 62
     5
 10
-204.22979870900599
 20
-5.1098265895954
 30
0.0
 11
-204.22979870900599
 21
-3.0057803468207571
 31
0.0
  0
LINE
  8
DETAIL
  6
CONTINUOUS
 62
     5
 10
-203.34421218136779
 20
-14.52793834296733
 30
0.0
 11
-203.34421218136779
 21
-105.2023121387284
 31
0.0
  0
LINE
  8
DETAIL
  6
CONTINUOUS
 62
     5
 10
-192.89429115667011
 20
-3.0057803468207571
 30
0.0
 11
-192.89429115667011
 21
-6.4123314065510613
 31
0.0
  0
LINE
  8
DETAIL
  6
CONTINUOUS
 62
     5
 10
-185.15147907239219
 20
-14.52793834296733
 30
0.0
 11
-185.15147907239219
 21
-18.53564547206156
 31
0.0
  0
LINE
  8
DETAIL
  6
CONTINUOUS
 62
     5
 10
-180.67319707734671
 20
-18.53564547206156
 30
0.0
 11
-180.67319707734671
 21
-105.2023121387284
 31
0.0
  0
LINE
  8
DETAIL
  6
CONTINUOUS
 62
     5
 10
-180.14184516102389
 20
-14.52793834296733
 30
0.0
 11
-180.14184516102389
 21
-18.53564547206156
 31
0.0
  0
LINE
  8
DETAIL
  6
CONTINUOUS
 62
     5
 10
208.42899310817481
 20
-78.901734104046341
 30
0.0
 11
207.01572659314891
 21
-78.901734104046341
 31
0.0
  0
LINE
  8
DETAIL
  6
CONTINUOUS
 62
     5
 10
208.42899310817481
 20
-75.394990366088791
 30
0.0
 11
206.53232368060429
 21
-75.394990366088791
 31
0.0
  0
LINE
  8
DETAIL
  6
CONTINUOUS
 62
     5
 10
-175.13221124965591
 20
-18.53564547206156
 30
0.0
 11
-175.13221124965591
 21
-14.52793834296733
 31
0.0
  0
LINE
  8
DETAIL
  6
CONTINUOUS
 62
     5
 10
-163.13858383284509
 20
-14.52793834296733
 30
0.0
 11
-163.13858383284509
 21
-10.019267822736079
 31
0.0
  0
LINE
  8
DETAIL
  6
CONTINUOUS
 62
     5
 10
-151.09460705917991
 20
-13.02504816955684
 30
0.0
 11
-151.09460705917991
 21
-16.431599229287031
 31
0.0
  0
LINE
  8
DETAIL
  6
CONTINUOUS
 62
     5
 10
243.36801541425851
 20
-20.038535645472049
 30
0.0
 11
206.53232368060429
 21
-20.038535645472049
 31
0.0
  0
LINE
  8
DETAIL
  6
CONTINUOUS
 62
     5
 10
180.67319707734671
 20
-20.038535645472049
 30
0.0
 11
-180.67319707734671
 21
-20.038535645472049
 31
0.0
  0
LINE
  8
DETAIL
  6
CONTINUOUS
 62
     5
 10
-206.53232368060429
 20
-20.038535645472049
 30
0.0
 11
-243.36801541425851
 21
-20.038535645472049
 31
0.0
  0
LINE
  8
DETAIL
  6
CONTINUOUS
 62
     5
 10
216.32412484017729
 20
-18.53564547206156
 30
0.0
 11
206.53232368060429
 21
-18.53564547206156
 31
0.0
  0
LINE
  8
DETAIL
  6
CONTINUOUS
 62
     5
 10
-175.13221124965591
 20
-18.53564547206156
 30
0.0
 11
-185.15147907239219
 21
-18.53564547206156
 31
0.0
  0
LINE
  8
DETAIL
  6
CONTINUOUS
 62
     5
 10
244.50056063453761
 20
-14.52793834296733
 30
0.0
 11
163.13858383349589
 21
-14.52793834296733
 31
0.0
  0
LINE
  8
DETAIL
  6
CONTINUOUS
 62
     5
 10
-163.13858383284509
 20
-14.52793834296733
 30
0.0
 11
-244.50056063453709
 21
-14.52793834296733
 31
0.0
  0
LINE
  8
DETAIL
  6
CONTINUOUS
 62
     5
 10
253.38728323699431
 20
-10.019267822736079
 30
0.0
 11
250.1758680125113
 21
-10.019267822736079
 31
0.0
  0
LINE
  8
DETAIL
  6
CONTINUOUS
 62
     5
 10
189.28735474113549
 20
-10.019267822736079
 30
0.0
 11
-189.2873547404852
 21
-10.019267822736079
 31
0.0
  0
LINE
  8
DETAIL
  6
CONTINUOUS
 62
     5
 10
-189.2873547404852
 20
-10.019267822736079
 30
0.0
 11
-194.90771509461231
 21
-10.019267822736079
 31
0.0
  0
LINE
  8
DETAIL
  6
CONTINUOUS
 62
     5
 10
-250.1758680125117
 20
-10.019267822736079
 30
0.0
 11
-253.38728323699431
 21
-10.019267822736079
 31
0.0
  0
LINE
  8
DETAIL
  6
CONTINUOUS
 62
     5
 10
189.28735474113549
 20
-10.019267822736079
 30
0.0
 11
194.90771509461231
 21
-10.019267822736079
 31
0.0
  0
LINE
  8
DETAIL
  6
CONTINUOUS
 62
     5
 10
253.8226442489304
 20
-5.1098265895954
 30
0.0
 11
203.82636743612869
 21
-5.1098265895954
 31
0.0
  0
LINE
  8
DETAIL
  6
CONTINUOUS
 62
     5
 10
-253.8226442489304
 20
-5.1098265895954
 30
0.0
 11
-203.82636743547761
 21
-5.1098265895954
 31
0.0
  0
LINE
  8
DETAIL
  6
CONTINUOUS
 62
     5
 10
258.49710982658962
 20
-3.0057803468207571
 30
0.0
 11
-258.49710982658962
 21
-3.0057803468207571
 31
0.0
  0
LINE
  8
DETAIL
  6
CONTINUOUS
 62
     5
 10
258.49710982658962
 20
0.0
 30
0.0
 11
-258.49710982658962
 21
0.0
 31
0.0
  0
LINE
  8
DETAIL
  6
CONTINUOUS
 62
     5
 10
48.192678227360368
 20
-146.52100164141811
 30
0.0
 11
49.19460500963396
 21
-148.25638973400379
 31
0.0
  0
LINE
  8
DETAIL
  6
CONTINUOUS
 62
     5
 10
-68.231213872832086
 20
-211.9075144508671
 30
0.0
 11
-68.231213872832086
 21
-207.39884393063599
 31
0.0
  0
LINE
  8
DETAIL
  6
CONTINUOUS
 62
     5
 10
-67.630057803467935
 20
-207.39884393063599
 30
0.0
 11
-67.630057803467935
 21
-209.40269749518311
 31
0.0
  0
LINE
  8
DETAIL
  6
CONTINUOUS
 62
     5
 10
-63.288154779570959
 20
-173.73410404624281
 30
0.0
 11
-63.288154779570959
 21
-175.3371868978808
 31
0.0
  0
LINE
  8
DETAIL
  6
CONTINUOUS
 62
     5
 10
-62.620423892100007
 20
-175.3371868978808
 30
0.0
 11
-62.620423892100007
 21
-207.39884393063599
 31
0.0
  0
LINE
  8
DETAIL
  6
CONTINUOUS
 62
     5
 10
-59.61464354527925
 20
-200.2156688252131
 30
0.0
 11
-59.61464354527925
 21
-207.39884393063599
 31
0.0
  0
LINE
  8
DETAIL
  6
CONTINUOUS
 62
     5
 10
-49.19460500963396
 20
-170.227360308285
 30
0.0
 11
-49.19460500963396
 21
-148.25638973400379
 31
0.0
  0
LINE
  8
DETAIL
  6
CONTINUOUS
 62
     5
 10
-48.523892879263258
 20
-172.13102119460481
 30
0.0
 11
-48.523892879263258
 21
-168.1233140655105
 31
0.0
  0
LINE
  8
DETAIL
  6
CONTINUOUS
 62
     5
 10
-48.192678227360368
 20
-146.52100164141811
 30
0.0
 11
-48.192678227360368
 21
-128.6473988439308
 31
0.0
  0
LINE
  8
DETAIL
  6
CONTINUOUS
 62
     5
 10
-46.520039314716087
 20
-168.1233140655105
 30
0.0
 11
-46.520039314716087
 21
-164.917148362235
 31
0.0
  0
LINE
  8
DETAIL
  6
CONTINUOUS
 62
     5
 10
-44.516185750168923
 20
-172.13102119460481
 30
0.0
 11
-44.516185750168923
 21
-168.1233140655105
 31
0.0
  0
LINE
  8
DETAIL
  6
CONTINUOUS
 62
     5
 10
-42.512332185621737
 20
-168.1233140655105
 30
0.0
 11
-42.512332185621737
 21
-164.917148362235
 31
0.0
  0
LINE
  8
DETAIL
  6
CONTINUOUS
 62
     5
 10
-40.508478621074573
 20
-172.13102119460481
 30
0.0
 11
-40.508478621074573
 21
-168.1233140655105
 31
0.0
  0
LINE
  8
DETAIL
  6
CONTINUOUS
 62
     5
 10
-40.077071290944332
 20
-222.92870905587679
 30
0.0
 11
-40.077071290944332
 21
-221.92678227360301
 31
0.0
  0
LINE
  8
DETAIL
  6
CONTINUOUS
 62
     5
 10
-16.541811175336989
 20
-172.13102119460481
 30
0.0
 11
-16.541811175336989
 21
-164.917148362235
 31
0.0
  0
LINE
  8
DETAIL
  6
CONTINUOUS
 62
     5
 10
-13.53603082851623
 20
-172.13102119460481
 30
0.0
 11
-13.53603082851623
 21
-164.917148362235
 31
0.0
  0
LINE
  8
DETAIL
  6
CONTINUOUS
 62
     5
 10
-5.0096339113679278
 20
-114.9874357646823
 30
0.0
 11
-5.0096339113679278
 21
-99.591522157995882
 31
0.0
  0
LINE
  8
DETAIL
  6
CONTINUOUS
 62
     5
 10
5.0096339113679278
 20
-108.0792237929583
 30
0.0
 11
5.0096339113679278
 21
-99.591522157995882
 31
0.0
  0
LINE
  8
DETAIL
  6
CONTINUOUS
 62
     5
 10
40.077071290944332
 20
-222.92870905587679
 30
0.0
 11
40.077071290944332
 21
-221.92678227360301
 31
0.0
  0
LINE
  8
DETAIL
  6
CONTINUOUS
 62
     5
 10
40.508478621725317
 20
-172.13102119460481
 30
0.0
 11
40.508478621725317
 21
-168.1233140655105
 31
0.0
  0
LINE
  8
DETAIL
  6
CONTINUOUS
 62
     5
 10
42.512332186272033
 20
-168.1233140655105
 30
0.0
 11
42.512332186272033
 21
-164.917148362235
 31
0.0
  0
LINE
  8
DETAIL
  6
CONTINUOUS
 62
     5
 10
44.516185750819659
 20
-172.13102119460481
 30
0.0
 11
44.516185750819659
 21
-168.1233140655105
 31
0.0
  0
LINE
  8
DETAIL
  6
CONTINUOUS
 62
     5
 10
46.52003931536683
 20
-168.1233140655105
 30
0.0
 11
46.52003931536683
 21
-164.917148362235
 31
0.0
  0
LINE
  8
DETAIL
  6
CONTINUOUS
 62
     5
 10
48.192678227360368
 20
-146.52100164141811
 30
0.0
 11
48.192678227360368
 21
-128.6473988439308
 31
0.0
  0
LINE
  8
DETAIL
  6
CONTINUOUS
 62
     5
 10
48.523892879914001
 20
-172.13102119460481
 30
0.0
 11
48.523892879914001
 21
-168.1233140655105
 31
0.0
  0
LINE
  8
DETAIL
  6
CONTINUOUS
 62
     5
 10
49.19460500963396
 20
-170.227360308285
 30
0.0
 11
49.19460500963396
 21
-148.25638973400379
 31
0.0
  0
LINE
  8
DETAIL
  6
CONTINUOUS
 62
     5
 10
207.90520007947359
 20
-76.396917148362377
 30
0.0
 11
207.19673085749309
 21
-75.394990366088791
 31
0.0
  0
LINE
  8
DETAIL
  6
CONTINUOUS
 62
     5
 10
59.61464354527925
 20
-200.2156688252131
 30
0.0
 11
59.61464354527925
 21
-207.39884393063599
 31
0.0
  0
LINE
  8
DETAIL
  6
CONTINUOUS
 62
     5
 10
62.620423892100007
 20
-175.3371868978808
 30
0.0
 11
62.620423892100007
 21
-207.39884393063599
 31
0.0
  0
LINE
  8
DETAIL
  6
CONTINUOUS
 62
     5
 10
67.630057803467935
 20
-209.40269749518311
 30
0.0
 11
67.630057803467935
 21
-207.39884393063599
 31
0.0
  0
LINE
  8
DETAIL
  6
CONTINUOUS
 62
     5
 10
68.231213872832541
 20
-211.9075144508671
 30
0.0
 11
68.231213872832541
 21
-207.39884393063599
 31
0.0
  0
LINE
  8
DETAIL
  6
CONTINUOUS
 62
     5
 10
-48.192678227360368
 20
-146.52100164141811
 30
0.0
 11
-49.19460500963396
 21
-148.25638973400379
 31
0.0
  0
LINE
  8
DETAIL
  6
CONTINUOUS
 62
     5
 10
151.09460705917991
 20
-16.431599229287031
 30
0.0
 11
151.09460705917991
 21
-13.02504816955684
 31
0.0
  0
LINE
  8
DETAIL
  6
CONTINUOUS
 62
     5
 10
163.13858383349589
 20
-14.52793834296733
 30
0.0
 11
163.13858383349589
 21
-10.019267822736079
 31
0.0
  0
LINE
  8
DETAIL
  6
CONTINUOUS
 62
     5
 10
180.67319707734671
 20
-105.2023121387284
 30
0.0
 11
180.67319707734671
 21
-14.52793834296733
 31
0.0
  0
LINE
  8
DETAIL
  6
CONTINUOUS
 62
     5
 10
192.8942911573204
 20
-6.4123314065510613
 30
0.0
 11
192.8942911573204
 21
-3.0057803468207571
 31
0.0
  0
LINE
  8
DETAIL
  6
CONTINUOUS
 62
     5
 10
203.34421218136779
 20
-105.2023121387284
 30
0.0
 11
203.34421218136779
 21
-14.52793834296733
 31
0.0
  0
LINE
  8
DETAIL
  6
CONTINUOUS
 62
     5
 10
204.22979870900599
 20
-5.1098265895954
 30
0.0
 11
204.22979870900599
 21
-3.0057803468207571
 31
0.0
  0
LINE
  8
DETAIL
  6
CONTINUOUS
 62
     5
 10
206.53232368060429
 20
-14.52793834296733
 30
0.0
 11
206.53232368060429
 21
-105.2023121387284
 31
0.0
  0
LINE
  8
DETAIL
  6
CONTINUOUS
 62
     5
 10
207.90520007947359
 20
-76.396917148362377
 30
0.0
 11
207.90520007947359
 21
-77.899807321772755
 31
0.0
  0
LINE
  8
DETAIL
  6
CONTINUOUS
 62
     5
 10
208.4292526104646
 20
-75.394990366088791
 30
0.0
 11
208.4292526104646
 21
-78.901734104046341
 31
0.0
  0
LINE
  8
DETAIL
  6
CONTINUOUS
 62
     5
 10
211.31449092880939
 20
-14.52793834296733
 30
0.0
 11
211.31449092880939
 21
-18.53564547206156
 31
0.0
  0
LINE
  8
DETAIL
  6
CONTINUOUS
 62
     5
 10
216.32412484017729
 20
-18.53564547206156
 30
0.0
 11
216.32412484017729
 21
-14.52793834296733
 31
0.0
  0
LINE
  8
DETAIL
  6
CONTINUOUS
 62
     5
 10
-1.5940557496182921
 20
-201.9794122043389
 30
0.0
 11
1.59405579711256
 21
-198.7913006576083
 31
0.0
  0
LINE
  8
DETAIL
  6
CONTINUOUS
 62
     5
 10
246.97495183044339
 20
-13.89435725220812
 30
0.0
 11
246.97495183044339
 21
-16.431599229287031
 31
0.0
  0
LINE
  8
DETAIL
  6
CONTINUOUS
 62
     5
 10
253.8226442489304
 20
-5.1098265895954
 30
0.0
 11
253.8226442489304
 21
-3.0057803468207571
 31
0.0
  0
LINE
  8
DETAIL
  6
CONTINUOUS
 62
     5
 10
256.99421965317919
 20
-3.0057803468207571
 30
0.0
 11
256.99421965317919
 21
-6.4123314065510613
 31
0.0
  0
LINE
  8
DETAIL
  6
CONTINUOUS
 62
     5
 10
207.19673085749309
 20
-78.901734104046341
 30
0.0
 11
207.90520007947359
 21
-77.899807321772755
 31
0.0
  0
ARC
  8
DETAIL
  6
CONTINUOUS
 62
     5
 10
-33.272247622100622
 20
-200.289803130796
 30
0.0
 40
9.4227261167580636
 50
89.984724056702362
 51
105.6379155355917
  0
ARC
  8
DETAIL
  6
CONTINUOUS
 62
     5
 10
-36.670520231213693
 20
-222.02697495183031
 30
0.0
 40
0.100192678227415
 50
0.0
 51
90.0
  0
ARC
  8
DETAIL
  6
CONTINUOUS
 62
     5
 10
-41.57996146435471
 20
-128.6473988439308
 30
0.0
 40
6.6127167630058921
 50
90.0
 51
180.0
  0
ARC
  8
DETAIL
  6
CONTINUOUS
 62
     5
 10
-51.098265895953773
 20
-170.227360308285
 30
0.0
 40
1.903660886319813
 50
270.0
 51
0.0
  0
ARC
  8
DETAIL
  6
CONTINUOUS
 62
     5
 10
-253.38728323699431
 20
-6.4123314065510613
 30
0.0
 40
3.606936416185023
 50
180.0
 51
270.0
  0
ARC
  8
DETAIL
  6
CONTINUOUS
 62
     5
 10
-189.2873547404852
 20
-6.4123314065510613
 30
0.0
 40
3.606936416185023
 50
180.0
 51
270.0
  0
ARC
  8
DETAIL
  6
CONTINUOUS
 62
     5
 10
-243.36801541425851
 20
-16.431599229287031
 30
0.0
 40
3.606936416184908
 50
180.0
 51
270.0
  0
ARC
  8
DETAIL
  6
CONTINUOUS
 62
     5
 10
-147.487670642995
 20
-16.431599229287031
 30
0.0
 40
3.606936416185023
 50
180.0
 51
270.0
  0
ARC
  8
DETAIL
  6
CONTINUOUS
 62
     5
 10
-154.10038740600069
 20
-13.02504816955684
 30
0.0
 40
3.0057803468207571
 50
0.0
 51
90.0
  0
ARC
  8
DETAIL
  6
CONTINUOUS
 62
     5
 10
-238.333333333333
 20
-97.587668593449166
 30
0.0
 40
2.0038535645471711
 50
90.0
 51
270.0
  0
ARC
  8
DETAIL
  6
CONTINUOUS
 62
     5
 10
-258.49710982658962
 20
-1.5028901734103779
 30
0.0
 40
1.5028901734102651
 50
90.0
 51
270.0
  0
ARC
  8
DETAIL
  6
CONTINUOUS
 62
     5
 10
33.271212167204787
 20
-200.29735360223199
 30
0.0
 40
9.430307968671034
 50
74.368392016211558
 51
90.008972586491637
  0
ARC
  8
DETAIL
  6
CONTINUOUS
 62
     5
 10
41.57996146435471
 20
-128.6473988439308
 30
0.0
 40
6.6127167630057224
 50
0.0
 51
79.200496557402232
  0
CIRCLE
  8
DETAIL
  6
CONTINUOUS
 62
     5
 10
0.0
 20
-200.38535645472061
 30
0.0
 40
4.709055876685909
  0
ARC
  8
DETAIL
  6
CONTINUOUS
 62
     5
 10
51.098265895953773
 20
-170.227360308285
 30
0.0
 40
1.903660886319813
 50
180.0
 51
270.0
  0
ARC
  8
DETAIL
  6
CONTINUOUS
 62
     5
 10
189.28735474113549
 20
-6.4123314065510613
 30
0.0
 40
3.606936416184908
 50
270.0
 51
0.0
  0
ARC
  8
DETAIL
  6
CONTINUOUS
 62
     5
 10
147.487670642995
 20
-16.431599229287031
 30
0.0
 40
3.606936416184908
 50
270.0
 51
0.0
  0
ARC
  8
DETAIL
  6
CONTINUOUS
 62
     5
 10
243.36801541425851
 20
-16.431599229287031
 30
0.0
 40
3.606936416184908
 50
270.0
 51
0.0
  0
ARC
  8
DETAIL
  6
CONTINUOUS
 62
     5
 10
253.38728323699431
 20
-6.4123314065510613
 30
0.0
 40
3.606936416184908
 50
270.0
 51
0.0
  0
ARC
  8
DETAIL
  6
CONTINUOUS
 62
     5
 10
154.10038740600069
 20
-13.02504816955684
 30
0.0
 40
3.005780346820643
 50
90.0
 51
180.0
  0
ARC
  8
DETAIL
  6
CONTINUOUS
 62
     5
 10
238.333333333333
 20
-97.587668593449166
 30
0.0
 40
2.003853564547057
 50
270.0
 51
90.0
  0
ARC
  8
DETAIL
  6
CONTINUOUS
 62
     5
 10
258.49710982658962
 20
-1.5028901734103779
 30
0.0
 40
1.5028901734103779
 50
270.0
 51
90.0
  0
LINE
  8
DETAIL
  6
CONTINUOUS
 62
     5
 10
180.6695815364869
 20
-106.0492235877558
 30
0.0
 11
180.67196242141881
 21
-105.6257693380031
 31
0.0
  0
LINE
  8
DETAIL
  6
CONTINUOUS
 62
     5
 10
180.67196242141881
 20
-105.6257693380031
 30
0.0
 11
180.67319707734671
 21
-105.2023121387284
 31
0.0
  0
LINE
  8
DETAIL
  6
CONTINUOUS
 62
     5
 10
203.33997743802229
 20
-106.3087158850882
 30
0.0
 11
203.3427660654506
 21
-105.75551542162511
 31
0.0
  0
LINE
  8
DETAIL
  6
CONTINUOUS
 62
     5
 10
203.3427660654506
 20
-105.75551542162511
 30
0.0
 11
203.34421218136779
 21
-105.2023121387284
 31
0.0
  0
LINE
  8
DETAIL
  6
CONTINUOUS
 62
     5
 10
59.61464354527925
 20
-200.2156688252131
 30
0.0
 11
59.614140574965859
 21
-200.16634606032099
 31
0.0
  0
LINE
  8
DETAIL
  6
CONTINUOUS
 62
     5
 10
59.614140574965859
 20
-200.16634606032099
 30
0.0
 11
59.613170904572137
 21
-200.11702600546479
 31
0.0
  0
LINE
  8
DETAIL
  6
CONTINUOUS
 62
     5
 10
59.613170904572137
 20
-200.11702600546479
 30
0.0
 11
59.613170904572137
 21
-200.11702600546479
 31
0.0
  0
LINE
  8
DETAIL
  6
CONTINUOUS
 62
     5
 10
59.613170904572137
 20
-200.11702600546479
 30
0.0
 11
59.611366545188957
 21
-200.0677137308393
 31
0.0
  0
LINE
  8
DETAIL
  6
CONTINUOUS
 62
     5
 10
59.611366545188957
 20
-200.0677137308393
 30
0.0
 11
59.60875435259095
 21
-200.01842374727551
 31
0.0
  0
LINE
  8
DETAIL
  6
CONTINUOUS
 62
     5
 10
59.60875435259095
 20
-200.01842374727551
 30
0.0
 11
59.60875435259095
 21
-200.01842374727551
 31
0.0
  0
LINE
  8
DETAIL
  6
CONTINUOUS
 62
     5
 10
59.60875435259095
 20
-200.01842374727551
 30
0.0
 11
59.605433294850627
 21
-199.9691714140173
 31
0.0
  0
LINE
  8
DETAIL
  6
CONTINUOUS
 62
     5
 10
59.605433294850627
 20
-199.9691714140173
 30
0.0
 11
59.601395944548131
 21
-199.91996604331879
 31
0.0
  0
LINE
  8
DETAIL
  6
CONTINUOUS
 62
     5
 10
59.601395944548131
 20
-199.91996604331879
 30
0.0
 11
59.601395944548131
 21
-199.91996604331879
 31
0.0
  0
LINE
  8
DETAIL
  6
CONTINUOUS
 62
     5
 10
59.601395944548131
 20
-199.91996604331879
 30
0.0
 11
59.596615959711471
 21
-199.8708191225179
 31
0.0
  0
LINE
  8
DETAIL
  6
CONTINUOUS
 62
     5
 10
59.596615959711471
 20
-199.8708191225179
 30
0.0
 11
59.59109773565433
 21
-199.8217568862672
 31
0.0
  0
LINE
  8
DETAIL
  6
CONTINUOUS
 62
     5
 10
59.59109773565433
 20
-199.8217568862672
 30
0.0
 11
59.59109773565433
 21
-199.8217568862672
 31
0.0
  0
LINE
  8
DETAIL
  6
CONTINUOUS
 62
     5
 10
59.59109773565433
 20
-199.8217568862672
 30
0.0
 11
59.584849213599227
 21
-199.77279602047849
 31
0.0
  0
LINE
  8
DETAIL
  6
CONTINUOUS
 62
     5
 10
59.584849213599227
 20
-199.77279602047849
 30
0.0
 11
59.577861781120191
 21
-199.7239002687935
 31
0.0
  0
LINE
  8
DETAIL
  6
CONTINUOUS
 62
     5
 10
59.577861781120191
 20
-199.7239002687935
 30
0.0
 11
59.577861781120191
 21
-199.7239002687935
 31
0.0
  0
LINE
  8
DETAIL
  6
CONTINUOUS
 62
     5
 10
59.577861781120191
 20
-199.7239002687935
 30
0.0
 11
59.570126562171943
 21
-199.6750409201355
 31
0.0
  0
LINE
  8
DETAIL
  6
CONTINUOUS
 62
     5
 10
59.570126562171943
 20
-199.6750409201355
 30
0.0
 11
59.561650179871322
 21
-199.62627238683729
 31
0.0
  0
LINE
  8
DETAIL
  6
CONTINUOUS
 62
     5
 10
59.561650179871322
 20
-199.62627238683729
 30
0.0
 11
59.561650179871322
 21
-199.62627238683729
 31
0.0
  0
LINE
  8
DETAIL
  6
CONTINUOUS
 62
     5
 10
59.561650179871322
 20
-199.62627238683729
 30
0.0
 11
59.552440738614223
 21
-199.5776551619357
 31
0.0
  0
LINE
  8
DETAIL
  6
CONTINUOUS
 62
     5
 10
59.552440738614223
 20
-199.5776551619357
 30
0.0
 11
59.542496768729507
 21
-199.52919093787631
 31
0.0
  0
LINE
  8
DETAIL
  6
CONTINUOUS
 62
     5
 10
59.542496768729507
 20
-199.52919093787631
 30
0.0
 11
59.542496768729507
 21
-199.52919093787631
 31
0.0
  0
LINE
  8
DETAIL
  6
CONTINUOUS
 62
     5
 10
59.542496768729507
 20
-199.52919093787631
 30
0.0
 11
59.53181681354954
 21
-199.4808759874592
 31
0.0
  0
LINE
  8
DETAIL
  6
CONTINUOUS
 62
     5
 10
59.53181681354954
 20
-199.4808759874592
 30
0.0
 11
59.520409042478597
 21
-199.43274370548841
 31
0.0
  0
LINE
  8
DETAIL
  6
CONTINUOUS
 62
     5
 10
59.520409042478597
 20
-199.43274370548841
 30
0.0
 11
59.520409042478597
 21
-199.43274370548841
 31
0.0
  0
LINE
  8
DETAIL
  6
CONTINUOUS
 62
     5
 10
59.520409042478597
 20
-199.43274370548841
 30
0.0
 11
59.50827679888198
 21
-199.38481434541299
 31
0.0
  0
LINE
  8
DETAIL
  6
CONTINUOUS
 62
     5
 10
59.50827679888198
 20
-199.38481434541299
 30
0.0
 11
59.495394495903383
 21
-199.33701847325241
 31
0.0
  0
LINE
  8
DETAIL
  6
CONTINUOUS
 62
     5
 10
59.495394495903383
 20
-199.33701847325241
 30
0.0
 11
59.495394495903383
 21
-199.33701847325241
 31
0.0
  0
LINE
  8
DETAIL
  6
CONTINUOUS
 62
     5
 10
59.495394495903383
 20
-199.33701847325241
 30
0.0
 11
59.481755837835408
 21
-199.2893446400968
 31
0.0
  0
LINE
  8
DETAIL
  6
CONTINUOUS
 62
     5
 10
59.481755837835408
 20
-199.2893446400968
 30
0.0
 11
59.46746062378952
 21
-199.24210302474569
 31
0.0
  0
LINE
  8
DETAIL
  6
CONTINUOUS
 62
     5
 10
59.46746062378952
 20
-199.24210302474569
 30
0.0
 11
59.46746062378952
 21
-199.24210302474569
 31
0.0
  0
LINE
  8
DETAIL
  6
CONTINUOUS
 62
     5
 10
59.46746062378952
 20
-199.24210302474569
 30
0.0
 11
59.45259582763174
 21
-199.1955572358105
 31
0.0
  0
LINE
  8
DETAIL
  6
CONTINUOUS
 62
     5
 10
59.45259582763174
 20
-199.1955572358105
 30
0.0
 11
59.437091027424231
 21
-199.14946297344611
 31
0.0
  0
LINE
  8
DETAIL
  6
CONTINUOUS
 62
     5
 10
59.437091027424231
 20
-199.14946297344611
 30
0.0
 11
59.437091027424231
 21
-199.14946297344611
 31
0.0
  0
LINE
  8
DETAIL
  6
CONTINUOUS
 62
     5
 10
59.437091027424231
 20
-199.14946297344611
 30
0.0
 11
59.420859854285482
 21
-199.10352954213349
 31
0.0
  0
LINE
  8
DETAIL
  6
CONTINUOUS
 62
     5
 10
59.420859854285482
 20
-199.10352954213349
 30
0.0
 11
59.403909547362673
 21
-199.0577885721174
 31
0.0
  0
LINE
  8
DETAIL
  6
CONTINUOUS
 62
     5
 10
59.403909547362673
 20
-199.0577885721174
 30
0.0
 11
59.403909547362673
 21
-199.0577885721174
 31
0.0
  0
LINE
  8
DETAIL
  6
CONTINUOUS
 62
     5
 10
59.403909547362673
 20
-199.0577885721174
 30
0.0
 11
59.3862653723113
 21
-199.0123324317716
 31
0.0
  0
LINE
  8
DETAIL
  6
CONTINUOUS
 62
     5
 10
59.3862653723113
 20
-199.0123324317716
 30
0.0
 11
59.367931092785511
 21
-198.96717411621611
 31
0.0
  0
LINE
  8
DETAIL
  6
CONTINUOUS
 62
     5
 10
59.367931092785511
 20
-198.96717411621611
 30
0.0
 11
59.367931092785511
 21
-198.96717411621611
 31
0.0
  0
LINE
  8
DETAIL
  6
CONTINUOUS
 62
     5
 10
59.367931092785511
 20
-198.96717411621611
 30
0.0
 11
59.348903196932952
 21
-198.9223055690704
 31
0.0
  0
LINE
  8
DETAIL
  6
CONTINUOUS
 62
     5
 10
59.348903196932952
 20
-198.9223055690704
 30
0.0
 11
59.329170572873409
 21
-198.8777139011992
 31
0.0
  0
LINE
  8
DETAIL
  6
CONTINUOUS
 62
     5
 10
59.329170572873409
 20
-198.8777139011992
 30
0.0
 11
59.329170572873409
 21
-198.8777139011992
 31
0.0
  0
LINE
  8
DETAIL
  6
CONTINUOUS
 62
     5
 10
59.329170572873409
 20
-198.8777139011992
 30
0.0
 11
59.308733184248922
 21
-198.83340969134599
 31
0.0
  0
LINE
  8
DETAIL
  6
CONTINUOUS
 62
     5
 10
59.308733184248922
 20
-198.83340969134599
 30
0.0
 11
59.287642896807483
 21
-198.78950222252399
 31
0.0
  0
LINE
  8
DETAIL
  6
CONTINUOUS
 62
     5
 10
59.287642896807483
 20
-198.78950222252399
 30
0.0
 11
59.287642896807483
 21
-198.78950222252399
 31
0.0
  0
LINE
  8
DETAIL
  6
CONTINUOUS
 62
     5
 10
59.287642896807483
 20
-198.78950222252399
 30
0.0
 11
59.265944645857417
 21
-198.74608438713281
 31
0.0
  0
LINE
  8
DETAIL
  6
CONTINUOUS
 62
     5
 10
59.265944645857417
 20
-198.74608438713281
 30
0.0
 11
59.24360374285061
 21
-198.7030848108549
 31
0.0
  0
LINE
  8
DETAIL
  6
CONTINUOUS
 62
     5
 10
59.24360374285061
 20
-198.7030848108549
 30
0.0
 11
59.24360374285061
 21
-198.7030848108549
 31
0.0
  0
LINE
  8
DETAIL
  6
CONTINUOUS
 62
     5
 10
59.24360374285061
 20
-198.7030848108549
 30
0.0
 11
59.220577182218683
 21
-198.6604164913559
 31
0.0
  0
LINE
  8
DETAIL
  6
CONTINUOUS
 62
     5
 10
59.220577182218683
 20
-198.6604164913559
 30
0.0
 11
59.196868314177657
 21
-198.61809418095669
 31
0.0
  0
LINE
  8
DETAIL
  6
CONTINUOUS
 62
     5
 10
59.196868314177657
 20
-198.61809418095669
 30
0.0
 11
59.196868314177657
 21
-198.61809418095669
 31
0.0
  0
LINE
  8
DETAIL
  6
CONTINUOUS
 62
     5
 10
59.196868314177657
 20
-198.61809418095669
 30
0.0
 11
59.1724921357536
 21
-198.57615556288681
 31
0.0
  0
LINE
  8
DETAIL
  6
CONTINUOUS
 62
     5
 10
59.1724921357536
 20
-198.57615556288681
 30
0.0
 11
59.147463875418907
 21
-198.5346282893637
 31
0.0
  0
LINE
  8
DETAIL
  6
CONTINUOUS
 62
     5
 10
59.147463875418907
 20
-198.5346282893637
 30
0.0
 11
59.147463875418907
 21
-198.5346282893637
 31
0.0
  0
LINE
  8
DETAIL
  6
CONTINUOUS
 62
     5
 10
59.147463875418907
 20
-198.5346282893637
 30
0.0
 11
59.121786999116921
 21
-198.4935220972003
 31
0.0
  0
LINE
  8
DETAIL
  6
CONTINUOUS
 62
     5
 10
59.121786999116921
 20
-198.4935220972003
 30
0.0
 11
59.095417691205512
 21
-198.4527850926082
 31
0.0
  0
LINE
  8
DETAIL
  6
CONTINUOUS
 62
     5
 10
59.095417691205512
 20
-198.4527850926082
 30
0.0
 11
59.095417691205512
 21
-198.4527850926082
 31
0.0
  0
LINE
  8
DETAIL
  6
CONTINUOUS
 62
     5
 10
59.095417691205512
 20
-198.4527850926082
 30
0.0
 11
59.068347539368922
 21
-198.41241411250309
 31
0.0
  0
LINE
  8
DETAIL
  6
CONTINUOUS
 62
     5
 10
59.068347539368922
 20
-198.41241411250309
 30
0.0
 11
59.040757026167277
 21
-198.37266254722439
 31
0.0
  0
LINE
  8
DETAIL
  6
CONTINUOUS
 62
     5
 10
59.040757026167277
 20
-198.37266254722439
 30
0.0
 11
59.040757026167277
 21
-198.37266254722439
 31
0.0
  0
LINE
  8
DETAIL
  6
CONTINUOUS
 62
     5
 10
59.040757026167277
 20
-198.37266254722439
 30
0.0
 11
59.012801578717699
 21
-198.333744973086
 31
0.0
  0
LINE
  8
DETAIL
  6
CONTINUOUS
 62
     5
 10
59.012801578717699
 20
-198.333744973086
 30
0.0
 11
58.984347507498569
 21
-198.2954641568837
 31
0.0
  0
LINE
  8
DETAIL
  6
CONTINUOUS
 62
     5
 10
58.984347507498569
 20
-198.2954641568837
 30
0.0
 11
58.984347507498569
 21
-198.2954641568837
 31
0.0
  0
LINE
  8
DETAIL
  6
CONTINUOUS
 62
     5
 10
58.984347507498569
 20
-198.2954641568837
 30
0.0
 11
58.955232306535443
 21
-198.25758476656679
 31
0.0
  0
LINE
  8
DETAIL
  6
CONTINUOUS
 62
     5
 10
58.955232306535443
 20
-198.25758476656679
 30
0.0
 11
58.92546732068331
 21
-198.22013088422361
 31
0.0
  0
LINE
  8
DETAIL
  6
CONTINUOUS
 62
     5
 10
58.92546732068331
 20
-198.22013088422361
 30
0.0
 11
58.92546732068331
 21
-198.22013088422361
 31
0.0
  0
LINE
  8
DETAIL
  6
CONTINUOUS
 62
     5
 10
58.92546732068331
 20
-198.22013088422361
 30
0.0
 11
58.895101411453652
 21
-198.1831796226854
 31
0.0
  0
LINE
  8
DETAIL
  6
CONTINUOUS
 62
     5
 10
58.895101411453652
 20
-198.1831796226854
 30
0.0
 11
58.864159656148331
 21
-198.14676080361329
 31
0.0
  0
LINE
  8
DETAIL
  6
CONTINUOUS
 62
     5
 10
58.864159656148331
 20
-198.14676080361329
 30
0.0
 11
58.864159656148331
 21
-198.14676080361329
 31
0.0
  0
LINE
  8
DETAIL
  6
CONTINUOUS
 62
     5
 10
58.864159656148331
 20
-198.14676080361329
 30
0.0
 11
58.832641507519376
 21
-198.11087486351099
 31
0.0
  0
LINE
  8
DETAIL
  6
CONTINUOUS
 62
     5
 10
58.832641507519376
 20
-198.11087486351099
 30
0.0
 11
58.800467704319999
 21
-198.07545198942049
 31
0.0
  0
LINE
  8
DETAIL
  6
CONTINUOUS
 62
     5
 10
58.800467704319999
 20
-198.07545198942049
 30
0.0
 11
58.800467704319999
 21
-198.07545198942049
 31
0.0
  0
LINE
  8
DETAIL
  6
CONTINUOUS
 62
     5
 10
58.800467704319999
 20
-198.07545198942049
 30
0.0
 11
58.767623966854437
 21
-198.0404868782731
 31
0.0
  0
LINE
  8
DETAIL
  6
CONTINUOUS
 62
     5
 10
58.767623966854437
 20
-198.0404868782731
 30
0.0
 11
58.734434655624682
 21
-198.00630251601439
 31
0.0
  0
LINE
  8
DETAIL
  6
CONTINUOUS
 62
     5
 10
58.734434655624682
 20
-198.00630251601439
 30
0.0
 11
58.734434655624682
 21
-198.00630251601439
 31
0.0
  0
LINE
  8
DETAIL
  6
CONTINUOUS
 62
     5
 10
58.734434655624682
 20
-198.00630251601439
 30
0.0
 11
58.701177215944881
 21
-197.9731702044115
 31
0.0
  0
LINE
  8
DETAIL
  6
CONTINUOUS
 62
     5
 10
58.701177215944881
 20
-197.9731702044115
 30
0.0
 11
58.667602792175778
 21
-197.9408262195019
 31
0.0
  0
LINE
  8
DETAIL
  6
CONTINUOUS
 62
     5
 10
58.667602792175778
 20
-197.9408262195019
 30
0.0
 11
58.667602792175778
 21
-197.9408262195019
 31
0.0
  0
LINE
  8
DETAIL
  6
CONTINUOUS
 62
     5
 10
58.667602792175778
 20
-197.9408262195019
 30
0.0
 11
58.633412565878643
 21
-197.90895916455759
 31
0.0
  0
LINE
  8
DETAIL
  6
CONTINUOUS
 62
     5
 10
58.633412565878643
 20
-197.90895916455759
 30
0.0
 11
58.598634168370147
 21
-197.87760197751899
 31
0.0
  0
LINE
  8
DETAIL
  6
CONTINUOUS
 62
     5
 10
58.598634168370147
 20
-197.87760197751899
 30
0.0
 11
58.598634168370147
 21
-197.87760197751899
 31
0.0
  0
LINE
  8
DETAIL
  6
CONTINUOUS
 62
     5
 10
58.598634168370147
 20
-197.87760197751899
 30
0.0
 11
58.563357118203378
 21
-197.84685209349041
 31
0.0
  0
LINE
  8
DETAIL
  6
CONTINUOUS
 62
     5
 10
58.563357118203378
 20
-197.84685209349041
 30
0.0
 11
58.527592033124172
 21
-197.81672060157001
 31
0.0
  0
LINE
  8
DETAIL
  6
CONTINUOUS
 62
     5
 10
58.527592033124172
 20
-197.81672060157001
 30
0.0
 11
58.527592033124172
 21
-197.81672060157001
 31
0.0
  0
LINE
  8
DETAIL
  6
CONTINUOUS
 62
     5
 10
58.527592033124172
 20
-197.81672060157001
 30
0.0
 11
58.491327094045118
 21
-197.78719726669411
 31
0.0
  0
LINE
  8
DETAIL
  6
CONTINUOUS
 62
     5
 10
58.491327094045118
 20
-197.78719726669411
 30
0.0
 11
58.454539635350557
 21
-197.7582729031584
 31
0.0
  0
LINE
  8
DETAIL
  6
CONTINUOUS
 62
     5
 10
58.454539635350557
 20
-197.7582729031584
 30
0.0
 11
58.454539635350557
 21
-197.7582729031584
 31
0.0
  0
LINE
  8
DETAIL
  6
CONTINUOUS
 62
     5
 10
58.454539635350557
 20
-197.7582729031584
 30
0.0
 11
58.417234851521243
 21
-197.72995912474121
 31
0.0
  0
LINE
  8
DETAIL
  6
CONTINUOUS
 62
     5
 10
58.417234851521243
 20
-197.72995912474121
 30
0.0
 11
58.379540223963893
 21
-197.70234969378919
 31
0.0
  0
LINE
  8
DETAIL
  6
CONTINUOUS
 62
     5
 10
58.379540223963893
 20
-197.70234969378919
 30
0.0
 11
58.379540223963893
 21
-197.70234969378919
 31
0.0
  0
LINE
  8
DETAIL
  6
CONTINUOUS
 62
     5
 10
58.379540223963893
 20
-197.70234969378919
 30
0.0
 11
58.341564810993077
 21
-197.6755231876665
 31
0.0
  0
LINE
  8
DETAIL
  6
CONTINUOUS
 62
     5
 10
58.341564810993077
 20
-197.6755231876665
 30
0.0
 11
58.3032216916381
 21
-197.64941529523651
 31
0.0
  0
LINE
  8
DETAIL
  6
CONTINUOUS
 62
     5
 10
58.3032216916381
 20
-197.64941529523651
 30
0.0
 11
58.3032216916381
 21
-197.64941529523651
 31
0.0
  0
LINE
  8
DETAIL
  6
CONTINUOUS
 62
     5
 10
58.3032216916381
 20
-197.64941529523651
 30
0.0
 11
58.264404554829532
 21
-197.62394862392429
 31
0.0
  0
LINE
  8
DETAIL
  6
CONTINUOUS
 62
     5
 10
58.264404554829532
 20
-197.62394862392429
 30
0.0
 11
58.225125508399287
 21
-197.5991363439058
 31
0.0
  0
LINE
  8
DETAIL
  6
CONTINUOUS
 62
     5
 10
58.225125508399287
 20
-197.5991363439058
 30
0.0
 11
58.225125508399287
 21
-197.5991363439058
 31
0.0
  0
LINE
  8
DETAIL
  6
CONTINUOUS
 62
     5
 10
58.225125508399287
 20
-197.5991363439058
 30
0.0
 11
58.185424032812527
 21
-197.57501081855861
 31
0.0
  0
LINE
  8
DETAIL
  6
CONTINUOUS
 62
     5
 10
58.185424032812527
 20
-197.57501081855861
 30
0.0
 11
58.145330680169543
 21
-197.55159062132961
 31
0.0
  0
LINE
  8
DETAIL
  6
CONTINUOUS
 62
     5
 10
58.145330680169543
 20
-197.55159062132961
 30
0.0
 11
58.145330680169543
 21
-197.55159062132961
 31
0.0
  0
LINE
  8
DETAIL
  6
CONTINUOUS
 62
     5
 10
58.145330680169543
 20
-197.55159062132961
 30
0.0
 11
58.10485309411979
 21
-197.52888202742739
 31
0.0
  0
LINE
  8
DETAIL
  6
CONTINUOUS
 62
     5
 10
58.10485309411979
 20
-197.52888202742739
 30
0.0
 11
58.063916212867753
 21
-197.50685590904291
 31
0.0
  0
LINE
  8
DETAIL
  6
CONTINUOUS
 62
     5
 10
58.063916212867753
 20
-197.50685590904291
 30
0.0
 11
58.063916212867753
 21
-197.50685590904291
 31
0.0
  0
LINE
  8
DETAIL
  6
CONTINUOUS
 62
     5
 10
58.063916212867753
 20
-197.50685590904291
 30
0.0
 11
58.022509235792313
 21
-197.4855131381141
 31
0.0
  0
LINE
  8
DETAIL
  6
CONTINUOUS
 62
     5
 10
58.022509235792313
 20
-197.4855131381141
 30
0.0
 11
57.980961112414661
 21
-197.46500998857789
 31
0.0
  0
LINE
  8
DETAIL
  6
CONTINUOUS
 62
     5
 10
57.980961112414661
 20
-197.46500998857789
 30
0.0
 11
57.980961112414661
 21
-197.46500998857789
 31
0.0
  0
LINE
  8
DETAIL
  6
CONTINUOUS
 62
     5
 10
57.980961112414661
 20
-197.46500998857789
 30
0.0
 11
57.939553254655038
 21
-197.445476353853
 31
0.0
  0
LINE
  8
DETAIL
  6
CONTINUOUS
 62
     5
 10
57.939553254655038
 20
-197.445476353853
 30
0.0
 11
57.898037173880773
 21
-197.42678120329319
 31
0.0
  0
LINE
  8
DETAIL
  6
CONTINUOUS
 62
     5
 10
57.898037173880773
 20
-197.42678120329319
 30
0.0
 11
57.898037173880773
 21
-197.42678120329319
 31
0.0
  0
LINE
  8
DETAIL
  6
CONTINUOUS
 62
     5
 10
57.898037173880773
 20
-197.42678120329319
 30
0.0
 11
57.856115223673442
 21
-197.4087728774692
 31
0.0
  0
LINE
  8
DETAIL
  6
CONTINUOUS
 62
     5
 10
57.856115223673442
 20
-197.4087728774692
 30
0.0
 11
57.813823027024227
 21
-197.3914781258942
 31
0.0
  0
LINE
  8
DETAIL
  6
CONTINUOUS
 62
     5
 10
57.813823027024227
 20
-197.3914781258942
 30
0.0
 11
57.813823027024227
 21
-197.3914781258942
 31
0.0
  0
LINE
  8
DETAIL
  6
CONTINUOUS
 62
     5
 10
57.813823027024227
 20
-197.3914781258942
 30
0.0
 11
57.771259008007753
 21
-197.37494927123149
 31
0.0
  0
LINE
  8
DETAIL
  6
CONTINUOUS
 62
     5
 10
57.771259008007753
 20
-197.37494927123149
 30
0.0
 11
57.728439525616523
 21
-197.359162519807
 31
0.0
  0
LINE
  8
DETAIL
  6
CONTINUOUS
 62
     5
 10
57.728439525616523
 20
-197.359162519807
 30
0.0
 11
57.728439525616523
 21
-197.359162519807
 31
0.0
  0
LINE
  8
DETAIL
  6
CONTINUOUS
 62
     5
 10
57.728439525616523
 20
-197.359162519807
 30
0.0
 11
57.685359170302043
 21
-197.34410656296421
 31
0.0
  0
LINE
  8
DETAIL
  6
CONTINUOUS
 62
     5
 10
57.685359170302043
 20
-197.34410656296421
 30
0.0
 11
57.642007523429129
 21
-197.32989614845621
 31
0.0
  0
LINE
  8
DETAIL
  6
CONTINUOUS
 62
     5
 10
57.642007523429129
 20
-197.32989614845621
 30
0.0
 11
57.642007523429129
 21
-197.32989614845621
 31
0.0
  0
LINE
  8
DETAIL
  6
CONTINUOUS
 62
     5
 10
57.642007523429129
 20
-197.32989614845621
 30
0.0
 11
57.598398439447919
 21
-197.3165705108139
 31
0.0
  0
LINE
  8
DETAIL
  6
CONTINUOUS
 62
     5
 10
57.598398439447919
 20
-197.3165705108139
 30
0.0
 11
57.554647874233517
 21
-197.3037407752673
 31
0.0
  0
LINE
  8
DETAIL
  6
CONTINUOUS
 62
     5
 10
-57.554647873583242
 20
-197.30374077591759
 30
0.0
 11
-57.598391420251573
 21
-197.31656836035259
 31
0.0
  0
LINE
  8
DETAIL
  6
CONTINUOUS
 62
     5
 10
-57.598391420251573
 20
-197.31656836035259
 30
0.0
 11
-57.641993520887809
 21
-197.3298916816367
 31
0.0
  0
LINE
  8
DETAIL
  6
CONTINUOUS
 62
     5
 10
-57.641993520887809
 20
-197.3298916816367
 30
0.0
 11
-57.641993520887809
 21
-197.3298916816367
 31
0.0
  0
LINE
  8
DETAIL
  6
CONTINUOUS
 62
     5
 10
-57.641993520887809
 20
-197.3298916816367
 30
0.0
 11
-57.685338258371303
 21
-197.34409948988841
 31
0.0
  0
LINE
  8
DETAIL
  6
CONTINUOUS
 62
     5
 10
-57.685338258371303
 20
-197.34409948988841
 30
0.0
 11
-57.728411831238191
 21
-197.35915258830769
 31
0.0
  0
LINE
  8
DETAIL
  6
CONTINUOUS
 62
     5
 10
-57.728411831238191
 20
-197.35915258830769
 30
0.0
 11
-57.728411831238191
 21
-197.35915258830769
 31
0.0
  0
LINE
  8
DETAIL
  6
CONTINUOUS
 62
     5
 10
-57.728411831238191
 20
-197.35915258830769
 30
0.0
 11
-57.771224668297243
 21
-197.37493627327481
 31
0.0
  0
LINE
  8
DETAIL
  6
CONTINUOUS
 62
     5
 10
-57.771224668297243
 20
-197.37493627327481
 30
0.0
 11
-57.813782003810047
 21
-197.3914617608053
 31
0.0
  0
LINE
  8
DETAIL
  6
CONTINUOUS
 62
     5
 10
-57.813782003810047
 20
-197.3914617608053
 30
0.0
 11
-57.813782003810047
 21
-197.3914617608053
 31
0.0
  0
LINE
  8
DETAIL
  6
CONTINUOUS
 62
     5
 10
-57.813782003810047
 20
-197.3914617608053
 30
0.0
 11
-57.856067439036003
 21
-197.40875281391831
 31
0.0
  0
LINE
  8
DETAIL
  6
CONTINUOUS
 62
     5
 10
-57.856067439036003
 20
-197.40875281391831
 30
0.0
 11
-57.897983237779499
 21
-197.42675746400221
 31
0.0
  0
LINE
  8
DETAIL
  6
CONTINUOUS
 62
     5
 10
-57.897983237779499
 20
-197.42675746400221
 30
0.0
 11
-57.897983237779499
 21
-197.42675746400221
 31
0.0
  0
LINE
  8
DETAIL
  6
CONTINUOUS
 62
     5
 10
-57.897983237779499
 20
-197.42675746400221
 30
0.0
 11
-57.939493965574457
 21
-197.44544906125941
 31
0.0
  0
LINE
  8
DETAIL
  6
CONTINUOUS
 62
     5
 10
-57.939493965574457
 20
-197.44544906125941
 30
0.0
 11
-57.980894732322668
 21
-197.46497796277359
 31
0.0
  0
LINE
  8
DETAIL
  6
CONTINUOUS
 62
     5
 10
-57.980894732322668
 20
-197.46497796277359
 30
0.0
 11
-57.980894732322668
 21
-197.46497796277359
 31
0.0
  0
LINE
  8
DETAIL
  6
CONTINUOUS
 62
     5
 10
-57.980894732322668
 20
-197.46497796277359
 30
0.0
 11
-58.022431899172261
 21
-197.48547407973351
 31
0.0
  0
LINE
  8
DETAIL
  6
CONTINUOUS
 62
     5
 10
-58.022431899172261
 20
-197.48547407973351
 30
0.0
 11
-58.063826287891523
 21
-197.50680853285769
 31
0.0
  0
LINE
  8
DETAIL
  6
CONTINUOUS
 62
     5
 10
-58.063826287891523
 20
-197.50680853285769
 30
0.0
 11
-58.063826287891523
 21
-197.50680853285769
 31
0.0
  0
LINE
  8
DETAIL
  6
CONTINUOUS
 62
     5
 10
-58.063826287891523
 20
-197.50680853285769
 30
0.0
 11
-58.104751554127233
 21
-197.5288262571905
 31
0.0
  0
LINE
  8
DETAIL
  6
CONTINUOUS
 62
     5
 10
-58.104751554127233
 20
-197.5288262571905
 30
0.0
 11
-58.145218228426067
 21
-197.5515262355531
 31
0.0
  0
LINE
  8
DETAIL
  6
CONTINUOUS
 62
     5
 10
-58.145218228426067
 20
-197.5515262355531
 30
0.0
 11
-58.145218228426067
 21
-197.5515262355531
 31
0.0
  0
LINE
  8
DETAIL
  6
CONTINUOUS
 62
     5
 10
-58.145218228426067
 20
-197.5515262355531
 30
0.0
 11
-58.185300662747068
 21
-197.57493726721
 31
0.0
  0
LINE
  8
DETAIL
  6
CONTINUOUS
 62
     5
 10
-58.185300662747068
 20
-197.57493726721
 30
0.0
 11
-58.22499161980295
 21
-197.59905336943291
 31
0.0
  0
LINE
  8
DETAIL
  6
CONTINUOUS
 62
     5
 10
-58.22499161980295
 20
-197.59905336943291
 30
0.0
 11
-58.22499161980295
 21
-197.59905336943291
 31
0.0
  0
LINE
  8
DETAIL
  6
CONTINUOUS
 62
     5
 10
-58.22499161980295
 20
-197.59905336943291
 30
0.0
 11
-58.26426083551587
 21
-197.6238561340439
 31
0.0
  0
LINE
  8
DETAIL
  6
CONTINUOUS
 62
     5
 10
-58.26426083551587
 20
-197.6238561340439
 30
0.0
 11
-58.303067527900573
 21
-197.64931223307039
 31
0.0
  0
LINE
  8
DETAIL
  6
CONTINUOUS
 62
     5
 10
-58.303067527900573
 20
-197.64931223307039
 30
0.0
 11
-58.303067527900573
 21
-197.64931223307039
 31
0.0
  0
LINE
  8
DETAIL
  6
CONTINUOUS
 62
     5
 10
-58.303067527900573
 20
-197.64931223307039
 30
0.0
 11
-58.341399200714477
 21
-197.675408223885
 31
0.0
  0
LINE
  8
DETAIL
  6
CONTINUOUS
 62
     5
 10
-58.341399200714477
 20
-197.675408223885
 30
0.0
 11
-58.37936701859644
 21
-197.70222512503929
 31
0.0
  0
LINE
  8
DETAIL
  6
CONTINUOUS
 62
     5
 10
-58.37936701859644
 20
-197.70222512503929
 30
0.0
 11
-58.37936701859644
 21
-197.70222512503929
 31
0.0
  0
LINE
  8
DETAIL
  6
CONTINUOUS
 62
     5
 10
-58.37936701859644
 20
-197.70222512503929
 30
0.0
 11
-58.41706198587417
 21
-197.72983035845311
 31
0.0
  0
LINE
  8
DETAIL
  6
CONTINUOUS
 62
     5
 10
-58.41706198587417
 20
-197.72983035845311
 30
0.0
 11
-58.454370804755399
 21
-197.758142498344
 31
0.0
  0
LINE
  8
DETAIL
  6
CONTINUOUS
 62
     5
 10
-58.454370804755399
 20
-197.758142498344
 30
0.0
 11
-58.454370804755399
 21
-197.758142498344
 31
0.0
  0
LINE
  8
DETAIL
  6
CONTINUOUS
 62
     5
 10
-58.454370804755399
 20
-197.758142498344
 30
0.0
 11
-58.491161008043044
 21
-197.78706436028381
 31
0.0
  0
LINE
  8
DETAIL
  6
CONTINUOUS
 62
     5
 10
-58.491161008043044
 20
-197.78706436028381
 30
0.0
 11
-58.527427753039767
 21
-197.81658457296689
 31
0.0
  0
LINE
  8
DETAIL
  6
CONTINUOUS
 62
     5
 10
-58.527427753039767
 20
-197.81658457296689
 30
0.0
 11
-58.527427753039767
 21
-197.81658457296689
 31
0.0
  0
LINE
  8
DETAIL
  6
CONTINUOUS
 62
     5
 10
-58.527427753039767
 20
-197.81658457296689
 30
0.0
 11
-58.56319503760551
 21
-197.8467132381767
 31
0.0
  0
LINE
  8
DETAIL
  6
CONTINUOUS
 62
     5
 10
-58.56319503760551
 20
-197.8467132381767
 30
0.0
 11
-58.598474597325087
 21
-197.87746053693411
 31
0.0
  0
LINE
  8
DETAIL
  6
CONTINUOUS
 62
     5
 10
-58.598474597325087
 20
-197.87746053693411
 30
0.0
 11
-58.598474597325087
 21
-197.87746053693411
 31
0.0
  0
LINE
  8
DETAIL
  6
CONTINUOUS
 62
     5
 10
-58.598474597325087
 20
-197.87746053693411
 30
0.0
 11
-58.633255458364147
 21
-197.90881513755099
 31
0.0
  0
LINE
  8
DETAIL
  6
CONTINUOUS
 62
     5
 10
-58.633255458364147
 20
-197.90881513755099
 30
0.0
 11
-58.667448071485524
 21
-197.9406795782694
 31
0.0
  0
LINE
  8
DETAIL
  6
CONTINUOUS
 62
     5
 10
-58.667448071485524
 20
-197.9406795782694
 30
0.0
 11
-58.667448071485524
 21
-197.9406795782694
 31
0.0
  0
LINE
  8
DETAIL
  6
CONTINUOUS
 62
     5
 10
-58.667448071485524
 20
-197.9406795782694
 30
0.0
 11
-58.701024884573599
 21
-197.973020975075
 31
0.0
  0
LINE
  8
DETAIL
  6
CONTINUOUS
 62
     5
 10
-58.701024884573599
 20
-197.973020975075
 30
0.0
 11
-58.734284909396592
 21
-198.0061508849993
 31
0.0
  0
LINE
  8
DETAIL
  6
CONTINUOUS
 62
     5
 10
-58.734284909396592
 20
-198.0061508849993
 30
0.0
 11
-58.734284909396592
 21
-198.0061508849993
 31
0.0
  0
LINE
  8
DETAIL
  6
CONTINUOUS
 62
     5
 10
-58.734284909396592
 20
-198.0061508849993
 30
0.0
 11
-58.76747714324938
 21
-198.04033315496949
 31
0.0
  0
LINE
  8
DETAIL
  6
CONTINUOUS
 62
     5
 10
-58.76747714324938
 20
-198.04033315496949
 30
0.0
 11
-58.800323961638242
 21
-198.0752963504502
 31
0.0
  0
LINE
  8
DETAIL
  6
CONTINUOUS
 62
     5
 10
-58.800323961638242
 20
-198.0752963504502
 30
0.0
 11
-58.800323961638242
 21
-198.0752963504502
 31
0.0
  0
LINE
  8
DETAIL
  6
CONTINUOUS
 62
     5
 10
-58.800323961638242
 20
-198.0752963504502
 30
0.0
 11
-58.832500800875103
 21
-198.11071733278649
 31
0.0
  0
LINE
  8
DETAIL
  6
CONTINUOUS
 62
     5
 10
-58.832500800875103
 20
-198.11071733278649
 30
0.0
 11
-58.864021962273
 21
-198.1466014283109
 31
0.0
  0
LINE
  8
DETAIL
  6
CONTINUOUS
 62
     5
 10
-58.864021962273
 20
-198.1466014283109
 30
0.0
 11
-58.864021962273
 21
-198.1466014283109
 31
0.0
  0
LINE
  8
DETAIL
  6
CONTINUOUS
 62
     5
 10
-58.864021962273
 20
-198.1466014283109
 30
0.0
 11
-58.894966762130032
 21
-198.1830184934314
 31
0.0
  0
LINE
  8
DETAIL
  6
CONTINUOUS
 62
     5
 10
-58.894966762130032
 20
-198.1830184934314
 30
0.0
 11
-58.925335711681328
 21
-198.21996803987719
 31
0.0
  0
LINE
  8
DETAIL
  6
CONTINUOUS
 62
     5
 10
-58.925335711681328
 20
-198.21996803987719
 30
0.0
 11
-58.925335711681328
 21
-198.21996803987719
 31
0.0
  0
LINE
  8
DETAIL
  6
CONTINUOUS
 62
     5
 10
-58.925335711681328
 20
-198.21996803987719
 30
0.0
 11
-58.955103709708062
 21
-198.25742022163971
 31
0.0
  0
LINE
  8
DETAIL
  6
CONTINUOUS
 62
     5
 10
-58.955103709708062
 20
-198.25742022163971
 30
0.0
 11
-58.984222010246867
 21
-198.29529810644831
 31
0.0
  0
LINE
  8
DETAIL
  6
CONTINUOUS
 62
     5
 10
-58.984222010246867
 20
-198.29529810644831
 30
0.0
 11
-58.984222010246867
 21
-198.29529810644831
 31
0.0
  0
LINE
  8
DETAIL
  6
CONTINUOUS
 62
     5
 10
-58.984222010246867
 20
-198.29529810644831
 30
0.0
 11
-59.012679302159093
 21
-198.33357766289879
 31
0.0
  0
LINE
  8
DETAIL
  6
CONTINUOUS
 62
     5
 10
-59.012679302159093
 20
-198.33357766289879
 30
0.0
 11
-59.040637658350533
 21
-198.37249354932001
 31
0.0
  0
LINE
  8
DETAIL
  6
CONTINUOUS
 62
     5
 10
-59.040637658350533
 20
-198.37249354932001
 30
0.0
 11
-59.040637658350533
 21
-198.37249354932001
 31
0.0
  0
LINE
  8
DETAIL
  6
CONTINUOUS
 62
     5
 10
-59.040637658350533
 20
-198.37249354932001
 30
0.0
 11
-59.068230406710427
 21
-198.4122424256235
 31
0.0
  0
LINE
  8
DETAIL
  6
CONTINUOUS
 62
     5
 10
-59.068230406710427
 20
-198.4122424256235
 30
0.0
 11
-59.095302511019781
 21
-198.45261026832949
 31
0.0
  0
LINE
  8
DETAIL
  6
CONTINUOUS
 62
     5
 10
-59.095302511019781
 20
-198.45261026832949
 30
0.0
 11
-59.095302511019781
 21
-198.45261026832949
 31
0.0
  0
LINE
  8
DETAIL
  6
CONTINUOUS
 62
     5
 10
-59.095302511019781
 20
-198.45261026832949
 30
0.0
 11
-59.12167394480457
 21
-198.49334434434749
 31
0.0
  0
LINE
  8
DETAIL
  6
CONTINUOUS
 62
     5
 10
-59.12167394480457
 20
-198.49334434434749
 30
0.0
 11
-59.147353084667877
 21
-198.534447765545
 31
0.0
  0
LINE
  8
DETAIL
  6
CONTINUOUS
 62
     5
 10
-59.147353084667877
 20
-198.534447765545
 30
0.0
 11
-59.147353084667877
 21
-198.534447765545
 31
0.0
  0
LINE
  8
DETAIL
  6
CONTINUOUS
 62
     5
 10
-59.147353084667877
 20
-198.534447765545
 30
0.0
 11
-59.172383622714278
 21
-198.57597224911291
 31
0.0
  0
LINE
  8
DETAIL
  6
CONTINUOUS
 62
     5
 10
-59.172383622714278
 20
-198.57597224911291
 30
0.0
 11
-59.196762109971132
 21
-198.61790808858689
 31
0.0
  0
LINE
  8
DETAIL
  6
CONTINUOUS
 62
     5
 10
-59.196762109971132
 20
-198.61790808858689
 30
0.0
 11
-59.196762109971132
 21
-198.61790808858689
 31
0.0
  0
LINE
  8
DETAIL
  6
CONTINUOUS
 62
     5
 10
-59.196762109971132
 20
-198.61790808858689
 30
0.0
 11
-59.220473352503632
 21
-198.66022768400549
 31
0.0
  0
LINE
  8
DETAIL
  6
CONTINUOUS
 62
     5
 10
-59.220473352503632
 20
-198.66022768400549
 30
0.0
 11
-59.243502317603998
 21
-198.7028932850782
 31
0.0
  0
LINE
  8
DETAIL
  6
CONTINUOUS
 62
     5
 10
-59.243502317603998
 20
-198.7028932850782
 30
0.0
 11
-59.243502317603998
 21
-198.7028932850782
 31
0.0
  0
LINE
  8
DETAIL
  6
CONTINUOUS
 62
     5
 10
-59.243502317603998
 20
-198.7028932850782
 30
0.0
 11
-59.265845636913127
 21
-198.74589011017551
 31
0.0
  0
LINE
  8
DETAIL
  6
CONTINUOUS
 62
     5
 10
-59.265845636913127
 20
-198.74589011017551
 30
0.0
 11
-59.287546438242323
 21
-198.78930540264051
 31
0.0
  0
LINE
  8
DETAIL
  6
CONTINUOUS
 62
     5
 10
-59.287546438242323
 20
-198.78930540264051
 30
0.0
 11
-59.287546438242323
 21
-198.78930540264051
 31
0.0
  0
LINE
  8
DETAIL
  6
CONTINUOUS
 62
     5
 10
-59.287546438242323
 20
-198.78930540264051
 30
0.0
 11
-59.308639514830702
 21
-198.8332107492339
 31
0.0
  0
LINE
  8
DETAIL
  6
CONTINUOUS
 62
     5
 10
-59.308639514830702
 20
-198.8332107492339
 30
0.0
 11
-59.329079825465669
 21
-198.87751308541161
 31
0.0
  0
LINE
  8
DETAIL
  6
CONTINUOUS
 62
     5
 10
-59.329079825465669
 20
-198.87751308541161
 30
0.0
 11
-59.329079825465669
 21
-198.87751308541161
 31
0.0
  0
LINE
  8
DETAIL
  6
CONTINUOUS
 62
     5
 10
-59.329079825465669
 20
-198.87751308541161
 30
0.0
 11
-59.348815372262827
 21
-198.92210289299001
 31
0.0
  0
LINE
  8
DETAIL
  6
CONTINUOUS
 62
     5
 10
-59.348815372262827
 20
-198.92210289299001
 30
0.0
 11
-59.367846165109313
 21
-198.96696949053239
 31
0.0
  0
LINE
  8
DETAIL
  6
CONTINUOUS
 62
     5
 10
-59.367846165109313
 20
-198.96696949053239
 30
0.0
 11
-59.367846165109313
 21
-198.96696949053239
 31
0.0
  0
LINE
  8
DETAIL
  6
CONTINUOUS
 62
     5
 10
-59.367846165109313
 20
-198.96696949053239
 30
0.0
 11
-59.386183341895048
 21
-199.01212580096049
 31
0.0
  0
LINE
  8
DETAIL
  6
CONTINUOUS
 62
     5
 10
-59.386183341895048
 20
-199.01212580096049
 30
0.0
 11
-59.403830544751138
 21
-199.0575803278945
 31
0.0
  0
LINE
  8
DETAIL
  6
CONTINUOUS
 62
     5
 10
-59.403830544751138
 20
-199.0575803278945
 30
0.0
 11
-59.403830544751138
 21
-199.0575803278945
 31
0.0
  0
LINE
  8
DETAIL
  6
CONTINUOUS
 62
     5
 10
-59.403830544751138
 20
-199.0575803278945
 30
0.0
 11
-59.420784035684392
 21
-199.1033201802444
 31
0.0
  0
LINE
  8
DETAIL
  6
CONTINUOUS
 62
     5
 10
-59.420784035684392
 20
-199.1033201802444
 30
0.0
 11
-59.437018051969517
 21
-199.1492513073905
 31
0.0
  0
LINE
  8
DETAIL
  6
CONTINUOUS
 62
     5
 10
-59.437018051969517
 20
-199.1492513073905
 30
0.0
 11
-59.437018051969517
 21
-199.1492513073905
 31
0.0
  0
LINE
  8
DETAIL
  6
CONTINUOUS
 62
     5
 10
-59.437018051969517
 20
-199.1492513073905
 30
0.0
 11
-59.452525223370692
 21
-199.1953416331859
 31
0.0
  0
LINE
  8
DETAIL
  6
CONTINUOUS
 62
     5
 10
-59.452525223370692
 20
-199.1953416331859
 30
0.0
 11
-59.467393774342327
 21
-199.24188813891271
 31
0.0
  0
LINE
  8
DETAIL
  6
CONTINUOUS
 62
     5
 10
-59.467393774342327
 20
-199.24188813891271
 30
0.0
 11
-59.467393774342327
 21
-199.24188813891271
 31
0.0
  0
LINE
  8
DETAIL
  6
CONTINUOUS
 62
     5
 10
-59.467393774342327
 20
-199.24188813891271
 30
0.0
 11
-59.481695647292327
 21
-199.2891404473811
 31
0.0
  0
LINE
  8
DETAIL
  6
CONTINUOUS
 62
     5
 10
-59.481695647292327
 20
-199.2891404473811
 30
0.0
 11
-59.495342061748033
 21
-199.33682969009089
 31
0.0
  0
LINE
  8
DETAIL
  6
CONTINUOUS
 62
     5
 10
-59.495342061748033
 20
-199.33682969009089
 30
0.0
 11
-59.495342061748033
 21
-199.33682969009089
 31
0.0
  0
LINE
  8
DETAIL
  6
CONTINUOUS
 62
     5
 10
-59.495342061748033
 20
-199.33682969009089
 30
0.0
 11
-59.508231138916472
 21
-199.38463946171251
 31
0.0
  0
LINE
  8
DETAIL
  6
CONTINUOUS
 62
     5
 10
-59.508231138916472
 20
-199.38463946171251
 30
0.0
 11
-59.520369329603
 21
-199.43258170091909
 31
0.0
  0
LINE
  8
DETAIL
  6
CONTINUOUS
 62
     5
 10
-59.520369329603
 20
-199.43258170091909
 30
0.0
 11
-59.520369329603
 21
-199.43258170091909
 31
0.0
  0
LINE
  8
DETAIL
  6
CONTINUOUS
 62
     5
 10
-59.520369329603
 20
-199.43258170091909
 30
0.0
 11
-59.531782777992703
 21
-199.48072750988339
 31
0.0
  0
LINE
  8
DETAIL
  6
CONTINUOUS
 62
     5
 10
-59.531782777992703
 20
-199.48072750988339
 30
0.0
 11
-59.54246807219306
 21
-199.52905630078209
 31
0.0
  0
LINE
  8
DETAIL
  6
CONTINUOUS
 62
     5
 10
-59.54246807219306
 20
-199.52905630078209
 30
0.0
 11
-59.54246807219306
 21
-199.52905630078209
 31
0.0
  0
LINE
  8
DETAIL
  6
CONTINUOUS
 62
     5
 10
-59.54246807219306
 20
-199.52905630078209
 30
0.0
 11
-59.552416884969261
 21
-199.57753416728849
 31
0.0
  0
LINE
  8
DETAIL
  6
CONTINUOUS
 62
     5
 10
-59.552416884969261
 20
-199.57753416728849
 30
0.0
 11
-59.561630783804503
 21
-199.62616561906421
 31
0.0
  0
LINE
  8
DETAIL
  6
CONTINUOUS
 62
     5
 10
-59.561630783804503
 20
-199.62616561906421
 30
0.0
 11
-59.561630783804503
 21
-199.62616561906421
 31
0.0
  0
LINE
  8
DETAIL
  6
CONTINUOUS
 62
     5
 10
-59.561630783804503
 20
-199.62616561906421
 30
0.0
 11
-59.57011130416322
 21
-199.67494927627931
 31
0.0
  0
LINE
  8
DETAIL
  6
CONTINUOUS
 62
     5
 10
-59.57011130416322
 20
-199.67494927627931
 30
0.0
 11
-59.577849958722709
 21
-199.72382178514971
 31
0.0
  0
LINE
  8
DETAIL
  6
CONTINUOUS
 62
     5
 10
-59.577849958722709
 20
-199.72382178514971
 30
0.0
 11
-59.577849958722709
 21
-199.72382178514971
 31
0.0
  0
LINE
  8
DETAIL
  6
CONTINUOUS
 62
     5
 10
-59.577849958722709
 20
-199.72382178514971
 30
0.0
 11
-59.584839813406688
 21
-199.7727262863128
 31
0.0
  0
LINE
  8
DETAIL
  6
CONTINUOUS
 62
     5
 10
-59.584839813406688
 20
-199.7727262863128
 30
0.0
 11
-59.5910901699026
 21
-199.8216938720476
 31
0.0
  0
LINE
  8
DETAIL
  6
CONTINUOUS
 62
     5
 10
-59.5910901699026
 20
-199.8216938720476
 30
0.0
 11
-59.5910901699026
 21
-199.8216938720476
 31
0.0
  0
LINE
  8
DETAIL
  6
CONTINUOUS
 62
     5
 10
-59.5910901699026
 20
-199.8216938720476
 30
0.0
 11
-59.596610121127917
 21
-199.87076362749181
 31
0.0
  0
LINE
  8
DETAIL
  6
CONTINUOUS
 62
     5
 10
-59.596610121127917
 20
-199.87076362749181
 30
0.0
 11
-59.60139168914111
 21
-199.9199186575739
 31
0.0
  0
LINE
  8
DETAIL
  6
CONTINUOUS
 62
     5
 10
-59.60139168914111
 20
-199.9199186575739
 30
0.0
 11
-59.60139168914111
 21
-199.9199186575739
 31
0.0
  0
LINE
  8
DETAIL
  6
CONTINUOUS
 62
     5
 10
-59.60139168914111
 20
-199.9199186575739
 30
0.0
 11
-59.60543034935472
 21
-199.9691319624832
 31
0.0
  0
LINE
  8
DETAIL
  6
CONTINUOUS
 62
     5
 10
-59.60543034935472
 20
-199.9691319624832
 30
0.0
 11
-59.608752461444958
 21
-200.0183921036579
 31
0.0
  0
LINE
  8
DETAIL
  6
CONTINUOUS
 62
     5
 10
-59.608752461444958
 20
-200.0183921036579
 30
0.0
 11
-59.608752461444958
 21
-200.0183921036579
 31
0.0
  0
LINE
  8
DETAIL
  6
CONTINUOUS
 62
     5
 10
-59.608752461444958
 20
-200.0183921036579
 30
0.0
 11
-59.611365489603941
 21
-200.06768996665079
 31
0.0
  0
LINE
  8
DETAIL
  6
CONTINUOUS
 62
     5
 10
-59.611365489603941
 20
-200.06768996665079
 30
0.0
 11
-59.613170431822248
 21
-200.11701017222791
 31
0.0
  0
LINE
  8
DETAIL
  6
CONTINUOUS
 62
     5
 10
-59.613170431822248
 20
-200.11701017222791
 30
0.0
 11
-59.613170431822248
 21
-200.11701017222791
 31
0.0
  0
LINE
  8
DETAIL
  6
CONTINUOUS
 62
     5
 10
-59.613170431822248
 20
-200.11701017222791
 30
0.0
 11
-59.614140414675603
 21
-200.16633814943279
 31
0.0
  0
LINE
  8
DETAIL
  6
CONTINUOUS
 62
     5
 10
-59.614140414675603
 20
-200.16633814943279
 30
0.0
 11
-59.61464354527925
 21
-200.2156688252131
 31
0.0
  0
LINE
  8
DETAIL
  6
CONTINUOUS
 62
     5
 10
-59.61464354527925
 20
-207.39884393063599
 30
0.0
 11
-59.615019077128643
 21
-207.43363524702511
 31
0.0
  0
LINE
  8
DETAIL
  6
CONTINUOUS
 62
     5
 10
-59.615019077128643
 20
-207.43363524702511
 30
0.0
 11
-59.615742986193709
 21
-207.46842433132741
 31
0.0
  0
LINE
  8
DETAIL
  6
CONTINUOUS
 62
     5
 10
-59.615742986193709
 20
-207.46842433132741
 30
0.0
 11
-59.615742986193709
 21
-207.46842433132741
 31
0.0
  0
LINE
  8
DETAIL
  6
CONTINUOUS
 62
     5
 10
-59.615742986193709
 20
-207.46842433132741
 30
0.0
 11
-59.617089961590857
 21
-207.50320718068031
 31
0.0
  0
LINE
  8
DETAIL
  6
CONTINUOUS
 62
     5
 10
-59.617089961590857
 20
-207.50320718068031
 30
0.0
 11
-59.61903994004615
 21
-207.53797270911591
 31
0.0
  0
LINE
  8
DETAIL
  6
CONTINUOUS
 62
     5
 10
-59.61903994004615
 20
-207.53797270911591
 30
0.0
 11
-59.61903994004615
 21
-207.53797270911591
 31
0.0
  0
LINE
  8
DETAIL
  6
CONTINUOUS
 62
     5
 10
-59.61903994004615
 20
-207.53797270911591
 30
0.0
 11
-59.621518976794498
 21
-207.57270887613021
 31
0.0
  0
LINE
  8
DETAIL
  6
CONTINUOUS
 62
     5
 10
-59.621518976794498
 20
-207.57270887613021
 30
0.0
 11
-59.624532353501309
 21
-207.6074069061716
 31
0.0
  0
LINE
  8
DETAIL
  6
CONTINUOUS
 62
     5
 10
-59.624532353501309
 20
-207.6074069061716
 30
0.0
 11
-59.624532353501309
 21
-207.6074069061716
 31
0.0
  0
LINE
  8
DETAIL
  6
CONTINUOUS
 62
     5
 10
-59.624532353501309
 20
-207.6074069061716
 30
0.0
 11
-59.628099620107612
 21
-207.64205734575069
 31
0.0
  0
LINE
  8
DETAIL
  6
CONTINUOUS
 62
     5
 10
-59.628099620107612
 20
-207.64205734575069
 30
0.0
 11
-59.632218173223919
 21
-207.67664476466359
 31
0.0
  0
LINE
  8
DETAIL
  6
CONTINUOUS
 62
     5
 10
-59.632218173223919
 20
-207.67664476466359
 30
0.0
 11
-59.632218173223919
 21
-207.67664476466359
 31
0.0
  0
LINE
  8
DETAIL
  6
CONTINUOUS
 62
     5
 10
-59.632218173223919
 20
-207.67664476466359
 30
0.0
 11
-59.636882217850598
 21
-207.71115739900429
 31
0.0
  0
LINE
  8
DETAIL
  6
CONTINUOUS
 62
     5
 10
-59.636882217850598
 20
-207.71115739900429
 30
0.0
 11
-59.642095345877351
 21
-207.7456041267609
 31
0.0
  0
LINE
  8
DETAIL
  6
CONTINUOUS
 62
     5
 10
-59.642095345877351
 20
-207.7456041267609
 30
0.0
 11
-59.642095345877351
 21
-207.7456041267609
 31
0.0
  0
LINE
  8
DETAIL
  6
CONTINUOUS
 62
     5
 10
-59.642095345877351
 20
-207.7456041267609
 30
0.0
 11
-59.647861628698593
 21
-207.7799909579509
 31
0.0
  0
LINE
  8
DETAIL
  6
CONTINUOUS
 62
     5
 10
-59.647861628698593
 20
-207.7799909579509
 30
0.0
 11
-59.654177668845477
 21
-207.81429178881049
 31
0.0
  0
LINE
  8
DETAIL
  6
CONTINUOUS
 62
     5
 10
-59.654177668845477
 20
-207.81429178881049
 30
0.0
 11
-59.654177668845477
 21
-207.81429178881049
 31
0.0
  0
LINE
  8
DETAIL
  6
CONTINUOUS
 62
     5
 10
-59.654177668845477
 20
-207.81429178881049
 30
0.0
 11
-59.661039427034673
 21
-207.8484787317478
 31
0.0
  0
LINE
  8
DETAIL
  6
CONTINUOUS
 62
     5
 10
-59.661039427034673
 20
-207.8484787317478
 30
0.0
 11
-59.668447765591743
 21
-207.88254887763711
 31
0.0
  0
LINE
  8
DETAIL
  6
CONTINUOUS
 62
     5
 10
-59.668447765591743
 20
-207.88254887763711
 30
0.0
 11
-59.668447765591743
 21
-207.88254887763711
 31
0.0
  0
LINE
  8
DETAIL
  6
CONTINUOUS
 62
     5
 10
-59.668447765591743
 20
-207.88254887763711
 30
0.0
 11
-59.676403024821873
 21
-207.9164998456082
 31
0.0
  0
LINE
  8
DETAIL
  6
CONTINUOUS
 62
     5
 10
-59.676403024821873
 20
-207.9164998456082
 30
0.0
 11
-59.684898555337902
 21
-207.9503063893379
 31
0.0
  0
LINE
  8
DETAIL
  6
CONTINUOUS
 62
     5
 10
-59.684898555337902
 20
-207.9503063893379
 30
0.0
 11
-59.684898555337902
 21
-207.9503063893379
 31
0.0
  0
LINE
  8
DETAIL
  6
CONTINUOUS
 62
     5
 10
-59.684898555337902
 20
-207.9503063893379
 30
0.0
 11
-59.693931724619688
 21
-207.98395416697679
 31
0.0
  0
LINE
  8
DETAIL
  6
CONTINUOUS
 62
     5
 10
-59.693931724619688
 20
-207.98395416697679
 30
0.0
 11
-59.703522957304813
 21
-208.01749532001179
 31
0.0
  0
LINE
  8
DETAIL
  6
CONTINUOUS
 62
     5
 10
-59.703522957304813
 20
-208.01749532001179
 30
0.0
 11
-59.703522957304813
 21
-208.01749532001179
 31
0.0
  0
LINE
  8
DETAIL
  6
CONTINUOUS
 62
     5
 10
-59.703522957304813
 20
-208.01749532001179
 30
0.0
 11
-59.713677132584962
 21
-208.05093784378991
 31
0.0
  0
LINE
  8
DETAIL
  6
CONTINUOUS
 62
     5
 10
-59.713677132584962
 20
-208.05093784378991
 30
0.0
 11
-59.724313890714257
 21
-208.08404666575629
 31
0.0
  0
LINE
  8
DETAIL
  6
CONTINUOUS
 62
     5
 10
-59.724313890714257
 20
-208.08404666575629
 30
0.0
 11
-59.724313890714257
 21
-208.08404666575629
 31
0.0
  0
LINE
  8
DETAIL
  6
CONTINUOUS
 62
     5
 10
-59.724313890714257
 20
-208.08404666575629
 30
0.0
 11
-59.735363152177342
 21
-208.1166220319584
 31
0.0
  0
LINE
  8
DETAIL
  6
CONTINUOUS
 62
     5
 10
-59.735363152177342
 20
-208.1166220319584
 30
0.0
 11
-59.746881197334908
 21
-208.14884853075691
 31
0.0
  0
LINE
  8
DETAIL
  6
CONTINUOUS
 62
     5
 10
-59.746881197334908
 20
-208.14884853075691
 30
0.0
 11
-59.746881197334908
 21
-208.14884853075691
 31
0.0
  0
LINE
  8
DETAIL
  6
CONTINUOUS
 62
     5
 10
-59.746881197334908
 20
-208.14884853075691
 30
0.0
 11
-59.758937287559093
 21
-208.18094614974629
 31
0.0
  0
LINE
  8
DETAIL
  6
CONTINUOUS
 62
     5
 10
-59.758937287559093
 20
-208.18094614974629
 30
0.0
 11
-59.771526248410282
 21
-208.2128921311411
 31
0.0
  0
LINE
  8
DETAIL
  6
CONTINUOUS
 62
     5
 10
-59.771526248410282
 20
-208.2128921311411
 30
0.0
 11
-59.771526248410282
 21
-208.2128921311411
 31
0.0
  0
LINE
  8
DETAIL
  6
CONTINUOUS
 62
     5
 10
-59.771526248410282
 20
-208.2128921311411
 30
0.0
 11
-59.784627777098649
 21
-208.244616541498
 31
0.0
  0
LINE
  8
DETAIL
  6
CONTINUOUS
 62
     5
 10
-59.784627777098649
 20
-208.244616541498
 30
0.0
 11
-59.798235493254197
 21
-208.27610349011309
 31
0.0
  0
LINE
  8
DETAIL
  6
CONTINUOUS
 62
     5
 10
-59.798235493254197
 20
-208.27610349011309
 30
0.0
 11
-59.798235493254197
 21
-208.27610349011309
 31
0.0
  0
LINE
  8
DETAIL
  6
CONTINUOUS
 62
     5
 10
-59.798235493254197
 20
-208.27610349011309
 30
0.0
 11
-59.81235118364657
 21
-208.3073572405716
 31
0.0
  0
LINE
  8
DETAIL
  6
CONTINUOUS
 62
     5
 10
-59.81235118364657
 20
-208.3073572405716
 30
0.0
 11
-59.826995381182307
 21
-208.3384086308771
 31
0.0
  0
LINE
  8
DETAIL
  6
CONTINUOUS
 62
     5
 10
-59.826995381182307
 20
-208.3384086308771
 30
0.0
 11
-59.826995381182307
 21
-208.3384086308771
 31
0.0
  0
LINE
  8
DETAIL
  6
CONTINUOUS
 62
     5
 10
-59.826995381182307
 20
-208.3384086308771
 30
0.0
 11
-59.842171078559659
 21
-208.36925505753391
 31
0.0
  0
LINE
  8
DETAIL
  6
CONTINUOUS
 62
     5
 10
-59.842171078559659
 20
-208.36925505753391
 30
0.0
 11
-59.857792361507563
 21
-208.39973357663769
 31
0.0
  0
LINE
  8
DETAIL
  6
CONTINUOUS
 62
     5
 10
-59.857792361507563
 20
-208.39973357663769
 30
0.0
 11
-59.857792361507563
 21
-208.39973357663769
 31
0.0
  0
LINE
  8
DETAIL
  6
CONTINUOUS
 62
     5
 10
-59.857792361507563
 20
-208.39973357663769
 30
0.0
 11
-59.873785120531011
 21
-208.42970649443339
 31
0.0
  0
LINE
  8
DETAIL
  6
CONTINUOUS
 62
     5
 10
-59.873785120531011
 20
-208.42970649443339
 30
0.0
 11
-59.890211372206068
 21
-208.4592974581802
 31
0.0
  0
LINE
  8
DETAIL
  6
CONTINUOUS
 62
     5
 10
-59.890211372206068
 20
-208.4592974581802
 30
0.0
 11
-59.890211372206068
 21
-208.4592974581802
 31
0.0
  0
LINE
  8
DETAIL
  6
CONTINUOUS
 62
     5
 10
-59.890211372206068
 20
-208.4592974581802
 30
0.0
 11
-59.907146526241377
 21
-208.4886538613724
 31
0.0
  0
LINE
  8
DETAIL
  6
CONTINUOUS
 62
     5
 10
-59.907146526241377
 20
-208.4886538613724
 30
0.0
 11
-59.924583438798891
 21
-208.51775674143221
 31
0.0
  0
LINE
  8
DETAIL
  6
CONTINUOUS
 62
     5
 10
-59.924583438798891
 20
-208.51775674143221
 30
0.0
 11
-59.924583438798891
 21
-208.51775674143221
 31
0.0
  0
LINE
  8
DETAIL
  6
CONTINUOUS
 62
     5
 10
-59.924583438798891
 20
-208.51775674143221
 30
0.0
 11
-59.942498607476409
 21
-208.54655510806751
 31
0.0
  0
LINE
  8
DETAIL
  6
CONTINUOUS
 62
     5
 10
-59.942498607476409
 20
-208.54655510806751
 30
0.0
 11
-59.960885649158627
 21
-208.5750362162058
 31
0.0
  0
LINE
  8
DETAIL
  6
CONTINUOUS
 62
     5
 10
-59.960885649158627
 20
-208.5750362162058
 30
0.0
 11
-59.960885649158627
 21
-208.5750362162058
 31
0.0
  0
LINE
  8
DETAIL
  6
CONTINUOUS
 62
     5
 10
-59.960885649158627
 20
-208.5750362162058
 30
0.0
 11
-59.979745979651852
 21
-208.60320022587749
 31
0.0
  0
LINE
  8
DETAIL
  6
CONTINUOUS
 62
     5
 10
-59.979745979651852
 20
-208.60320022587749
 30
0.0
 11
-59.999095091157407
 21
-208.63106067231399
 31
0.0
  0
LINE
  8
DETAIL
  6
CONTINUOUS
 62
     5
 10
-59.999095091157407
 20
-208.63106067231399
 30
0.0
 11
-59.999095091157407
 21
-208.63106067231399
 31
0.0
  0
LINE
  8
DETAIL
  6
CONTINUOUS
 62
     5
 10
-59.999095091157407
 20
-208.63106067231399
 30
0.0
 11
-60.018933638759343
 21
-208.65861149804149
 31
0.0
  0
LINE
  8
DETAIL
  6
CONTINUOUS
 62
     5
 10
-60.018933638759343
 20
-208.65861149804149
 30
0.0
 11
-60.039188852669213
 21
-208.68575489956871
 31
0.0
  0
LINE
  8
DETAIL
  6
CONTINUOUS
 62
     5
 10
-60.039188852669213
 20
-208.68575489956871
 30
0.0
 11
-60.039188852669213
 21
-208.68575489956871
 31
0.0
  0
LINE
  8
DETAIL
  6
CONTINUOUS
 62
     5
 10
-60.039188852669213
 20
-208.68575489956871
 30
0.0
 11
-60.059797806543429
 21
-208.7124076911042
 31
0.0
  0
LINE
  8
DETAIL
  6
CONTINUOUS
 62
     5
 10
-60.059797806543429
 20
-208.7124076911042
 30
0.0
 11
-60.08081037268812
 21
-208.7386369036777
 31
0.0
  0
LINE
  8
DETAIL
  6
CONTINUOUS
 62
     5
 10
-60.08081037268812
 20
-208.7386369036777
 30
0.0
 11
-60.08081037268812
 21
-208.7386369036777
 31
0.0
  0
LINE
  8
DETAIL
  6
CONTINUOUS
 62
     5
 10
-60.08081037268812
 20
-208.7386369036777
 30
0.0
 11
-60.102288232198589
 21
-208.7645239366515
 31
0.0
  0
LINE
  8
DETAIL
  6
CONTINUOUS
 62
     5
 10
-60.102288232198589
 20
-208.7645239366515
 30
0.0
 11
-60.124227502676597
 21
-208.79005744590319
 31
0.0
  0
LINE
  8
DETAIL
  6
CONTINUOUS
 62
     5
 10
-60.124227502676597
 20
-208.79005744590319
 30
0.0
 11
-60.124227502676597
 21
-208.79005744590319
 31
0.0
  0
LINE
  8
DETAIL
  6
CONTINUOUS
 62
     5
 10
-60.124227502676597
 20
-208.79005744590319
 30
0.0
 11
-60.146607149623833
 21
-208.81520453886441
 31
0.0
  0
LINE
  8
DETAIL
  6
CONTINUOUS
 62
     5
 10
-60.146607149623833
 20
-208.81520453886441
 30
0.0
 11
-60.169403093636902
 21
-208.8399388726713
 31
0.0
  0
LINE
  8
DETAIL
  6
CONTINUOUS
 62
     5
 10
-60.169403093636902
 20
-208.8399388726713
 30
0.0
 11
-60.169403093636902
 21
-208.8399388726713
 31
0.0
  0
LINE
  8
DETAIL
  6
CONTINUOUS
 62
     5
 10
-60.169403093636902
 20
-208.8399388726713
 30
0.0
 11
-60.192609929865739
 21
-208.8642523780519
 31
0.0
  0
LINE
  8
DETAIL
  6
CONTINUOUS
 62
     5
 10
-60.192609929865739
 20
-208.8642523780519
 30
0.0
 11
-60.216299996570342
 21
-208.8882035304083
 31
0.0
  0
LINE
  8
DETAIL
  6
CONTINUOUS
 62
     5
 10
-60.216299996570342
 20
-208.8882035304083
 30
0.0
 11
-60.216299996570342
 21
-208.8882035304083
 31
0.0
  0
LINE
  8
DETAIL
  6
CONTINUOUS
 62
     5
 10
-60.216299996570342
 20
-208.8882035304083
 30
0.0
 11
-60.240488085902598
 21
-208.91179925921111
 31
0.0
  0
LINE
  8
DETAIL
  6
CONTINUOUS
 62
     5
 10
-60.240488085902598
 20
-208.91179925921111
 30
0.0
 11
-60.264881062477343
 21
-208.93477376553949
 31
0.0
  0
LINE
  8
DETAIL
  6
CONTINUOUS
 62
     5
 10
-60.264881062477343
 20
-208.93477376553949
 30
0.0
 11
-60.264881062477343
 21
-208.93477376553949
 31
0.0
  0
LINE
  8
DETAIL
  6
CONTINUOUS
 62
     5
 10
-60.264881062477343
 20
-208.93477376553949
 30
0.0
 11
-60.289227941422268
 21
-208.95690372042699
 31
0.0
  0
LINE
  8
DETAIL
  6
CONTINUOUS
 62
     5
 10
-60.289227941422268
 20
-208.95690372042699
 30
0.0
 11
-60.313754267463082
 21
-208.97840840311949
 31
0.0
  0
LINE
  8
DETAIL
  6
CONTINUOUS
 62
     5
 10
-60.313754267463082
 20
-208.97840840311949
 30
0.0
 11
-60.313754267463082
 21
-208.97840840311949
 31
0.0
  0
LINE
  8
DETAIL
  6
CONTINUOUS
 62
     5
 10
-60.313754267463082
 20
-208.97840840311949
 30
0.0
 11
-60.338731346414079
 21
-208.99954665615221
 31
0.0
  0
LINE
  8
DETAIL
  6
CONTINUOUS
 62
     5
 10
-60.338731346414079
 20
-208.99954665615221
 30
0.0
 11
-60.3641369988527
 21
-209.0202929670169
 31
0.0
  0
LINE
  8
DETAIL
  6
CONTINUOUS
 62
     5
 10
-60.3641369988527
 20
-209.0202929670169
 30
0.0
 11
-60.3641369988527
 21
-209.0202929670169
 31
0.0
  0
LINE
  8
DETAIL
  6
CONTINUOUS
 62
     5
 10
-60.3641369988527
 20
-209.0202929670169
 30
0.0
 11
-60.389891434848323
 21
-209.04056741234481
 31
0.0
  0
LINE
  8
DETAIL
  6
CONTINUOUS
 62
     5
 10
-60.389891434848323
 20
-209.04056741234481
 30
0.0
 11
-60.415977907681281
 21
-209.0603567803843
 31
0.0
  0
LINE
  8
DETAIL
  6
CONTINUOUS
 62
     5
 10
-60.415977907681281
 20
-209.0603567803843
 30
0.0
 11
-60.415977907681281
 21
-209.0603567803843
 31
0.0
  0
LINE
  8
DETAIL
  6
CONTINUOUS
 62
     5
 10
-60.415977907681281
 20
-209.0603567803843
 30
0.0
 11
-60.442405759533358
 21
-209.07966891443229
 31
0.0
  0
LINE
  8
DETAIL
  6
CONTINUOUS
 62
     5
 10
-60.442405759533358
 20
-209.07966891443229
 30
0.0
 11
-60.469225644986182
 21
-209.0985291663734
 31
0.0
  0
LINE
  8
DETAIL
  6
CONTINUOUS
 62
     5
 10
-60.469225644986182
 20
-209.0985291663734
 30
0.0
 11
-60.469225644986182
 21
-209.0985291663734
 31
0.0
  0
LINE
  8
DETAIL
  6
CONTINUOUS
 62
     5
 10
-60.469225644986182
 20
-209.0985291663734
 30
0.0
 11
-60.496441473518637
 21
-209.11693307874711
 31
0.0
  0
LINE
  8
DETAIL
  6
CONTINUOUS
 62
     5
 10
-60.496441473518637
 20
-209.11693307874711
 30
0.0
 11
-60.523828861802492
 21
-209.134739448136
 31
0.0
  0
LINE
  8
DETAIL
  6
CONTINUOUS
 62
     5
 10
-60.523828861802492
 20
-209.134739448136
 30
0.0
 11
-60.523828861802492
 21
-209.134739448136
 31
0.0
  0
LINE
  8
DETAIL
  6
CONTINUOUS
 62
     5
 10
-60.523828861802492
 20
-209.134739448136
 30
0.0
 11
-60.551196578469899
 21
-209.15183074047641
 31
0.0
  0
LINE
  8
DETAIL
  6
CONTINUOUS
 62
     5
 10
-60.551196578469899
 20
-209.15183074047641
 30
0.0
 11
-60.578714292809757
 21
-209.16832084508351
 31
0.0
  0
LINE
  8
DETAIL
  6
CONTINUOUS
 62
     5
 10
-60.578714292809757
 20
-209.16832084508351
 30
0.0
 11
-60.578714292809757
 21
-209.16832084508351
 31
0.0
  0
LINE
  8
DETAIL
  6
CONTINUOUS
 62
     5
 10
-60.578714292809757
 20
-209.16832084508351
 30
0.0
 11
-60.606585469458878
 21
-209.18434376440831
 31
0.0
  0
LINE
  8
DETAIL
  6
CONTINUOUS
 62
     5
 10
-60.606585469458878
 20
-209.18434376440831
 30
0.0
 11
-60.6347878537822
 21
-209.19988253007261
 31
0.0
  0
LINE
  8
DETAIL
  6
CONTINUOUS
 62
     5
 10
-60.6347878537822
 20
-209.19988253007261
 30
0.0
 11
-60.6347878537822
 21
-209.19988253007261
 31
0.0
  0
LINE
  8
DETAIL
  6
CONTINUOUS
 62
     5
 10
-60.6347878537822
 20
-209.19988253007261
 30
0.0
 11
-60.663256336697032
 21
-209.21489195996651
 31
0.0
  0
LINE
  8
DETAIL
  6
CONTINUOUS
 62
     5
 10
-60.663256336697032
 20
-209.21489195996651
 30
0.0
 11
-60.691980110608711
 21
-209.2293649878853
 31
0.0
  0
LINE
  8
DETAIL
  6
CONTINUOUS
 62
     5
 10
-60.691980110608711
 20
-209.2293649878853
 30
0.0
 11
-60.691980110608711
 21
-209.2293649878853
 31
0.0
  0
LINE
  8
DETAIL
  6
CONTINUOUS
 62
     5
 10
-60.691980110608711
 20
-209.2293649878853
 30
0.0
 11
-60.720964071625083
 21
-209.2433037034028
 31
0.0
  0
LINE
  8
DETAIL
  6
CONTINUOUS
 62
     5
 10
-60.720964071625083
 20
-209.2433037034028
 30
0.0
 11
-60.750221629180487
 21
-209.2567087033045
 31
0.0
  0
LINE
  8
DETAIL
  6
CONTINUOUS
 62
     5
 10
-60.750221629180487
 20
-209.2567087033045
 30
0.0
 11
-60.750221629180487
 21
-209.2567087033045
 31
0.0
  0
LINE
  8
DETAIL
  6
CONTINUOUS
 62
     5
 10
-60.750221629180487
 20
-209.2567087033045
 30
0.0
 11
-60.779746232343768
 21
-209.26957217499111
 31
0.0
  0
LINE
  8
DETAIL
  6
CONTINUOUS
 62
     5
 10
-60.779746232343768
 20
-209.26957217499111
 30
0.0
 11
-60.80944297538781
 21
-209.28185416111191
 31
0.0
  0
LINE
  8
DETAIL
  6
CONTINUOUS
 62
     5
 10
-60.80944297538781
 20
-209.28185416111191
 30
0.0
 11
-60.80944297538781
 21
-209.28185416111191
 31
0.0
  0
LINE
  8
DETAIL
  6
CONTINUOUS
 62
     5
 10
-60.80944297538781
 20
-209.28185416111191
 30
0.0
 11
-60.839230426601723
 21
-209.29352143170209
 31
0.0
  0
LINE
  8
DETAIL
  6
CONTINUOUS
 62
     5
 10
-60.839230426601723
 20
-209.29352143170209
 30
0.0
 11
-60.869169405129469
 21
-209.30459981109709
 31
0.0
  0
LINE
  8
DETAIL
  6
CONTINUOUS
 62
     5
 10
-60.869169405129469
 20
-209.30459981109709
 30
0.0
 11
-60.869169405129469
 21
-209.30459981109709
 31
0.0
  0
LINE
  8
DETAIL
  6
CONTINUOUS
 62
     5
 10
-60.869169405129469
 20
-209.30459981109709
 30
0.0
 11
-60.899334546315913
 21
-209.3151203358124
 31
0.0
  0
LINE
  8
DETAIL
  6
CONTINUOUS
 62
     5
 10
-60.899334546315913
 20
-209.3151203358124
 30
0.0
 11
-60.929713499450372
 21
-209.3250758367891
 31
0.0
  0
LINE
  8
DETAIL
  6
CONTINUOUS
 62
     5
 10
-60.929713499450372
 20
-209.3250758367891
 30
0.0
 11
-60.929713499450372
 21
-209.3250758367891
 31
0.0
  0
LINE
  8
DETAIL
  6
CONTINUOUS
 62
     5
 10
-60.929713499450372
 20
-209.3250758367891
 30
0.0
 11
-60.96027443719322
 21
-209.33445153568039
 31
0.0
  0
LINE
  8
DETAIL
  6
CONTINUOUS
 62
     5
 10
-60.96027443719322
 20
-209.33445153568039
 30
0.0
 11
-60.990994611746828
 21
-209.34324042256111
 31
0.0
  0
LINE
  8
DETAIL
  6
CONTINUOUS
 62
     5
 10
-60.990994611746828
 20
-209.34324042256111
 30
0.0
 11
-60.990994611746828
 21
-209.34324042256111
 31
0.0
  0
LINE
  8
DETAIL
  6
CONTINUOUS
 62
     5
 10
-60.990994611746828
 20
-209.34324042256111
 30
0.0
 11
-61.021866212171062
 21
-209.35143921258361
 31
0.0
  0
LINE
  8
DETAIL
  6
CONTINUOUS
 62
     5
 10
-61.021866212171062
 20
-209.35143921258361
 30
0.0
 11
-61.052932095411961
 21
-209.35905175278631
 31
0.0
  0
LINE
  8
DETAIL
  6
CONTINUOUS
 62
     5
 10
-61.052932095411961
 20
-209.35905175278631
 30
0.0
 11
-61.052932095411961
 21
-209.35905175278631
 31
0.0
  0
LINE
  8
DETAIL
  6
CONTINUOUS
 62
     5
 10
-61.052932095411961
 20
-209.35905175278631
 30
0.0
 11
-61.084194847614981
 21
-209.3660745991871
 31
0.0
  0
LINE
  8
DETAIL
  6
CONTINUOUS
 62
     5
 10
-61.084194847614981
 20
-209.3660745991871
 30
0.0
 11
-61.115445303841618
 21
-209.37246801183809
 31
0.0
  0
LINE
  8
DETAIL
  6
CONTINUOUS
 62
     5
 10
-61.115445303841618
 20
-209.37246801183809
 30
0.0
 11
-61.115445303841618
 21
-209.37246801183809
 31
0.0
  0
LINE
  8
DETAIL
  6
CONTINUOUS
 62
     5
 10
-61.115445303841618
 20
-209.37246801183809
 30
0.0
 11
-61.146504467619707
 21
-209.378200388816
 31
0.0
  0
LINE
  8
DETAIL
  6
CONTINUOUS
 62
     5
 10
-61.146504467619707
 20
-209.378200388816
 30
0.0
 11
-61.177525767416682
 21
-209.38330897625801
 31
0.0
  0
LINE
  8
DETAIL
  6
CONTINUOUS
 62
     5
 10
-61.177525767416682
 20
-209.38330897625801
 30
0.0
 11
-61.177525767416682
 21
-209.38330897625801
 31
0.0
  0
LINE
  8
DETAIL
  6
CONTINUOUS
 62
     5
 10
-61.177525767416682
 20
-209.38330897625801
 30
0.0
 11
-61.208692835905822
 21
-209.38783515859839
 31
0.0
  0
LINE
  8
DETAIL
  6
CONTINUOUS
 62
     5
 10
-61.208692835905822
 20
-209.38783515859839
 30
0.0
 11
-61.239977697636277
 21
-209.3917680253968
 31
0.0
  0
LINE
  8
DETAIL
  6
CONTINUOUS
 62
     5
 10
-61.239977697636277
 20
-209.3917680253968
 30
0.0
 11
-61.239977697636277
 21
-209.3917680253968
 31
0.0
  0
LINE
  8
DETAIL
  6
CONTINUOUS
 62
     5
 10
-61.239977697636277
 20
-209.3917680253968
 30
0.0
 11
-61.271313791773991
 21
-209.39509255061051
 31
0.0
  0
LINE
  8
DETAIL
  6
CONTINUOUS
 62
     5
 10
-61.271313791773991
 20
-209.39509255061051
 30
0.0
 11
-61.302691824081187
 21
-209.3978295406597
 31
0.0
  0
LINE
  8
DETAIL
  6
CONTINUOUS
 62
     5
 10
-61.302691824081187
 20
-209.3978295406597
 30
0.0
 11
-61.302691824081187
 21
-209.3978295406597
 31
0.0
  0
LINE
  8
DETAIL
  6
CONTINUOUS
 62
     5
 10
-61.302691824081187
 20
-209.3978295406597
 30
0.0
 11
-61.334112452404497
 21
-209.39998600133629
 31
0.0
  0
LINE
  8
DETAIL
  6
CONTINUOUS
 62
     5
 10
-61.334112452404497
 20
-209.39998600133629
 30
0.0
 11
-61.365558876330397
 21
-209.40147790345321
 31
0.0
  0
LINE
  8
DETAIL
  6
CONTINUOUS
 62
     5
 10
-61.365558876330397
 20
-209.40147790345321
 30
0.0
 11
-61.365558876330397
 21
-209.40147790345321
 31
0.0
  0
LINE
  8
DETAIL
  6
CONTINUOUS
 62
     5
 10
-61.365558876330397
 20
-209.40147790345321
 30
0.0
 11
-61.397013072491973
 21
-209.402280535941
 31
0.0
  0
LINE
  8
DETAIL
  6
CONTINUOUS
 62
     5
 10
-61.397013072491973
 20
-209.402280535941
 30
0.0
 11
-61.428469583965118
 21
-209.40269749518311
 31
0.0
  0
LINE
  8
DETAIL
  6
CONTINUOUS
 62
     5
 10
61.428469583965118
 20
-209.40269749518311
 30
0.0
 11
61.397013279510247
 21
-209.40228053700699
 31
0.0
  0
LINE
  8
DETAIL
  6
CONTINUOUS
 62
     5
 10
61.397013279510247
 20
-209.40228053700699
 30
0.0
 11
61.36555932086776
 21
-209.40147791739409
 31
0.0
  0
LINE
  8
DETAIL
  6
CONTINUOUS
 62
     5
 10
61.36555932086776
 20
-209.40147791739409
 30
0.0
 11
61.36555932086776
 21
-209.40147791739409
 31
0.0
  0
LINE
  8
DETAIL
  6
CONTINUOUS
 62
     5
 10
61.36555932086776
 20
-209.40147791739409
 30
0.0
 11
61.334113163863996
 21
-209.3999860438702
 31
0.0
  0
LINE
  8
DETAIL
  6
CONTINUOUS
 62
     5
 10
61.334113163863996
 20
-209.3999860438702
 30
0.0
 11
61.302692704370664
 21
-209.3978295998098
 31
0.0
  0
LINE
  8
DETAIL
  6
CONTINUOUS
 62
     5
 10
61.302692704370664
 20
-209.3978295998098
 30
0.0
 11
61.302692704370664
 21
-209.3978295998098
 31
0.0
  0
LINE
  8
DETAIL
  6
CONTINUOUS
 62
     5
 10
61.302692704370664
 20
-209.3978295998098
 30
0.0
 11
61.271314712368167
 21
-209.39509260713399
 31
0.0
  0
LINE
  8
DETAIL
  6
CONTINUOUS
 62
     5
 10
61.271314712368167
 20
-209.39509260713399
 30
0.0
 11
61.239979014219898
 21
-209.391768166102
 31
0.0
  0
LINE
  8
DETAIL
  6
CONTINUOUS
 62
     5
 10
61.239979014219898
 20
-209.391768166102
 30
0.0
 11
61.239979014219898
 21
-209.391768166102
 31
0.0
  0
LINE
  8
DETAIL
  6
CONTINUOUS
 62
     5
 10
61.239979014219898
 20
-209.391768166102
 30
0.0
 11
61.208695033988988
 21
-209.38783549925861
 31
0.0
  0
LINE
  8
DETAIL
  6
CONTINUOUS
 62
     5
 10
61.208695033988988
 20
-209.38783549925861
 30
0.0
 11
61.17752753016066
 21
-209.3833092399442
 31
0.0
  0
LINE
  8
DETAIL
  6
CONTINUOUS
 62
     5
 10
61.17752753016066
 20
-209.3833092399442
 30
0.0
 11
61.17752753016066
 21
-209.3833092399442
 31
0.0
  0
LINE
  8
DETAIL
  6
CONTINUOUS
 62
     5
 10
61.17752753016066
 20
-209.3833092399442
 30
0.0
 11
61.146503996309548
 21
-209.3782001938188
 31
0.0
  0
LINE
  8
DETAIL
  6
CONTINUOUS
 62
     5
 10
61.146503996309548
 20
-209.3782001938188
 30
0.0
 11
61.115447531939942
 21
-209.3724684450093
 31
0.0
  0
LINE
  8
DETAIL
  6
CONTINUOUS
 62
     5
 10
61.115447531939942
 20
-209.3724684450093
 30
0.0
 11
61.115447531939942
 21
-209.3724684450093
 31
0.0
  0
LINE
  8
DETAIL
  6
CONTINUOUS
 62
     5
 10
61.115447531939942
 20
-209.3724684450093
 30
0.0
 11
61.084210379562137
 21
-209.3660780496065
 31
0.0
  0
LINE
  8
DETAIL
  6
CONTINUOUS
 62
     5
 10
61.084210379562137
 20
-209.3660780496065
 30
0.0
 11
61.052965747767303
 21
-209.35905967308159
 31
0.0
  0
LINE
  8
DETAIL
  6
CONTINUOUS
 62
     5
 10
61.052965747767303
 20
-209.35905967308159
 30
0.0
 11
61.052965747767303
 21
-209.35905967308159
 31
0.0
  0
LINE
  8
DETAIL
  6
CONTINUOUS
 62
     5
 10
61.052965747767303
 20
-209.35905967308159
 30
0.0
 11
61.02191599219168
 21
-209.35145188134999
 31
0.0
  0
LINE
  8
DETAIL
  6
CONTINUOUS
 62
     5
 10
61.02191599219168
 20
-209.35145188134999
 30
0.0
 11
60.991059090553343
 21
-209.34325823271831
 31
0.0
  0
LINE
  8
DETAIL
  6
CONTINUOUS
 62
     5
 10
60.991059090553343
 20
-209.34325823271831
 30
0.0
 11
60.991059090553343
 21
-209.34325823271831
 31
0.0
  0
LINE
  8
DETAIL
  6
CONTINUOUS
 62
     5
 10
60.991059090553343
 20
-209.34325823271831
 30
0.0
 11
60.960354012294367
 21
-209.33447519329351
 31
0.0
  0
LINE
  8
DETAIL
  6
CONTINUOUS
 62
     5
 10
60.960354012294367
 20
-209.33447519329351
 30
0.0
 11
60.929808071652587
 21
-209.3251058679858
 31
0.0
  0
LINE
  8
DETAIL
  6
CONTINUOUS
 62
     5
 10
60.929808071652587
 20
-209.3251058679858
 30
0.0
 11
60.929808071652587
 21
-209.3251058679858
 31
0.0
  0
LINE
  8
DETAIL
  6
CONTINUOUS
 62
     5
 10
60.929808071652587
 20
-209.3251058679858
 30
0.0
 11
60.899443418747524
 21
-209.3151571345044
 31
0.0
  0
LINE
  8
DETAIL
  6
CONTINUOUS
 62
     5
 10
60.899443418747524
 20
-209.3151571345044
 30
0.0
 11
60.869293202420977
 21
-209.3046443229492
 31
0.0
  0
LINE
  8
DETAIL
  6
CONTINUOUS
 62
     5
 10
60.869293202420977
 20
-209.3046443229492
 30
0.0
 11
60.869293202420977
 21
-209.3046443229492
 31
0.0
  0
LINE
  8
DETAIL
  6
CONTINUOUS
 62
     5
 10
60.869293202420977
 20
-209.3046443229492
 30
0.0
 11
60.839370236274142
 21
-209.29357476442681
 31
0.0
  0
LINE
  8
DETAIL
  6
CONTINUOUS
 62
     5
 10
60.839370236274142
 20
-209.29357476442681
 30
0.0
 11
60.809594994214422
 21
-209.28191534167499
 31
0.0
  0
LINE
  8
DETAIL
  6
CONTINUOUS
 62
     5
 10
60.809594994214422
 20
-209.28191534167499
 30
0.0
 11
60.809594994214422
 21
-209.28191534167499
 31
0.0
  0
LINE
  8
DETAIL
  6
CONTINUOUS
 62
     5
 10
60.809594994214422
 20
-209.28191534167499
 30
0.0
 11
60.779902511035289
 21
-209.2696384194611
 31
0.0
  0
LINE
  8
DETAIL
  6
CONTINUOUS
 62
     5
 10
60.779902511035289
 20
-209.2696384194611
 30
0.0
 11
60.750378404766707
 21
-209.25677873903979
 31
0.0
  0
LINE
  8
DETAIL
  6
CONTINUOUS
 62
     5
 10
60.750378404766707
 20
-209.25677873903979
 30
0.0
 11
60.750378404766707
 21
-209.25677873903979
 31
0.0
  0
LINE
  8
DETAIL
  6
CONTINUOUS
 62
     5
 10
60.750378404766707
 20
-209.25677873903979
 30
0.0
 11
60.721122539290263
 21
-209.24337811297929
 31
0.0
  0
LINE
  8
DETAIL
  6
CONTINUOUS
 62
     5
 10
60.721122539290263
 20
-209.24337811297929
 30
0.0
 11
60.692141178666589
 21
-209.22944426261861
 31
0.0
  0
LINE
  8
DETAIL
  6
CONTINUOUS
 62
     5
 10
60.692141178666589
 20
-209.22944426261861
 30
0.0
 11
60.692141178666589
 21
-209.22944426261861
 31
0.0
  0
LINE
  8
DETAIL
  6
CONTINUOUS
 62
     5
 10
60.692141178666589
 20
-209.22944426261861
 30
0.0
 11
60.663419601264202
 21
-209.21497610065549
 31
0.0
  0
LINE
  8
DETAIL
  6
CONTINUOUS
 62
     5
 10
60.663419601264202
 20
-209.21497610065549
 30
0.0
 11
60.63495274251909
 21
-209.1999713964434
 31
0.0
  0
LINE
  8
DETAIL
  6
CONTINUOUS
 62
     5
 10
60.63495274251909
 20
-209.1999713964434
 30
0.0
 11
60.63495274251909
 21
-209.1999713964434
 31
0.0
  0
LINE
  8
DETAIL
  6
CONTINUOUS
 62
     5
 10
60.63495274251909
 20
-209.1999713964434
 30
0.0
 11
60.606751695022467
 21
-209.18443729965031
 31
0.0
  0
LINE
  8
DETAIL
  6
CONTINUOUS
 62
     5
 10
60.606751695022467
 20
-209.18443729965031
 30
0.0
 11
60.578882522929689
 21
-209.16841962454291
 31
0.0
  0
LINE
  8
DETAIL
  6
CONTINUOUS
 62
     5
 10
60.578882522929689
 20
-209.16841962454291
 30
0.0
 11
60.578882522929689
 21
-209.16841962454291
 31
0.0
  0
LINE
  8
DETAIL
  6
CONTINUOUS
 62
     5
 10
60.578882522929689
 20
-209.16841962454291
 30
0.0
 11
60.551367647456573
 21
-209.151935472774
 31
0.0
  0
LINE
  8
DETAIL
  6
CONTINUOUS
 62
     5
 10
60.551367647456573
 20
-209.151935472774
 30
0.0
 11
60.523999946502947
 21
-209.13484843094929
 31
0.0
  0
LINE
  8
DETAIL
  6
CONTINUOUS
 62
     5
 10
60.523999946502947
 20
-209.13484843094929
 30
0.0
 11
60.523999946502947
 21
-209.13484843094929
 31
0.0
  0
LINE
  8
DETAIL
  6
CONTINUOUS
 62
     5
 10
60.523999946502947
 20
-209.13484843094929
 30
0.0
 11
60.496606702362442
 21
-209.11704254854601
 31
0.0
  0
LINE
  8
DETAIL
  6
CONTINUOUS
 62
     5
 10
60.496606702362442
 20
-209.11704254854601
 30
0.0
 11
60.469382358218347
 21
-209.09863724158561
 31
0.0
  0
LINE
  8
DETAIL
  6
CONTINUOUS
 62
     5
 10
60.469382358218347
 20
-209.09863724158561
 30
0.0
 11
60.469382358218347
 21
-209.09863724158561
 31
0.0
  0
LINE
  8
DETAIL
  6
CONTINUOUS
 62
     5
 10
60.469382358218347
 20
-209.09863724158561
 30
0.0
 11
60.442555058417383
 21
-209.07977596891089
 31
0.0
  0
LINE
  8
DETAIL
  6
CONTINUOUS
 62
     5
 10
60.442555058417383
 20
-209.07977596891089
 30
0.0
 11
60.416120591059098
 21
-209.06046299411301
 31
0.0
  0
LINE
  8
DETAIL
  6
CONTINUOUS
 62
     5
 10
60.416120591059098
 20
-209.06046299411301
 30
0.0
 11
60.416120591059098
 21
-209.06046299411301
 31
0.0
  0
LINE
  8
DETAIL
  6
CONTINUOUS
 62
     5
 10
60.416120591059098
 20
-209.06046299411301
 30
0.0
 11
60.390027291119623
 21
-209.0406723582015
 31
0.0
  0
LINE
  8
DETAIL
  6
CONTINUOUS
 62
     5
 10
60.390027291119623
 20
-209.0406723582015
 30
0.0
 11
60.364266037323432
 21
-209.0203964071062
 31
0.0
  0
LINE
  8
DETAIL
  6
CONTINUOUS
 62
     5
 10
60.364266037323432
 20
-209.0203964071062
 30
0.0
 11
60.364266037323432
 21
-209.0203964071062
 31
0.0
  0
LINE
  8
DETAIL
  6
CONTINUOUS
 62
     5
 10
60.364266037323432
 20
-209.0203964071062
 30
0.0
 11
60.338853889644717
 21
-208.9996485568789
 31
0.0
  0
LINE
  8
DETAIL
  6
CONTINUOUS
 62
     5
 10
60.338853889644717
 20
-208.9996485568789
 30
0.0
 11
60.313870089308693
 21
-208.9785081991414
 31
0.0
  0
LINE
  8
DETAIL
  6
CONTINUOUS
 62
     5
 10
60.313870089308693
 20
-208.9785081991414
 30
0.0
 11
60.313870089308693
 21
-208.9785081991414
 31
0.0
  0
LINE
  8
DETAIL
  6
CONTINUOUS
 62
     5
 10
60.313870089308693
 20
-208.9785081991414
 30
0.0
 11
60.289336605665987
 21
-208.95700066760679
 31
0.0
  0
LINE
  8
DETAIL
  6
CONTINUOUS
 62
     5
 10
60.289336605665987
 20
-208.95700066760679
 30
0.0
 11
60.264984139314038
 21
-208.93486908879419
 31
0.0
  0
LINE
  8
DETAIL
  6
CONTINUOUS
 62
     5
 10
60.264984139314038
 20
-208.93486908879419
 30
0.0
 11
60.264984139314038
 21
-208.93486908879419
 31
0.0
  0
LINE
  8
DETAIL
  6
CONTINUOUS
 62
     5
 10
60.264984139314038
 20
-208.93486908879419
 30
0.0
 11
60.240588841493263
 21
-208.91189587601701
 31
0.0
  0
LINE
  8
DETAIL
  6
CONTINUOUS
 62
     5
 10
60.240588841493263
 20
-208.91189587601701
 30
0.0
 11
60.216399934757654
 21
-208.8883027969697
 31
0.0
  0
LINE
  8
DETAIL
  6
CONTINUOUS
 62
     5
 10
60.216399934757654
 20
-208.8883027969697
 30
0.0
 11
60.216399934757654
 21
-208.8883027969697
 31
0.0
  0
LINE
  8
DETAIL
  6
CONTINUOUS
 62
     5
 10
60.216399934757654
 20
-208.8883027969697
 30
0.0
 11
60.192708476332882
 21
-208.8643537686836
 31
0.0
  0
LINE
  8
DETAIL
  6
CONTINUOUS
 62
     5
 10
60.192708476332882
 20
-208.8643537686836
 30
0.0
 11
60.169499790803911
 21
-208.8400419511571
 31
0.0
  0
LINE
  8
DETAIL
  6
CONTINUOUS
 62
     5
 10
60.169499790803911
 20
-208.8400419511571
 30
0.0
 11
60.169499790803911
 21
-208.8400419511571
 31
0.0
  0
LINE
  8
DETAIL
  6
CONTINUOUS
 62
     5
 10
60.169499790803911
 20
-208.8400419511571
 30
0.0
 11
60.146702089155497
 21
-208.81530936178899
 31
0.0
  0
LINE
  8
DETAIL
  6
CONTINUOUS
 62
     5
 10
60.146702089155497
 20
-208.81530936178899
 30
0.0
 11
60.12432086060835
 21
-208.79016420460661
 31
0.0
  0
LINE
  8
DETAIL
  6
CONTINUOUS
 62
     5
 10
60.12432086060835
 20
-208.79016420460661
 30
0.0
 11
60.12432086060835
 21
-208.79016420460661
 31
0.0
  0
LINE
  8
DETAIL
  6
CONTINUOUS
 62
     5
 10
60.12432086060835
 20
-208.79016420460661
 30
0.0
 11
60.102380068866751
 21
-208.7646327329237
 31
0.0
  0
LINE
  8
DETAIL
  6
CONTINUOUS
 62
     5
 10
60.102380068866751
 20
-208.7646327329237
 30
0.0
 11
60.080900297328299
 21
-208.73874721056799
 31
0.0
  0
LINE
  8
DETAIL
  6
CONTINUOUS
 62
     5
 10
60.080900297328299
 20
-208.73874721056799
 30
0.0
 11
60.080900297328299
 21
-208.73874721056799
 31
0.0
  0
LINE
  8
DETAIL
  6
CONTINUOUS
 62
     5
 10
60.080900297328299
 20
-208.73874721056799
 30
0.0
 11
60.059885345061502
 21
-208.71251884682391
 31
0.0
  0
LINE
  8
DETAIL
  6
CONTINUOUS
 62
     5
 10
60.059885345061502
 20
-208.71251884682391
 30
0.0
 11
60.03927525411882
 21
-208.6858686222912
 31
0.0
  0
LINE
  8
DETAIL
  6
CONTINUOUS
 62
     5
 10
60.03927525411882
 20
-208.6858686222912
 30
0.0
 11
60.03927525411882
 21
-208.6858686222912
 31
0.0
  0
LINE
  8
DETAIL
  6
CONTINUOUS
 62
     5
 10
60.03927525411882
 20
-208.6858686222912
 30
0.0
 11
60.019021578917091
 21
-208.65873152071629
 31
0.0
  0
LINE
  8
DETAIL
  6
CONTINUOUS
 62
     5
 10
60.019021578917091
 20
-208.65873152071629
 30
0.0
 11
59.999185680353548
 21
-208.63118876712011
 31
0.0
  0
LINE
  8
DETAIL
  6
CONTINUOUS
 62
     5
 10
59.999185680353548
 20
-208.63118876712011
 30
0.0
 11
59.999185680353548
 21
-208.63118876712011
 31
0.0
  0
LINE
  8
DETAIL
  6
CONTINUOUS
 62
     5
 10
59.999185680353548
 20
-208.63118876712011
 30
0.0
 11
59.979838511165333
 21
-208.60333584894681
 31
0.0
  0
LINE
  8
DETAIL
  6
CONTINUOUS
 62
     5
 10
59.979838511165333
 20
-208.60333584894681
 30
0.0
 11
59.960979584983761
 21
-208.5751790620667
 31
0.0
  0
LINE
  8
DETAIL
  6
CONTINUOUS
 62
     5
 10
59.960979584983761
 20
-208.5751790620667
 30
0.0
 11
59.960979584983761
 21
-208.5751790620667
 31
0.0
  0
LINE
  8
DETAIL
  6
CONTINUOUS
 62
     5
 10
59.960979584983761
 20
-208.5751790620667
 30
0.0
 11
59.942593904771002
 21
-208.54670550386311
 31
0.0
  0
LINE
  8
DETAIL
  6
CONTINUOUS
 62
     5
 10
59.942593904771002
 20
-208.54670550386311
 30
0.0
 11
59.924679869925967
 21
-208.51791466934549
 31
0.0
  0
LINE
  8
DETAIL
  6
CONTINUOUS
 62
     5
 10
59.924679869925967
 20
-208.51791466934549
 30
0.0
 11
59.924679869925967
 21
-208.51791466934549
 31
0.0
  0
LINE
  8
DETAIL
  6
CONTINUOUS
 62
     5
 10
59.924679869925967
 20
-208.51791466934549
 30
0.0
 11
59.907243692296113
 21
-208.48881905319681
 31
0.0
  0
LINE
  8
DETAIL
  6
CONTINUOUS
 62
     5
 10
59.907243692296113
 20
-208.48881905319681
 30
0.0
 11
59.890309437094402
 21
-208.4594707511711
 31
0.0
  0
LINE
  8
DETAIL
  6
CONTINUOUS
 62
     5
 10
59.890309437094402
 20
-208.4594707511711
 30
0.0
 11
59.890309437094402
 21
-208.4594707511711
 31
0.0
  0
LINE
  8
DETAIL
  6
CONTINUOUS
 62
     5
 10
59.890309437094402
 20
-208.4594707511711
 30
0.0
 11
59.873884430400722
 21
-208.4298890588112
 31
0.0
  0
LINE
  8
DETAIL
  6
CONTINUOUS
 62
     5
 10
59.873884430400722
 20
-208.4298890588112
 30
0.0
 11
59.857891188405567
 21
-208.3999224697574
 31
0.0
  0
LINE
  8
DETAIL
  6
CONTINUOUS
 62
     5
 10
59.857891188405567
 20
-208.3999224697574
 30
0.0
 11
59.857891188405567
 21
-208.3999224697574
 31
0.0
  0
LINE
  8
DETAIL
  6
CONTINUOUS
 62
     5
 10
59.857891188405567
 20
-208.3999224697574
 30
0.0
 11
59.842265965712613
 21
-208.36944382969239
 31
0.0
  0
LINE
  8
DETAIL
  6
CONTINUOUS
 62
     5
 10
59.842265965712613
 20
-208.36944382969239
 30
0.0
 11
59.8270847804597
 21
-208.338594194384
 31
0.0
  0
LINE
  8
DETAIL
  6
CONTINUOUS
 62
     5
 10
59.8270847804597
 20
-208.338594194384
 30
0.0
 11
59.8270847804597
 21
-208.338594194384
 31
0.0
  0
LINE
  8
DETAIL
  6
CONTINUOUS
 62
     5
 10
59.8270847804597
 20
-208.338594194384
 30
0.0
 11
59.812435776451821
 21
-208.30754053582331
 31
0.0
  0
LINE
  8
DETAIL
  6
CONTINUOUS
 62
     5
 10
59.812435776451821
 20
-208.30754053582331
 30
0.0
 11
59.798315836619622
 21
-208.27628528081971
 31
0.0
  0
LINE
  8
DETAIL
  6
CONTINUOUS
 62
     5
 10
59.798315836619622
 20
-208.27628528081971
 30
0.0
 11
59.798315836619622
 21
-208.27628528081971
 31
0.0
  0
LINE
  8
DETAIL
  6
CONTINUOUS
 62
     5
 10
59.798315836619622
 20
-208.27628528081971
 30
0.0
 11
59.784703840971822
 21
-208.244796543148
 31
0.0
  0
LINE
  8
DETAIL
  6
CONTINUOUS
 62
     5
 10
59.784703840971822
 20
-208.244796543148
 30
0.0
 11
59.771597918697807
 21
-208.21306972963291
 31
0.0
  0
LINE
  8
DETAIL
  6
CONTINUOUS
 62
     5
 10
59.771597918697807
 20
-208.21306972963291
 30
0.0
 11
59.771597918697807
 21
-208.21306972963291
 31
0.0
  0
LINE
  8
DETAIL
  6
CONTINUOUS
 62
     5
 10
59.771597918697807
 20
-208.21306972963291
 30
0.0
 11
59.759004577319047
 21
-208.1811209136082
 31
0.0
  0
LINE
  8
DETAIL
  6
CONTINUOUS
 62
     5
 10
59.759004577319047
 20
-208.1811209136082
 30
0.0
 11
59.746944588508093
 21
-208.1490215413929
 31
0.0
  0
LINE
  8
DETAIL
  6
CONTINUOUS
 62
     5
 10
59.746944588508093
 20
-208.1490215413929
 30
0.0
 11
59.746944588508093
 21
-208.1490215413929
 31
0.0
  0
LINE
  8
DETAIL
  6
CONTINUOUS
 62
     5
 10
59.746944588508093
 20
-208.1490215413929
 30
0.0
 11
59.73542321352852
 21
-208.11679470630509
 31
0.0
  0
LINE
  8
DETAIL
  6
CONTINUOUS
 62
     5
 10
59.73542321352852
 20
-208.11679470630509
 30
0.0
 11
59.724369407864742
 21
-208.0842147166687
 31
0.0
  0
LINE
  8
DETAIL
  6
CONTINUOUS
 62
     5
 10
59.724369407864742
 20
-208.0842147166687
 30
0.0
 11
59.724369407864742
 21
-208.0842147166687
 31
0.0
  0
LINE
  8
DETAIL
  6
CONTINUOUS
 62
     5
 10
59.724369407864742
 20
-208.0842147166687
 30
0.0
 11
59.713725439193688
 21
-208.05109217181291
 31
0.0
  0
LINE
  8
DETAIL
  6
CONTINUOUS
 62
     5
 10
59.713725439193688
 20
-208.05109217181291
 30
0.0
 11
59.703563129743998
 21
-208.0176316200772
 31
0.0
  0
LINE
  8
DETAIL
  6
CONTINUOUS
 62
     5
 10
59.703563129743998
 20
-208.0176316200772
 30
0.0
 11
59.703563129743998
 21
-208.0176316200772
 31
0.0
  0
LINE
  8
DETAIL
  6
CONTINUOUS
 62
     5
 10
59.703563129743998
 20
-208.0176316200772
 30
0.0
 11
59.693964840052097
 21
-207.98407378470219
 31
0.0
  0
LINE
  8
DETAIL
  6
CONTINUOUS
 62
     5
 10
59.693964840052097
 20
-207.98407378470219
 30
0.0
 11
59.68492552933003
 21
-207.95041013952149
 31
0.0
  0
LINE
  8
DETAIL
  6
CONTINUOUS
 62
     5
 10
59.68492552933003
 20
-207.95041013952149
 30
0.0
 11
59.68492552933003
 21
-207.95041013952149
 31
0.0
  0
LINE
  8
DETAIL
  6
CONTINUOUS
 62
     5
 10
59.68492552933003
 20
-207.95041013952149
 30
0.0
 11
59.676424234092792
 21
-207.91658701237759
 31
0.0
  0
LINE
  8
DETAIL
  6
CONTINUOUS
 62
     5
 10
59.676424234092792
 20
-207.91658701237759
 30
0.0
 11
59.668463701382279
 21
-207.88261939655271
 31
0.0
  0
LINE
  8
DETAIL
  6
CONTINUOUS
 62
     5
 10
59.668463701382279
 20
-207.88261939655271
 30
0.0
 11
59.668463701382279
 21
-207.88261939655271
 31
0.0
  0
LINE
  8
DETAIL
  6
CONTINUOUS
 62
     5
 10
59.668463701382279
 20
-207.88261939655271
 30
0.0
 11
59.661050745675311
 21
-207.84853309860031
 31
0.0
  0
LINE
  8
DETAIL
  6
CONTINUOUS
 62
     5
 10
59.661050745675311
 20
-207.84853309860031
 30
0.0
 11
59.654184740659282
 21
-207.81432851272001
 31
0.0
  0
LINE
  8
DETAIL
  6
CONTINUOUS
 62
     5
 10
59.654184740659282
 20
-207.81432851272001
 30
0.0
 11
59.654184740659282
 21
-207.81432851272001
 31
0.0
  0
LINE
  8
DETAIL
  6
CONTINUOUS
 62
     5
 10
59.654184740659282
 20
-207.81432851272001
 30
0.0
 11
59.647864712980663
 21
-207.7800079260148
 31
0.0
  0
LINE
  8
DETAIL
  6
CONTINUOUS
 62
     5
 10
59.647864712980663
 20
-207.7800079260148
 30
0.0
 11
59.642095741921374
 21
-207.7456066095732
 31
0.0
  0
LINE
  8
DETAIL
  6
CONTINUOUS
 62
     5
 10
59.642095741921374
 20
-207.7456066095732
 30
0.0
 11
59.642095741921374
 21
-207.7456066095732
 31
0.0
  0
LINE
  8
DETAIL
  6
CONTINUOUS
 62
     5
 10
59.642095741921374
 20
-207.7456066095732
 30
0.0
 11
59.636882054863243
 21
-207.7111569399045
 31
0.0
  0
LINE
  8
DETAIL
  6
CONTINUOUS
 62
     5
 10
59.636882054863243
 20
-207.7111569399045
 30
0.0
 11
59.63221841895529
 21
-207.6766467312294
 31
0.0
  0
LINE
  8
DETAIL
  6
CONTINUOUS
 62
     5
 10
59.63221841895529
 20
-207.6766467312294
 30
0.0
 11
59.63221841895529
 21
-207.6766467312294
 31
0.0
  0
LINE
  8
DETAIL
  6
CONTINUOUS
 62
     5
 10
59.63221841895529
 20
-207.6766467312294
 30
0.0
 11
59.628099933591329
 21
-207.64205978015289
 31
0.0
  0
LINE
  8
DETAIL
  6
CONTINUOUS
 62
     5
 10
59.628099933591329
 20
-207.64205978015289
 30
0.0
 11
59.624532487373472
 21
-207.60740837511329
 31
0.0
  0
LINE
  8
DETAIL
  6
CONTINUOUS
 62
     5
 10
59.624532487373472
 20
-207.60740837511329
 30
0.0
 11
59.624532487373472
 21
-207.60740837511329
 31
0.0
  0
LINE
  8
DETAIL
  6
CONTINUOUS
 62
     5
 10
59.624532487373472
 20
-207.60740837511329
 30
0.0
 11
59.621519033908037
 21
-207.5727099076995
 31
0.0
  0
LINE
  8
DETAIL
  6
CONTINUOUS
 62
     5
 10
59.621519033908037
 20
-207.5727099076995
 30
0.0
 11
59.619039997610798
 21
-207.5379736902747
 31
0.0
  0
LINE
  8
DETAIL
  6
CONTINUOUS
 62
     5
 10
59.619039997610798
 20
-207.5379736902747
 30
0.0
 11
59.619039997610798
 21
-207.5379736902747
 31
0.0
  0
LINE
  8
DETAIL
  6
CONTINUOUS
 62
     5
 10
59.619039997610798
 20
-207.5379736902747
 30
0.0
 11
59.617090002488112
 21
-207.5032079716635
 31
0.0
  0
LINE
  8
DETAIL
  6
CONTINUOUS
 62
     5
 10
59.617090002488112
 20
-207.5032079716635
 30
0.0
 11
59.615743000101247
 21
-207.46842482576551
 31
0.0
  0
LINE
  8
DETAIL
  6
CONTINUOUS
 62
     5
 10
59.615743000101247
 20
-207.46842482576551
 30
0.0
 11
59.615743000101247
 21
-207.46842482576551
 31
0.0
  0
LINE
  8
DETAIL
  6
CONTINUOUS
 62
     5
 10
59.615743000101247
 20
-207.46842482576551
 30
0.0
 11
59.615019078643847
 21
-207.43363547748041
 31
0.0
  0
LINE
  8
DETAIL
  6
CONTINUOUS
 62
     5
 10
59.615019078643847
 20
-207.43363547748041
 30
0.0
 11
59.61464354527925
 21
-207.39884393063599
 31
0.0
  0
LINE
  8
DETAIL
  6
CONTINUOUS
 62
     5
 10
206.53232368060429
 20
-105.2023121387284
 30
0.0
 11
206.53087756468631
 21
-105.755515421674
 31
0.0
  0
LINE
  8
DETAIL
  6
CONTINUOUS
 62
     5
 10
206.53087756468631
 20
-105.755515421674
 30
0.0
 11
206.52808893725609
 21
-106.30871588522299
 31
0.0
  0
LINE
  8
DETAIL
  6
CONTINUOUS
 62
     5
 10
51.636822913695141
 20
-221.92678227360301
 30
0.0
 11
1.5028901734103779
 21
-221.92678227360301
 31
0.0
  0
LINE
  8
DETAIL
  6
CONTINUOUS
 62
     5
 10
1.5028901734103779
 20
-221.92678227360301
 30
0.0
 11
-51.636822913695141
 21
-221.92678227360301
 31
0.0
  0
LINE
  8
DETAIL
  6
CONTINUOUS
 62
     5
 10
66.628131021194349
 20
-213.51059730250481
 30
0.0
 11
-66.628131021194349
 21
-213.51059730250481
 31
0.0
  0
LINE
  8
DETAIL
  6
CONTINUOUS
 62
     5
 10
-61.179741691614709
 20
-175.3371868978808
 30
0.0
 11
62.620423892100007
 21
-175.3371868978808
 31
0.0
  0
LINE
  8
DETAIL
  6
CONTINUOUS
 62
     5
 10
-63.622292198283503
 20
-172.13102119460481
 30
0.0
 11
63.622306225258399
 21
-172.13102119460481
 31
0.0
  0
LINE
  8
DETAIL
  6
CONTINUOUS
 62
     5
 10
-4.7090558766858521
 20
-171.6300578034683
 30
0.0
 11
4.7090558766858521
 21
-171.6300578034683
 31
0.0
  0
LINE
  8
DETAIL
  6
CONTINUOUS
 62
     5
 10
-59.387725451342703
 20
-214.8323960706152
 30
0.0
 11
-55.281837779746184
 21
-220.13846629272089
 31
0.0
  0
LINE
  8
DETAIL
  6
CONTINUOUS
 62
     5
 10
238.333333333333
 20
-99.591522157995882
 30
0.0
 11
206.53232368060429
 21
-99.591522157995882
 31
0.0
  0
LINE
  8
DETAIL
  6
CONTINUOUS
 62
     5
 10
180.67319707734671
 20
-99.591522157995882
 30
0.0
 11
-180.67319707734671
 21
-99.591522157995882
 31
0.0
  0
LINE
  8
DETAIL
  6
CONTINUOUS
 62
     5
 10
-206.53232368060429
 20
-99.591522157995882
 30
0.0
 11
-238.333333333333
 21
-99.591522157995882
 31
0.0
  0
LINE
  8
DETAIL
  6
CONTINUOUS
 62
     5
 10
-62.620423892100007
 20
-209.40269749518311
 30
0.0
 11
-62.620423892100007
 21
-207.39884393063599
 31
0.0
  0
LINE
  8
DETAIL
  6
CONTINUOUS
 62
     5
 10
-61.179741691614709
 20
-175.3371868978808
 30
0.0
 11
-61.179741691614709
 21
-172.13102119460481
 31
0.0
  0
LINE
  8
DETAIL
  6
CONTINUOUS
 62
     5
 10
-58.089309211320597
 20
-175.3371868978808
 30
0.0
 11
-58.089309211320597
 21
-172.13102119460481
 31
0.0
  0
LINE
  8
DETAIL
  6
CONTINUOUS
 62
     5
 10
-4.7090558766858521
 20
-171.6300578034683
 30
0.0
 11
-4.7090558766858521
 21
-172.13102119460481
 31
0.0
  0
LINE
  8
DETAIL
  6
CONTINUOUS
 62
     5
 10
4.7090558766858521
 20
-171.6300578034683
 30
0.0
 11
4.7090558766858521
 21
-172.13102119460481
 31
0.0
  0
LINE
  8
DETAIL
  6
CONTINUOUS
 62
     5
 10
56.270075310562333
 20
-175.3371868978808
 30
0.0
 11
56.270075310562333
 21
-172.13102119460481
 31
0.0
  0
LINE
  8
DETAIL
  6
CONTINUOUS
 62
     5
 10
59.908555434476973
 20
-175.3371868978808
 30
0.0
 11
59.908555434476973
 21
-172.13102119460481
 31
0.0
  0
LINE
  8
DETAIL
  6
CONTINUOUS
 62
     5
 10
62.620423892100007
 20
-207.39884393063599
 30
0.0
 11
62.620423892100007
 21
-209.40269749518311
 31
0.0
  0
LINE
  8
DETAIL
  6
CONTINUOUS
 62
     5
 10
59.387725451992992
 20
-214.8323960706152
 30
0.0
 11
55.281837779746184
 21
-220.13846629272089
 31
0.0
  0
ARC
  8
DETAIL
  6
CONTINUOUS
 62
     5
 10
-57.610789980732079
 20
-180.3468208092487
 30
0.0
 40
5.0096339113681552
 50
90.0
 51
180.0
  0
ARC
  8
DETAIL
  6
CONTINUOUS
 62
     5
 10
-51.636821767334823
 20
-217.31791907514449
 30
0.0
 40
4.6088631984586712
 50
217.733036872513
 51
270.0
  0
ARC
  8
DETAIL
  6
CONTINUOUS
 62
     5
 10
-62.081864642143962
 20
-216.917148362235
 30
0.0
 40
3.4065503713934508
 50
37.733068570302343
 51
90.0
  0
ARC
  8
DETAIL
  6
CONTINUOUS
 62
     5
 10
-66.628131021194349
 20
-211.9075144508671
 30
0.0
 40
1.603082851637794
 50
180.0
 51
270.0
  0
ARC
  8
DETAIL
  6
CONTINUOUS
 62
     5
 10
-238.333333333333
 20
-64.524084778419933
 30
0.0
 40
34.46628131021189
 50
295.68763667250971
 51
337.34310834579219
  0
ARC
  8
DETAIL
  6
CONTINUOUS
 62
     5
 10
-233.3236994219651
 20
-49.495183044315702
 30
0.0
 40
29.456647398843881
 50
24.53934114489337
 51
90.0
  0
ARC
  8
DETAIL
  6
CONTINUOUS
 62
     5
 10
0.0
 20
-176.16127167630029
 30
0.0
 40
6.5350674373795883
 50
43.897398167102708
 51
136.10260183289731
  0
ARC
  8
DETAIL
  6
CONTINUOUS
 62
     5
 10
57.610789980732079
 20
-180.3468208092487
 30
0.0
 40
5.0096339113680406
 50
0.0
 51
90.0
  0
ARC
  8
DETAIL
  6
CONTINUOUS
 62
     5
 10
51.636821032154778
 20
-217.31791907514449
 30
0.0
 40
4.6088631984587076
 50
270.0
 51
322.26696872109858
  0
ARC
  8
DETAIL
  6
CONTINUOUS
 62
     5
 10
62.08186543652846
 20
-216.917148362235
 30
0.0
 40
3.406550608212418
 50
90.0
 51
142.2669396033921
  0
ARC
  8
DETAIL
  6
CONTINUOUS
 62
     5
 10
66.628131021194349
 20
-211.9075144508671
 30
0.0
 40
1.603082851637623
 50
270.0
 51
0.0
  0
ARC
  8
DETAIL
  6
CONTINUOUS
 62
     5
 10
238.333333333333
 20
-64.524084778419933
 30
0.0
 40
34.466281310211897
 50
202.65689165420699
 51
244.31236332749029
  0
ARC
  8
DETAIL
  6
CONTINUOUS
 62
     5
 10
233.3236994219651
 20
-49.495183044315702
 30
0.0
 40
29.45664739884392
 50
91.044076173411327
 51
155.4606588551066
  0
LINE
  8
DETAIL
  6
CONTINUOUS
 62
     5
 10
-63.622350674373592
 20
-173.73410404624281
 30
0.0
 11
-63.622350674373592
 21
-172.13102119460481
 31
0.0
  0
LINE
  8
DETAIL
  6
CONTINUOUS
 62
     5
 10
63.622350674373592
 20
-175.3371868978808
 30
0.0
 11
63.622350674373592
 21
-172.13102119460481
 31
0.0
  0
LINE
  8
NOTE
  6
CONTINUOUS
 62
     4
 10
-230.4431599229288
 20
-34.815366651474619
 30
0.0
 11
-230.4431599229288
 21
16.901938740462239
 31
0.0
  0
LINE
  8
NOTE
  6
CONTINUOUS
 62
     4
 10
230.4431599229292
 20
-34.815366651474619
 30
0.0
 11
230.4431599229292
 21
16.901938740462239
 31
0.0
  0
LINE
  8
OUTLINE
  6
CONTINUOUS
 62
     3
 10
-256.99421965317919
 20
-3.0057803468207571
 30
0.0
 11
-258.49710982658962
 21
-3.0057803468207571
 31
0.0
  0
LINE
  8
OUTLINE
  6
CONTINUOUS
 62
     3
 10
-62.081864642143962
 20
-213.5105979908416
 30
0.0
 11
-66.628131021194349
 21
-213.51059730250481
 31
0.0
  0
LINE
  8
OUTLINE
  6
CONTINUOUS
 62
     3
 10
-40.077071290944332
 20
-221.92678227360301
 30
0.0
 11
-51.636822913695141
 21
-221.92678227360301
 31
0.0
  0
LINE
  8
SIZE
  6
CONTINUOUS
 62
    30
 10
-278.49710982658962
 20
0.0
 30
0.0
 11
-383.81931770129682
 21
0.0
 31
0.0
  0
LINE
  8
SIZE
  6
CONTINUOUS
 62
    30
 10
-60.077071290944332
 20
-222.92870905587679
 30
0.0
 11
-383.81931770129682
 21
-222.92870905587679
 31
0.0
  0
LINE
  8
SIZE
  6
CONTINUOUS
 62
    30
 10
-363.81931770129682
 20
-12.0
 30
0.0
 11
-363.81931770129682
 21
-210.92870905587679
 31
0.0
  0
CIRCLE
  8
SIZE
  6
CONTINUOUS
 62
    30
 10
-363.81931770129682
 20
0.0
 30
0.0
 40
6.0
  0
LINE
  8
SIZE
  6
CONTINUOUS
 62
    30
 10
-363.81931770129682
 20
0.0
 30
0.0
 11
-363.81931770129682
 21
-12.0
 31
0.0
  0
CIRCLE
  8
SIZE
  6
CONTINUOUS
 62
    30
 10
-363.81931770129682
 20
-222.92870905587679
 30
0.0
 40
6.0
  0
LINE
  8
SIZE
  6
CONTINUOUS
 62
    30
 10
-363.81931770129682
 20
-222.92870905587679
 30
0.0
 11
-363.81931770129682
 21
-210.92870905587679
 31
0.0
  0
TEXT
  8
SIZE
  6
CONTINUOUS
 62
    30
 10
-388.81931770129682
 20
-185.5214973850812
 30
0.0
 40
64.0
  1
223
 50
90.0
 41
0.9
 72
     1
 11
-388.81931770129682
 21
-111.4643545279384
 31
0.0
  0
POINT
  8
DEFPOINTS
  6
CONTINUOUS
 62
    30
 10
-258.49710982658962
 20
0.0
 30
0.0
  0
POINT
  8
DEFPOINTS
  6
CONTINUOUS
 62
    30
 10
-40.077071290944332
 20
-222.92870905587679
 30
0.0
  0
POINT
  8
DEFPOINTS
  6
CONTINUOUS
 62
    30
 10
-363.81931770129682
 20
-222.92870905587679
 30
0.0
  0
LINE
  8
BASIS
  6
DASHDOT
 62
     6
 10
0.0
 20
-249.85763989000409
 30
0.0
 11
0.0
 21
60.168341583755137
 31
0.0
  0
LINE
  8
DETAIL
  6
CONTINUOUS
 62
     4
 10
-233.1479144340901
 20
5.7438390598275646
 30
0.0
 11
-230.38451579445791
 21
0.1807169823895265
 31
0.0
  0
LINE
  8
DETAIL
  6
CONTINUOUS
 62
     4
 10
-230.38451579445791
 20
0.1807169823895265
 30
0.0
 11
-235.55925543389409
 21
3.6168149079512659
 31
0.0
  0
LINE
  8
DETAIL
  6
CONTINUOUS
 62
     4
 10
-230.38451579445791
 20
0.1807169823895265
 30
0.0
 11
-238.32265407352631
 21
9.179936985389304
 31
0.0
  0
LINE
  8
NOTE
  6
CONTINUOUS
 62
     4
 10
-238.32265407352591
 20
9.179936985389304
 30
0.0
 11
-286.48810867395969
 21
63.783611960005032
 31
0.0
  0
LINE
  8
NOTE
  6
CONTINUOUS
 62
     4
 10
-286.48810867395969
 20
63.783611960005032
 30
0.0
 11
-584.35667091899359
 21
63.945066809185391
 31
0.0
  0
ARC
  8
DETAIL
  6
CONTINUOUS
 62
     5
 10
-95.538813331480924
 20
270.40737458545641
 30
0.0
 40
416.23262745222399
 50
278.91021732396058
 51
297.25943173739341
  0
ARC
  8
DETAIL
  6
CONTINUOUS
 62
     5
 10
-633.23369626051226
 20
832.09511664978231
 30
0.0
 40
1136.2915907225799
 50
301.79224450234688
 51
304.92151290032069
  0
ARC
  8
DETAIL
  6
CONTINUOUS
 62
     5
 10
225.46275502552729
 20
131.06001585117701
 30
0.0
 40
256.22791317840182
 50
244.1818890579037
 51
246.25008533117369
  0
ARC
  8
DETAIL
  6
CONTINUOUS
 62
     5
 10
37.560901581981852
 20
-338.83784925609189
 30
0.0
 40
250.14806795228409
 50
56.195702052860362
 51
70.206664609399269
  0
ARC
  8
DETAIL
  6
CONTINUOUS
 62
     5
 10
924.39569121862678
 20
1439.2683139611049
 30
0.0
 40
1744.8039432620781
 50
241.8807330291942
 51
244.5543529374674
  0
ARC
  8
DETAIL
  6
CONTINUOUS
 62
     5
 10
-102.4518638660975
 20
-158.35678745144699
 30
0.0
 40
62.043768604969422
 50
108.70888455968711
 51
123.95674737743499
  0
ARC
  8
DETAIL
  6
CONTINUOUS
 62
     5
 10
-125.10555635332091
 20
-125.7299675599411
 30
0.0
 40
22.334715295440741
 50
122.5044696199661
 51
202.76699128585841
  0
ARC
  8
DETAIL
  6
CONTINUOUS
 62
     5
 10
-154.0109694908133
 20
-131.85481294576871
 30
0.0
 40
8.6840519616130241
 50
259.01339142262867
 51
343.14227462539759
  0
ARC
  8
DETAIL
  6
CONTINUOUS
 62
     5
 10
-125.4896183404708
 20
-39.173778959577817
 30
0.0
 40
105.6089536318181
 50
240.73339147233131
 51
253.39711026128819
  0
ARC
  8
DETAIL
  6
CONTINUOUS
 62
     5
 10
194.71600823209431
 20
-7.4346750959507517
 30
0.0
 40
2.5916927064155608
 50
274.24202891535191
 51
345.98509350748668
  0
ARC
  8
DETAIL
  6
CONTINUOUS
 62
     5
 10
210.59185320260991
 20
-10.541280470920579
 30
0.0
 40
13.58931915512612
 50
146.31138144914581
 51
169.48924874747041
  0
ARC
  8
DETAIL
  6
CONTINUOUS
 62
     5
 10
194.43226356615111
 20
-8.0794983657355033
 30
0.0
 40
6.4659440374839088
 50
274.2168590202055
 51
345.06085877076288
  0
ARC
  8
DETAIL
  6
CONTINUOUS
 62
     5
 10
205.85084148326811
 20
-9.8698550613512452
 30
0.0
 40
5.1726556254472236
 50
113.0403953827352
 51
178.6320990709319
  0
ARC
  8
DETAIL
  6
CONTINUOUS
 62
     5
 10
244.127670549231
 20
-8.2323180326804959
 30
0.0
 40
6.3066537963497042
 50
273.38967333439081
 51
343.54013889896021
  0
ARC
  8
DETAIL
  6
CONTINUOUS
 62
     5
 10
255.4101913246441
 20
-9.9511880313152687
 30
0.0
 40
5.2347660304861217
 50
112.3545959426616
 51
180.7451707800021
  0
ARC
  8
DETAIL
  6
CONTINUOUS
 62
     5
 10
-102.20935048734189
 20
-108.0822292041161
 30
0.0
 40
104.3627168014789
 50
178.41870691422969
 51
252.11007245140749
  0
ARC
  8
DETAIL
  6
CONTINUOUS
 62
     5
 10
-94.940872514710463
 20
-106.37410549975409
 30
0.0
 40
108.4096727754962
 50
179.3806813174219
 51
248.72969678356819
  0
ARC
  8
DETAIL
  6
CONTINUOUS
 62
     5
 10
-109.56393856695379
 20
-107.5216293018992
 30
0.0
 40
71.147072175667546
 50
178.13188875422821
 51
252.39689043344291
  0
ARC
  8
DETAIL
  6
CONTINUOUS
 62
     5
 10
-194.71600823209431
 20
-7.4346750959507517
 30
0.0
 40
2.5916927064155608
 50
194.01490649251329
 51
265.75797108464809
  0
ARC
  8
DETAIL
  6
CONTINUOUS
 62
     5
 10
-210.59185320260991
 20
-10.541280470920579
 30
0.0
 40
13.58931915512612
 50
10.510751252529589
 51
33.688618550854159
  0
ARC
  8
DETAIL
  6
CONTINUOUS
 62
     5
 10
-194.43226356615111
 20
-8.0794983657355033
 30
0.0
 40
6.4659440374839088
 50
194.93914122923709
 51
265.7831409797945
  0
ARC
  8
DETAIL
  6
CONTINUOUS
 62
     5
 10
-205.8508414832686
 20
-9.8698550613512452
 30
0.0
 40
5.1726556254472236
 50
1.367900929068075
 51
66.959604617264773
  0
ARC
  8
DETAIL
  6
CONTINUOUS
 62
     5
 10
-244.127670549231
 20
-8.2323180326804959
 30
0.0
 40
6.3066537963497042
 50
196.45986110103979
 51
266.61032666560919
  0
ARC
  8
DETAIL
  6
CONTINUOUS
 62
     5
 10
-255.4101913246441
 20
-9.9511880313152687
 30
0.0
 40
5.2347660304861217
 50
359.25482921999787
 51
67.645404057338368
  0
ARC
  8
DETAIL
  6
CONTINUOUS
 62
     5
 10
-31.787788214692231
 20
-136.74005997947361
 30
0.0
 40
4.125139903140715
 50
132.76978875443089
 51
280.02105482782821
  0
ARC
  8
DETAIL
  6
CONTINUOUS
 62
     5
 10
102.20935048734189
 20
-108.0822292041161
 30
0.0
 40
104.3627168014789
 50
287.88992754859248
 51
1.58129308577029
  0
ARC
  8
DETAIL
  6
CONTINUOUS
 62
     5
 10
94.940872514710463
 20
-106.37410549975409
 30
0.0
 40
108.4096727754962
 50
291.27030321643178
 51
0.6193186825781238
  0
ARC
  8
DETAIL
  6
CONTINUOUS
 62
     5
 10
109.56393856695379
 20
-107.5216293018992
 30
0.0
 40
71.147072175667546
 50
287.60310956655712
 51
1.8681112457718341
  0
ENDSEC
  0
EOF
