  0
SECTION
  2
HEADER
  9
$ACADVER
  1
AC1009
  9
$DWGCODEPAGE
  3
dos932
  9
$INSBASE
 10
0.0
 20
0.0
 30
0.0
  9
$EXTMIN
 10
-391.55271754315248
 20
-389.00755658863091
 30
-0.0015258207003583
  9
$EXTMAX
 10
1111.21216986935
 20
572.93701971990049
 30
0.0000000349246037
  9
$LIMMIN
 10
-2970.0
 20
-2100.0
  9
$LIMMAX
 10
2970.0
 20
2100.0
  9
$ORTHOMODE
 70
     1
  9
$REGENMODE
 70
     1
  9
$FILLMODE
 70
     1
  9
$QTEXTMODE
 70
     0
  9
$MIRRTEXT
 70
     0
  9
$LTSCALE
 40
20.0
  9
$ATTMODE
 70
     1
  9
$TEXTSIZE
 40
64.0
  9
$TRACEWID
 40
0.05
  9
$TEXTSTYLE
  7
STANDARD
  9
$CLAYER
  8
SIZE
  9
$CELTYPE
  6
CONTINUOUS
  9
$CECOLOR
 62
     7
  9
$DIMSCALE
 40
1.0
  9
$DIMASZ
 40
12.0
  9
$DIMEXO
 40
20.0
  9
$DIMDLI
 40
200.0
  9
$DIMRND
 40
0.0
  9
$DIMDLE
 40
0.0
  9
$DIMEXE
 40
20.0
  9
$DIMTP
 40
0.0
  9
$DIMTM
 40
0.0
  9
$DIMTXT
 40
64.0
  9
$DIMCEN
 40
0.09
  9
$DIMTSZ
 40
0.0
  9
$DIMTOL
 70
     0
  9
$DIMLIM
 70
     0
  9
$DIMTIH
 70
     0
  9
$DIMTOH
 70
     0
  9
$DIMSE1
 70
     0
  9
$DIMSE2
 70
     0
  9
$DIMTAD
 70
     1
  9
$DIMZIN
 70
     8
  9
$DIMBLK
  1

  9
$DIMASO
 70
     1
  9
$DIMSHO
 70
     0
  9
$DIMPOST
  1

  9
$DIMAPOST
  1

  9
$DIMALT
 70
     0
  9
$DIMALTD
 70
     2
  9
$DIMALTF
 40
25.399999999999999
  9
$DIMLFAC
 40
1.0
  9
$DIMTOFL
 70
     1
  9
$DIMTVP
 40
0.0
  9
$DIMTIX
 70
     1
  9
$DIMSOXD
 70
     0
  9
$DIMSAH
 70
     0
  9
$DIMBLK1
  1

  9
$DIMBLK2
  1

  9
$DIMSTYLE
  2
STANDARD
  9
$DIMCLRD
 70
     7
  9
$DIMCLRE
 70
     7
  9
$DIMCLRT
 70
     7
  9
$DIMTFAC
 40
1.0
  9
$DIMGAP
 40
25.0
  9
$LUNITS
 70
     2
  9
$LUPREC
 70
     4
  9
$SKETCHINC
 40
0.1
  9
$FILLETRAD
 40
3.0
  9
$AUNITS
 70
     1
  9
$AUPREC
 70
     3
  9
$MENU
  1
ACAD
  9
$ELEVATION
 40
0.0
  9
$PELEVATION
 40
0.0
  9
$THICKNESS
 40
0.0
  9
$LIMCHECK
 70
     0
  9
$CHAMFERA
 40
0.0
  9
$CHAMFERB
 40
0.0
  9
$SKPOLY
 70
     0
  9
$TDCREATE
 40
2453019.62301037
  9
$TDUPDATE
 40
2458949.452348368
  9
$TDINDWG
 40
1.7138701505
  9
$TDUSRTIMER
 40
1.7138701505
  9
$USRTIMER
 70
     1
  9
$ANGBASE
 50
0.0
  9
$ANGDIR
 70
     0
  9
$PDMODE
 70
     3
  9
$PDSIZE
 40
-2.0
  9
$PLINEWID
 40
0.0
  9
$SPLFRAME
 70
     0
  9
$SPLINETYPE
 70
     6
  9
$SPLINESEGS
 70
     8
  9
$SURFTAB1
 70
     6
  9
$SURFTAB2
 70
     6
  9
$SURFTYPE
 70
     6
  9
$SURFU
 70
     6
  9
$SURFV
 70
     6
  9
$UCSNAME
  2

  9
$UCSORG
 10
0.0
 20
0.0
 30
0.0
  9
$UCSXDIR
 10
1.0
 20
0.0
 30
0.0
  9
$UCSYDIR
 10
0.0
 20
1.0
 30
0.0
  9
$PUCSNAME
  2

  9
$PUCSORG
 10
0.0
 20
0.0
 30
0.0
  9
$PUCSXDIR
 10
1.0
 20
0.0
 30
0.0
  9
$PUCSYDIR
 10
0.0
 20
1.0
 30
0.0
  9
$USERI1
 70
     0
  9
$USERI2
 70
     0
  9
$USERI3
 70
     0
  9
$USERI4
 70
     0
  9
$USERI5
 70
     0
  9
$USERR1
 40
20.0
  9
$USERR2
 40
0.0
  9
$USERR3
 40
0.0
  9
$USERR4
 40
0.0
  9
$USERR5
 40
0.0
  9
$WORLDVIEW
 70
     1
  9
$SHADEDGE
 70
     3
  9
$SHADEDIF
 70
    70
  9
$TILEMODE
 70
     1
  9
$MAXACTVP
 70
    48
  9
$PINSBASE
 10
0.0
 20
0.0
 30
0.0
  9
$PLIMCHECK
 70
     0
  9
$PEXTMIN
 10
-100000000000000000000.0
 20
-100000000000000000000.0
 30
-100000000000000000000.0
  9
$PEXTMAX
 10
100000000000000000000.0
 20
100000000000000000000.0
 30
100000000000000000000.0
  9
$PLIMMIN
 10
0.0
 20
0.0
  9
$PLIMMAX
 10
12.0
 20
9.0
  9
$UNITMODE
 70
     0
  9
$VISRETAIN
 70
     0
  9
$PLINEGEN
 70
     0
  9
$PSLTSCALE
 70
     0
  9
$TREEDEPTH
 70
  3020
  9
$ATTDIA
 70
     0
  9
$ATTREQ
 70
     1
  9
$BLIPMODE
 70
     1
  9
$COORDS
 70
     1
  9
$DRAGMODE
 70
     2
  9
$OSMODE
 70
     0
  9
$HANDLING
 70
     0
  9
$HANDSEED
  5
11131
  0
ENDSEC
  0
SECTION
  2
TABLES
  0
TABLE
  2
LTYPE
 70
     2
  0
LTYPE
  2
CONTINUOUS
 70
     0
  3
実線
 72
    65
 73
     0
 40
0.0
  0
LTYPE
  2
DASHDOT
 70
     0
  3
____ _ ____ _ ____ _ ____ _ ____ _ ____ _ ____
 72
    65
 73
     4
 40
5.5
 49
4.0
 49
-0.6
 49
0.3
 49
-0.6
  0
ENDTAB
  0
TABLE
  2
LAYER
 70
    12
  0
LAYER
  2
0
 70
     0
 62
     7
  6
CONTINUOUS
  0
LAYER
  2
BASIS
 70
     0
 62
     6
  6
DASHDOT
  0
LAYER
  2
OUTLINE
 70
     0
 62
     3
  6
CONTINUOUS
  0
LAYER
  2
DETAIL
 70
     0
 62
     5
  6
CONTINUOUS
  0
LAYER
  2
SIZE
 70
     0
 62
    30
  6
CONTINUOUS
  0
LAYER
  2
ARRANGE
 70
     0
 62
     1
  6
CONTINUOUS
  0
LAYER
  2
DEFPOINTS
 70
     0
 62
     7
  6
CONTINUOUS
  0
LAYER
  2
ETC
 70
     0
 62
    61
  6
CONTINUOUS
  0
LAYER
  2
FIX
 70
     0
 62
    11
  6
CONTINUOUS
  0
LAYER
  2
NOTE
 70
     0
 62
     4
  6
CONTINUOUS
  0
LAYER
  2
SERVICESPACE
 70
    64
 62
     2
  6
DASHDOT
  0
LAYER
  2
SYMBOLLINE
 70
    64
 62
    15
  6
CONTINUOUS
  0
ENDTAB
  0
TABLE
  2
STYLE
 70
     1
  0
STYLE
  2
STANDARD
 70
     0
 40
64.0
 41
0.9
 50
0.0
 71
     0
 42
64.0
  3
SIMPLEX.shx
  4
BIGFONT.shx
  0
ENDTAB
  0
TABLE
  2
APPID
 70
    19
  0
APPID
  2
ACAD
 70
     0
  0
APPID
  2
AUTOCAD_POSTSCRIPT_FIGURE
 70
     0
  0
APPID
  2
ACAD_EXEMPT_FROM_CAD_STANDARDS
 70
     0
  0
APPID
  2
ACAD_PSEXT
 70
     0
  0
APPID
  2
ACAUTHENVIRON
 70
     0
  0
APPID
  2
GENIUS_GENOENT_13
 70
     0
  0
APPID
  2
GENIUS_GENCFG_13
 70
     0
  0
APPID
  2
GENIUS_GENCFG0_13
 70
     0
  0
APPID
  2
GENIUS_GENCFG1_13
 70
     0
  0
APPID
  2
GENIUS_GENCFG2_13
 70
     0
  0
APPID
  2
GENIUS_GENCFG3_13
 70
     0
  0
APPID
  2
GENIUS_GENCFG4_13
 70
     0
  0
APPID
  2
GENIUS_GEVCFG0_13
 70
     0
  0
APPID
  2
CONTENTBLOCKICON
 70
     0
  0
APPID
  2
CONTENTBLOCKDESCRIPTION
 70
     0
  0
APPID
  2
ACAD_NAV_VCDISPLAY
 70
     0
  0
APPID
  2
ACAD_MLEADERVER
 70
     0
  0
APPID
  2
ACDBDYNAMICBLOCKTRUENAME
 70
     0
  0
APPID
  2
ACDBDYNAMICBLOCKGUID
 70
     0
  0
ENDTAB
  0
TABLE
  2
DIMSTYLE
 70
     1
  0
DIMSTYLE
  2
STANDARD
 70
     0
  3

  4

  5
_ORIGIN
  6

  7

 40
1.0
 41
12.0
 42
20.0
 43
200.0
 44
20.0
 45
0.0
 46
0.0
 47
0.0
 48
0.0
140
64.0
141
0.09
142
0.0
143
25.399999999999999
144
1.0
145
0.0
146
1.0
147
25.0
 71
     0
 72
     0
 73
     0
 74
     0
 75
     0
 76
     0
 77
     1
 78
     8
170
     0
171
     2
172
     1
173
     0
174
     1
175
     0
176
     7
177
     7
178
     7
  0
ENDTAB
  0
TABLE
  2
VIEW
 70
     1
  0
VIEW
  2
ALL
 70
     0
 40
4282.6198079999986
 10
0.0
 20
41.309904000000003
 41
5940.0
 11
0.0
 21
0.0
 31
1.0
 12
0.0
 22
0.0
 32
0.0
 42
50.0
 43
0.0
 44
0.0
 50
0.0
 71
     0
  0
ENDTAB
  0
TABLE
  2
UCS
 70
     0
  0
ENDTAB
  0
TABLE
  2
VPORT
 70
     1
  0
VPORT
  2
*ACTIVE
 70
     0
 10
0.0
 20
0.0
 11
1.0
 21
1.0
 12
359.82972616309883
 22
91.964731565634736
 13
0.0
 23
0.0
 14
1.0
 24
1.0
 15
0.0
 25
0.0
 16
0.0
 26
0.0
 36
1.0
 17
0.0
 27
0.0
 37
0.0
 40
968.3221094111293
 41
1.747787610619469
 42
50.0
 43
0.0
 44
0.0
 50
0.0
 51
0.0
 71
     0
 72
  1000
 73
     1
 74
     3
 75
     0
 76
     0
 77
     0
 78
     0
  0
ENDTAB
  0
ENDSEC
  0
SECTION
  2
BLOCKS
  0
BLOCK
  8
0
  2
_ORIGIN
 70
     0
 10
0.0
 20
0.0
 30
0.0
  3
_ORIGIN
  1
_ORIGIN
  0
CIRCLE
  8
0
  6
CONTINUOUS
 62
     7
 10
0.0
 20
0.0
 30
0.0
 40
0.5
  0
LINE
  8
0
  6
CONTINUOUS
 62
     7
 10
0.0
 20
0.0
 30
0.0
 11
-1.0
 21
0.0
 31
0.0
  0
ENDBLK
  8
0
  0
ENDSEC
  0
SECTION
  2
ENTITIES
  0
CIRCLE
  8
ARRANGE
  6
CONTINUOUS
 62
     1
 10
0.0
 20
0.0
 30
0.0
 40
40.0
  0
POINT
  8
ARRANGE
  6
CONTINUOUS
 62
     1
 10
0.0
 20
0.0
 30
0.0
  0
TEXT
  8
ETC
  6
CONTINUOUS
 62
    61
 10
345.79045797914841
 20
503.50171197505762
 30
0.0
 40
64.0
  1
EWG-40CSA2-Q_5
 41
0.9
  0
TEXT
  8
ETC
  6
CONTINUOUS
 62
    61
 10
341.60446397914802
 20
385.54640196022638
 30
0.0
 40
64.0
  1
産業扇
 41
0.9
  0
TEXT
  8
ETC
  6
CONTINUOUS
 62
    61
 10
392.30586222770398
 20
277.39762907400109
 30
0.0
 40
40.0
  1
EWG-40CSA2-Q
 41
0.9
  0
TEXT
  8
NOTE
  6
CONTINUOUS
 62
     4
 10
-391.528941724449
 20
-374.36737008823349
 30
0.0
 40
64.0
  1
4-φ14
 41
0.9
 72
     2
 11
-111.20894172444901
 21
-374.36737008823349
 31
0.0
  0
LINE
  8
SIZE
  6
CONTINUOUS
 62
    30
 10
9.9999999998040039
 20
273.01496029197119
 30
0.0
 11
9.9999999998040039
 21
313.38278573767371
 31
0.0
  0
LINE
  8
SIZE
  6
CONTINUOUS
 62
    30
 10
0.0
 20
278.49710982658962
 30
0.0
 11
0.0
 21
313.38278573767371
 31
0.0
  0
LINE
  8
SIZE
  6
CONTINUOUS
 62
    30
 10
21.999999999804
 20
293.38278573767371
 30
0.0
 11
33.999999999803997
 21
293.38278573767371
 31
0.0
  0
LINE
  8
SIZE
  6
CONTINUOUS
 62
    30
 10
-12.0
 20
293.38278573767371
 30
0.0
 11
-156.28571428571431
 21
293.38278573767371
 31
0.0
  0
LINE
  8
SIZE
  6
CONTINUOUS
 62
    30
 10
9.9999999998040039
 20
293.38278573767371
 30
0.0
 11
0.0
 21
293.38278573767371
 31
0.0
  0
CIRCLE
  8
SIZE
  6
CONTINUOUS
 62
    30
 10
9.9999999998040039
 20
293.38278573767371
 30
0.0
 40
6.0
  0
LINE
  8
SIZE
  6
CONTINUOUS
 62
    30
 10
9.9999999998040039
 20
293.38278573767371
 30
0.0
 11
21.999999999804
 21
293.38278573767371
 31
0.0
  0
CIRCLE
  8
SIZE
  6
CONTINUOUS
 62
    30
 10
0.0
 20
293.38278573767371
 30
0.0
 40
6.0
  0
LINE
  8
SIZE
  6
CONTINUOUS
 62
    30
 10
0.0
 20
293.38278573767371
 30
0.0
 11
-12.0
 21
293.38278573767371
 31
0.0
  0
TEXT
  8
SIZE
  6
CONTINUOUS
 62
    30
 10
-131.28571428571431
 20
318.38278573767371
 30
0.0
 40
64.0
  1
10
 41
0.9
 72
     1
 11
-90.142857142857139
 21
318.38278573767371
 31
0.0
  0
POINT
  8
DEFPOINTS
  6
CONTINUOUS
 62
    30
 10
9.9999999998040039
 20
253.01496029197119
 30
0.0
  0
POINT
  8
DEFPOINTS
  6
CONTINUOUS
 62
    30
 10
0.0
 20
258.49710982658962
 30
0.0
  0
POINT
  8
DEFPOINTS
  6
CONTINUOUS
 62
    30
 10
0.0
 20
293.38278573767371
 30
0.0
  0
LINE
  8
SIZE
  6
CONTINUOUS
 62
    30
 10
19.99999999960858
 20
257.99999999960869
 30
0.0
 11
19.99999999960858
 21
313.38278573767371
 31
0.0
  0
LINE
  8
SIZE
  6
CONTINUOUS
 62
    30
 10
9.9999999998040039
 20
273.01496029197119
 30
0.0
 11
9.9999999998040039
 21
313.38278573767371
 31
0.0
  0
LINE
  8
SIZE
  6
CONTINUOUS
 62
    30
 10
-2.0000000001959961
 20
293.38278573767371
 30
0.0
 11
-14.000000000196
 21
293.38278573767371
 31
0.0
  0
LINE
  8
SIZE
  6
CONTINUOUS
 62
    30
 10
31.99999999960858
 20
293.38278573767371
 30
0.0
 11
271.93536202346041
 21
293.38278573767371
 31
0.0
  0
LINE
  8
SIZE
  6
CONTINUOUS
 62
    30
 10
9.9999999998040039
 20
293.38278573767371
 30
0.0
 11
19.99999999960858
 21
293.38278573767371
 31
0.0
  0
CIRCLE
  8
SIZE
  6
CONTINUOUS
 62
    30
 10
9.9999999998040039
 20
293.38278573767371
 30
0.0
 40
6.0
  0
LINE
  8
SIZE
  6
CONTINUOUS
 62
    30
 10
9.9999999998040039
 20
293.38278573767371
 30
0.0
 11
-2.0000000001959961
 21
293.38278573767371
 31
0.0
  0
CIRCLE
  8
SIZE
  6
CONTINUOUS
 62
    30
 10
19.99999999960858
 20
293.38278573767371
 30
0.0
 40
6.0
  0
LINE
  8
SIZE
  6
CONTINUOUS
 62
    30
 10
19.99999999960858
 20
293.38278573767371
 30
0.0
 11
31.99999999960858
 21
293.38278573767371
 31
0.0
  0
TEXT
  8
SIZE
  6
CONTINUOUS
 62
    30
 10
164.64964773774611
 20
318.38278573767371
 30
0.0
 40
64.0
  1
10
 41
0.9
 72
     1
 11
205.79250488060319
 21
318.38278573767371
 31
0.0
  0
POINT
  8
DEFPOINTS
  6
CONTINUOUS
 62
    30
 10
19.99999999960858
 20
237.99999999960869
 30
0.0
  0
POINT
  8
DEFPOINTS
  6
CONTINUOUS
 62
    30
 10
9.9999999998040039
 20
253.01496029197119
 30
0.0
  0
POINT
  8
DEFPOINTS
  6
CONTINUOUS
 62
    30
 10
9.9999999998040039
 20
293.38278573767371
 30
0.0
  0
LINE
  8
SIZE
  6
CONTINUOUS
 62
    30
 10
-18.497109826589391
 20
259.99999999999989
 30
0.0
 11
-268.9956071379633
 21
259.99999999999989
 31
0.0
  0
LINE
  8
SIZE
  6
CONTINUOUS
 62
    30
 10
-18.5
 20
-259.99999722098471
 30
0.0
 11
-268.99560713796347
 21
-259.9999972209846
 31
0.0
  0
LINE
  8
SIZE
  6
CONTINUOUS
 62
    30
 10
-248.9956071379633
 20
247.99999999999989
 30
0.0
 11
-248.99560713796339
 21
-247.9999972209846
 31
0.0
  0
CIRCLE
  8
SIZE
  6
CONTINUOUS
 62
    30
 10
-248.9956071379633
 20
259.99999999999989
 30
0.0
 40
6.0
  0
LINE
  8
SIZE
  6
CONTINUOUS
 62
    30
 10
-248.9956071379633
 20
259.99999999999989
 30
0.0
 11
-248.9956071379633
 21
247.99999999999989
 31
0.0
  0
CIRCLE
  8
SIZE
  6
CONTINUOUS
 62
    30
 10
-248.99560713796339
 20
-259.9999972209846
 30
0.0
 40
6.0
  0
LINE
  8
SIZE
  6
CONTINUOUS
 62
    30
 10
-248.99560713796339
 20
-259.9999972209846
 30
0.0
 11
-248.99560713796339
 21
-247.9999972209846
 31
0.0
  0
TEXT
  8
SIZE
  6
CONTINUOUS
 62
    30
 10
-273.99560713796347
 20
-80.859766315696021
 30
0.0
 40
64.0
  1
520
 50
90.0
 41
0.9
 72
     1
 11
-273.99560713796347
 21
-6.8026234585531711
 31
0.0
  0
POINT
  8
DEFPOINTS
  6
CONTINUOUS
 62
    30
 10
1.5028901734106059
 20
259.99999999999989
 30
0.0
  0
POINT
  8
DEFPOINTS
  6
CONTINUOUS
 62
    30
 10
1.5
 20
-259.99999722098471
 30
0.0
  0
POINT
  8
DEFPOINTS
  6
CONTINUOUS
 62
    30
 10
-248.99560713796339
 20
-259.9999972209846
 30
0.0
  0
LINE
  8
SIZE
  6
CONTINUOUS
 62
    30
 10
-40.648879607115532
 20
230.44315992292869
 30
0.0
 11
-150.43124537190661
 21
230.44315992292869
 31
0.0
  0
LINE
  8
SIZE
  6
CONTINUOUS
 62
    30
 10
-40.648879607115532
 20
-230.44315992292869
 30
0.0
 11
-150.43124537190681
 21
-230.44315992292869
 31
0.0
  0
LINE
  8
SIZE
  6
CONTINUOUS
 62
    30
 10
-130.43124537190661
 20
218.44315992292869
 30
0.0
 11
-130.43124537190681
 21
-218.44315992292869
 31
0.0
  0
CIRCLE
  8
SIZE
  6
CONTINUOUS
 62
    30
 10
-130.43124537190661
 20
230.44315992292869
 30
0.0
 40
6.0
  0
LINE
  8
SIZE
  6
CONTINUOUS
 62
    30
 10
-130.43124537190661
 20
230.44315992292869
 30
0.0
 11
-130.43124537190661
 21
218.44315992292869
 31
0.0
  0
CIRCLE
  8
SIZE
  6
CONTINUOUS
 62
    30
 10
-130.43124537190681
 20
-230.44315992292869
 30
0.0
 40
6.0
  0
LINE
  8
SIZE
  6
CONTINUOUS
 62
    30
 10
-130.43124537190681
 20
-230.44315992292869
 30
0.0
 11
-130.43124537190681
 21
-218.44315992292869
 31
0.0
  0
TEXT
  8
SIZE
  6
CONTINUOUS
 62
    30
 10
-155.4312453719067
 20
-74.05714285714285
 30
0.0
 40
64.0
  1
460
 50
90.0
 41
0.9
 72
     1
 11
-155.4312453719067
 21
0.0
 31
0.0
  0
POINT
  8
DEFPOINTS
  6
CONTINUOUS
 62
    30
 10
-20.648879607115529
 20
230.44315992292869
 30
0.0
  0
POINT
  8
DEFPOINTS
  6
CONTINUOUS
 62
    30
 10
-20.648879607115529
 20
-230.44315992292869
 30
0.0
  0
POINT
  8
DEFPOINTS
  6
CONTINUOUS
 62
    30
 10
-130.43124537190681
 20
-230.44315992292869
 30
0.0
  0
CIRCLE
  8
FIX
  6
CONTINUOUS
 62
    11
 10
0.0000000000002274
 20
-230.44315992292869
 30
0.0
 40
7.0
  0
CIRCLE
  8
FIX
  6
CONTINUOUS
 62
    11
 10
0.0
 20
230.4431599229284
 30
0.0
 40
7.0
  0
LINE
  8
SIZE
  6
CONTINUOUS
 62
    30
 10
0.0
 20
278.49710982658962
 30
0.0
 11
0.0
 21
423.61822213141681
 31
0.0
  0
LINE
  8
SIZE
  6
CONTINUOUS
 62
    30
 10
135.26011560693539
 20
229.80344138052709
 30
0.0
 11
135.26011560693539
 21
423.61822213141681
 31
0.0
  0
LINE
  8
SIZE
  6
CONTINUOUS
 62
    30
 10
123.2601156069354
 20
403.61822213141681
 30
0.0
 11
12.0
 21
403.61822213141681
 31
0.0
  0
LINE
  8
SIZE
  6
CONTINUOUS
 62
    30
 10
0.0
 20
403.61822213141681
 30
0.0
 11
-199.14285714285711
 21
403.61822213141681
 31
0.0
  0
CIRCLE
  8
SIZE
  6
CONTINUOUS
 62
    30
 10
135.26011560693539
 20
403.61822213141681
 30
0.0
 40
6.0
  0
LINE
  8
SIZE
  6
CONTINUOUS
 62
    30
 10
135.26011560693539
 20
403.61822213141681
 30
0.0
 11
123.2601156069354
 21
403.61822213141681
 31
0.0
  0
CIRCLE
  8
SIZE
  6
CONTINUOUS
 62
    30
 10
0.0
 20
403.61822213141681
 30
0.0
 40
6.0
  0
LINE
  8
SIZE
  6
CONTINUOUS
 62
    30
 10
0.0
 20
403.61822213141681
 30
0.0
 11
12.0
 21
403.61822213141681
 31
0.0
  0
TEXT
  8
SIZE
  6
CONTINUOUS
 62
    30
 10
-174.1428571428572
 20
428.61822213141681
 30
0.0
 40
64.0
  1
135
 41
0.9
 72
     1
 11
-105.5714285714286
 21
428.61822213141681
 31
0.0
  0
POINT
  8
DEFPOINTS
  6
CONTINUOUS
 62
    30
 10
0.0
 20
258.49710982658962
 30
0.0
  0
POINT
  8
DEFPOINTS
  6
CONTINUOUS
 62
    30
 10
135.26011560693539
 20
209.80344138052709
 30
0.0
  0
POINT
  8
DEFPOINTS
  6
CONTINUOUS
 62
    30
 10
135.26011560693539
 20
403.61822213141681
 30
0.0
  0
LINE
  8
SIZE
  6
CONTINUOUS
 62
    30
 10
0.0000000000002274
 20
278.49710982658962
 30
0.0
 11
0.0000000000002274
 21
503.79932798255408
 31
0.0
  0
LINE
  8
SIZE
  6
CONTINUOUS
 62
    30
 10
286.15028901734132
 20
-54.743738513875428
 30
0.0
 11
286.15028901734132
 21
503.79932798255408
 31
0.0
  0
LINE
  8
SIZE
  6
CONTINUOUS
 62
    30
 10
12.000000000000229
 20
483.79932798255408
 30
0.0
 11
274.15028901734132
 21
483.79932798255408
 31
0.0
  0
CIRCLE
  8
SIZE
  6
CONTINUOUS
 62
    30
 10
0.0000000000002274
 20
483.79932798255408
 30
0.0
 40
6.0
  0
LINE
  8
SIZE
  6
CONTINUOUS
 62
    30
 10
0.0000000000002274
 20
483.79932798255408
 30
0.0
 11
12.000000000000229
 21
483.79932798255408
 31
0.0
  0
CIRCLE
  8
SIZE
  6
CONTINUOUS
 62
    30
 10
286.15028901734132
 20
483.79932798255408
 30
0.0
 40
6.0
  0
LINE
  8
SIZE
  6
CONTINUOUS
 62
    30
 10
286.15028901734132
 20
483.79932798255408
 30
0.0
 11
274.15028901734132
 21
483.79932798255408
 31
0.0
  0
TEXT
  8
SIZE
  6
CONTINUOUS
 62
    30
 10
69.018001651527868
 20
508.79932798255408
 30
0.0
 40
64.0
  1
285
 41
0.9
 72
     1
 11
143.07514450867069
 21
508.79932798255408
 31
0.0
  0
POINT
  8
DEFPOINTS
  6
CONTINUOUS
 62
    30
 10
0.0000000000002274
 20
258.49710982658962
 30
0.0
  0
POINT
  8
DEFPOINTS
  6
CONTINUOUS
 62
    30
 10
286.15028901734132
 20
-74.743738513875428
 30
0.0
  0
POINT
  8
DEFPOINTS
  6
CONTINUOUS
 62
    30
 10
286.15028901734132
 20
483.79932798255408
 30
0.0
  0
TEXT
  8
NOTE
  6
CONTINUOUS
 62
     4
 10
249.8826429066381
 20
-328.11561265162652
 30
0.0
 40
64.0
  1
EL
 41
0.9
  0
LINE
  8
SIZE
  6
CONTINUOUS
 62
    30
 10
291.15812725195798
 20
72.302357653279159
 30
0.0
 11
456.47185397387187
 21
72.302357653279103
 31
0.0
  0
LINE
  8
SIZE
  6
CONTINUOUS
 62
    30
 10
291.15812717518702
 20
-107.3698105256364
 30
0.0
 11
456.47185397387187
 21
-107.3698105256364
 31
0.0
  0
LINE
  8
SIZE
  6
CONTINUOUS
 62
    30
 10
436.47185397387187
 20
60.302357653279103
 30
0.0
 11
436.47185397387187
 21
-95.36981052563641
 31
0.0
  0
CIRCLE
  8
SIZE
  6
CONTINUOUS
 62
    30
 10
436.47185397387187
 20
72.302357653279103
 30
0.0
 40
6.0
  0
LINE
  8
SIZE
  6
CONTINUOUS
 62
    30
 10
436.47185397387187
 20
72.302357653279103
 30
0.0
 11
436.47185397387187
 21
60.302357653279103
 31
0.0
  0
CIRCLE
  8
SIZE
  6
CONTINUOUS
 62
    30
 10
436.47185397387187
 20
-107.3698105256364
 30
0.0
 40
6.0
  0
LINE
  8
SIZE
  6
CONTINUOUS
 62
    30
 10
436.47185397387187
 20
-107.3698105256364
 30
0.0
 11
436.47185397387187
 21
-95.36981052563641
 31
0.0
  0
TEXT
  8
SIZE
  6
CONTINUOUS
 62
    30
 10
411.47185397387187
 20
-66.303045316167541
 30
0.0
 40
64.0
  1
181
 50
90.0
 41
0.9
 72
     1
 11
411.47185397387187
 21
-10.074473887596129
 31
0.0
  0
POINT
  8
DEFPOINTS
  6
CONTINUOUS
 62
    30
 10
271.15812725195809
 20
72.302357653279159
 30
0.0
  0
POINT
  8
DEFPOINTS
  6
CONTINUOUS
 62
    30
 10
271.15812717518708
 20
-107.3698105256364
 30
0.0
  0
POINT
  8
DEFPOINTS
  6
CONTINUOUS
 62
    30
 10
436.47185397387187
 20
-107.3698105256364
 30
0.0
  0
LINE
  8
NOTE
  6
CONTINUOUS
 62
     4
 10
46.771965994480638
 20
-230.4431599229288
 30
0.0
 11
-27.531861756715781
 21
-230.4431599229288
 31
0.0
  0
LINE
  8
NOTE
  6
CONTINUOUS
 62
     4
 10
46.771965994480638
 20
230.4431599229288
 30
0.0
 11
-27.531861756715781
 21
230.4431599229288
 31
0.0
  0
LINE
  8
DETAIL
  6
CONTINUOUS
 62
     4
 10
98.263888028593158
 20
-212.14106975353991
 30
0.0
 11
95.521392315499781
 21
-206.56761332564301
 31
0.0
  0
LINE
  8
DETAIL
  6
CONTINUOUS
 62
     4
 10
95.521392315499781
 20
-206.56761332564301
 30
0.0
 11
100.6831966940057
 21
-210.02311254399589
 31
0.0
  0
LINE
  8
DETAIL
  6
CONTINUOUS
 62
     4
 10
95.521392315499781
 20
-206.56761332564301
 30
0.0
 11
103.42569240709911
 21
-215.59656897189271
 31
0.0
  0
LINE
  8
NOTE
  6
CONTINUOUS
 62
     4
 10
103.42569240709911
 20
-215.59656897189271
 30
0.0
 11
224.88264290663861
 21
-354.33490206663322
 31
0.0
  0
LINE
  8
NOTE
  6
CONTINUOUS
 62
     4
 10
224.88264290663861
 20
-354.33490206663322
 30
0.0
 11
344.0995518535816
 21
-353.80453052892278
 31
0.0
  0
LINE
  8
DETAIL
  6
CONTINUOUS
 62
     4
 10
-4.6352176254302444
 20
-234.5783088748897
 30
0.0
 11
0.0
 21
-230.44315992292911
 31
0.0
  0
LINE
  8
DETAIL
  6
CONTINUOUS
 62
     4
 10
0.0
 20
-230.44315992292911
 30
0.0
 11
-1.9466328506207451
 21
-236.34191570994761
 31
0.0
  0
LINE
  8
DETAIL
  6
CONTINUOUS
 62
     4
 10
0.0
 20
-230.44315992292911
 30
0.0
 11
-6.5818504760509882
 21
-240.47706466190829
 31
0.0
  0
LINE
  8
NOTE
  6
CONTINUOUS
 62
     4
 10
-6.5818504760509882
 20
-240.4770646619082
 30
0.0
 11
-103.8777347687132
 21
-388.80277306861922
 31
0.0
  0
LINE
  8
NOTE
  6
CONTINUOUS
 62
     4
 10
-103.8777347687132
 20
-388.80277306861922
 30
0.0
 11
-389.7748371153848
 21
-388.49263268102482
 31
0.0
  0
ARC
  8
OUTLINE
  6
CONTINUOUS
 62
     3
 10
1.5028901734103779
 20
-258.49710982658962
 30
0.0
 40
1.5028901734103779
 50
180.0
 51
0.0
  0
LINE
  8
OUTLINE
  6
CONTINUOUS
 62
     3
 10
0.0
 20
-258.49710982658962
 30
0.0
 11
0.0
 21
258.49710982658962
 31
0.0
  0
ARC
  8
OUTLINE
  6
CONTINUOUS
 62
     3
 10
1.5028901734103779
 20
258.49710982658962
 30
0.0
 40
1.5028901734103779
 50
0.0
 51
180.0
  0
LINE
  8
OUTLINE
  6
CONTINUOUS
 62
     3
 10
10.019267822735859
 20
250.1758680125117
 30
0.0
 11
10.019267822735859
 21
253.38728323699431
 31
0.0
  0
ARC
  8
OUTLINE
  6
CONTINUOUS
 62
     3
 10
6.4123314065509476
 20
253.38728323699431
 30
0.0
 40
3.606936416184908
 50
0.0
 51
90.0
  0
LINE
  8
OUTLINE
  6
CONTINUOUS
 62
     3
 10
6.4123314065509476
 20
256.99421965317919
 30
0.0
 11
3.0057803468203019
 21
256.99421965317919
 31
0.0
  0
ARC
  8
OUTLINE
  6
CONTINUOUS
 62
     3
 10
16.4315992292868
 20
243.36801541425831
 30
0.0
 40
3.606936416184908
 50
0.0
 51
90.0
  0
LINE
  8
OUTLINE
  6
CONTINUOUS
 62
     3
 10
16.4315992292868
 20
246.97495183044339
 30
0.0
 11
13.894357251556359
 21
246.97495183044339
 31
0.0
  0
LINE
  8
OUTLINE
  6
CONTINUOUS
 62
     3
 10
3.0057803468203019
 20
256.99421965317919
 30
0.0
 11
3.0057803468203019
 21
258.49710982658962
 31
0.0
  0
LINE
  8
OUTLINE
  6
CONTINUOUS
 62
     3
 10
20.038535645471711
 20
233.34874759154309
 30
0.0
 11
20.038535645471711
 21
243.36801541425831
 31
0.0
  0
ARC
  8
OUTLINE
  6
CONTINUOUS
 62
     3
 10
133.2562620423887
 20
209.80346820809251
 30
0.0
 40
2.0038535645471711
 50
0.0
 51
180.0
  0
LINE
  8
OUTLINE
  6
CONTINUOUS
 62
     3
 10
131.2524084778411
 20
209.74581109135971
 30
0.0
 11
131.2524084778411
 21
206.53232368060461
 31
0.0
  0
LINE
  8
OUTLINE
  6
CONTINUOUS
 62
     3
 10
131.25240847784241
 20
206.53232368060461
 30
0.0
 11
54.98426174571614
 21
206.53232368060461
 31
0.0
  0
LINE
  8
OUTLINE
  6
CONTINUOUS
 62
     3
 10
135.26011560693539
 20
209.80344138052709
 30
0.0
 11
135.26011560693539
 21
206.53232368060461
 31
0.0
  0
LINE
  8
OUTLINE
  6
CONTINUOUS
 62
     3
 10
155.29865125240801
 20
206.53232368060461
 30
0.0
 11
135.26011560693539
 21
206.53232368060461
 31
0.0
  0
ARC
  8
OUTLINE
  6
CONTINUOUS
 62
     3
 10
267.81502890173351
 20
79.653179190751416
 30
0.0
 40
1.6030828516377369
 50
0.0
 51
90.0
  0
ARC
  8
OUTLINE
  6
CONTINUOUS
 62
     3
 10
273.32562620423778
 20
-110.6210590766957
 30
0.0
 40
3.9075144508670152
 50
123.6900674696015
 51
180.0
  0
LINE
  8
OUTLINE
  6
CONTINUOUS
 62
     3
 10
282.39468760563477
 20
-99.878770254284973
 30
0.0
 11
271.15812717453542
 21
-107.369810525636
 31
0.0
  0
ARC
  8
OUTLINE
  6
CONTINUOUS
 62
     3
 10
279.83815028901648
 20
-96.04396427090046
 30
0.0
 40
4.6088631984586801
 50
303.69006746959991
 51
0.0
  0
LINE
  8
OUTLINE
  6
CONTINUOUS
 62
     3
 10
284.44701348747589
 20
-96.04396427090046
 30
0.0
 11
284.44701348747589
 21
60.976511833145651
 31
0.0
  0
ARC
  8
OUTLINE
  6
CONTINUOUS
 62
     3
 10
279.83815028901648
 20
60.976511833145651
 30
0.0
 40
4.6088631984584936
 50
0.0
 51
56.309933883691222
  0
LINE
  8
OUTLINE
  6
CONTINUOUS
 62
     3
 10
282.39468751520047
 20
64.811317877036345
 30
0.0
 11
271.15812725130672
 21
72.302357653279387
 31
0.0
  0
ARC
  8
OUTLINE
  6
CONTINUOUS
 62
     3
 10
273.32562620423778
 20
75.553606255736668
 30
0.0
 40
3.9075144508669841
 50
180.0
 51
236.30993388369129
  0
LINE
  8
OUTLINE
  6
CONTINUOUS
 62
     3
 10
257.49518304431558
 20
131.0803515374223
 30
0.0
 11
257.49518304431558
 21
81.25626204238938
 31
0.0
  0
LINE
  8
OUTLINE
  6
CONTINUOUS
 62
     3
 10
257.49518304431558
 20
81.25626204238938
 30
0.0
 11
267.81502890173351
 21
81.25626204238938
 31
0.0
  0
LINE
  8
OUTLINE
  6
CONTINUOUS
 62
     3
 10
269.4181117533717
 20
75.553606255736668
 30
0.0
 11
269.4181117533717
 21
79.653179190751416
 31
0.0
  0
LINE
  8
OUTLINE
  6
CONTINUOUS
 62
     3
 10
269.4181117533717
 20
-114.7205908598453
 30
0.0
 11
269.4181117533717
 21
-110.6210590766957
 31
0.0
  0
LINE
  8
OUTLINE
  6
CONTINUOUS
 62
     3
 10
257.99452438495558
 20
-116.3236994219651
 30
0.0
 11
257.49518304431558
 21
-116.3236994219651
 31
0.0
  0
LINE
  8
OUTLINE
  6
CONTINUOUS
 62
     3
 10
257.99452438495558
 20
-116.3236994219651
 30
0.0
 11
267.81502890173351
 21
-116.3236994219651
 31
0.0
  0
ARC
  8
OUTLINE
  6
CONTINUOUS
 62
     3
 10
267.81502890173351
 20
-114.72061657032739
 30
0.0
 40
1.6030828516377369
 50
270.0
 51
0.0
  0
LINE
  8
OUTLINE
  6
CONTINUOUS
 62
     3
 10
257.49518304431558
 20
-116.3236994219651
 30
0.0
 11
257.49518304431558
 21
-131.0803515374221
 31
0.0
  0
LINE
  8
OUTLINE
  6
CONTINUOUS
 62
     3
 10
131.2524084778411
 20
-206.53232368060461
 30
0.0
 11
131.2524084778411
 21
-209.80346820809251
 31
0.0
  0
ARC
  8
OUTLINE
  6
CONTINUOUS
 62
     3
 10
133.2562620423887
 20
-209.80346820809251
 30
0.0
 40
2.0038535645471711
 50
180.0
 51
0.0
  0
LINE
  8
OUTLINE
  6
CONTINUOUS
 62
     3
 10
135.26011560693539
 20
-206.53232368060461
 30
0.0
 11
135.26011560693539
 21
-209.80346820809251
 31
0.0
  0
LINE
  8
OUTLINE
  6
CONTINUOUS
 62
     3
 10
135.26011560693539
 20
-206.53232368060461
 30
0.0
 11
155.29865125240801
 21
-206.53232368060461
 31
0.0
  0
ARC
  8
OUTLINE
  6
CONTINUOUS
 62
     3
 10
6.4123314065509476
 20
-253.38728323699411
 30
0.0
 40
3.6069364161849649
 50
270.0
 51
0.0
  0
LINE
  8
OUTLINE
  6
CONTINUOUS
 62
     3
 10
3.0057803468203019
 20
-256.99421965317902
 30
0.0
 11
6.4123314065509476
 21
-256.99421965317902
 31
0.0
  0
LINE
  8
OUTLINE
  6
CONTINUOUS
 62
     3
 10
10.019267822735859
 20
-253.38728323699411
 30
0.0
 11
10.019267822735859
 21
-250.1758680125115
 31
0.0
  0
LINE
  8
OUTLINE
  6
CONTINUOUS
 62
     3
 10
13.894357251556359
 20
-246.9749518304429
 30
0.0
 11
16.4315992292868
 21
-246.9749518304429
 31
0.0
  0
ARC
  8
OUTLINE
  6
CONTINUOUS
 62
     3
 10
16.4315992292868
 20
-243.368015414258
 30
0.0
 40
3.606936416185023
 50
270.0
 51
0.0
  0
LINE
  8
OUTLINE
  6
CONTINUOUS
 62
     3
 10
54.984261745712502
 20
-206.53232368060461
 30
0.0
 11
131.2524084778411
 21
-206.53232368060461
 31
0.0
  0
LINE
  8
OUTLINE
  6
CONTINUOUS
 62
     3
 10
20.038535645471711
 20
-243.368015414258
 30
0.0
 11
20.038535645471711
 21
-233.34874759171271
 31
0.0
  0
LINE
  8
OUTLINE
  6
CONTINUOUS
 62
     3
 10
3.0057803468203019
 20
-258.49710982658962
 30
0.0
 11
3.0057803468203019
 21
-256.99421965317902
 31
0.0
  0
LINE
  8
DETAIL
  6
CONTINUOUS
 62
     5
 10
6.412331406551175
 20
-256.99421965317919
 30
0.0
 11
3.0057803468207571
 21
-256.99421965317919
 31
0.0
  0
LINE
  8
DETAIL
  6
CONTINUOUS
 62
     5
 10
3.0057803468207571
 20
-253.8226442489304
 30
0.0
 11
5.1098265895955137
 21
-253.8226442489304
 31
0.0
  0
LINE
  8
DETAIL
  6
CONTINUOUS
 62
     5
 10
16.431599229287031
 20
-246.97495183044319
 30
0.0
 11
13.89435725220835
 21
-246.97495183044319
 31
0.0
  0
LINE
  8
DETAIL
  6
CONTINUOUS
 62
     5
 10
75.394990366088791
 20
-208.79391491464611
 30
0.0
 11
78.901734104046113
 21
-208.79391491464611
 31
0.0
  0
LINE
  8
DETAIL
  6
CONTINUOUS
 62
     5
 10
155.29865125240869
 20
-206.53232368060461
 30
0.0
 11
14.527938342967451
 21
-206.53232368060461
 31
0.0
  0
LINE
  8
DETAIL
  6
CONTINUOUS
 62
     5
 10
5.1098265895955137
 20
-204.22979870900571
 30
0.0
 11
3.0057803468207571
 21
-204.22979870900571
 31
0.0
  0
LINE
  8
DETAIL
  6
CONTINUOUS
 62
     5
 10
14.527938342967451
 20
-203.34421218136779
 30
0.0
 11
155.29865125240869
 21
-203.34421218136779
 31
0.0
  0
LINE
  8
DETAIL
  6
CONTINUOUS
 62
     5
 10
18.088203018141709
 20
-174.3572181861723
 30
0.0
 11
18.53564547206167
 21
-175.13221124965591
 31
0.0
  0
LINE
  8
DETAIL
  6
CONTINUOUS
 62
     5
 10
0.0
 20
258.49710982658962
 30
0.0
 11
0.0
 21
-258.49710982658968
 31
0.0
  0
LINE
  8
DETAIL
  6
CONTINUOUS
 62
     5
 10
3.0057803468207571
 20
258.49710982658962
 30
0.0
 11
3.0057803468207571
 21
-258.49710982658968
 31
0.0
  0
LINE
  8
DETAIL
  6
CONTINUOUS
 62
     5
 10
5.1098265895955137
 20
253.82264424893009
 30
0.0
 11
5.1098265895956843
 21
204.22979870900491
 31
0.0
  0
LINE
  8
DETAIL
  6
CONTINUOUS
 62
     5
 10
5.1098265895955137
 20
-253.8226442489304
 30
0.0
 11
5.1098265895955137
 21
-203.82636743547781
 31
0.0
  0
LINE
  8
DETAIL
  6
CONTINUOUS
 62
     5
 10
10.01926782273631
 20
253.38728323699411
 30
0.0
 11
10.01926782273631
 21
250.1758680125115
 31
0.0
  0
LINE
  8
DETAIL
  6
CONTINUOUS
 62
     5
 10
10.01926782273631
 20
189.28735474113549
 30
0.0
 11
10.01926782273631
 21
-189.28735474048489
 31
0.0
  0
LINE
  8
DETAIL
  6
CONTINUOUS
 62
     5
 10
10.01926782273631
 20
-189.28735474048489
 30
0.0
 11
10.01926782273631
 21
-194.90771509461251
 31
0.0
  0
LINE
  8
DETAIL
  6
CONTINUOUS
 62
     5
 10
10.01926782273631
 20
-250.1758680125117
 30
0.0
 11
10.01926782273631
 21
-253.38728323699431
 31
0.0
  0
LINE
  8
DETAIL
  6
CONTINUOUS
 62
     5
 10
10.01926782273631
 20
189.28735474113549
 30
0.0
 11
10.01926782273631
 21
194.90771509461251
 31
0.0
  0
LINE
  8
DETAIL
  6
CONTINUOUS
 62
     5
 10
3.0057803468207571
 20
-192.89429115667011
 30
0.0
 11
6.412331406551175
 21
-192.89429115667011
 31
0.0
  0
LINE
  8
DETAIL
  6
CONTINUOUS
 62
     5
 10
14.527938342967451
 20
-185.92647213587571
 30
0.0
 11
18.088203018141709
 21
-185.92647213587571
 31
0.0
  0
LINE
  8
DETAIL
  6
CONTINUOUS
 62
     5
 10
14.527938342967451
 20
-183.0341586484499
 30
0.0
 11
18.088203018141709
 21
-183.0341586484499
 31
0.0
  0
LINE
  8
DETAIL
  6
CONTINUOUS
 62
     5
 10
155.29865125240869
 20
-180.67319707734649
 30
0.0
 11
18.53564547206167
 21
-180.67319707734649
 31
0.0
  0
LINE
  8
DETAIL
  6
CONTINUOUS
 62
     5
 10
14.527938342967451
 20
-177.24953167359831
 30
0.0
 11
18.088203018141709
 21
-177.24953167359831
 31
0.0
  0
LINE
  8
DETAIL
  6
CONTINUOUS
 62
     5
 10
14.527938342967451
 20
244.5005606345369
 30
0.0
 11
14.527938342967451
 21
203.34421218136779
 31
0.0
  0
LINE
  8
DETAIL
  6
CONTINUOUS
 62
     5
 10
14.527938342967451
 20
200.2048355523859
 30
0.0
 11
14.527938342967451
 21
163.1385838328454
 31
0.0
  0
LINE
  8
DETAIL
  6
CONTINUOUS
 62
     5
 10
14.527938342967451
 20
-163.1385838328456
 30
0.0
 11
14.527938342967451
 21
-200.2048355523859
 31
0.0
  0
LINE
  8
DETAIL
  6
CONTINUOUS
 62
     5
 10
14.527938342967451
 20
-200.2048355523859
 30
0.0
 11
14.527938342967451
 21
-203.34421218136779
 31
0.0
  0
LINE
  8
DETAIL
  6
CONTINUOUS
 62
     5
 10
14.527938342967451
 20
-203.34421218136779
 30
0.0
 11
14.527938342967451
 21
-244.5005606345369
 31
0.0
  0
LINE
  8
DETAIL
  6
CONTINUOUS
 62
     5
 10
14.527938342967451
 20
200.2048355523859
 30
0.0
 11
14.527938342967451
 21
203.34421218136779
 31
0.0
  0
LINE
  8
DETAIL
  6
CONTINUOUS
 62
     5
 10
18.53564547206167
 20
216.32412484017709
 30
0.0
 11
18.53564547206167
 21
206.53232368060461
 31
0.0
  0
LINE
  8
DETAIL
  6
CONTINUOUS
 62
     5
 10
18.53564547206167
 20
-175.13221124965591
 30
0.0
 11
18.53564547206167
 21
-185.15147907239199
 31
0.0
  0
LINE
  8
DETAIL
  6
CONTINUOUS
 62
     5
 10
20.038535645472169
 20
243.36801541425831
 30
0.0
 11
20.038535645472169
 21
206.53232368060461
 31
0.0
  0
LINE
  8
DETAIL
  6
CONTINUOUS
 62
     5
 10
20.038535645472169
 20
180.67319707734649
 30
0.0
 11
20.038535645472169
 21
-180.67319707734649
 31
0.0
  0
LINE
  8
DETAIL
  6
CONTINUOUS
 62
     5
 10
20.038535645472169
 20
-206.53232368060461
 30
0.0
 11
20.038535645472169
 21
-243.36801541425831
 31
0.0
  0
LINE
  8
DETAIL
  6
CONTINUOUS
 62
     5
 10
14.527938342967451
 20
-174.3572181861723
 30
0.0
 11
18.088203018141709
 21
-174.3572181861723
 31
0.0
  0
LINE
  8
DETAIL
  6
CONTINUOUS
 62
     5
 10
14.527938342967451
 20
-163.1385838328456
 30
0.0
 11
10.01926782273631
 21
-163.1385838328456
 31
0.0
  0
LINE
  8
DETAIL
  6
CONTINUOUS
 62
     5
 10
13.02504816955695
 20
-151.09460705917971
 30
0.0
 11
16.431599229287031
 21
-151.09460705917971
 31
0.0
  0
LINE
  8
DETAIL
  6
CONTINUOUS
 62
     5
 10
75.394990366088791
 20
-206.53232368060461
 30
0.0
 11
75.394990366088791
 21
-208.79312059359901
 31
0.0
  0
LINE
  8
DETAIL
  6
CONTINUOUS
 62
     5
 10
257.49518304431598
 20
-116.82466281310209
 30
0.0
 11
257.99614643545277
 21
-116.82466281310209
 31
0.0
  0
LINE
  8
DETAIL
  6
CONTINUOUS
 62
     5
 10
257.49518304431598
 20
-116.3236994219653
 30
0.0
 11
257.99452438560661
 21
-116.3236994219653
 31
0.0
  0
LINE
  8
DETAIL
  6
CONTINUOUS
 62
     5
 10
78.901734104046113
 20
-206.53232368060461
 30
0.0
 11
78.901734104046113
 21
-208.79312059359901
 31
0.0
  0
LINE
  8
DETAIL
  6
CONTINUOUS
 62
     5
 10
18.088203018141709
 20
-185.92647213587571
 30
0.0
 11
18.53564547206167
 21
-185.15147907239199
 31
0.0
  0
LINE
  8
DETAIL
  6
CONTINUOUS
 62
     5
 10
284.44701348747589
 20
-83.260115606936324
 30
0.0
 11
285.64932562620447
 21
-83.260115606936324
 31
0.0
  0
LINE
  8
DETAIL
  6
CONTINUOUS
 62
     5
 10
284.44701348747589
 20
-74.242774566474054
 30
0.0
 11
285.64932562620447
 21
-74.242774566474054
 31
0.0
  0
LINE
  8
DETAIL
  6
CONTINUOUS
 62
     5
 10
216.71676300578039
 20
-71.337186897880429
 30
0.0
 11
217.2177263969173
 21
-71.337186897880429
 31
0.0
  0
LINE
  8
DETAIL
  6
CONTINUOUS
 62
     5
 10
217.2177263969173
 20
-71.136801541425712
 30
0.0
 11
218.82080924855501
 21
-71.136801541425712
 31
0.0
  0
LINE
  8
DETAIL
  6
CONTINUOUS
 62
     5
 10
220.4238921001928
 20
-68.631984585741748
 30
0.0
 11
216.91714836223511
 21
-68.631984585741748
 31
0.0
  0
LINE
  8
DETAIL
  6
CONTINUOUS
 62
     5
 10
220.4238921001928
 20
-65.626204238920991
 30
0.0
 11
216.91714836223511
 21
-65.626204238920991
 31
0.0
  0
LINE
  8
DETAIL
  6
CONTINUOUS
 62
     5
 10
131.25240847784221
 20
-209.74581109070891
 30
0.0
 11
131.25240847784221
 21
-206.53232368060461
 31
0.0
  0
LINE
  8
DETAIL
  6
CONTINUOUS
 62
     5
 10
131.25240847784221
 20
-180.67319707734649
 30
0.0
 11
131.25240847784221
 21
180.67319707734649
 31
0.0
  0
LINE
  8
DETAIL
  6
CONTINUOUS
 62
     5
 10
131.25240847784221
 20
206.53232368060461
 30
0.0
 11
131.25240847784221
 21
209.80346820809251
 31
0.0
  0
LINE
  8
DETAIL
  6
CONTINUOUS
 62
     5
 10
135.26011560693669
 20
-209.80344138052689
 30
0.0
 11
135.26011560693669
 21
-206.53232368060461
 31
0.0
  0
LINE
  8
DETAIL
  6
CONTINUOUS
 62
     5
 10
135.26011560693669
 20
-180.67319707734649
 30
0.0
 11
135.26011560693669
 21
180.67319707734649
 31
0.0
  0
LINE
  8
DETAIL
  6
CONTINUOUS
 62
     5
 10
135.26011560693669
 20
206.53232368060461
 30
0.0
 11
135.26011560693669
 21
209.80346820809251
 31
0.0
  0
LINE
  8
DETAIL
  6
CONTINUOUS
 62
     5
 10
144.67822736030851
 20
-14.954426332957841
 30
0.0
 11
144.67822736030851
 21
-26.057750734429419
 31
0.0
  0
LINE
  8
DETAIL
  6
CONTINUOUS
 62
     5
 10
216.71676300578039
 20
-61.919075144508717
 30
0.0
 11
217.2177263969173
 21
-61.919075144508717
 31
0.0
  0
LINE
  8
DETAIL
  6
CONTINUOUS
 62
     5
 10
258.89788053949877
 20
-60.11560693641627
 30
0.0
 11
256.39306358381509
 21
-60.11560693641627
 31
0.0
  0
LINE
  8
DETAIL
  6
CONTINUOUS
 62
     5
 10
220.4238921001928
 20
-53.6257273474464
 30
0.0
 11
217.2177263969173
 21
-53.6257273474464
 31
0.0
  0
LINE
  8
DETAIL
  6
CONTINUOUS
 62
     5
 10
217.2177263969173
 20
-51.740904842679583
 30
0.0
 11
213.56797323043801
 21
-51.740904842679583
 31
0.0
  0
LINE
  8
DETAIL
  6
CONTINUOUS
 62
     5
 10
146.5818882466283
 20
-49.595375722543388
 30
0.0
 11
147.58381502890191
 21
-49.595375722543388
 31
0.0
  0
LINE
  8
DETAIL
  6
CONTINUOUS
 62
     5
 10
217.2177263969173
 20
-49.427054052348467
 30
0.0
 11
213.56797323043801
 21
-49.427054052348467
 31
0.0
  0
LINE
  8
DETAIL
  6
CONTINUOUS
 62
     5
 10
213.2100192678225
 20
-49.117056827215272
 30
0.0
 11
210.40462427745661
 21
-49.117056827215272
 31
0.0
  0
LINE
  8
DETAIL
  6
CONTINUOUS
 62
     5
 10
213.2100192678225
 20
-45.109349698120923
 30
0.0
 11
210.40462427745661
 21
-45.109349698120923
 31
0.0
  0
LINE
  8
DETAIL
  6
CONTINUOUS
 62
     5
 10
217.2177263969173
 20
-44.799352472987493
 30
0.0
 11
213.56797323043801
 21
-44.799352472987493
 31
0.0
  0
LINE
  8
DETAIL
  6
CONTINUOUS
 62
     5
 10
217.2177263969173
 20
-42.48550168330712
 30
0.0
 11
213.56797323043801
 21
-42.48550168330712
 31
0.0
  0
LINE
  8
DETAIL
  6
CONTINUOUS
 62
     5
 10
285.4489402697493
 20
-40.077071290944097
 30
0.0
 11
284.44701348747589
 21
-40.077071290944097
 31
0.0
  0
LINE
  8
DETAIL
  6
CONTINUOUS
 62
     5
 10
146.5818882466283
 20
49.595375722543388
 30
0.0
 11
146.5818882466283
 21
31.17066477246453
 31
0.0
  0
LINE
  8
DETAIL
  6
CONTINUOUS
 62
     5
 10
146.5818882466283
 20
-16.302464598003329
 30
0.0
 11
146.5818882466283
 21
-49.595375722543388
 31
0.0
  0
LINE
  8
DETAIL
  6
CONTINUOUS
 62
     5
 10
147.58381502890191
 20
49.595375722543388
 30
0.0
 11
147.58381502890191
 21
29.01828452838868
 31
0.0
  0
LINE
  8
DETAIL
  6
CONTINUOUS
 62
     5
 10
147.58381502890191
 20
-17.010198170858079
 30
0.0
 11
147.58381502890191
 21
-49.595375722543388
 31
0.0
  0
LINE
  8
DETAIL
  6
CONTINUOUS
 62
     5
 10
213.56797323043801
 20
51.740904842679363
 30
0.0
 11
213.2100192678225
 21
51.120910391762443
 31
0.0
  0
LINE
  8
DETAIL
  6
CONTINUOUS
 62
     5
 10
144.67822736030851
 20
-18.034682080924991
 30
0.0
 11
146.5818882466283
 21
-18.034682080924991
 31
0.0
  0
LINE
  8
DETAIL
  6
CONTINUOUS
 62
     5
 10
144.67822736030851
 20
-26.057750734429419
 30
0.0
 11
135.26011560693669
 21
-25.23377272366929
 31
0.0
  0
LINE
  8
DETAIL
  6
CONTINUOUS
 62
     5
 10
18.088203018141709
 20
217.0991179036607
 30
0.0
 11
18.53564547206167
 21
216.32412484017709
 31
0.0
  0
LINE
  8
DETAIL
  6
CONTINUOUS
 62
     5
 10
210.40462427745661
 20
-49.117056827215272
 30
0.0
 11
210.40462427745661
 21
-45.109349698120923
 31
0.0
  0
LINE
  8
DETAIL
  6
CONTINUOUS
 62
     5
 10
210.40462427745661
 20
45.109349698120702
 30
0.0
 11
210.40462427745661
 21
49.117056827215272
 31
0.0
  0
LINE
  8
DETAIL
  6
CONTINUOUS
 62
     5
 10
213.2100192678225
 20
-51.119529924029848
 30
0.0
 11
213.2100192678225
 21
-43.106876601956863
 31
0.0
  0
LINE
  8
DETAIL
  6
CONTINUOUS
 62
     5
 10
213.2100192678225
 20
43.106876601956863
 30
0.0
 11
213.2100192678225
 21
51.119529924029621
 31
0.0
  0
LINE
  8
DETAIL
  6
CONTINUOUS
 62
     5
 10
213.56797323043801
 20
-42.48550168330712
 30
0.0
 11
213.2100192678225
 21
-43.105496133573517
 31
0.0
  0
LINE
  8
DETAIL
  6
CONTINUOUS
 62
     5
 10
213.56797323043801
 20
-51.740904842679583
 30
0.0
 11
213.2100192678225
 21
-51.120910391762443
 31
0.0
  0
LINE
  8
DETAIL
  6
CONTINUOUS
 62
     5
 10
216.71676300578039
 20
-71.337186897880429
 30
0.0
 11
216.71676300578039
 21
-61.919075144508717
 31
0.0
  0
LINE
  8
DETAIL
  6
CONTINUOUS
 62
     5
 10
216.71676300578039
 20
61.919075144508717
 30
0.0
 11
216.71676300578039
 21
71.337186897880429
 31
0.0
  0
LINE
  8
DETAIL
  6
CONTINUOUS
 62
     5
 10
216.91714836223511
 20
-68.626672506568639
 30
0.0
 11
216.91714836223511
 21
-65.631516318094327
 31
0.0
  0
LINE
  8
DETAIL
  6
CONTINUOUS
 62
     5
 10
217.2177263969173
 20
-71.335564848034437
 30
0.0
 11
217.2177263969173
 21
-68.631984585741748
 31
0.0
  0
LINE
  8
DETAIL
  6
CONTINUOUS
 62
     5
 10
217.2177263969173
 20
-65.626204238920991
 30
0.0
 11
217.2177263969173
 21
73.140674272051683
 31
0.0
  0
LINE
  8
DETAIL
  6
CONTINUOUS
 62
     5
 10
218.82080924855501
 20
-68.631984585741748
 30
0.0
 11
218.82080924855501
 21
-73.14065510597311
 31
0.0
  0
LINE
  8
DETAIL
  6
CONTINUOUS
 62
     5
 10
220.4238921001928
 20
73.140655105972883
 30
0.0
 11
220.4238921001928
 21
72.097588952380875
 31
0.0
  0
LINE
  8
DETAIL
  6
CONTINUOUS
 62
     5
 10
225.43352601156059
 20
-131.0803515374221
 30
0.0
 11
225.43352601156059
 21
131.0803515374221
 31
0.0
  0
LINE
  8
DETAIL
  6
CONTINUOUS
 62
     5
 10
285.4489402697493
 20
30.057803468208022
 30
0.0
 11
284.44701348747589
 21
30.057803468208022
 31
0.0
  0
LINE
  8
DETAIL
  6
CONTINUOUS
 62
     5
 10
217.2177263969173
 20
42.48550168330712
 30
0.0
 11
213.56797323043801
 21
42.48550168330712
 31
0.0
  0
LINE
  8
DETAIL
  6
CONTINUOUS
 62
     5
 10
217.2177263969173
 20
44.799352472987493
 30
0.0
 11
213.56797323043801
 21
44.799352472987493
 31
0.0
  0
LINE
  8
DETAIL
  6
CONTINUOUS
 62
     5
 10
213.2100192678225
 20
45.109349698120702
 30
0.0
 11
210.40462427745661
 21
45.109349698120702
 31
0.0
  0
LINE
  8
DETAIL
  6
CONTINUOUS
 62
     5
 10
213.2100192678225
 20
49.117056827215272
 30
0.0
 11
210.40462427745661
 21
49.117056827215272
 31
0.0
  0
LINE
  8
DETAIL
  6
CONTINUOUS
 62
     5
 10
217.2177263969173
 20
49.427054052998983
 30
0.0
 11
213.56797323043801
 21
49.427054052998983
 31
0.0
  0
LINE
  8
DETAIL
  6
CONTINUOUS
 62
     5
 10
146.5818882466283
 20
49.595375722543388
 30
0.0
 11
147.58381502890191
 21
49.595375722543388
 31
0.0
  0
LINE
  8
DETAIL
  6
CONTINUOUS
 62
     5
 10
253.38728323699411
 20
-57.109826589595507
 30
0.0
 11
253.38728323699411
 21
54.905587668593398
 31
0.0
  0
LINE
  8
DETAIL
  6
CONTINUOUS
 62
     5
 10
257.49518304431598
 20
-131.0803515374221
 30
0.0
 11
257.49518304431598
 21
-60.11560693641627
 31
0.0
  0
LINE
  8
DETAIL
  6
CONTINUOUS
 62
     5
 10
257.49518304431598
 20
57.911368015414148
 30
0.0
 11
257.49518304431598
 21
131.0803515374221
 31
0.0
  0
LINE
  8
DETAIL
  6
CONTINUOUS
 62
     5
 10
257.99614643545277
 20
81.757225433525946
 30
0.0
 11
257.99614643545277
 21
81.256262042389153
 31
0.0
  0
LINE
  8
DETAIL
  6
CONTINUOUS
 62
     5
 10
257.99614643545277
 20
-116.82466281310209
 30
0.0
 11
257.99614643545277
 21
-116.3236994219653
 31
0.0
  0
LINE
  8
DETAIL
  6
CONTINUOUS
 62
     5
 10
258.06110657958629
 20
-112.88112803588319
 30
0.0
 11
258.06110657958629
 21
-112.2866221364764
 31
0.0
  0
LINE
  8
DETAIL
  6
CONTINUOUS
 62
     5
 10
217.2177263969173
 20
51.740904842679363
 30
0.0
 11
213.56797323043801
 21
51.740904842679363
 31
0.0
  0
LINE
  8
DETAIL
  6
CONTINUOUS
 62
     5
 10
220.4238921001928
 20
53.6257273474464
 30
0.0
 11
217.2177263969173
 21
53.6257273474464
 31
0.0
  0
LINE
  8
DETAIL
  6
CONTINUOUS
 62
     5
 10
256.39306358381509
 20
57.911368015414148
 30
0.0
 11
258.89788053949877
 21
57.911368015414148
 31
0.0
  0
LINE
  8
DETAIL
  6
CONTINUOUS
 62
     5
 10
216.71676300578039
 20
61.919075144508717
 30
0.0
 11
217.2177263969173
 21
61.919075144508717
 31
0.0
  0
LINE
  8
DETAIL
  6
CONTINUOUS
 62
     5
 10
216.71676300578039
 20
71.337186897880429
 30
0.0
 11
217.2177263969173
 21
71.337186897880429
 31
0.0
  0
LINE
  8
DETAIL
  6
CONTINUOUS
 62
     5
 10
257.89595375722519
 20
72.660425279933861
 30
0.0
 11
257.49518304431598
 21
72.660425279933861
 31
0.0
  0
LINE
  8
DETAIL
  6
CONTINUOUS
 62
     5
 10
257.89595375722519
 20
73.241483524960586
 30
0.0
 11
257.49518304431598
 21
73.241483524960586
 31
0.0
  0
LINE
  8
DETAIL
  6
CONTINUOUS
 62
     5
 10
213.56797323043801
 20
42.48550168330712
 30
0.0
 11
213.2100192678225
 21
43.105496133573517
 31
0.0
  0
LINE
  8
DETAIL
  6
CONTINUOUS
 62
     5
 10
260.90173410404623
 20
-110.2542554227159
 30
0.0
 11
260.90173410404623
 21
-62.119460500963442
 31
0.0
  0
LINE
  8
DETAIL
  6
CONTINUOUS
 62
     5
 10
260.90173410404623
 20
59.915221579961333
 30
0.0
 11
260.90173410404623
 21
72.188784004754325
 31
0.0
  0
LINE
  8
DETAIL
  6
CONTINUOUS
 62
     5
 10
257.99452438560661
 20
81.256262042389153
 30
0.0
 11
257.49518304431598
 21
81.256262042389153
 31
0.0
  0
LINE
  8
DETAIL
  6
CONTINUOUS
 62
     5
 10
257.99614643545277
 20
81.757225433525946
 30
0.0
 11
257.49518304431598
 21
81.757225433525946
 31
0.0
  0
LINE
  8
DETAIL
  6
CONTINUOUS
 62
     5
 10
284.54720616570319
 20
35.568400770712969
 30
0.0
 11
284.54720616570319
 21
32.562620423891993
 31
0.0
  0
LINE
  8
DETAIL
  6
CONTINUOUS
 62
     5
 10
284.54720616570319
 20
-45.587668593449052
 30
0.0
 11
284.54720616570319
 21
-48.593448940269809
 31
0.0
  0
LINE
  8
DETAIL
  6
CONTINUOUS
 62
     5
 10
285.4489402697493
 20
30.057803468208022
 30
0.0
 11
285.4489402697493
 21
-40.077071290944097
 31
0.0
  0
LINE
  8
DETAIL
  6
CONTINUOUS
 62
     5
 10
286.15028901734081
 20
-74.743738513224798
 30
0.0
 11
286.15028901734081
 21
-82.75915166929417
 31
0.0
  0
LINE
  8
DETAIL
  6
CONTINUOUS
 62
     5
 10
16.431599229287031
 20
151.09460705917971
 30
0.0
 11
13.02504816955695
 21
151.09460705917971
 31
0.0
  0
LINE
  8
DETAIL
  6
CONTINUOUS
 62
     5
 10
14.527938342967451
 20
163.1385838328454
 30
0.0
 11
10.01926782273631
 21
163.1385838328454
 31
0.0
  0
LINE
  8
DETAIL
  6
CONTINUOUS
 62
     5
 10
14.527938342967451
 20
180.67319707734649
 30
0.0
 11
155.29865125240869
 21
180.67319707734649
 31
0.0
  0
LINE
  8
DETAIL
  6
CONTINUOUS
 62
     5
 10
6.412331406551175
 20
192.89429115732059
 30
0.0
 11
3.0057803468207571
 21
192.89429115732059
 31
0.0
  0
LINE
  8
DETAIL
  6
CONTINUOUS
 62
     5
 10
155.29865125240869
 20
203.34421218136779
 30
0.0
 11
14.527938342967451
 21
203.34421218136779
 31
0.0
  0
LINE
  8
DETAIL
  6
CONTINUOUS
 62
     5
 10
5.1098265895955137
 20
204.22979870900579
 30
0.0
 11
3.0057803468207571
 21
204.22979870900579
 31
0.0
  0
LINE
  8
DETAIL
  6
CONTINUOUS
 62
     5
 10
14.527938342967451
 20
206.53232368060461
 30
0.0
 11
155.29865125240869
 21
206.53232368060461
 31
0.0
  0
LINE
  8
DETAIL
  6
CONTINUOUS
 62
     5
 10
14.527938342967451
 20
208.4221774420337
 30
0.0
 11
18.088203018141709
 21
208.4221774420337
 31
0.0
  0
LINE
  8
DETAIL
  6
CONTINUOUS
 62
     5
 10
14.527938342967451
 20
214.20680441623489
 30
0.0
 11
18.088203018141709
 21
214.20680441623489
 31
0.0
  0
LINE
  8
DETAIL
  6
CONTINUOUS
 62
     5
 10
14.527938342967451
 20
217.0991179036607
 30
0.0
 11
18.088203018141709
 21
217.0991179036607
 31
0.0
  0
LINE
  8
DETAIL
  6
CONTINUOUS
 62
     5
 10
13.89435725220835
 20
246.97495183044319
 30
0.0
 11
16.431599229287031
 21
246.97495183044319
 31
0.0
  0
LINE
  8
DETAIL
  6
CONTINUOUS
 62
     5
 10
5.1098265895955137
 20
253.82264424893009
 30
0.0
 11
3.0057803468207571
 21
253.82264424893009
 31
0.0
  0
LINE
  8
DETAIL
  6
CONTINUOUS
 62
     5
 10
3.0057803468207571
 20
256.99421965317902
 30
0.0
 11
6.412331406551175
 21
256.99421965317902
 31
0.0
  0
ARC
  8
DETAIL
  6
CONTINUOUS
 62
     5
 10
6.412331406551175
 20
-189.28735474048489
 30
0.0
 40
3.6069364161849649
 50
270.0
 51
0.0
  0
ARC
  8
DETAIL
  6
CONTINUOUS
 62
     5
 10
16.431599229287031
 20
-147.4876706429948
 30
0.0
 40
3.606936416184908
 50
270.0
 51
0.0
  0
ARC
  8
DETAIL
  6
CONTINUOUS
 62
     5
 10
16.431599229287031
 20
-243.36801541425831
 30
0.0
 40
3.606936416185023
 50
270.0
 51
0.0
  0
ARC
  8
DETAIL
  6
CONTINUOUS
 62
     5
 10
6.412331406551175
 20
-253.38728323699431
 30
0.0
 40
3.6069364161849649
 50
270.0
 51
0.0
  0
ARC
  8
DETAIL
  6
CONTINUOUS
 62
     5
 10
13.02504816955695
 20
-154.10038740600069
 30
0.0
 40
3.005780346820869
 50
90.0
 51
176.25000462230039
  0
ARC
  8
DETAIL
  6
CONTINUOUS
 62
     5
 10
133.2562620423893
 20
-209.80346820809251
 30
0.0
 40
2.0038535645471711
 50
180.0
 51
0.0
  0
ARC
  8
DETAIL
  6
CONTINUOUS
 62
     5
 10
1.5028901734103779
 20
-258.49710982658968
 30
0.0
 40
1.5028901734103779
 50
180.0
 51
0.0
  0
ARC
  8
DETAIL
  6
CONTINUOUS
 62
     5
 10
6.412331406551175
 20
189.28735474113549
 30
0.0
 40
3.6069364161851341
 50
0.0
 51
90.0
  0
ARC
  8
DETAIL
  6
CONTINUOUS
 62
     5
 10
16.431599229287031
 20
243.36801541425831
 30
0.0
 40
3.6069364161851341
 50
0.0
 51
90.0
  0
ARC
  8
DETAIL
  6
CONTINUOUS
 62
     5
 10
16.431599229287031
 20
147.4876706429948
 30
0.0
 40
3.6069364161851341
 50
0.0
 51
90.0
  0
ARC
  8
DETAIL
  6
CONTINUOUS
 62
     5
 10
6.412331406551175
 20
253.38728323699411
 30
0.0
 40
3.6069364161851341
 50
0.0
 51
90.0
  0
ARC
  8
DETAIL
  6
CONTINUOUS
 62
     5
 10
13.02504816955695
 20
154.10038740600041
 30
0.0
 40
3.005780346820643
 50
180.0
 51
270.0
  0
ARC
  8
DETAIL
  6
CONTINUOUS
 62
     5
 10
133.2562620423893
 20
209.80346820809251
 30
0.0
 40
2.0038535645472848
 50
0.0
 51
180.0
  0
ARC
  8
DETAIL
  6
CONTINUOUS
 62
     5
 10
1.5028901734103779
 20
258.49710982658962
 30
0.0
 40
1.5028901734103779
 50
0.0
 51
180.0
  0
ARC
  8
DETAIL
  6
CONTINUOUS
 62
     5
 10
224.09775697625309
 20
51.457442091484381
 30
0.0
 40
167.22926683482211
 50
281.52020699539509
 51
281.71797742770588
  0
ARC
  8
DETAIL
  6
CONTINUOUS
 62
     5
 10
224.09248694092051
 20
50.571981510597197
 30
0.0
 40
166.9454585802367
 50
281.54190713700001
 51
281.74002858360399
  0
ARC
  8
DETAIL
  6
CONTINUOUS
 62
     5
 10
253.28709055876701
 20
77.226011560693451
 30
0.0
 40
6.5350674373795341
 50
43.897398167107823
 51
49.83646394900552
  0
ARC
  8
DETAIL
  6
CONTINUOUS
 62
     5
 10
253.28709055876701
 20
-112.2934489402699
 30
0.0
 40
6.5350674373795314
 50
310.16353605099442
 51
316.10260183289222
  0
ARC
  8
DETAIL
  6
CONTINUOUS
 62
     5
 10
221.24797687861269
 20
66.628131021194577
 30
0.0
 40
6.5350674373794977
 50
133.89739816708769
 51
226.10260183291049
  0
ARC
  8
DETAIL
  6
CONTINUOUS
 62
     5
 10
221.24797687861269
 20
-66.628131021194577
 30
0.0
 40
6.5350674373794879
 50
133.89739816708769
 51
226.10260183291049
  0
ARC
  8
DETAIL
  6
CONTINUOUS
 62
     5
 10
256.39306358381509
 20
-57.109826589595507
 30
0.0
 40
3.0057803468209841
 50
180.0
 51
270.0
  0
ARC
  8
DETAIL
  6
CONTINUOUS
 62
     5
 10
256.39306358381509
 20
54.905587668593398
 30
0.0
 40
3.0057803468208282
 50
90.0
 51
180.0
  0
ARC
  8
DETAIL
  6
CONTINUOUS
 62
     5
 10
258.60932293141161
 20
-109.7674381180593
 30
0.0
 40
2.2872155856666709
 50
345.31788012679459
 51
350.67109240889988
  0
ARC
  8
DETAIL
  6
CONTINUOUS
 62
     5
 10
258.89788053949877
 20
59.915221579961333
 30
0.0
 40
2.003853564547271
 50
270.0
 51
0.0
  0
ARC
  8
DETAIL
  6
CONTINUOUS
 62
     5
 10
258.89788053949877
 20
-62.119460500963442
 30
0.0
 40
2.0038535645473989
 50
0.0
 51
90.0
  0
ARC
  8
DETAIL
  6
CONTINUOUS
 62
     5
 10
215.3140655105974
 20
-58.612716763005892
 30
0.0
 40
1.903660886319813
 50
0.0000000051068004
 51
90.0
  0
ARC
  8
DETAIL
  6
CONTINUOUS
 62
     5
 10
215.3140655105974
 20
58.612716763005658
 30
0.0
 40
1.9036608863197979
 50
270.0
 51
0.0
  0
ARC
  8
DETAIL
  6
CONTINUOUS
 62
     5
 10
283.74566473988438
 20
-47.090558766859431
 30
0.0
 40
1.7032755298650539
 50
298.07248693589878
 51
61.927513064101063
  0
ARC
  8
DETAIL
  6
CONTINUOUS
 62
     5
 10
283.74566473988438
 20
34.065510597302591
 30
0.0
 40
1.7032755298650539
 50
298.07248693589878
 51
61.927513064101063
  0
ARC
  8
DETAIL
  6
CONTINUOUS
 62
     5
 10
285.64932562620447
 20
-74.743737957610847
 30
0.0
 40
0.500963391136636
 50
359.99993752069452
 51
90.0
  0
ARC
  8
DETAIL
  6
CONTINUOUS
 62
     5
 10
285.64932562620447
 20
-82.759152215799759
 30
0.0
 40
0.500963391136793
 50
270.0
 51
0.0000624793055101
  0
ARC
  8
DETAIL
  6
CONTINUOUS
 62
     5
 10
284.54720616570319
 20
-45.487475915221687
 30
0.0
 40
0.100192678227245
 50
180.0
 51
270.0
  0
ARC
  8
DETAIL
  6
CONTINUOUS
 62
     5
 10
284.54720616570319
 20
-48.693641618497168
 30
0.0
 40
0.100192678227387
 50
90.0
 51
180.0
  0
ARC
  8
DETAIL
  6
CONTINUOUS
 62
     5
 10
284.54720616570319
 20
35.668593448940328
 30
0.0
 40
0.100192678227245
 50
180.0
 51
270.0
  0
ARC
  8
DETAIL
  6
CONTINUOUS
 62
     5
 10
284.54720616570319
 20
32.462427745664627
 30
0.0
 40
0.100192678227344
 50
90.0
 51
180.0
  0
LINE
  8
DETAIL
  6
CONTINUOUS
 62
     5
 10
258.06110657958629
 20
-112.2866221364764
 30
0.0
 11
258.14063001530639
 21
-112.27031497682739
 31
0.0
  0
LINE
  8
DETAIL
  6
CONTINUOUS
 62
     5
 10
258.14063001530639
 20
-112.27031497682739
 30
0.0
 11
258.21998766489662
 21
-112.2531801139164
 31
0.0
  0
LINE
  8
DETAIL
  6
CONTINUOUS
 62
     5
 10
258.21998766489662
 20
-112.2531801139164
 30
0.0
 11
258.21998766489662
 21
-112.2531801139164
 31
0.0
  0
LINE
  8
DETAIL
  6
CONTINUOUS
 62
     5
 10
258.21998766489662
 20
-112.2531801139164
 30
0.0
 11
258.29904321292429
 21
-112.2345678285853
 31
0.0
  0
LINE
  8
DETAIL
  6
CONTINUOUS
 62
     5
 10
258.29904321292429
 20
-112.2345678285853
 30
0.0
 11
258.37777822675372
 21
-112.214540338091
 31
0.0
  0
LINE
  8
DETAIL
  6
CONTINUOUS
 62
     5
 10
258.37777822675372
 20
-112.214540338091
 30
0.0
 11
258.37777822675372
 21
-112.214540338091
 31
0.0
  0
LINE
  8
DETAIL
  6
CONTINUOUS
 62
     5
 10
258.37777822675372
 20
-112.214540338091
 30
0.0
 11
258.45619990123203
 21
-112.19328852849939
 31
0.0
  0
LINE
  8
DETAIL
  6
CONTINUOUS
 62
     5
 10
258.45619990123203
 20
-112.19328852849939
 30
0.0
 11
258.53430005833911
 21
-112.17080602469581
 31
0.0
  0
LINE
  8
DETAIL
  6
CONTINUOUS
 62
     5
 10
258.53430005833911
 20
-112.17080602469581
 30
0.0
 11
258.53430005833911
 21
-112.17080602469581
 31
0.0
  0
LINE
  8
DETAIL
  6
CONTINUOUS
 62
     5
 10
258.53430005833911
 20
-112.17080602469581
 30
0.0
 11
258.61205257900752
 21
-112.1470564133479
 31
0.0
  0
LINE
  8
DETAIL
  6
CONTINUOUS
 62
     5
 10
258.61205257900752
 20
-112.1470564133479
 30
0.0
 11
258.68937495283473
 21
-112.1220803894271
 31
0.0
  0
LINE
  8
DETAIL
  6
CONTINUOUS
 62
     5
 10
258.68937495283473
 20
-112.1220803894271
 30
0.0
 11
258.68937495283473
 21
-112.1220803894271
 31
0.0
  0
LINE
  8
DETAIL
  6
CONTINUOUS
 62
     5
 10
258.68937495283473
 20
-112.1220803894271
 30
0.0
 11
258.76623080613513
 21
-112.0959101319722
 31
0.0
  0
LINE
  8
DETAIL
  6
CONTINUOUS
 62
     5
 10
258.76623080613513
 20
-112.0959101319722
 30
0.0
 11
258.84282470342038
 21
-112.0684666479801
 31
0.0
  0
LINE
  8
DETAIL
  6
CONTINUOUS
 62
     5
 10
258.84282470342038
 20
-112.0684666479801
 30
0.0
 11
258.84282470342038
 21
-112.0684666479801
 31
0.0
  0
LINE
  8
DETAIL
  6
CONTINUOUS
 62
     5
 10
258.84282470342038
 20
-112.0684666479801
 30
0.0
 11
258.91931736836023
 21
-112.0396867645243
 31
0.0
  0
LINE
  8
DETAIL
  6
CONTINUOUS
 62
     5
 10
258.91931736836023
 20
-112.0396867645243
 30
0.0
 11
258.99545322306147
 21
-112.00968176102511
 31
0.0
  0
LINE
  8
DETAIL
  6
CONTINUOUS
 62
     5
 10
258.99545322306147
 20
-112.00968176102511
 30
0.0
 11
258.99545322306147
 21
-112.00968176102511
 31
0.0
  0
LINE
  8
DETAIL
  6
CONTINUOUS
 62
     5
 10
258.99545322306147
 20
-112.00968176102511
 30
0.0
 11
259.07098955995048
 21
-111.97855242366769
 31
0.0
  0
LINE
  8
DETAIL
  6
CONTINUOUS
 62
     5
 10
259.07098955995048
 20
-111.97855242366769
 30
0.0
 11
259.14615145429252
 21
-111.9461831133524
 31
0.0
  0
LINE
  8
DETAIL
  6
CONTINUOUS
 62
     5
 10
259.14615145429252
 20
-111.9461831133524
 30
0.0
 11
259.14615145429252
 21
-111.9461831133524
 31
0.0
  0
LINE
  8
DETAIL
  6
CONTINUOUS
 62
     5
 10
259.14615145429252
 20
-111.9461831133524
 30
0.0
 11
259.22104289355838
 21
-111.91253633344721
 31
0.0
  0
LINE
  8
DETAIL
  6
CONTINUOUS
 62
     5
 10
259.22104289355838
 20
-111.91253633344721
 30
0.0
 11
259.2948157311987
 21
-111.878103582477
 31
0.0
  0
LINE
  8
DETAIL
  6
CONTINUOUS
 62
     5
 10
259.2948157311987
 20
-111.878103582477
 30
0.0
 11
259.2948157311987
 21
-111.878103582477
 31
0.0
  0
LINE
  8
DETAIL
  6
CONTINUOUS
 62
     5
 10
259.2948157311987
 20
-111.878103582477
 30
0.0
 11
259.36721897546909
 21
-111.84303371892069
 31
0.0
  0
LINE
  8
DETAIL
  6
CONTINUOUS
 62
     5
 10
259.36721897546909
 20
-111.84303371892069
 30
0.0
 11
259.44134238786341
 21
-111.8055760459138
 31
0.0
  0
LINE
  8
DETAIL
  6
CONTINUOUS
 62
     5
 10
259.44134238786341
 20
-111.8055760459138
 30
0.0
 11
259.44134238786341
 21
-111.8055760459138
 31
0.0
  0
LINE
  8
DETAIL
  6
CONTINUOUS
 62
     5
 10
259.44134238786341
 20
-111.8055760459138
 30
0.0
 11
259.51800819845209
 21
-111.7652722843106
 31
0.0
  0
LINE
  8
DETAIL
  6
CONTINUOUS
 62
     5
 10
259.51800819845209
 20
-111.7652722843106
 30
0.0
 11
259.58562775837117
 21
-111.72873338117761
 31
0.0
  0
LINE
  8
DETAIL
  6
CONTINUOUS
 62
     5
 10
259.58562775837117
 20
-111.72873338117761
 30
0.0
 11
259.58562775837117
 21
-111.72873338117761
 31
0.0
  0
LINE
  8
DETAIL
  6
CONTINUOUS
 62
     5
 10
259.58562775837117
 20
-111.72873338117761
 30
0.0
 11
259.63444207389938
 21
-111.7016160663914
 31
0.0
  0
LINE
  8
DETAIL
  6
CONTINUOUS
 62
     5
 10
259.63444207389938
 20
-111.7016160663914
 30
0.0
 11
259.67442165081678
 21
-111.67869097485691
 31
0.0
  0
LINE
  8
DETAIL
  6
CONTINUOUS
 62
     5
 10
259.67442165081678
 20
-111.67869097485691
 30
0.0
 11
259.67442165081678
 21
-111.67869097485691
 31
0.0
  0
LINE
  8
DETAIL
  6
CONTINUOUS
 62
     5
 10
259.67442165081678
 20
-111.67869097485691
 30
0.0
 11
259.71731915285409
 21
-111.6536876463415
 31
0.0
  0
LINE
  8
DETAIL
  6
CONTINUOUS
 62
     5
 10
259.71731915285409
 20
-111.6536876463415
 30
0.0
 11
259.76228637603498
 21
-111.6270573350341
 31
0.0
  0
LINE
  8
DETAIL
  6
CONTINUOUS
 62
     5
 10
259.76228637603498
 20
-111.6270573350341
 30
0.0
 11
259.76228637603498
 21
-111.6270573350341
 31
0.0
  0
LINE
  8
DETAIL
  6
CONTINUOUS
 62
     5
 10
259.76228637603498
 20
-111.6270573350341
 30
0.0
 11
259.80617093638688
 21
-111.60048484803541
 31
0.0
  0
LINE
  8
DETAIL
  6
CONTINUOUS
 62
     5
 10
259.80617093638688
 20
-111.60048484803541
 30
0.0
 11
259.84920459765021
 21
-111.5738674896688
 31
0.0
  0
LINE
  8
DETAIL
  6
CONTINUOUS
 62
     5
 10
259.84920459765021
 20
-111.5738674896688
 30
0.0
 11
259.84920459765021
 21
-111.5738674896688
 31
0.0
  0
LINE
  8
DETAIL
  6
CONTINUOUS
 62
     5
 10
259.84920459765021
 20
-111.5738674896688
 30
0.0
 11
259.89223122970537
 21
-111.5467627627352
 31
0.0
  0
LINE
  8
DETAIL
  6
CONTINUOUS
 62
     5
 10
259.89223122970537
 20
-111.5467627627352
 30
0.0
 11
259.93515897928711
 21
-111.51915646672001
 31
0.0
  0
LINE
  8
DETAIL
  6
CONTINUOUS
 62
     5
 10
259.93515897928711
 20
-111.51915646672001
 30
0.0
 11
259.93515897928711
 21
-111.51915646672001
 31
0.0
  0
LINE
  8
DETAIL
  6
CONTINUOUS
 62
     5
 10
259.93515897928711
 20
-111.51915646672001
 30
0.0
 11
259.97775174856088
 21
-111.49116005428959
 31
0.0
  0
LINE
  8
DETAIL
  6
CONTINUOUS
 62
     5
 10
259.97775174856088
 20
-111.49116005428959
 30
0.0
 11
260.0201321845708
 21
-111.4629592941471
 31
0.0
  0
LINE
  8
DETAIL
  6
CONTINUOUS
 62
     5
 10
260.02013675700027
 20
-111.4629660799239
 30
0.0
 11
260.05417010632522
 21
-111.4394249496622
 31
0.0
  0
LINE
  8
DETAIL
  6
CONTINUOUS
 62
     5
 10
260.05417010632522
 20
-111.4394249496622
 30
0.0
 11
260.08793211053887
 21
-111.4154899215735
 31
0.0
  0
LINE
  8
DETAIL
  6
CONTINUOUS
 62
     5
 10
260.08793211053887
 20
-111.4154899215735
 30
0.0
 11
260.08793211053887
 21
-111.4154899215735
 31
0.0
  0
LINE
  8
DETAIL
  6
CONTINUOUS
 62
     5
 10
260.08793211053887
 20
-111.4154899215735
 30
0.0
 11
260.12120564167662
 21
-111.3908476200791
 31
0.0
  0
LINE
  8
DETAIL
  6
CONTINUOUS
 62
     5
 10
260.12120564167662
 20
-111.3908476200791
 30
0.0
 11
260.15399044036047
 21
-111.3655067585933
 31
0.0
  0
LINE
  8
DETAIL
  6
CONTINUOUS
 62
     5
 10
260.15399044036047
 20
-111.3655067585933
 30
0.0
 11
260.15399044036047
 21
-111.3655067585933
 31
0.0
  0
LINE
  8
DETAIL
  6
CONTINUOUS
 62
     5
 10
260.15399044036047
 20
-111.3655067585933
 30
0.0
 11
260.1863151048675
 21
-111.3395464656583
 31
0.0
  0
LINE
  8
DETAIL
  6
CONTINUOUS
 62
     5
 10
260.1863151048675
 20
-111.3395464656583
 30
0.0
 11
260.21810679551118
 21
-111.3130054413366
 31
0.0
  0
LINE
  8
DETAIL
  6
CONTINUOUS
 62
     5
 10
260.21810679551118
 20
-111.3130054413366
 30
0.0
 11
260.21810679551118
 21
-111.3130054413366
 31
0.0
  0
LINE
  8
DETAIL
  6
CONTINUOUS
 62
     5
 10
260.21810679551118
 20
-111.3130054413366
 30
0.0
 11
260.2493145339306
 21
-111.2858721848024
 31
0.0
  0
LINE
  8
DETAIL
  6
CONTINUOUS
 62
     5
 10
260.2493145339306
 20
-111.2858721848024
 30
0.0
 11
260.28007622503668
 21
-111.25797482015651
 31
0.0
  0
LINE
  8
DETAIL
  6
CONTINUOUS
 62
     5
 10
260.28007622503668
 20
-111.25797482015651
 30
0.0
 11
260.28007622503668
 21
-111.25797482015651
 31
0.0
  0
LINE
  8
DETAIL
  6
CONTINUOUS
 62
     5
 10
260.28007622503668
 20
-111.25797482015651
 30
0.0
 11
260.31041347077769
 21
-111.22927185992511
 31
0.0
  0
LINE
  8
DETAIL
  6
CONTINUOUS
 62
     5
 10
260.31041347077769
 20
-111.22927185992511
 30
0.0
 11
260.33969377798297
 21
-111.20040374540621
 31
0.0
  0
LINE
  8
DETAIL
  6
CONTINUOUS
 62
     5
 10
260.33969377798297
 20
-111.20040374540621
 30
0.0
 11
260.33969377798297
 21
-111.20040374540621
 31
0.0
  0
LINE
  8
DETAIL
  6
CONTINUOUS
 62
     5
 10
260.33969377798297
 20
-111.20040374540621
 30
0.0
 11
260.36738587898628
 21
-111.17191890165439
 31
0.0
  0
LINE
  8
DETAIL
  6
CONTINUOUS
 62
     5
 10
260.36738587898628
 20
-111.17191890165439
 30
0.0
 11
260.39401750324708
 21
-111.1433157599806
 31
0.0
  0
LINE
  8
DETAIL
  6
CONTINUOUS
 62
     5
 10
260.39401750324708
 20
-111.1433157599806
 30
0.0
 11
260.39401750324708
 21
-111.1433157599806
 31
0.0
  0
LINE
  8
DETAIL
  6
CONTINUOUS
 62
     5
 10
260.39401750324708
 20
-111.1433157599806
 30
0.0
 11
260.42021045273691
 21
-111.11399378800139
 31
0.0
  0
LINE
  8
DETAIL
  6
CONTINUOUS
 62
     5
 10
260.42021045273691
 20
-111.11399378800139
 30
0.0
 11
260.44590382233332
 21
-111.0840065922976
 31
0.0
  0
LINE
  8
DETAIL
  6
CONTINUOUS
 62
     5
 10
260.44590382233332
 20
-111.0840065922976
 30
0.0
 11
260.44590382233332
 21
-111.0840065922976
 31
0.0
  0
LINE
  8
DETAIL
  6
CONTINUOUS
 62
     5
 10
260.44590382233332
 20
-111.0840065922976
 30
0.0
 11
260.47091117799482
 21
-111.0535283879901
 31
0.0
  0
LINE
  8
DETAIL
  6
CONTINUOUS
 62
     5
 10
260.47091117799482
 20
-111.0535283879901
 30
0.0
 11
260.49522667709363
 21
-111.0225616853963
 31
0.0
  0
LINE
  8
DETAIL
  6
CONTINUOUS
 62
     5
 10
260.49522667709363
 20
-111.0225616853963
 30
0.0
 11
260.49522667709363
 21
-111.0225616853963
 31
0.0
  0
LINE
  8
DETAIL
  6
CONTINUOUS
 62
     5
 10
260.49522667709363
 20
-111.0225616853963
 30
0.0
 11
260.5188797102129
 21
-110.9910742386953
 31
0.0
  0
LINE
  8
DETAIL
  6
CONTINUOUS
 62
     5
 10
260.5188797102129
 20
-110.9910742386953
 30
0.0
 11
260.54186000937921
 21
-110.959066482317
 31
0.0
  0
LINE
  8
DETAIL
  6
CONTINUOUS
 62
     5
 10
260.54186000937921
 20
-110.959066482317
 30
0.0
 11
260.54186000937921
 21
-110.959066482317
 31
0.0
  0
LINE
  8
DETAIL
  6
CONTINUOUS
 62
     5
 10
260.54186000937921
 20
-110.959066482317
 30
0.0
 11
260.56414190268413
 21
-110.9265572667048
 31
0.0
  0
LINE
  8
DETAIL
  6
CONTINUOUS
 62
     5
 10
260.56414190268413
 20
-110.9265572667048
 30
0.0
 11
260.5856777610428
 21
-110.8936064260988
 31
0.0
  0
LINE
  8
DETAIL
  6
CONTINUOUS
 62
     5
 10
260.5856777610428
 20
-110.8936064260988
 30
0.0
 11
260.5856777610428
 21
-110.8936064260988
 31
0.0
  0
LINE
  8
DETAIL
  6
CONTINUOUS
 62
     5
 10
260.5856777610428
 20
-110.8936064260988
 30
0.0
 11
260.60642829015518
 21
-110.8602717508513
 31
0.0
  0
LINE
  8
DETAIL
  6
CONTINUOUS
 62
     5
 10
260.60642829015518
 20
-110.8602717508513
 30
0.0
 11
260.62640949203342
 21
-110.8265618719649
 31
0.0
  0
LINE
  8
DETAIL
  6
CONTINUOUS
 62
     5
 10
260.62640949203342
 20
-110.8265618719649
 30
0.0
 11
260.62640949203342
 21
-110.8265618719649
 31
0.0
  0
LINE
  8
DETAIL
  6
CONTINUOUS
 62
     5
 10
260.62640949203342
 20
-110.8265618719649
 30
0.0
 11
260.64565473511902
 21
-110.7924492943951
 31
0.0
  0
LINE
  8
DETAIL
  6
CONTINUOUS
 62
     5
 10
260.64565473511902
 20
-110.7924492943951
 30
0.0
 11
260.66421155726482
 21
-110.7578111782595
 31
0.0
  0
LINE
  8
DETAIL
  6
CONTINUOUS
 62
     5
 10
260.66421155726482
 20
-110.7578111782595
 30
0.0
 11
260.66421155726482
 21
-110.7578111782595
 31
0.0
  0
LINE
  8
DETAIL
  6
CONTINUOUS
 62
     5
 10
260.66421155726482
 20
-110.7578111782595
 30
0.0
 11
260.68208195759769
 21
-110.7226434040067
 31
0.0
  0
LINE
  8
DETAIL
  6
CONTINUOUS
 62
     5
 10
260.68208195759769
 20
-110.7226434040067
 30
0.0
 11
260.69907161094
 21
-110.68751207824791
 31
0.0
  0
LINE
  8
DETAIL
  6
CONTINUOUS
 62
     5
 10
260.69907161094
 20
-110.68751207824791
 30
0.0
 11
260.69907161094
 21
-110.68751207824791
 31
0.0
  0
LINE
  8
DETAIL
  6
CONTINUOUS
 62
     5
 10
260.69907161094
 20
-110.68751207824791
 30
0.0
 11
260.71512989298992
 21
-110.6525794741824
 31
0.0
  0
LINE
  8
DETAIL
  6
CONTINUOUS
 62
     5
 10
260.71512989298992
 20
-110.6525794741824
 30
0.0
 11
260.73097730726192
 21
-110.61582230519549
 31
0.0
  0
LINE
  8
DETAIL
  6
CONTINUOUS
 62
     5
 10
260.73097730726192
 20
-110.61582230519549
 30
0.0
 11
260.73097730726192
 21
-110.61582230519549
 31
0.0
  0
LINE
  8
DETAIL
  6
CONTINUOUS
 62
     5
 10
260.73097730726192
 20
-110.61582230519549
 30
0.0
 11
260.7468050924856
 21
-110.57671389799199
 31
0.0
  0
LINE
  8
DETAIL
  6
CONTINUOUS
 62
     5
 10
260.7468050924856
 20
-110.57671389799199
 30
0.0
 11
260.75991630043399
 21
-110.54289959236731
 31
0.0
  0
LINE
  8
DETAIL
  6
CONTINUOUS
 62
     5
 10
260.75991630043399
 20
-110.54289959236731
 30
0.0
 11
260.75991630043399
 21
-110.54289959236731
 31
0.0
  0
LINE
  8
DETAIL
  6
CONTINUOUS
 62
     5
 10
260.75991630043399
 20
-110.54289959236731
 30
0.0
 11
260.76808881371448
 21
-110.52086254709209
 31
0.0
  0
LINE
  8
DETAIL
  6
CONTINUOUS
 62
     5
 10
260.76808881371448
 20
-110.52086254709209
 30
0.0
 11
260.77388802522182
 21
-110.5042651837534
 31
0.0
  0
LINE
  8
DETAIL
  6
CONTINUOUS
 62
     5
 10
260.77388802522182
 20
-110.5042651837534
 30
0.0
 11
260.77388802522182
 21
-110.5042651837534
 31
0.0
  0
LINE
  8
DETAIL
  6
CONTINUOUS
 62
     5
 10
260.77388802522182
 20
-110.5042651837534
 30
0.0
 11
260.78028113583889
 21
-110.4855817150833
 31
0.0
  0
LINE
  8
DETAIL
  6
CONTINUOUS
 62
     5
 10
260.78028113583889
 20
-110.4855817150833
 30
0.0
 11
260.78705506810581
 21
-110.4653542555789
 31
0.0
  0
LINE
  8
DETAIL
  6
CONTINUOUS
 62
     5
 10
260.78705506810581
 20
-110.4653542555789
 30
0.0
 11
260.78705506810581
 21
-110.4653542555789
 31
0.0
  0
LINE
  8
DETAIL
  6
CONTINUOUS
 62
     5
 10
260.78705506810581
 20
-110.4653542555789
 30
0.0
 11
260.79341632395972
 21
-110.4456020864336
 31
0.0
  0
LINE
  8
DETAIL
  6
CONTINUOUS
 62
     5
 10
260.79341632395972
 20
-110.4456020864336
 30
0.0
 11
260.79943000126121
 21
-110.4261852538646
 31
0.0
  0
LINE
  8
DETAIL
  6
CONTINUOUS
 62
     5
 10
260.79943000126121
 20
-110.4261852538646
 30
0.0
 11
260.79943000126121
 21
-110.4261852538646
 31
0.0
  0
LINE
  8
DETAIL
  6
CONTINUOUS
 62
     5
 10
260.79943000126121
 20
-110.4261852538646
 30
0.0
 11
260.8053123205126
 21
-110.40656625487961
 31
0.0
  0
LINE
  8
DETAIL
  6
CONTINUOUS
 62
     5
 10
260.8053123205126
 20
-110.40656625487961
 30
0.0
 11
260.81102539686412
 21
-110.38677662463191
 31
0.0
  0
LINE
  8
DETAIL
  6
CONTINUOUS
 62
     5
 10
260.81102539686412
 20
-110.38677662463191
 30
0.0
 11
260.81102539686412
 21
-110.38677662463191
 31
0.0
  0
LINE
  8
DETAIL
  6
CONTINUOUS
 62
     5
 10
260.81102539686412
 20
-110.38677662463191
 30
0.0
 11
260.81650727549902
 21
-110.3669609284109
 31
0.0
  0
LINE
  8
DETAIL
  6
CONTINUOUS
 62
     5
 10
260.81650727549902
 20
-110.3669609284109
 30
0.0
 11
260.82185382709008
 21
-110.347146813903
 31
0.0
  0
LINE
  8
DETAIL
  6
CONTINUOUS
 62
     5
 10
260.86628793313821
 20
-110.13819965608199
 30
0.0
 11
260.87315676656073
 21
-110.0930177168232
 31
0.0
  0
LINE
  8
DETAIL
  6
CONTINUOUS
 62
     5
 10
260.87315676656073
 20
-110.0930177168232
 30
0.0
 11
260.87950817450781
 21
-110.0477676212786
 31
0.0
  0
LINE
  8
DETAIL
  6
CONTINUOUS
 62
     5
 10
260.87950817450781
 20
-110.0477676212786
 30
0.0
 11
260.87950817450781
 21
-110.0477676212786
 31
0.0
  0
LINE
  8
DETAIL
  6
CONTINUOUS
 62
     5
 10
260.87950817450781
 20
-110.0477676212786
 30
0.0
 11
260.88493742487799
 21
-110.00239897769259
 31
0.0
  0
LINE
  8
DETAIL
  6
CONTINUOUS
 62
     5
 10
260.88493742487799
 20
-110.00239897769259
 30
0.0
 11
260.88949055905852
 21
-109.95693245243299
 31
0.0
  0
LINE
  8
DETAIL
  6
CONTINUOUS
 62
     5
 10
260.88949055905852
 20
-109.95693245243299
 30
0.0
 11
260.88949055905852
 21
-109.95693245243299
 31
0.0
  0
LINE
  8
DETAIL
  6
CONTINUOUS
 62
     5
 10
260.88949055905852
 20
-109.95693245243299
 30
0.0
 11
260.89330181457387
 21
-109.9114014973693
 31
0.0
  0
LINE
  8
DETAIL
  6
CONTINUOUS
 62
     5
 10
260.89330181457387
 20
-109.9114014973693
 30
0.0
 11
260.89640744001491
 21
-109.8658196482604
 31
0.0
  0
LINE
  8
DETAIL
  6
CONTINUOUS
 62
     5
 10
260.89640744001491
 20
-109.8658196482604
 30
0.0
 11
260.89640744001491
 21
-109.8658196482604
 31
0.0
  0
LINE
  8
DETAIL
  6
CONTINUOUS
 62
     5
 10
260.89640744001491
 20
-109.8658196482604
 30
0.0
 11
260.89880448230042
 21
-109.82019761341731
 31
0.0
  0
LINE
  8
DETAIL
  6
CONTINUOUS
 62
     5
 10
260.89880448230042
 20
-109.82019761341731
 30
0.0
 11
260.90043117060242
 21
-109.7745547074758
 31
0.0
  0
LINE
  8
DETAIL
  6
CONTINUOUS
 62
     5
 10
260.90043117060242
 20
-109.7745547074758
 30
0.0
 11
260.90043117060242
 21
-109.7745547074758
 31
0.0
  0
LINE
  8
DETAIL
  6
CONTINUOUS
 62
     5
 10
260.90043117060242
 20
-109.7745547074758
 30
0.0
 11
260.90129434463671
 21
-109.7289087693557
 31
0.0
  0
LINE
  8
DETAIL
  6
CONTINUOUS
 62
     5
 10
260.90129434463671
 20
-109.7289087693557
 30
0.0
 11
260.90173410404623
 21
-109.6832631287941
 31
0.0
  0
LINE
  8
DETAIL
  6
CONTINUOUS
 62
     5
 10
260.90173410404623
 20
71.596218356079362
 30
0.0
 11
260.90123025513049
 21
71.617056315754098
 31
0.0
  0
LINE
  8
DETAIL
  6
CONTINUOUS
 62
     5
 10
260.90123025513049
 20
71.617056315754098
 30
0.0
 11
260.90025922545863
 21
71.637891828914462
 31
0.0
  0
LINE
  8
DETAIL
  6
CONTINUOUS
 62
     5
 10
260.90025922545863
 20
71.637891828914462
 30
0.0
 11
260.90025922545863
 21
71.637891828914462
 31
0.0
  0
LINE
  8
DETAIL
  6
CONTINUOUS
 62
     5
 10
260.90025922545863
 20
71.637891828914462
 30
0.0
 11
260.89845341072049
 21
71.65871470917341
 31
0.0
  0
LINE
  8
DETAIL
  6
CONTINUOUS
 62
     5
 10
260.89845341072049
 20
71.65871470917341
 30
0.0
 11
260.8958435123825
 21
71.679483810647753
 31
0.0
  0
LINE
  8
DETAIL
  6
CONTINUOUS
 62
     5
 10
260.8958435123825
 20
71.679483810647753
 30
0.0
 11
260.8958435123825
 21
71.679483810647753
 31
0.0
  0
LINE
  8
DETAIL
  6
CONTINUOUS
 62
     5
 10
260.8958435123825
 20
71.679483810647753
 30
0.0
 11
260.89253077989309
 21
71.700157890272067
 31
0.0
  0
LINE
  8
DETAIL
  6
CONTINUOUS
 62
     5
 10
260.89253077989309
 20
71.700157890272067
 30
0.0
 11
260.88850034884598
 21
71.720726275741754
 31
0.0
  0
LINE
  8
DETAIL
  6
CONTINUOUS
 62
     5
 10
260.88850034884598
 20
71.720726275741754
 30
0.0
 11
260.88850034884598
 21
71.720726275741754
 31
0.0
  0
LINE
  8
DETAIL
  6
CONTINUOUS
 62
     5
 10
260.88850034884598
 20
71.720726275741754
 30
0.0
 11
260.88372486378131
 21
71.741163106554495
 31
0.0
  0
LINE
  8
DETAIL
  6
CONTINUOUS
 62
     5
 10
260.88372486378131
 20
71.741163106554495
 30
0.0
 11
260.87824311887789
 21
71.76135119865944
 31
0.0
  0
LINE
  8
DETAIL
  6
CONTINUOUS
 62
     5
 10
260.87824311887789
 20
71.76135119865944
 30
0.0
 11
260.87824311887789
 21
71.76135119865944
 31
0.0
  0
LINE
  8
DETAIL
  6
CONTINUOUS
 62
     5
 10
260.87824311887789
 20
71.76135119865944
 30
0.0
 11
260.87207332454972
 21
71.781234217976589
 31
0.0
  0
LINE
  8
DETAIL
  6
CONTINUOUS
 62
     5
 10
260.87207332454972
 20
71.781234217976589
 30
0.0
 11
260.86508520650659
 21
71.801090553864015
 31
0.0
  0
LINE
  8
DETAIL
  6
CONTINUOUS
 62
     5
 10
260.86508520650659
 20
71.801090553864015
 30
0.0
 11
260.86508520650659
 21
71.801090553864015
 31
0.0
  0
LINE
  8
DETAIL
  6
CONTINUOUS
 62
     5
 10
260.86508520650659
 20
71.801090553864015
 30
0.0
 11
260.85716593135447
 21
71.821152618247424
 31
0.0
  0
LINE
  8
DETAIL
  6
CONTINUOUS
 62
     5
 10
260.85716593135447
 20
71.821152618247424
 30
0.0
 11
260.8484209139873
 21
71.84113418988909
 31
0.0
  0
LINE
  8
DETAIL
  6
CONTINUOUS
 62
     5
 10
260.8484209139873
 20
71.84113418988909
 30
0.0
 11
260.8484209139873
 21
71.84113418988909
 31
0.0
  0
LINE
  8
DETAIL
  6
CONTINUOUS
 62
     5
 10
260.8484209139873
 20
71.84113418988909
 30
0.0
 11
260.83898559031229
 21
71.860702047607674
 31
0.0
  0
LINE
  8
DETAIL
  6
CONTINUOUS
 62
     5
 10
260.83898559031229
 20
71.860702047607674
 30
0.0
 11
260.82889723201743
 21
71.879853603614038
 31
0.0
  0
LINE
  8
DETAIL
  6
CONTINUOUS
 62
     5
 10
260.82889723201743
 20
71.879853603614038
 30
0.0
 11
260.82889723201743
 21
71.879853603614038
 31
0.0
  0
LINE
  8
DETAIL
  6
CONTINUOUS
 62
     5
 10
260.82889723201743
 20
71.879853603614038
 30
0.0
 11
260.81816237725752
 21
71.898661211190529
 31
0.0
  0
LINE
  8
DETAIL
  6
CONTINUOUS
 62
     5
 10
260.81816237725752
 20
71.898661211190529
 30
0.0
 11
260.80676279427439
 21
71.917166354514393
 31
0.0
  0
LINE
  8
DETAIL
  6
CONTINUOUS
 62
     5
 10
260.80676279427439
 20
71.917166354514393
 30
0.0
 11
260.80676279427439
 21
71.917166354514393
 31
0.0
  0
LINE
  8
DETAIL
  6
CONTINUOUS
 62
     5
 10
260.80676279427439
 20
71.917166354514393
 30
0.0
 11
260.7947233697987
 21
71.935351011243938
 31
0.0
  0
LINE
  8
DETAIL
  6
CONTINUOUS
 62
     5
 10
260.7947233697987
 20
71.935351011243938
 30
0.0
 11
260.78226623443379
 21
71.952990002064553
 31
0.0
  0
LINE
  8
DETAIL
  6
CONTINUOUS
 62
     5
 10
260.78226623443379
 20
71.952990002064553
 30
0.0
 11
260.78226623443379
 21
71.952990002064553
 31
0.0
  0
LINE
  8
DETAIL
  6
CONTINUOUS
 62
     5
 10
260.78226623443379
 20
71.952990002064553
 30
0.0
 11
260.76947177835677
 21
71.970021232668159
 31
0.0
  0
LINE
  8
DETAIL
  6
CONTINUOUS
 62
     5
 10
260.76947177835677
 20
71.970021232668159
 30
0.0
 11
260.7556561861727
 21
71.987242105740052
 31
0.0
  0
LINE
  8
DETAIL
  6
CONTINUOUS
 62
     5
 10
260.7556561861727
 20
71.987242105740052
 30
0.0
 11
260.7556561861727
 21
71.987242105740052
 31
0.0
  0
LINE
  8
DETAIL
  6
CONTINUOUS
 62
     5
 10
260.7556561861727
 20
71.987242105740052
 30
0.0
 11
260.74023359853658
 21
72.005317506613892
 31
0.0
  0
LINE
  8
DETAIL
  6
CONTINUOUS
 62
     5
 10
260.74023359853658
 20
72.005317506613892
 30
0.0
 11
260.72377418587962
 21
72.023522754217765
 31
0.0
  0
LINE
  8
DETAIL
  6
CONTINUOUS
 62
     5
 10
260.72377418587962
 20
72.023522754217765
 30
0.0
 11
260.72377418587962
 21
72.023522754217765
 31
0.0
  0
LINE
  8
DETAIL
  6
CONTINUOUS
 62
     5
 10
260.72377418587962
 20
72.023522754217765
 30
0.0
 11
260.70696738200888
 21
72.041011227164063
 31
0.0
  0
LINE
  8
DETAIL
  6
CONTINUOUS
 62
     5
 10
260.70696738200888
 20
72.041011227164063
 30
0.0
 11
260.68982364446049
 21
72.057838109202066
 31
0.0
  0
LINE
  8
DETAIL
  6
CONTINUOUS
 62
     5
 10
260.68982364446049
 20
72.057838109202066
 30
0.0
 11
260.68982364446049
 21
72.057838109202066
 31
0.0
  0
LINE
  8
DETAIL
  6
CONTINUOUS
 62
     5
 10
260.68982364446049
 20
72.057838109202066
 30
0.0
 11
260.67220461593928
 21
72.074240357452936
 31
0.0
  0
LINE
  8
DETAIL
  6
CONTINUOUS
 62
     5
 10
260.67220461593928
 20
72.074240357452936
 30
0.0
 11
260.65405565609672
 21
72.090280217389363
 31
0.0
  0
LINE
  8
DETAIL
  6
CONTINUOUS
 62
     5
 10
260.65405565609672
 20
72.090280217389363
 30
0.0
 11
260.65405565609672
 21
72.090280217389363
 31
0.0
  0
LINE
  8
DETAIL
  6
CONTINUOUS
 62
     5
 10
260.65405565609672
 20
72.090280217389363
 30
0.0
 11
260.63542908094189
 21
72.10592551693594
 31
0.0
  0
LINE
  8
DETAIL
  6
CONTINUOUS
 62
     5
 10
260.63542908094189
 20
72.10592551693594
 30
0.0
 11
260.6167213149705
 21
72.120941125476065
 31
0.0
  0
LINE
  8
DETAIL
  6
CONTINUOUS
 62
     5
 10
260.6167213149705
 20
72.120941125476065
 30
0.0
 11
260.6167213149705
 21
72.120941125476065
 31
0.0
  0
LINE
  8
DETAIL
  6
CONTINUOUS
 62
     5
 10
260.6167213149705
 20
72.120941125476065
 30
0.0
 11
260.59804977207739
 21
72.135287809211604
 31
0.0
  0
LINE
  8
DETAIL
  6
CONTINUOUS
 62
     5
 10
260.59804977207739
 20
72.135287809211604
 30
0.0
 11
260.5780717152636
 21
72.149912880158581
 31
0.0
  0
LINE
  8
DETAIL
  6
CONTINUOUS
 62
     5
 10
260.5780717152636
 20
72.149912880158581
 30
0.0
 11
260.5780717152636
 21
72.149912880158581
 31
0.0
  0
LINE
  8
DETAIL
  6
CONTINUOUS
 62
     5
 10
260.5780717152636
 20
72.149912880158581
 30
0.0
 11
260.55564650517158
 21
72.165602710781968
 31
0.0
  0
LINE
  8
DETAIL
  6
CONTINUOUS
 62
     5
 10
260.55564650517158
 20
72.165602710781968
 30
0.0
 11
260.53190204390421
 21
72.181513369520644
 31
0.0
  0
LINE
  8
DETAIL
  6
CONTINUOUS
 62
     5
 10
260.53190204390421
 20
72.181513369520644
 30
0.0
 11
260.53190204390421
 21
72.181513369520644
 31
0.0
  0
LINE
  8
DETAIL
  6
CONTINUOUS
 62
     5
 10
260.53190204390421
 20
72.181513369520644
 30
0.0
 11
260.50818667754811
 21
72.196658397053625
 31
0.0
  0
LINE
  8
DETAIL
  6
CONTINUOUS
 62
     5
 10
260.50818667754811
 20
72.196658397053625
 30
0.0
 11
260.48446198666272
 21
72.21111152703952
 31
0.0
  0
LINE
  8
DETAIL
  6
CONTINUOUS
 62
     5
 10
260.48446198666272
 20
72.21111152703952
 30
0.0
 11
260.48446198666272
 21
72.21111152703952
 31
0.0
  0
LINE
  8
DETAIL
  6
CONTINUOUS
 62
     5
 10
260.48446198666272
 20
72.21111152703952
 30
0.0
 11
260.46040133024587
 21
72.225155933719407
 31
0.0
  0
LINE
  8
DETAIL
  6
CONTINUOUS
 62
     5
 10
260.46040133024587
 20
72.225155933719407
 30
0.0
 11
260.43591194657461
 21
72.238852360682586
 31
0.0
  0
LINE
  8
DETAIL
  6
CONTINUOUS
 62
     5
 10
260.43591194657461
 20
72.238852360682586
 30
0.0
 11
260.43591194657461
 21
72.238852360682586
 31
0.0
  0
LINE
  8
DETAIL
  6
CONTINUOUS
 62
     5
 10
260.43591194657461
 20
72.238852360682586
 30
0.0
 11
260.41107235584877
 21
72.25216332626178
 31
0.0
  0
LINE
  8
DETAIL
  6
CONTINUOUS
 62
     5
 10
260.41107235584877
 20
72.25216332626178
 30
0.0
 11
260.38641232667578
 21
72.264880878415624
 31
0.0
  0
LINE
  8
DETAIL
  6
CONTINUOUS
 62
     5
 10
260.38641232667578
 20
72.264880878415624
 30
0.0
 11
260.38641232667578
 21
72.264880878415624
 31
0.0
  0
LINE
  8
DETAIL
  6
CONTINUOUS
 62
     5
 10
260.38641232667578
 20
72.264880878415624
 30
0.0
 11
260.36206472153748
 21
72.276980525546378
 31
0.0
  0
LINE
  8
DETAIL
  6
CONTINUOUS
 62
     5
 10
260.36206472153748
 20
72.276980525546378
 30
0.0
 11
260.33612353000132
 21
72.289342088205785
 31
0.0
  0
LINE
  8
DETAIL
  6
CONTINUOUS
 62
     5
 10
260.33612353000132
 20
72.289342088205785
 30
0.0
 11
260.33612353000132
 21
72.289342088205785
 31
0.0
  0
LINE
  8
DETAIL
  6
CONTINUOUS
 62
     5
 10
260.33612353000132
 20
72.289342088205785
 30
0.0
 11
260.30697691624073
 21
72.302694102218084
 31
0.0
  0
LINE
  8
DETAIL
  6
CONTINUOUS
 62
     5
 10
260.30697691624073
 20
72.302694102218084
 30
0.0
 11
260.27622861577311
 21
72.316255652346172
 31
0.0
  0
LINE
  8
DETAIL
  6
CONTINUOUS
 62
     5
 10
260.27622861577311
 20
72.316255652346172
 30
0.0
 11
260.27622861577311
 21
72.316255652346172
 31
0.0
  0
LINE
  8
DETAIL
  6
CONTINUOUS
 62
     5
 10
260.27622861577311
 20
72.316255652346172
 30
0.0
 11
260.24578701578253
 21
72.329114779460951
 31
0.0
  0
LINE
  8
DETAIL
  6
CONTINUOUS
 62
     5
 10
260.24578701578253
 20
72.329114779460951
 30
0.0
 11
260.21556353878867
 21
72.341344799921444
 31
0.0
  0
LINE
  8
DETAIL
  6
CONTINUOUS
 62
     5
 10
260.21556353878867
 20
72.341344799921444
 30
0.0
 11
260.21556353878867
 21
72.341344799921444
 31
0.0
  0
LINE
  8
DETAIL
  6
CONTINUOUS
 62
     5
 10
260.21556353878867
 20
72.341344799921444
 30
0.0
 11
260.18507113903343
 21
72.353209332438837
 31
0.0
  0
LINE
  8
DETAIL
  6
CONTINUOUS
 62
     5
 10
260.18507113903343
 20
72.353209332438837
 30
0.0
 11
260.15422586231341
 21
72.364747929636223
 31
0.0
  0
LINE
  8
DETAIL
  6
CONTINUOUS
 62
     5
 10
260.15422586231341
 20
72.364747929636223
 30
0.0
 11
260.15422586231341
 21
72.364747929636223
 31
0.0
  0
LINE
  8
DETAIL
  6
CONTINUOUS
 62
     5
 10
260.15422586231341
 20
72.364747929636223
 30
0.0
 11
260.12314067692569
 21
72.375921874830283
 31
0.0
  0
LINE
  8
DETAIL
  6
CONTINUOUS
 62
     5
 10
260.12314067692569
 20
72.375921874830283
 30
0.0
 11
260.0923131496105
 21
72.386603440194222
 31
0.0
  0
LINE
  8
DETAIL
  6
CONTINUOUS
 62
     5
 10
260.0923131496105
 20
72.386603440194222
 30
0.0
 11
260.0923131496105
 21
72.386603440194222
 31
0.0
  0
LINE
  8
DETAIL
  6
CONTINUOUS
 62
     5
 10
260.0923131496105
 20
72.386603440194222
 30
0.0
 11
260.06185162538668
 21
72.396787672780874
 31
0.0
  0
LINE
  8
DETAIL
  6
CONTINUOUS
 62
     5
 10
260.06185162538668
 20
72.396787672780874
 30
0.0
 11
260.02992296394427
 21
72.407049730299832
 31
0.0
  0
LINE
  8
DETAIL
  6
CONTINUOUS
 62
     5
 10
260.02992296394427
 20
72.407049730299832
 30
0.0
 11
260.02992296394427
 21
72.407049730299832
 31
0.0
  0
LINE
  8
DETAIL
  6
CONTINUOUS
 62
     5
 10
260.02992296394427
 20
72.407049730299832
 30
0.0
 11
259.99498206961857
 21
72.417864629746873
 31
0.0
  0
LINE
  8
DETAIL
  6
CONTINUOUS
 62
     5
 10
259.99498206961857
 20
72.417864629746873
 30
0.0
 11
259.95857751065199
 21
72.428726714604863
 31
0.0
  0
LINE
  8
DETAIL
  6
CONTINUOUS
 62
     5
 10
259.95857751065199
 20
72.428726714604863
 30
0.0
 11
259.95857751065199
 21
72.428726714604863
 31
0.0
  0
LINE
  8
DETAIL
  6
CONTINUOUS
 62
     5
 10
259.95857751065199
 20
72.428726714604863
 30
0.0
 11
259.92254747654817
 21
72.439045572893974
 31
0.0
  0
LINE
  8
DETAIL
  6
CONTINUOUS
 62
     5
 10
259.92254747654817
 20
72.439045572893974
 30
0.0
 11
259.88679497794709
 21
72.448872444292874
 31
0.0
  0
LINE
  8
DETAIL
  6
CONTINUOUS
 62
     5
 10
259.88679497794709
 20
72.448872444292874
 30
0.0
 11
259.88679497794709
 21
72.448872444292874
 31
0.0
  0
LINE
  8
DETAIL
  6
CONTINUOUS
 62
     5
 10
259.88679497794709
 20
72.448872444292874
 30
0.0
 11
259.85084286863622
 21
72.458381331800183
 31
0.0
  0
LINE
  8
DETAIL
  6
CONTINUOUS
 62
     5
 10
259.85084286863622
 20
72.458381331800183
 30
0.0
 11
259.81462855385138
 21
72.467595640030368
 31
0.0
  0
LINE
  8
DETAIL
  6
CONTINUOUS
 62
     5
 10
259.81462855385138
 20
72.467595640030368
 30
0.0
 11
259.81462855385138
 21
72.467595640030368
 31
0.0
  0
LINE
  8
DETAIL
  6
CONTINUOUS
 62
     5
 10
259.81462855385138
 20
72.467595640030368
 30
0.0
 11
259.77826231995908
 21
72.476491309470475
 31
0.0
  0
LINE
  8
DETAIL
  6
CONTINUOUS
 62
     5
 10
259.77826231995908
 20
72.476491309470475
 30
0.0
 11
259.74213142638462
 21
72.485005022483392
 31
0.0
  0
LINE
  8
DETAIL
  6
CONTINUOUS
 62
     5
 10
259.74213142638462
 20
72.485005022483392
 30
0.0
 11
259.74213142638462
 21
72.485005022483392
 31
0.0
  0
LINE
  8
DETAIL
  6
CONTINUOUS
 62
     5
 10
259.74213142638462
 20
72.485005022483392
 30
0.0
 11
259.70631176489542
 21
72.493140554621277
 31
0.0
  0
LINE
  8
DETAIL
  6
CONTINUOUS
 62
     5
 10
259.70631176489542
 20
72.493140554621277
 30
0.0
 11
259.66935678356822
 21
72.501209312318679
 31
0.0
  0
LINE
  8
DETAIL
  6
CONTINUOUS
 62
     5
 10
259.66935678356822
 20
72.501209312318679
 30
0.0
 11
259.66935678356822
 21
72.501209312318679
 31
0.0
  0
LINE
  8
DETAIL
  6
CONTINUOUS
 62
     5
 10
259.66935678356822
 20
72.501209312318679
 30
0.0
 11
259.63004924431573
 21
72.509468103341987
 31
0.0
  0
LINE
  8
DETAIL
  6
CONTINUOUS
 62
     5
 10
259.63004924431573
 20
72.509468103341987
 30
0.0
 11
259.58961160808599
 21
72.517647709897801
 31
0.0
  0
LINE
  8
DETAIL
  6
CONTINUOUS
 62
     5
 10
259.58961160808599
 20
72.517647709897801
 30
0.0
 11
259.58961160808599
 21
72.517647709897801
 31
0.0
  0
LINE
  8
DETAIL
  6
CONTINUOUS
 62
     5
 10
259.58961160808599
 20
72.517647709897801
 30
0.0
 11
259.54949518484409
 21
72.525433360820898
 31
0.0
  0
LINE
  8
DETAIL
  6
CONTINUOUS
 62
     5
 10
259.54949518484409
 20
72.525433360820898
 30
0.0
 11
259.50962698159492
 21
72.532854097011978
 31
0.0
  0
LINE
  8
DETAIL
  6
CONTINUOUS
 62
     5
 10
259.50962698159492
 20
72.532854097011978
 30
0.0
 11
259.50962698159492
 21
72.532854097011978
 31
0.0
  0
LINE
  8
DETAIL
  6
CONTINUOUS
 62
     5
 10
259.50962698159492
 20
72.532854097011978
 30
0.0
 11
259.46962944076358
 21
72.54000535065984
 31
0.0
  0
LINE
  8
DETAIL
  6
CONTINUOUS
 62
     5
 10
259.46962944076358
 20
72.54000535065984
 30
0.0
 11
259.42943104942071
 21
72.546904307035447
 31
0.0
  0
LINE
  8
DETAIL
  6
CONTINUOUS
 62
     5
 10
259.42943104942071
 20
72.546904307035447
 30
0.0
 11
259.42943104942071
 21
72.546904307035447
 31
0.0
  0
LINE
  8
DETAIL
  6
CONTINUOUS
 62
     5
 10
259.42943104942071
 20
72.546904307035447
 30
0.0
 11
259.38911183689271
 21
72.553540883581491
 31
0.0
  0
LINE
  8
DETAIL
  6
CONTINUOUS
 62
     5
 10
259.38911183689271
 20
72.553540883581491
 30
0.0
 11
259.34905195688879
 21
72.559874173344724
 31
0.0
  0
LINE
  8
DETAIL
  6
CONTINUOUS
 62
     5
 10
259.34905195688879
 20
72.559874173344724
 30
0.0
 11
259.34905195688879
 21
72.559874173344724
 31
0.0
  0
LINE
  8
DETAIL
  6
CONTINUOUS
 62
     5
 10
259.34905195688879
 20
72.559874173344724
 30
0.0
 11
259.30932995867028
 21
72.565905949399166
 31
0.0
  0
LINE
  8
DETAIL
  6
CONTINUOUS
 62
     5
 10
259.30932995867028
 20
72.565905949399166
 30
0.0
 11
259.26851784932558
 21
72.57183952931473
 31
0.0
  0
LINE
  8
DETAIL
  6
CONTINUOUS
 62
     5
 10
259.26851784932558
 20
72.57183952931473
 30
0.0
 11
259.26851784932558
 21
72.57183952931473
 31
0.0
  0
LINE
  8
DETAIL
  6
CONTINUOUS
 62
     5
 10
259.26851784932558
 20
72.57183952931473
 30
0.0
 11
259.22541322536972
 21
72.577842314798545
 31
0.0
  0
LINE
  8
DETAIL
  6
CONTINUOUS
 62
     5
 10
259.22541322536972
 20
72.577842314798545
 30
0.0
 11
259.18122258319568
 21
72.58373649960663
 31
0.0
  0
LINE
  8
DETAIL
  6
CONTINUOUS
 62
     5
 10
259.18122258319568
 20
72.58373649960663
 30
0.0
 11
259.18122258319568
 21
72.58373649960663
 31
0.0
  0
LINE
  8
DETAIL
  6
CONTINUOUS
 62
     5
 10
259.18122258319568
 20
72.58373649960663
 30
0.0
 11
259.13737671138801
 21
72.589314834764764
 31
0.0
  0
LINE
  8
DETAIL
  6
CONTINUOUS
 62
     5
 10
259.13737671138801
 20
72.589314834764764
 30
0.0
 11
259.09379466742303
 21
72.594597508323204
 31
0.0
  0
LINE
  8
DETAIL
  6
CONTINUOUS
 62
     5
 10
259.09379466742303
 20
72.594597508323204
 30
0.0
 11
259.09379466742303
 21
72.594597508323204
 31
0.0
  0
LINE
  8
DETAIL
  6
CONTINUOUS
 62
     5
 10
259.09379466742303
 20
72.594597508323204
 30
0.0
 11
259.05010050861119
 21
72.59964782485099
 31
0.0
  0
LINE
  8
DETAIL
  6
CONTINUOUS
 62
     5
 10
259.05010050861119
 20
72.59964782485099
 30
0.0
 11
259.00625002271357
 21
72.604474117963491
 31
0.0
  0
LINE
  8
DETAIL
  6
CONTINUOUS
 62
     5
 10
259.00625002271357
 20
72.604474117963491
 30
0.0
 11
259.00625002271357
 21
72.604474117963491
 31
0.0
  0
LINE
  8
DETAIL
  6
CONTINUOUS
 62
     5
 10
259.00625002271357
 20
72.604474117963491
 30
0.0
 11
258.96232813243228
 21
72.609069090234925
 31
0.0
  0
LINE
  8
DETAIL
  6
CONTINUOUS
 62
     5
 10
258.96232813243228
 20
72.609069090234925
 30
0.0
 11
258.91860456977281
 21
72.613417891026756
 31
0.0
  0
LINE
  8
DETAIL
  6
CONTINUOUS
 62
     5
 10
258.91860456977281
 20
72.613417891026756
 30
0.0
 11
258.91860456977281
 21
72.613417891026756
 31
0.0
  0
LINE
  8
DETAIL
  6
CONTINUOUS
 62
     5
 10
258.91860456977281
 20
72.613417891026756
 30
0.0
 11
258.87512752715043
 21
72.617525077347636
 31
0.0
  0
LINE
  8
DETAIL
  6
CONTINUOUS
 62
     5
 10
258.87512752715043
 20
72.617525077347636
 30
0.0
 11
258.83087422930612
 21
72.621480390012266
 31
0.0
  0
LINE
  8
DETAIL
  6
CONTINUOUS
 62
     5
 10
258.83087422930612
 20
72.621480390012266
 30
0.0
 11
258.83087422930612
 21
72.621480390012266
 31
0.0
  0
LINE
  8
DETAIL
  6
CONTINUOUS
 62
     5
 10
258.83087422930612
 20
72.621480390012266
 30
0.0
 11
258.78498553139229
 21
72.625356952377388
 31
0.0
  0
LINE
  8
DETAIL
  6
CONTINUOUS
 62
     5
 10
258.78498553139229
 20
72.625356952377388
 30
0.0
 11
258.73832777788613
 21
72.629076234164359
 31
0.0
  0
LINE
  8
DETAIL
  6
CONTINUOUS
 62
     5
 10
258.73832777788613
 20
72.629076234164359
 30
0.0
 11
258.73832777788613
 21
72.629076234164359
 31
0.0
  0
LINE
  8
DETAIL
  6
CONTINUOUS
 62
     5
 10
258.73832777788613
 20
72.629076234164359
 30
0.0
 11
258.69192589982413
 21
72.632547139519829
 31
0.0
  0
LINE
  8
DETAIL
  6
CONTINUOUS
 62
     5
 10
258.69192589982413
 20
72.632547139519829
 30
0.0
 11
258.6457136851626
 21
72.63577996392155
 31
0.0
  0
LINE
  8
DETAIL
  6
CONTINUOUS
 62
     5
 10
258.6457136851626
 20
72.63577996392155
 30
0.0
 11
258.6457136851626
 21
72.63577996392155
 31
0.0
  0
LINE
  8
DETAIL
  6
CONTINUOUS
 62
     5
 10
258.6457136851626
 20
72.63577996392155
 30
0.0
 11
258.59941947057382
 21
72.63880376515408
 31
0.0
  0
LINE
  8
DETAIL
  6
CONTINUOUS
 62
     5
 10
258.59941947057382
 20
72.63880376515408
 30
0.0
 11
258.55304093067832
 21
72.641621258892201
 31
0.0
  0
LINE
  8
DETAIL
  6
CONTINUOUS
 62
     5
 10
258.55304093067832
 20
72.641621258892201
 30
0.0
 11
258.55304093067832
 21
72.641621258892201
 31
0.0
  0
LINE
  8
DETAIL
  6
CONTINUOUS
 62
     5
 10
258.55304093067832
 20
72.641621258892201
 30
0.0
 11
258.50664652240562
 21
72.644229569559911
 31
0.0
  0
LINE
  8
DETAIL
  6
CONTINUOUS
 62
     5
 10
258.50664652240562
 20
72.644229569559911
 30
0.0
 11
258.46031849397377
 21
72.646629798684216
 31
0.0
  0
LINE
  8
DETAIL
  6
CONTINUOUS
 62
     5
 10
258.46031849397377
 20
72.646629798684216
 30
0.0
 11
258.46031849397377
 21
72.646629798684216
 31
0.0
  0
LINE
  8
DETAIL
  6
CONTINUOUS
 62
     5
 10
258.46031849397377
 20
72.646629798684216
 30
0.0
 11
258.4140614156471
 21
72.648826650491856
 31
0.0
  0
LINE
  8
DETAIL
  6
CONTINUOUS
 62
     5
 10
258.4140614156471
 20
72.648826650491856
 30
0.0
 11
258.36755535459042
 21
72.650835262905503
 31
0.0
  0
LINE
  8
DETAIL
  6
CONTINUOUS
 62
     5
 10
258.36755535459042
 20
72.650835262905503
 30
0.0
 11
258.36755535459042
 21
72.650835262905503
 31
0.0
  0
LINE
  8
DETAIL
  6
CONTINUOUS
 62
     5
 10
258.36755535459042
 20
72.650835262905503
 30
0.0
 11
258.32053407026109
 21
72.652667618531495
 31
0.0
  0
LINE
  8
DETAIL
  6
CONTINUOUS
 62
     5
 10
258.32053407026109
 20
72.652667618531495
 30
0.0
 11
258.2732705943871
 21
72.654312645020354
 31
0.0
  0
LINE
  8
DETAIL
  6
CONTINUOUS
 62
     5
 10
258.2732705943871
 20
72.654312645020354
 30
0.0
 11
258.2732705943871
 21
72.654312645020354
 31
0.0
  0
LINE
  8
DETAIL
  6
CONTINUOUS
 62
     5
 10
258.2732705943871
 20
72.654312645020354
 30
0.0
 11
258.22608678955999
 21
72.655756956977712
 31
0.0
  0
LINE
  8
DETAIL
  6
CONTINUOUS
 62
     5
 10
258.22608678955999
 20
72.655756956977712
 30
0.0
 11
258.17896056955283
 21
72.657000971786374
 31
0.0
  0
LINE
  8
DETAIL
  6
CONTINUOUS
 62
     5
 10
258.17896056955283
 20
72.657000971786374
 30
0.0
 11
258.17896056955283
 21
72.657000971786374
 31
0.0
  0
LINE
  8
DETAIL
  6
CONTINUOUS
 62
     5
 10
258.17896056955283
 20
72.657000971786374
 30
0.0
 11
258.13180688278601
 21
72.658049310890647
 31
0.0
  0
LINE
  8
DETAIL
  6
CONTINUOUS
 62
     5
 10
258.13180688278601
 20
72.658049310890647
 30
0.0
 11
258.08463276508292
 21
72.658909609197963
 31
0.0
  0
LINE
  8
DETAIL
  6
CONTINUOUS
 62
     5
 10
258.08463276508292
 20
72.658909609197963
 30
0.0
 11
258.08463276508292
 21
72.658909609197963
 31
0.0
  0
LINE
  8
DETAIL
  6
CONTINUOUS
 62
     5
 10
258.08463276508292
 20
72.658909609197963
 30
0.0
 11
258.03746217391972
 21
72.659583790824399
 31
0.0
  0
LINE
  8
DETAIL
  6
CONTINUOUS
 62
     5
 10
258.03746217391972
 20
72.659583790824399
 30
0.0
 11
257.99029466597551
 21
72.66004792324884
 31
0.0
  0
LINE
  8
DETAIL
  6
CONTINUOUS
 62
     5
 10
257.99029466597551
 20
72.66004792324884
 30
0.0
 11
257.99029466597551
 21
72.66004792324884
 31
0.0
  0
LINE
  8
DETAIL
  6
CONTINUOUS
 62
     5
 10
257.99029466597551
 20
72.66004792324884
 30
0.0
 11
257.94312507667559
 21
72.660296713061825
 31
0.0
  0
LINE
  8
DETAIL
  6
CONTINUOUS
 62
     5
 10
257.94312507667559
 20
72.660296713061825
 30
0.0
 11
257.89595375722519
 21
72.660425279933861
 31
0.0
  0
LINE
  8
DETAIL
  6
CONTINUOUS
 62
     5
 10
258.06110657958629
 20
-112.88112803588319
 30
0.0
 11
258.14082695548609
 21
-112.8635504490198
 31
0.0
  0
LINE
  8
DETAIL
  6
CONTINUOUS
 62
     5
 10
258.14082695548609
 20
-112.8635504490198
 30
0.0
 11
258.22035704452043
 21
-112.84508446009499
 31
0.0
  0
LINE
  8
DETAIL
  6
CONTINUOUS
 62
     5
 10
258.22035704452043
 20
-112.84508446009499
 30
0.0
 11
258.22035704452043
 21
-112.84508446009499
 31
0.0
  0
LINE
  8
DETAIL
  6
CONTINUOUS
 62
     5
 10
258.22035704452043
 20
-112.84508446009499
 30
0.0
 11
258.29953978531847
 21
-112.8250338527009
 31
0.0
  0
LINE
  8
DETAIL
  6
CONTINUOUS
 62
     5
 10
258.29953978531847
 20
-112.8250338527009
 30
0.0
 11
258.37835101849021
 21
-112.8034711530477
 31
0.0
  0
LINE
  8
DETAIL
  6
CONTINUOUS
 62
     5
 10
258.37835101849021
 20
-112.8034711530477
 30
0.0
 11
258.37835101849021
 21
-112.8034711530477
 31
0.0
  0
LINE
  8
DETAIL
  6
CONTINUOUS
 62
     5
 10
258.37835101849021
 20
-112.8034711530477
 30
0.0
 11
258.4567993533866
 21
-112.78060602230219
 31
0.0
  0
LINE
  8
DETAIL
  6
CONTINUOUS
 62
     5
 10
258.4567993533866
 20
-112.78060602230219
 30
0.0
 11
258.5348915723481
 21
-112.7564279188459
 31
0.0
  0
LINE
  8
DETAIL
  6
CONTINUOUS
 62
     5
 10
258.5348915723481
 20
-112.7564279188459
 30
0.0
 11
258.5348915723481
 21
-112.7564279188459
 31
0.0
  0
LINE
  8
DETAIL
  6
CONTINUOUS
 62
     5
 10
258.5348915723481
 20
-112.7564279188459
 30
0.0
 11
258.61260260247792
 21
-112.7308992674953
 31
0.0
  0
LINE
  8
DETAIL
  6
CONTINUOUS
 62
     5
 10
258.61260260247792
 20
-112.7308992674953
 30
0.0
 11
258.68978177694538
 21
-112.7040945615943
 31
0.0
  0
LINE
  8
DETAIL
  6
CONTINUOUS
 62
     5
 10
258.68978177694538
 20
-112.7040945615943
 30
0.0
 11
258.68978177694538
 21
-112.7040945615943
 31
0.0
  0
LINE
  8
DETAIL
  6
CONTINUOUS
 62
     5
 10
258.68978177694538
 20
-112.7040945615943
 30
0.0
 11
258.76637308112407
 21
-112.67605929378691
 31
0.0
  0
LINE
  8
DETAIL
  6
CONTINUOUS
 62
     5
 10
258.76637308112407
 20
-112.67605929378691
 30
0.0
 11
258.84282470313519
 21
-112.6466108853967
 31
0.0
  0
LINE
  8
DETAIL
  6
CONTINUOUS
 62
     5
 10
258.84282470313519
 20
-112.6466108853967
 30
0.0
 11
258.84282470313519
 21
-112.6466108853967
 31
0.0
  0
LINE
  8
DETAIL
  6
CONTINUOUS
 62
     5
 10
258.84282470313519
 20
-112.6466108853967
 30
0.0
 11
258.91950650457028
 21
-112.6155949085432
 31
0.0
  0
LINE
  8
DETAIL
  6
CONTINUOUS
 62
     5
 10
258.91950650457028
 20
-112.6155949085432
 30
0.0
 11
258.9959708381532
 21
-112.5831976098527
 31
0.0
  0
LINE
  8
DETAIL
  6
CONTINUOUS
 62
     5
 10
258.9959708381532
 20
-112.5831976098527
 30
0.0
 11
258.9959708381532
 21
-112.5831976098527
 31
0.0
  0
LINE
  8
DETAIL
  6
CONTINUOUS
 62
     5
 10
258.9959708381532
 20
-112.5831976098527
 30
0.0
 11
259.07172570985949
 21
-112.54962232371621
 31
0.0
  0
LINE
  8
DETAIL
  6
CONTINUOUS
 62
     5
 10
259.07172570985949
 20
-112.54962232371621
 30
0.0
 11
259.14691924754487
 21
-112.5148000610729
 31
0.0
  0
LINE
  8
DETAIL
  6
CONTINUOUS
 62
     5
 10
259.14691924754487
 20
-112.5148000610729
 30
0.0
 11
259.14691924754487
 21
-112.5148000610729
 31
0.0
  0
LINE
  8
DETAIL
  6
CONTINUOUS
 62
     5
 10
259.14691924754487
 20
-112.5148000610729
 30
0.0
 11
259.22169960213159
 21
-112.47868393916789
 31
0.0
  0
LINE
  8
DETAIL
  6
CONTINUOUS
 62
     5
 10
259.22169960213159
 20
-112.47868393916789
 30
0.0
 11
259.29557489492839
 21
-112.4415878239174
 31
0.0
  0
LINE
  8
DETAIL
  6
CONTINUOUS
 62
     5
 10
259.29557489492839
 20
-112.4415878239174
 30
0.0
 11
259.29557489492839
 21
-112.4415878239174
 31
0.0
  0
LINE
  8
DETAIL
  6
CONTINUOUS
 62
     5
 10
259.29557489492839
 20
-112.4415878239174
 30
0.0
 11
259.36837323898533
 21
-112.4036231005973
 31
0.0
  0
LINE
  8
DETAIL
  6
CONTINUOUS
 62
     5
 10
259.36837323898533
 20
-112.4036231005973
 30
0.0
 11
259.4418427439208
 21
-112.3637304832464
 31
0.0
  0
LINE
  8
DETAIL
  6
CONTINUOUS
 62
     5
 10
259.4418427439208
 20
-112.3637304832464
 30
0.0
 11
259.4418427439208
 21
-112.3637304832464
 31
0.0
  0
LINE
  8
DETAIL
  6
CONTINUOUS
 62
     5
 10
259.4418427439208
 20
-112.3637304832464
 30
0.0
 11
259.51645152932878
 21
-112.32163850216349
 31
0.0
  0
LINE
  8
DETAIL
  6
CONTINUOUS
 62
     5
 10
259.51645152932878
 20
-112.32163850216349
 30
0.0
 11
259.58562775813959
 21
-112.2813976239195
 31
0.0
  0
LINE
  8
DETAIL
  6
CONTINUOUS
 62
     5
 10
259.58562775813959
 20
-112.2813976239195
 30
0.0
 11
259.58562775813959
 21
-112.2813976239195
 31
0.0
  0
LINE
  8
DETAIL
  6
CONTINUOUS
 62
     5
 10
259.58562775813959
 20
-112.2813976239195
 30
0.0
 11
259.6438401436202
 21
-112.2464777761984
 31
0.0
  0
LINE
  8
DETAIL
  6
CONTINUOUS
 62
     5
 10
259.6438401436202
 20
-112.2464777761984
 30
0.0
 11
259.69675955705782
 21
-112.2137047948663
 31
0.0
  0
LINE
  8
DETAIL
  6
CONTINUOUS
 62
     5
 10
259.69675955705782
 20
-112.2137047948663
 30
0.0
 11
259.69675955705782
 21
-112.2137047948663
 31
0.0
  0
LINE
  8
DETAIL
  6
CONTINUOUS
 62
     5
 10
259.69675955705782
 20
-112.2137047948663
 30
0.0
 11
259.75106559702772
 21
-112.1792665260825
 31
0.0
  0
LINE
  8
DETAIL
  6
CONTINUOUS
 62
     5
 10
259.75106559702772
 20
-112.1792665260825
 30
0.0
 11
259.80627061324662
 21
-112.1434429490012
 31
0.0
  0
LINE
  8
DETAIL
  6
CONTINUOUS
 62
     5
 10
259.80627061324662
 20
-112.1434429490012
 30
0.0
 11
259.80627061324662
 21
-112.1434429490012
 31
0.0
  0
LINE
  8
DETAIL
  6
CONTINUOUS
 62
     5
 10
259.80627061324662
 20
-112.1434429490012
 30
0.0
 11
259.86057898283582
 21
-112.10726800455519
 31
0.0
  0
LINE
  8
DETAIL
  6
CONTINUOUS
 62
     5
 10
259.86057898283582
 20
-112.10726800455519
 30
0.0
 11
259.9141304413962
 21
-112.07069934779361
 31
0.0
  0
LINE
  8
DETAIL
  6
CONTINUOUS
 62
     5
 10
259.9141304413962
 20
-112.07069934779361
 30
0.0
 11
259.9141304413962
 21
-112.07069934779361
 31
0.0
  0
LINE
  8
DETAIL
  6
CONTINUOUS
 62
     5
 10
259.9141304413962
 20
-112.07069934779361
 30
0.0
 11
259.96740501788457
 21
-112.0334788149294
 31
0.0
  0
LINE
  8
DETAIL
  6
CONTINUOUS
 62
     5
 10
259.96740501788457
 20
-112.0334788149294
 30
0.0
 11
260.02030855619643
 21
-111.9955612527135
 31
0.0
  0
LINE
  8
DETAIL
  6
CONTINUOUS
 62
     5
 10
260.02030855619643
 20
-111.9955612527135
 30
0.0
 11
260.02030855619643
 21
-111.9955612527135
 31
0.0
  0
LINE
  8
DETAIL
  6
CONTINUOUS
 62
     5
 10
260.02030855619643
 20
-111.9955612527135
 30
0.0
 11
260.07269369940298
 21
-111.9570108214639
 31
0.0
  0
LINE
  8
DETAIL
  6
CONTINUOUS
 62
     5
 10
260.07269369940298
 20
-111.9570108214639
 30
0.0
 11
260.12477447233698
 21
-111.91811592523079
 31
0.0
  0
LINE
  8
DETAIL
  6
CONTINUOUS
 62
     5
 10
260.90173410404623
 20
-110.254255450692
 30
0.0
 11
260.90133868664628
 21
-110.2956583519006
 31
0.0
  0
LINE
  8
DETAIL
  6
CONTINUOUS
 62
     5
 10
260.90133868664628
 20
-110.2956583519006
 30
0.0
 11
260.90056439210048
 21
-110.33705502247609
 31
0.0
  0
LINE
  8
DETAIL
  6
CONTINUOUS
 62
     5
 10
260.90056439210048
 20
-110.33705502247609
 30
0.0
 11
260.90056439210048
 21
-110.33705502247609
 31
0.0
  0
LINE
  8
DETAIL
  6
CONTINUOUS
 62
     5
 10
260.90056439210048
 20
-110.33705502247609
 30
0.0
 11
260.89910823828762
 21
-110.3784423569107
 31
0.0
  0
LINE
  8
DETAIL
  6
CONTINUOUS
 62
     5
 10
260.89910823828762
 20
-110.3784423569107
 30
0.0
 11
260.89697082318628
 21
-110.41982975019801
 31
0.0
  0
LINE
  8
DETAIL
  6
CONTINUOUS
 62
     5
 10
260.89697082318628
 20
-110.41982975019801
 30
0.0
 11
260.89697082318628
 21
-110.41982975019801
 31
0.0
  0
LINE
  8
DETAIL
  6
CONTINUOUS
 62
     5
 10
260.89697082318628
 20
-110.41982975019801
 30
0.0
 11
260.89421221559621
 21
-110.46120714668361
 31
0.0
  0
LINE
  8
DETAIL
  6
CONTINUOUS
 62
     5
 10
260.89421221559621
 20
-110.46120714668361
 30
0.0
 11
260.89082678750481
 21
-110.50247418762589
 31
0.0
  0
LINE
  8
DETAIL
  6
CONTINUOUS
 62
     5
 10
260.89082678750481
 20
-110.50247418762589
 30
0.0
 11
260.89082678750481
 21
-110.50247418762589
 31
0.0
  0
LINE
  8
DETAIL
  6
CONTINUOUS
 62
     5
 10
260.89082678750481
 20
-110.50247418762589
 30
0.0
 11
260.88678228848357
 21
-110.5435951164736
 31
0.0
  0
LINE
  8
DETAIL
  6
CONTINUOUS
 62
     5
 10
260.88678228848357
 20
-110.5435951164736
 30
0.0
 11
260.88200567525843
 21
-110.58488288852909
 31
0.0
  0
LINE
  8
DETAIL
  6
CONTINUOUS
 62
     5
 10
260.88200567525843
 20
-110.58488288852909
 30
0.0
 11
260.88200567525843
 21
-110.58488288852909
 31
0.0
  0
LINE
  8
DETAIL
  6
CONTINUOUS
 62
     5
 10
260.88200567525843
 20
-110.58488288852909
 30
0.0
 11
260.87647092339262
 21
-110.6264115009769
 31
0.0
  0
LINE
  8
DETAIL
  6
CONTINUOUS
 62
     5
 10
260.87647092339262
 20
-110.6264115009769
 30
0.0
 11
260.87038087664752
 21
-110.66695040667631
 31
0.0
  0
LINE
  8
DETAIL
  6
CONTINUOUS
 62
     5
 10
260.87038087664752
 20
-110.66695040667631
 30
0.0
 11
260.87038087664752
 21
-110.66695040667631
 31
0.0
  0
LINE
  8
DETAIL
  6
CONTINUOUS
 62
     5
 10
260.87038087664752
 20
-110.66695040667631
 30
0.0
 11
260.86391501049252
 21
-110.7054579165904
 31
0.0
  0
LINE
  8
DETAIL
  6
CONTINUOUS
 62
     5
 10
260.86391501049252
 20
-110.7054579165904
 30
0.0
 11
260.85693045903508
 21
-110.7429523184194
 31
0.0
  0
LINE
  8
DETAIL
  6
CONTINUOUS
 62
     5
 10
260.85693045903508
 20
-110.7429523184194
 30
0.0
 11
260.85693045903508
 21
-110.7429523184194
 31
0.0
  0
LINE
  8
DETAIL
  6
CONTINUOUS
 62
     5
 10
260.85693045903508
 20
-110.7429523184194
 30
0.0
 11
260.84924770846811
 21
-110.78064287164349
 31
0.0
  0
LINE
  8
DETAIL
  6
CONTINUOUS
 62
     5
 10
260.84924770846811
 20
-110.78064287164349
 30
0.0
 11
260.84086299468908
 21
-110.818442746126
 31
0.0
  0
LINE
  8
DETAIL
  6
CONTINUOUS
 62
     5
 10
260.84086299468908
 20
-110.818442746126
 30
0.0
 11
260.84086299468908
 21
-110.818442746126
 31
0.0
  0
LINE
  8
DETAIL
  6
CONTINUOUS
 62
     5
 10
260.84086299468908
 20
-110.818442746126
 30
0.0
 11
260.83181063169678
 21
-110.856012377707
 31
0.0
  0
LINE
  8
DETAIL
  6
CONTINUOUS
 62
     5
 10
260.83181063169678
 20
-110.856012377707
 30
0.0
 11
260.82210149618368
 21
-110.8932973557455
 31
0.0
  0
LINE
  8
DETAIL
  6
CONTINUOUS
 62
     5
 10
260.82210149618368
 20
-110.8932973557455
 30
0.0
 11
260.82210149618368
 21
-110.8932973557455
 31
0.0
  0
LINE
  8
DETAIL
  6
CONTINUOUS
 62
     5
 10
260.82210149618368
 20
-110.8932973557455
 30
0.0
 11
260.81172010539512
 21
-110.9303534268652
 31
0.0
  0
LINE
  8
DETAIL
  6
CONTINUOUS
 62
     5
 10
260.81172010539512
 20
-110.9303534268652
 30
0.0
 11
260.80056897609228
 21
-110.9673918132266
 31
0.0
  0
LINE
  8
DETAIL
  6
CONTINUOUS
 62
     5
 10
260.80056897609228
 20
-110.9673918132266
 30
0.0
 11
260.80056897609228
 21
-110.9673918132266
 31
0.0
  0
LINE
  8
DETAIL
  6
CONTINUOUS
 62
     5
 10
260.80056897609228
 20
-110.9673918132266
 30
0.0
 11
260.78861798472582
 21
-111.0044358419573
 31
0.0
  0
LINE
  8
DETAIL
  6
CONTINUOUS
 62
     5
 10
260.78861798472582
 20
-111.0044358419573
 30
0.0
 11
260.77618844698873
 21
-111.0406017845182
 31
0.0
  0
LINE
  8
DETAIL
  6
CONTINUOUS
 62
     5
 10
260.77618844698873
 20
-111.0406017845182
 30
0.0
 11
260.77618844698873
 21
-111.0406017845182
 31
0.0
  0
LINE
  8
DETAIL
  6
CONTINUOUS
 62
     5
 10
260.77618844698873
 20
-111.0406017845182
 30
0.0
 11
260.7635599696772
 21
-111.07514797807561
 31
0.0
  0
LINE
  8
DETAIL
  6
CONTINUOUS
 62
     5
 10
260.7635599696772
 20
-111.07514797807561
 30
0.0
 11
260.75049388474571
 21
-111.10880807827949
 31
0.0
  0
LINE
  8
DETAIL
  6
CONTINUOUS
 62
     5
 10
260.75049388474571
 20
-111.10880807827949
 30
0.0
 11
260.75049388474571
 21
-111.10880807827949
 31
0.0
  0
LINE
  8
DETAIL
  6
CONTINUOUS
 62
     5
 10
260.75049388474571
 20
-111.10880807827949
 30
0.0
 11
260.7367000598025
 21
-111.14244822498949
 31
0.0
  0
LINE
  8
DETAIL
  6
CONTINUOUS
 62
     5
 10
260.7367000598025
 20
-111.14244822498949
 30
0.0
 11
260.72220077990869
 21
-111.175989176417
 31
0.0
  0
LINE
  8
DETAIL
  6
CONTINUOUS
 62
     5
 10
260.72220077990869
 20
-111.175989176417
 30
0.0
 11
260.72220077990869
 21
-111.175989176417
 31
0.0
  0
LINE
  8
DETAIL
  6
CONTINUOUS
 62
     5
 10
260.72220077990869
 20
-111.175989176417
 30
0.0
 11
260.70707537512038
 21
-111.20917888887649
 31
0.0
  0
LINE
  8
DETAIL
  6
CONTINUOUS
 62
     5
 10
260.70707537512038
 20
-111.20917888887649
 30
0.0
 11
260.69131893802478
 21
-111.24201949274421
 31
0.0
  0
LINE
  8
DETAIL
  6
CONTINUOUS
 62
     5
 10
260.69131893802478
 20
-111.24201949274421
 30
0.0
 11
260.69131893802478
 21
-111.24201949274421
 31
0.0
  0
LINE
  8
DETAIL
  6
CONTINUOUS
 62
     5
 10
260.69131893802478
 20
-111.24201949274421
 30
0.0
 11
260.67491163494691
 21
-111.27455883326211
 31
0.0
  0
LINE
  8
DETAIL
  6
CONTINUOUS
 62
     5
 10
260.67491163494691
 20
-111.27455883326211
 30
0.0
 11
260.65785816464057
 21
-111.3067734410747
 31
0.0
  0
LINE
  8
DETAIL
  6
CONTINUOUS
 62
     5
 10
260.65785816464057
 20
-111.3067734410747
 30
0.0
 11
260.65785816464057
 21
-111.3067734410747
 31
0.0
  0
LINE
  8
DETAIL
  6
CONTINUOUS
 62
     5
 10
260.65785816464057
 20
-111.3067734410747
 30
0.0
 11
260.64016588590579
 21
-111.3386297892591
 31
0.0
  0
LINE
  8
DETAIL
  6
CONTINUOUS
 62
     5
 10
260.64016588590579
 20
-111.3386297892591
 30
0.0
 11
260.62182826530352
 21
-111.3701254352213
 31
0.0
  0
LINE
  8
DETAIL
  6
CONTINUOUS
 62
     5
 10
260.62182826530352
 20
-111.3701254352213
 30
0.0
 11
260.62182826530352
 21
-111.3701254352213
 31
0.0
  0
LINE
  8
DETAIL
  6
CONTINUOUS
 62
     5
 10
260.62182826530352
 20
-111.3701254352213
 30
0.0
 11
260.60284005248133
 21
-111.4012607429884
 31
0.0
  0
LINE
  8
DETAIL
  6
CONTINUOUS
 62
     5
 10
260.60284005248133
 20
-111.4012607429884
 30
0.0
 11
260.58321502167149
 21
-111.4320162187398
 31
0.0
  0
LINE
  8
DETAIL
  6
CONTINUOUS
 62
     5
 10
260.58321502167149
 20
-111.4320162187398
 30
0.0
 11
260.58321502167149
 21
-111.4320162187398
 31
0.0
  0
LINE
  8
DETAIL
  6
CONTINUOUS
 62
     5
 10
260.58321502167149
 20
-111.4320162187398
 30
0.0
 11
260.56297191286029
 21
-111.4623688159886
 31
0.0
  0
LINE
  8
DETAIL
  6
CONTINUOUS
 62
     5
 10
260.56297191286029
 20
-111.4623688159886
 30
0.0
 11
260.5421303044626
 21
-111.4923011354269
 31
0.0
  0
LINE
  8
DETAIL
  6
CONTINUOUS
 62
     5
 10
260.5421303044626
 20
-111.4923011354269
 30
0.0
 11
260.5421303044626
 21
-111.4923011354269
 31
0.0
  0
LINE
  8
DETAIL
  6
CONTINUOUS
 62
     5
 10
260.5421303044626
 20
-111.4923011354269
 30
0.0
 11
260.52070199446712
 21
-111.52180516064691
 31
0.0
  0
LINE
  8
DETAIL
  6
CONTINUOUS
 62
     5
 10
260.52070199446712
 20
-111.52180516064691
 30
0.0
 11
260.49866682072741
 21
-111.55090475966379
 31
0.0
  0
LINE
  8
DETAIL
  6
CONTINUOUS
 62
     5
 10
260.49866682072741
 20
-111.55090475966379
 30
0.0
 11
260.49866682072741
 21
-111.55090475966379
 31
0.0
  0
LINE
  8
DETAIL
  6
CONTINUOUS
 62
     5
 10
260.49866682072741
 20
-111.55090475966379
 30
0.0
 11
260.47602838159082
 21
-111.57959847538061
 31
0.0
  0
LINE
  8
DETAIL
  6
CONTINUOUS
 62
     5
 10
260.47602838159082
 20
-111.57959847538061
 30
0.0
 11
260.45291727751612
 21
-111.6077516658311
 31
0.0
  0
LINE
  8
DETAIL
  6
CONTINUOUS
 62
     5
 10
260.45291727751612
 20
-111.6077516658311
 30
0.0
 11
260.45291727751612
 21
-111.6077516658311
 31
0.0
  0
LINE
  8
DETAIL
  6
CONTINUOUS
 62
     5
 10
260.45291727751612
 20
-111.6077516658311
 30
0.0
 11
260.42937684741082
 21
-111.6353216065947
 31
0.0
  0
LINE
  8
DETAIL
  6
CONTINUOUS
 62
     5
 10
260.42937684741082
 20
-111.6353216065947
 30
0.0
 11
260.40497438187901
 21
-111.6627664283096
 31
0.0
  0
LINE
  8
DETAIL
  6
CONTINUOUS
 62
     5
 10
260.40497438187901
 20
-111.6627664283096
 30
0.0
 11
260.40497438187901
 21
-111.6627664283096
 31
0.0
  0
LINE
  8
DETAIL
  6
CONTINUOUS
 62
     5
 10
260.40497438187901
 20
-111.6627664283096
 30
0.0
 11
260.37934282453432
 21
-111.690469240531
 31
0.0
  0
LINE
  8
DETAIL
  6
CONTINUOUS
 62
     5
 10
260.37934282453432
 20
-111.690469240531
 30
0.0
 11
260.35285377934031
 21
-111.71801221342839
 31
0.0
  0
LINE
  8
DETAIL
  6
CONTINUOUS
 62
     5
 10
260.35285377934031
 20
-111.71801221342839
 30
0.0
 11
260.35285377934031
 21
-111.71801221342839
 31
0.0
  0
LINE
  8
DETAIL
  6
CONTINUOUS
 62
     5
 10
260.35285377934031
 20
-111.71801221342839
 30
0.0
 11
260.32594944200832
 21
-111.7449066162894
 31
0.0
  0
LINE
  8
DETAIL
  6
CONTINUOUS
 62
     5
 10
260.32594944200832
 20
-111.7449066162894
 30
0.0
 11
260.29861571489892
 21
-111.7711810542596
 31
0.0
  0
LINE
  8
DETAIL
  6
CONTINUOUS
 62
     5
 10
260.29861571489892
 20
-111.7711810542596
 30
0.0
 11
260.29861571489892
 21
-111.7711810542596
 31
0.0
  0
LINE
  8
DETAIL
  6
CONTINUOUS
 62
     5
 10
260.29861571489892
 20
-111.7711810542596
 30
0.0
 11
260.27075829659032
 21
-111.7969635529157
 31
0.0
  0
LINE
  8
DETAIL
  6
CONTINUOUS
 62
     5
 10
260.27075829659032
 20
-111.7969635529157
 30
0.0
 11
260.24241836388569
 21
-111.8222624836999
 31
0.0
  0
LINE
  8
DETAIL
  6
CONTINUOUS
 62
     5
 10
260.24241836388569
 20
-111.8222624836999
 30
0.0
 11
260.24241836388569
 21
-111.8222624836999
 31
0.0
  0
LINE
  8
DETAIL
  6
CONTINUOUS
 62
     5
 10
260.24241836388569
 20
-111.8222624836999
 30
0.0
 11
260.2136495582572
 21
-111.8470466246911
 31
0.0
  0
LINE
  8
DETAIL
  6
CONTINUOUS
 62
     5
 10
260.2136495582572
 20
-111.8470466246911
 30
0.0
 11
260.18441990163092
 21
-111.8712460346467
 31
0.0
  0
LINE
  8
DETAIL
  6
CONTINUOUS
 62
     5
 10
260.18441990163092
 20
-111.8712460346467
 30
0.0
 11
260.18441990163092
 21
-111.8712460346467
 31
0.0
  0
LINE
  8
DETAIL
  6
CONTINUOUS
 62
     5
 10
260.18441990163092
 20
-111.8712460346467
 30
0.0
 11
260.15472776103798
 21
-111.89484972534891
 31
0.0
  0
LINE
  8
DETAIL
  6
CONTINUOUS
 62
     5
 10
260.15472776103798
 20
-111.89484972534891
 30
0.0
 11
260.1247785034659
 21
-111.91812123999691
 31
0.0
  0
LINE
  8
DETAIL
  6
CONTINUOUS
 62
     5
 10
257.89595375722519
 20
73.241483524960586
 30
0.0
 11
257.94312789954029
 21
73.241354923243989
 31
0.0
  0
LINE
  8
DETAIL
  6
CONTINUOUS
 62
     5
 10
257.94312789954029
 20
73.241354923243989
 30
0.0
 11
257.99030031410962
 21
73.241106083046134
 31
0.0
  0
LINE
  8
DETAIL
  6
CONTINUOUS
 62
     5
 10
257.99030031410962
 20
73.241106083046134
 30
0.0
 11
257.99030031410962
 21
73.241106083046134
 31
0.0
  0
LINE
  8
DETAIL
  6
CONTINUOUS
 62
     5
 10
257.99030031410962
 20
73.241106083046134
 30
0.0
 11
258.03747064965933
 21
73.24064187680483
 31
0.0
  0
LINE
  8
DETAIL
  6
CONTINUOUS
 62
     5
 10
258.03747064965933
 20
73.24064187680483
 30
0.0
 11
258.0846440608035
 21
73.23996762063166
 31
0.0
  0
LINE
  8
DETAIL
  6
CONTINUOUS
 62
     5
 10
258.0846440608035
 20
73.23996762063166
 30
0.0
 11
258.0846440608035
 21
73.23996762063166
 31
0.0
  0
LINE
  8
DETAIL
  6
CONTINUOUS
 62
     5
 10
258.0846440608035
 20
73.23996762063166
 30
0.0
 11
258.13182098872522
 21
73.239107274819617
 31
0.0
  0
LINE
  8
DETAIL
  6
CONTINUOUS
 62
     5
 10
258.13182098872522
 20
73.239107274819617
 30
0.0
 11
258.1789775150022
 21
73.238058932710146
 31
0.0
  0
LINE
  8
DETAIL
  6
CONTINUOUS
 62
     5
 10
258.1789775150022
 20
73.238058932710146
 30
0.0
 11
258.1789775150022
 21
73.238058932710146
 31
0.0
  0
LINE
  8
DETAIL
  6
CONTINUOUS
 62
     5
 10
258.1789775150022
 20
73.238058932710146
 30
0.0
 11
258.22610661444531
 21
73.236814976939286
 31
0.0
  0
LINE
  8
DETAIL
  6
CONTINUOUS
 62
     5
 10
258.22610661444531
 20
73.236814976939286
 30
0.0
 11
258.27329319440219
 21
73.235370814274347
 31
0.0
  0
LINE
  8
DETAIL
  6
CONTINUOUS
 62
     5
 10
258.27329319440219
 20
73.235370814274347
 30
0.0
 11
258.27329319440219
 21
73.235370814274347
 31
0.0
  0
LINE
  8
DETAIL
  6
CONTINUOUS
 62
     5
 10
258.27329319440219
 20
73.235370814274347
 30
0.0
 11
258.32055930271878
 21
73.233726050122186
 31
0.0
  0
LINE
  8
DETAIL
  6
CONTINUOUS
 62
     5
 10
258.32055930271878
 20
73.233726050122186
 30
0.0
 11
258.3675836166982
 21
73.231894060317472
 31
0.0
  0
LINE
  8
DETAIL
  6
CONTINUOUS
 62
     5
 10
258.3675836166982
 20
73.231894060317472
 30
0.0
 11
258.3675836166982
 21
73.231894060317472
 31
0.0
  0
LINE
  8
DETAIL
  6
CONTINUOUS
 62
     5
 10
258.3675836166982
 20
73.231894060317472
 30
0.0
 11
258.41409356238682
 21
73.229885917500724
 31
0.0
  0
LINE
  8
DETAIL
  6
CONTINUOUS
 62
     5
 10
258.41409356238682
 20
73.229885917500724
 30
0.0
 11
258.46035493135662
 21
73.227689711109406
 31
0.0
  0
LINE
  8
DETAIL
  6
CONTINUOUS
 62
     5
 10
258.46035493135662
 20
73.227689711109406
 30
0.0
 11
258.46035493135662
 21
73.227689711109406
 31
0.0
  0
LINE
  8
DETAIL
  6
CONTINUOUS
 62
     5
 10
258.46035493135662
 20
73.227689711109406
 30
0.0
 11
258.50668712394861
 21
73.225290388082158
 31
0.0
  0
LINE
  8
DETAIL
  6
CONTINUOUS
 62
     5
 10
258.50668712394861
 20
73.225290388082158
 30
0.0
 11
258.553085610062
 21
73.222683308568094
 31
0.0
  0
LINE
  8
DETAIL
  6
CONTINUOUS
 62
     5
 10
258.553085610062
 20
73.222683308568094
 30
0.0
 11
258.553085610062
 21
73.222683308568094
 31
0.0
  0
LINE
  8
DETAIL
  6
CONTINUOUS
 62
     5
 10
258.553085610062
 20
73.222683308568094
 30
0.0
 11
258.59946829196758
 21
73.219867428753332
 31
0.0
  0
LINE
  8
DETAIL
  6
CONTINUOUS
 62
     5
 10
258.59946829196758
 20
73.219867428753332
 30
0.0
 11
258.64576673186679
 21
73.216845675762897
 31
0.0
  0
LINE
  8
DETAIL
  6
CONTINUOUS
 62
     5
 10
258.64576673186679
 20
73.216845675762897
 30
0.0
 11
258.64576673186679
 21
73.216845675762897
 31
0.0
  0
LINE
  8
DETAIL
  6
CONTINUOUS
 62
     5
 10
258.64576673186679
 20
73.216845675762897
 30
0.0
 11
258.6919832296245
 21
73.213615395215129
 31
0.0
  0
LINE
  8
DETAIL
  6
CONTINUOUS
 62
     5
 10
258.6919832296245
 20
73.213615395215129
 30
0.0
 11
258.73838937582298
 21
73.210147635761814
 31
0.0
  0
LINE
  8
DETAIL
  6
CONTINUOUS
 62
     5
 10
258.73838937582298
 20
73.210147635761814
 30
0.0
 11
258.73838937582298
 21
73.210147635761814
 31
0.0
  0
LINE
  8
DETAIL
  6
CONTINUOUS
 62
     5
 10
258.73838937582298
 20
73.210147635761814
 30
0.0
 11
258.78505137802313
 21
73.206432176044473
 31
0.0
  0
LINE
  8
DETAIL
  6
CONTINUOUS
 62
     5
 10
258.78505137802313
 20
73.206432176044473
 30
0.0
 11
258.83094462098188
 21
73.20256001163375
 31
0.0
  0
LINE
  8
DETAIL
  6
CONTINUOUS
 62
     5
 10
258.83094462098188
 20
73.20256001163375
 30
0.0
 11
258.83094462098188
 21
73.20256001163375
 31
0.0
  0
LINE
  8
DETAIL
  6
CONTINUOUS
 62
     5
 10
258.83094462098188
 20
73.20256001163375
 30
0.0
 11
258.87520302760868
 21
73.198609595657899
 31
0.0
  0
LINE
  8
DETAIL
  6
CONTINUOUS
 62
     5
 10
258.87520302760868
 20
73.198609595657899
 30
0.0
 11
258.91868549623217
 21
73.194507994548758
 31
0.0
  0
LINE
  8
DETAIL
  6
CONTINUOUS
 62
     5
 10
258.91868549623217
 20
73.194507994548758
 30
0.0
 11
258.91868549623217
 21
73.194507994548758
 31
0.0
  0
LINE
  8
DETAIL
  6
CONTINUOUS
 62
     5
 10
258.91868549623217
 20
73.194507994548758
 30
0.0
 11
258.962414514486
 21
73.190165694179086
 31
0.0
  0
LINE
  8
DETAIL
  6
CONTINUOUS
 62
     5
 10
258.962414514486
 20
73.190165694179086
 30
0.0
 11
259.00634195181112
 21
73.185578244884255
 31
0.0
  0
LINE
  8
DETAIL
  6
CONTINUOUS
 62
     5
 10
259.00634195181112
 20
73.185578244884255
 30
0.0
 11
259.00634195181112
 21
73.185578244884255
 31
0.0
  0
LINE
  8
DETAIL
  6
CONTINUOUS
 62
     5
 10
259.00634195181112
 20
73.185578244884255
 30
0.0
 11
259.05019818854521
 21
73.180760573361567
 31
0.0
  0
LINE
  8
DETAIL
  6
CONTINUOUS
 62
     5
 10
259.05019818854521
 20
73.180760573361567
 30
0.0
 11
259.09389826680672
 21
73.175720047300956
 31
0.0
  0
LINE
  8
DETAIL
  6
CONTINUOUS
 62
     5
 10
259.09389826680672
 20
73.175720047300956
 30
0.0
 11
259.09389826680672
 21
73.175720047300956
 31
0.0
  0
LINE
  8
DETAIL
  6
CONTINUOUS
 62
     5
 10
259.09389826680672
 20
73.175720047300956
 30
0.0
 11
259.13748638692658
 21
73.170448437532059
 31
0.0
  0
LINE
  8
DETAIL
  6
CONTINUOUS
 62
     5
 10
259.13748638692658
 20
73.170448437532059
 30
0.0
 11
259.18133872030722
 21
73.164882686459578
 31
0.0
  0
LINE
  8
DETAIL
  6
CONTINUOUS
 62
     5
 10
259.18133872030722
 20
73.164882686459578
 30
0.0
 11
259.18133872030722
 21
73.164882686459578
 31
0.0
  0
LINE
  8
DETAIL
  6
CONTINUOUS
 62
     5
 10
259.18133872030722
 20
73.164882686459578
 30
0.0
 11
259.22553629460123
 21
73.159002747560407
 31
0.0
  0
LINE
  8
DETAIL
  6
CONTINUOUS
 62
     5
 10
259.22553629460123
 20
73.159002747560407
 30
0.0
 11
259.26864759140028
 21
73.153015447021744
 31
0.0
  0
LINE
  8
DETAIL
  6
CONTINUOUS
 62
     5
 10
259.26864759140028
 20
73.153015447021744
 30
0.0
 11
259.26864759140028
 21
73.153015447021744
 31
0.0
  0
LINE
  8
DETAIL
  6
CONTINUOUS
 62
     5
 10
259.26864759140028
 20
73.153015447021744
 30
0.0
 11
259.30946549872181
 21
73.147098230851725
 31
0.0
  0
LINE
  8
DETAIL
  6
CONTINUOUS
 62
     5
 10
259.30946549872181
 20
73.147098230851725
 30
0.0
 11
259.34919307635852
 21
73.141084151624455
 31
0.0
  0
LINE
  8
DETAIL
  6
CONTINUOUS
 62
     5
 10
259.34919307635852
 20
73.141084151624455
 30
0.0
 11
259.34919307635852
 21
73.141084151624455
 31
0.0
  0
LINE
  8
DETAIL
  6
CONTINUOUS
 62
     5
 10
259.34919307635852
 20
73.141084151624455
 30
0.0
 11
259.38925911042878
 21
73.13477044429851
 31
0.0
  0
LINE
  8
DETAIL
  6
CONTINUOUS
 62
     5
 10
259.38925911042878
 20
73.13477044429851
 30
0.0
 11
259.42958512058681
 21
73.128155466797807
 31
0.0
  0
LINE
  8
DETAIL
  6
CONTINUOUS
 62
     5
 10
259.42958512058681
 20
73.128155466797807
 30
0.0
 11
259.42958512058681
 21
73.128155466797807
 31
0.0
  0
LINE
  8
DETAIL
  6
CONTINUOUS
 62
     5
 10
259.42958512058681
 20
73.128155466797807
 30
0.0
 11
259.46979083266592
 21
73.121280164272093
 31
0.0
  0
LINE
  8
DETAIL
  6
CONTINUOUS
 62
     5
 10
259.46979083266592
 20
73.121280164272093
 30
0.0
 11
259.50979606368679
 21
73.114154707806392
 31
0.0
  0
LINE
  8
DETAIL
  6
CONTINUOUS
 62
     5
 10
259.50979606368679
 20
73.114154707806392
 30
0.0
 11
259.50979606368679
 21
73.114154707806392
 31
0.0
  0
LINE
  8
DETAIL
  6
CONTINUOUS
 62
     5
 10
259.50979606368679
 20
73.114154707806392
 30
0.0
 11
259.54967237889667
 21
73.106762068293165
 31
0.0
  0
LINE
  8
DETAIL
  6
CONTINUOUS
 62
     5
 10
259.54967237889667
 20
73.106762068293165
 30
0.0
 11
259.58979824526023
 21
73.099007189915483
 31
0.0
  0
LINE
  8
DETAIL
  6
CONTINUOUS
 62
     5
 10
259.58979824526023
 20
73.099007189915483
 30
0.0
 11
259.58979824526023
 21
73.099007189915483
 31
0.0
  0
LINE
  8
DETAIL
  6
CONTINUOUS
 62
     5
 10
259.58979824526023
 20
73.099007189915483
 30
0.0
 11
259.63024693065768
 21
73.090861230404698
 31
0.0
  0
LINE
  8
DETAIL
  6
CONTINUOUS
 62
     5
 10
259.63024693065768
 20
73.090861230404698
 30
0.0
 11
259.6695640049096
 21
73.082638228389214
 31
0.0
  0
LINE
  8
DETAIL
  6
CONTINUOUS
 62
     5
 10
259.6695640049096
 20
73.082638228389214
 30
0.0
 11
259.6695640049096
 21
73.082638228389214
 31
0.0
  0
LINE
  8
DETAIL
  6
CONTINUOUS
 62
     5
 10
259.6695640049096
 20
73.082638228389214
 30
0.0
 11
259.70652437366232
 21
73.074606769750289
 31
0.0
  0
LINE
  8
DETAIL
  6
CONTINUOUS
 62
     5
 10
259.70652437366232
 20
73.074606769750289
 30
0.0
 11
259.74234798392649
 21
73.066510748484006
 31
0.0
  0
LINE
  8
DETAIL
  6
CONTINUOUS
 62
     5
 10
259.74234798392649
 20
73.066510748484006
 30
0.0
 11
259.74234798392649
 21
73.066510748484006
 31
0.0
  0
LINE
  8
DETAIL
  6
CONTINUOUS
 62
     5
 10
259.74234798392649
 20
73.066510748484006
 30
0.0
 11
259.77848463423959
 21
73.058039616971882
 31
0.0
  0
LINE
  8
DETAIL
  6
CONTINUOUS
 62
     5
 10
259.77848463423959
 20
73.058039616971882
 30
0.0
 11
259.81485848789089
 21
73.049189753025075
 31
0.0
  0
LINE
  8
DETAIL
  6
CONTINUOUS
 62
     5
 10
259.81485848789089
 20
73.049189753025075
 30
0.0
 11
259.81485848789089
 21
73.049189753025075
 31
0.0
  0
LINE
  8
DETAIL
  6
CONTINUOUS
 62
     5
 10
259.81485848789089
 20
73.049189753025075
 30
0.0
 11
259.85108161471612
 21
73.040024470002663
 31
0.0
  0
LINE
  8
DETAIL
  6
CONTINUOUS
 62
     5
 10
259.85108161471612
 20
73.040024470002663
 30
0.0
 11
259.88704334599709
 21
73.030567898029176
 31
0.0
  0
LINE
  8
DETAIL
  6
CONTINUOUS
 62
     5
 10
259.88704334599709
 20
73.030567898029176
 30
0.0
 11
259.88704334599709
 21
73.030567898029176
 31
0.0
  0
LINE
  8
DETAIL
  6
CONTINUOUS
 62
     5
 10
259.88704334599709
 20
73.030567898029176
 30
0.0
 11
259.92280647574353
 21
73.020796823298497
 31
0.0
  0
LINE
  8
DETAIL
  6
CONTINUOUS
 62
     5
 10
259.92280647574353
 20
73.020796823298497
 30
0.0
 11
259.95885038743802
 21
73.010537839514427
 31
0.0
  0
LINE
  8
DETAIL
  6
CONTINUOUS
 62
     5
 10
259.95885038743802
 20
73.010537839514427
 30
0.0
 11
259.95885038743802
 21
73.010537839514427
 31
0.0
  0
LINE
  8
DETAIL
  6
CONTINUOUS
 62
     5
 10
259.95885038743802
 20
73.010537839514427
 30
0.0
 11
259.99527270709717
 21
72.999739980556114
 31
0.0
  0
LINE
  8
DETAIL
  6
CONTINUOUS
 62
     5
 10
259.99527270709717
 20
72.999739980556114
 30
0.0
 11
260.03022744140742
 21
72.988992233496674
 31
0.0
  0
LINE
  8
DETAIL
  6
CONTINUOUS
 62
     5
 10
260.03022744140742
 20
72.988992233496674
 30
0.0
 11
260.03022744140742
 21
72.988992233496674
 31
0.0
  0
LINE
  8
DETAIL
  6
CONTINUOUS
 62
     5
 10
260.03022744140742
 20
72.988992233496674
 30
0.0
 11
260.06215942525517
 21
72.978798999853097
 31
0.0
  0
LINE
  8
DETAIL
  6
CONTINUOUS
 62
     5
 10
260.06215942525517
 20
72.978798999853097
 30
0.0
 11
260.09262042566388
 21
72.96868638572505
 31
0.0
  0
LINE
  8
DETAIL
  6
CONTINUOUS
 62
     5
 10
260.09262042566388
 20
72.96868638572505
 30
0.0
 11
260.09262042566388
 21
72.96868638572505
 31
0.0
  0
LINE
  8
DETAIL
  6
CONTINUOUS
 62
     5
 10
260.09262042566388
 20
72.96868638572505
 30
0.0
 11
260.12345156491727
 21
72.95808061435082
 31
0.0
  0
LINE
  8
DETAIL
  6
CONTINUOUS
 62
     5
 10
260.12345156491727
 20
72.95808061435082
 30
0.0
 11
260.1545444542196
 21
72.946986672937783
 31
0.0
  0
LINE
  8
DETAIL
  6
CONTINUOUS
 62
     5
 10
260.1545444542196
 20
72.946986672937783
 30
0.0
 11
260.1545444542196
 21
72.946986672937783
 31
0.0
  0
LINE
  8
DETAIL
  6
CONTINUOUS
 62
     5
 10
260.1545444542196
 20
72.946986672937783
 30
0.0
 11
260.18539975173849
 21
72.935532056278134
 31
0.0
  0
LINE
  8
DETAIL
  6
CONTINUOUS
 62
     5
 10
260.18539975173849
 20
72.935532056278134
 30
0.0
 11
260.21590381458668
 21
72.923755525529714
 31
0.0
  0
LINE
  8
DETAIL
  6
CONTINUOUS
 62
     5
 10
260.21590381458668
 20
72.923755525529714
 30
0.0
 11
260.21590381458668
 21
72.923755525529714
 31
0.0
  0
LINE
  8
DETAIL
  6
CONTINUOUS
 62
     5
 10
260.21590381458668
 20
72.923755525529714
 30
0.0
 11
260.24614110343902
 21
72.911617701083742
 31
0.0
  0
LINE
  8
DETAIL
  6
CONTINUOUS
 62
     5
 10
260.24614110343902
 20
72.911617701083742
 30
0.0
 11
260.27660279427732
 21
72.898855373895913
 31
0.0
  0
LINE
  8
DETAIL
  6
CONTINUOUS
 62
     5
 10
260.27660279427732
 20
72.898855373895913
 30
0.0
 11
260.27660279427732
 21
72.898855373895913
 31
0.0
  0
LINE
  8
DETAIL
  6
CONTINUOUS
 62
     5
 10
260.27660279427732
 20
72.898855373895913
 30
0.0
 11
260.30737860186809
 21
72.885395390406757
 31
0.0
  0
LINE
  8
DETAIL
  6
CONTINUOUS
 62
     5
 10
260.30737860186809
 20
72.885395390406757
 30
0.0
 11
260.33654568080419
 21
72.872148648431676
 31
0.0
  0
LINE
  8
DETAIL
  6
CONTINUOUS
 62
     5
 10
260.33654568080419
 20
72.872148648431676
 30
0.0
 11
260.33654568080419
 21
72.872148648431676
 31
0.0
  0
LINE
  8
DETAIL
  6
CONTINUOUS
 62
     5
 10
260.33654568080419
 20
72.872148648431676
 30
0.0
 11
260.36248802502132
 21
72.859895117401493
 31
0.0
  0
LINE
  8
DETAIL
  6
CONTINUOUS
 62
     5
 10
260.36248802502132
 20
72.859895117401493
 30
0.0
 11
260.38682954600961
 21
72.847907001836347
 31
0.0
  0
LINE
  8
DETAIL
  6
CONTINUOUS
 62
     5
 10
260.38682954600961
 20
72.847907001836347
 30
0.0
 11
260.38682954600961
 21
72.847907001836347
 31
0.0
  0
LINE
  8
DETAIL
  6
CONTINUOUS
 62
     5
 10
260.38682954600961
 20
72.847907001836347
 30
0.0
 11
260.41149080978579
 21
72.835305271575407
 31
0.0
  0
LINE
  8
DETAIL
  6
CONTINUOUS
 62
     5
 10
260.41149080978579
 20
72.835305271575407
 30
0.0
 11
260.4363390829368
 21
72.822113722643962
 31
0.0
  0
LINE
  8
DETAIL
  6
CONTINUOUS
 62
     5
 10
260.4363390829368
 20
72.822113722643962
 30
0.0
 11
260.4363390829368
 21
72.822113722643962
 31
0.0
  0
LINE
  8
DETAIL
  6
CONTINUOUS
 62
     5
 10
260.4363390829368
 20
72.822113722643962
 30
0.0
 11
260.46084122446189
 21
72.808539793401678
 31
0.0
  0
LINE
  8
DETAIL
  6
CONTINUOUS
 62
     5
 10
260.46084122446189
 20
72.808539793401678
 30
0.0
 11
260.48491576244709
 21
72.794622665356428
 31
0.0
  0
LINE
  8
DETAIL
  6
CONTINUOUS
 62
     5
 10
260.48491576244709
 20
72.794622665356428
 30
0.0
 11
260.48491576244709
 21
72.794622665356428
 31
0.0
  0
LINE
  8
DETAIL
  6
CONTINUOUS
 62
     5
 10
260.48491576244709
 20
72.794622665356428
 30
0.0
 11
260.50865579802212
 21
72.780302006108514
 31
0.0
  0
LINE
  8
DETAIL
  6
CONTINUOUS
 62
     5
 10
260.50865579802212
 20
72.780302006108514
 30
0.0
 11
260.53240105540181
 21
72.765287684476107
 31
0.0
  0
LINE
  8
DETAIL
  6
CONTINUOUS
 62
     5
 10
260.53240105540181
 20
72.765287684476107
 30
0.0
 11
260.53240105540181
 21
72.765287684476107
 31
0.0
  0
LINE
  8
DETAIL
  6
CONTINUOUS
 62
     5
 10
260.53240105540181
 20
72.765287684476107
 30
0.0
 11
260.55619337421513
 21
72.749503982576925
 31
0.0
  0
LINE
  8
DETAIL
  6
CONTINUOUS
 62
     5
 10
260.55619337421513
 20
72.749503982576925
 30
0.0
 11
260.57863643266268
 21
72.733962634504906
 31
0.0
  0
LINE
  8
DETAIL
  6
CONTINUOUS
 62
     5
 10
260.57863643266268
 20
72.733962634504906
 30
0.0
 11
260.57863643266268
 21
72.733962634504906
 31
0.0
  0
LINE
  8
DETAIL
  6
CONTINUOUS
 62
     5
 10
260.57863643266268
 20
72.733962634504906
 30
0.0
 11
260.59856198905709
 21
72.719529238017003
 31
0.0
  0
LINE
  8
DETAIL
  6
CONTINUOUS
 62
     5
 10
260.59856198905709
 20
72.719529238017003
 30
0.0
 11
260.61715228358412
 21
72.705397393540579
 31
0.0
  0
LINE
  8
DETAIL
  6
CONTINUOUS
 62
     5
 10
260.61715228358412
 20
72.705397393540579
 30
0.0
 11
260.61715228358412
 21
72.705397393540579
 31
0.0
  0
LINE
  8
DETAIL
  6
CONTINUOUS
 62
     5
 10
260.61715228358412
 20
72.705397393540579
 30
0.0
 11
260.63579916991802
 21
72.690595543183235
 31
0.0
  0
LINE
  8
DETAIL
  6
CONTINUOUS
 62
     5
 10
260.63579916991802
 20
72.690595543183235
 30
0.0
 11
260.65438247381138
 21
72.675163493099944
 31
0.0
  0
LINE
  8
DETAIL
  6
CONTINUOUS
 62
     5
 10
260.65438247381138
 20
72.675163493099944
 30
0.0
 11
260.65438247381138
 21
72.675163493099944
 31
0.0
  0
LINE
  8
DETAIL
  6
CONTINUOUS
 62
     5
 10
260.65438247381138
 20
72.675163493099944
 30
0.0
 11
260.6724930010613
 21
72.659341947824942
 31
0.0
  0
LINE
  8
DETAIL
  6
CONTINUOUS
 62
     5
 10
260.6724930010613
 20
72.659341947824942
 30
0.0
 11
260.69007750556767
 21
72.643163841361002
 31
0.0
  0
LINE
  8
DETAIL
  6
CONTINUOUS
 62
     5
 10
260.69007750556767
 20
72.643163841361002
 30
0.0
 11
260.69007750556767
 21
72.643163841361002
 31
0.0
  0
LINE
  8
DETAIL
  6
CONTINUOUS
 62
     5
 10
260.69007750556767
 20
72.643163841361002
 30
0.0
 11
260.70719378713341
 21
72.626565094598391
 31
0.0
  0
LINE
  8
DETAIL
  6
CONTINUOUS
 62
     5
 10
260.70719378713341
 20
72.626565094598391
 30
0.0
 11
260.72398788107688
 21
72.609301346502434
 31
0.0
  0
LINE
  8
DETAIL
  6
CONTINUOUS
 62
     5
 10
260.72398788107688
 20
72.609301346502434
 30
0.0
 11
260.72398788107688
 21
72.609301346502434
 31
0.0
  0
LINE
  8
DETAIL
  6
CONTINUOUS
 62
     5
 10
260.72398788107688
 20
72.609301346502434
 30
0.0
 11
260.74045065905511
 21
72.591315390114914
 31
0.0
  0
LINE
  8
DETAIL
  6
CONTINUOUS
 62
     5
 10
260.74045065905511
 20
72.591315390114914
 30
0.0
 11
260.75586410256312
 21
72.573478916702243
 31
0.0
  0
LINE
  8
DETAIL
  6
CONTINUOUS
 62
     5
 10
260.75586410256312
 20
72.573478916702243
 30
0.0
 11
260.75586410256312
 21
72.573478916702243
 31
0.0
  0
LINE
  8
DETAIL
  6
CONTINUOUS
 62
     5
 10
260.75586410256312
 20
72.573478916702243
 30
0.0
 11
260.76963419338358
 21
72.556538004854019
 31
0.0
  0
LINE
  8
DETAIL
  6
CONTINUOUS
 62
     5
 10
260.76963419338358
 20
72.556538004854019
 30
0.0
 11
260.7823718046094
 21
72.539807384226833
 31
0.0
  0
LINE
  8
DETAIL
  6
CONTINUOUS
 62
     5
 10
260.7823718046094
 20
72.539807384226833
 30
0.0
 11
260.7823718046094
 21
72.539807384226833
 31
0.0
  0
LINE
  8
DETAIL
  6
CONTINUOUS
 62
     5
 10
260.7823718046094
 20
72.539807384226833
 30
0.0
 11
260.79478995923068
 21
72.522465020863365
 31
0.0
  0
LINE
  8
DETAIL
  6
CONTINUOUS
 62
     5
 10
260.79478995923068
 20
72.522465020863365
 30
0.0
 11
260.80680538851539
 21
72.504573175281394
 31
0.0
  0
LINE
  8
DETAIL
  6
CONTINUOUS
 62
     5
 10
260.80680538851539
 20
72.504573175281394
 30
0.0
 11
260.80680538851539
 21
72.504573175281394
 31
0.0
  0
LINE
  8
DETAIL
  6
CONTINUOUS
 62
     5
 10
260.80680538851539
 20
72.504573175281394
 30
0.0
 11
260.8181870014721
 21
72.486362281740185
 31
0.0
  0
LINE
  8
DETAIL
  6
CONTINUOUS
 62
     5
 10
260.8181870014721
 20
72.486362281740185
 30
0.0
 11
260.82890870979952
 21
72.467851174986208
 31
0.0
  0
LINE
  8
DETAIL
  6
CONTINUOUS
 62
     5
 10
260.82890870979952
 20
72.467851174986208
 30
0.0
 11
260.82890870979952
 21
72.467851174986208
 31
0.0
  0
LINE
  8
DETAIL
  6
CONTINUOUS
 62
     5
 10
260.82890870979952
 20
72.467851174986208
 30
0.0
 11
260.83898974611111
 21
72.448996315781415
 31
0.0
  0
LINE
  8
DETAIL
  6
CONTINUOUS
 62
     5
 10
260.83898974611111
 20
72.448996315781415
 30
0.0
 11
260.84842562398308
 21
72.429716268462471
 31
0.0
  0
LINE
  8
DETAIL
  6
CONTINUOUS
 62
     5
 10
260.84842562398308
 20
72.429716268462471
 30
0.0
 11
260.84842562398308
 21
72.429716268462471
 31
0.0
  0
LINE
  8
DETAIL
  6
CONTINUOUS
 62
     5
 10
260.84842562398308
 20
72.429716268462471
 30
0.0
 11
260.85717839559771
 21
72.410010919563774
 31
0.0
  0
LINE
  8
DETAIL
  6
CONTINUOUS
 62
     5
 10
260.85717839559771
 20
72.410010919563774
 30
0.0
 11
260.86509998658471
 21
72.390243340831375
 31
0.0
  0
LINE
  8
DETAIL
  6
CONTINUOUS
 62
     5
 10
260.86509998658471
 20
72.390243340831375
 30
0.0
 11
260.86509998658471
 21
72.390243340831375
 31
0.0
  0
LINE
  8
DETAIL
  6
CONTINUOUS
 62
     5
 10
260.86509998658471
 20
72.390243340831375
 30
0.0
 11
260.87207484523168
 21
72.370725236030012
 31
0.0
  0
LINE
  8
DETAIL
  6
CONTINUOUS
 62
     5
 10
260.87207484523168
 20
72.370725236030012
 30
0.0
 11
260.87822763701001
 21
72.351199651787283
 31
0.0
  0
LINE
  8
DETAIL
  6
CONTINUOUS
 62
     5
 10
260.87822763701001
 20
72.351199651787283
 30
0.0
 11
260.87822763701001
 21
72.351199651787283
 31
0.0
  0
LINE
  8
DETAIL
  6
CONTINUOUS
 62
     5
 10
260.87822763701001
 20
72.351199651787283
 30
0.0
 11
260.8837020456715
 21
72.331359027654116
 31
0.0
  0
LINE
  8
DETAIL
  6
CONTINUOUS
 62
     5
 10
260.8837020456715
 20
72.331359027654116
 30
0.0
 11
260.8884776109162
 21
72.311262032007335
 31
0.0
  0
LINE
  8
DETAIL
  6
CONTINUOUS
 62
     5
 10
260.8884776109162
 20
72.311262032007335
 30
0.0
 11
260.8884776109162
 21
72.311262032007335
 31
0.0
  0
LINE
  8
DETAIL
  6
CONTINUOUS
 62
     5
 10
260.8884776109162
 20
72.311262032007335
 30
0.0
 11
260.89251045461151
 21
72.29103395226025
 31
0.0
  0
LINE
  8
DETAIL
  6
CONTINUOUS
 62
     5
 10
260.89251045461151
 20
72.29103395226025
 30
0.0
 11
260.8958271713567
 21
72.270700323141455
 31
0.0
  0
LINE
  8
DETAIL
  6
CONTINUOUS
 62
     5
 10
260.8958271713567
 20
72.270700323141455
 30
0.0
 11
260.8958271713567
 21
72.270700323141455
 31
0.0
  0
LINE
  8
DETAIL
  6
CONTINUOUS
 62
     5
 10
260.8958271713567
 20
72.270700323141455
 30
0.0
 11
260.89844253721628
 21
72.250269936685982
 31
0.0
  0
LINE
  8
DETAIL
  6
CONTINUOUS
 62
     5
 10
260.89844253721628
 20
72.250269936685982
 30
0.0
 11
260.90025358138212
 21
72.229784366840249
 31
0.0
  0
LINE
  8
DETAIL
  6
CONTINUOUS
 62
     5
 10
260.90025358138212
 20
72.229784366840249
 30
0.0
 11
260.90025358138212
 21
72.229784366840249
 31
0.0
  0
LINE
  8
DETAIL
  6
CONTINUOUS
 62
     5
 10
260.90025358138212
 20
72.229784366840249
 30
0.0
 11
260.90122802501912
 21
72.209285539288658
 31
0.0
  0
LINE
  8
DETAIL
  6
CONTINUOUS
 62
     5
 10
260.90122802501912
 20
72.209285539288658
 30
0.0
 11
260.90173410404623
 21
72.188784004754325
 31
0.0
  0
LINE
  8
DETAIL
  6
CONTINUOUS
 62
     5
 10
257.99452438560661
 20
-116.3236994219653
 30
0.0
 11
267.81502890173408
 21
-116.3236994219653
 31
0.0
  0
LINE
  8
DETAIL
  6
CONTINUOUS
 62
     5
 10
220.4238921001928
 20
-107.2061657032757
 30
0.0
 11
220.4238921001928
 21
72.097588952380875
 31
0.0
  0
LINE
  8
DETAIL
  6
CONTINUOUS
 62
     5
 10
220.4238921001928
 20
73.140655105972883
 30
0.0
 11
217.2177263969173
 21
73.140655105972883
 31
0.0
  0
LINE
  8
DETAIL
  6
CONTINUOUS
 62
     5
 10
269.41811175337187
 20
79.653179190751416
 30
0.0
 11
269.41811175337187
 21
-114.7205908598455
 31
0.0
  0
LINE
  8
DETAIL
  6
CONTINUOUS
 62
     5
 10
282.39468760563511
 20
-99.8787702542852
 30
0.0
 11
271.1581271745365
 21
-107.3698105256362
 31
0.0
  0
LINE
  8
DETAIL
  6
CONTINUOUS
 62
     5
 10
257.99452438560661
 20
81.256262042389153
 30
0.0
 11
267.81502890173408
 21
81.256262042389153
 31
0.0
  0
LINE
  8
DETAIL
  6
CONTINUOUS
 62
     5
 10
284.44701348747589
 20
60.976481939293762
 30
0.0
 11
284.44701348747589
 21
-96.043964270900688
 31
0.0
  0
LINE
  8
DETAIL
  6
CONTINUOUS
 62
     5
 10
282.39468751520178
 20
64.811317877036117
 30
0.0
 11
271.15812725130741
 21
72.302357653279159
 31
0.0
  0
ARC
  8
DETAIL
  6
CONTINUOUS
 62
     5
 10
228.4393063583816
 20
-107.2061657032757
 30
0.0
 40
8.0154142581887982
 50
180.0
 51
247.97046056539509
  0
ARC
  8
DETAIL
  6
CONTINUOUS
 62
     5
 10
228.4393063583816
 20
72.138728323699297
 30
0.0
 40
8.0154142581888763
 50
112.02953943460381
 51
180.0
  0
ARC
  8
DETAIL
  6
CONTINUOUS
 62
     5
 10
279.83815028901722
 20
60.976511833145651
 30
0.0
 40
4.6088631984586064
 50
0.0
 51
56.309933883694583
  0
ARC
  8
DETAIL
  6
CONTINUOUS
 62
     5
 10
279.83815028901722
 20
-96.043964270900688
 30
0.0
 40
4.60886319845849
 50
303.69006746959991
 51
0.0
  0
ARC
  8
DETAIL
  6
CONTINUOUS
 62
     5
 10
273.32562620423892
 20
-110.6210590766959
 30
0.0
 40
3.9075144508670152
 50
123.6900674696015
 51
180.0
  0
ARC
  8
DETAIL
  6
CONTINUOUS
 62
     5
 10
273.32562620423892
 20
75.55360625573644
 30
0.0
 40
3.9075144508670969
 50
180.0
 51
236.30993388369461
  0
ARC
  8
DETAIL
  6
CONTINUOUS
 62
     5
 10
267.81502890173408
 20
-114.72061657032761
 30
0.0
 40
1.6030828516377369
 50
270.0
 51
0.0
  0
ARC
  8
DETAIL
  6
CONTINUOUS
 62
     5
 10
267.81502890173408
 20
79.653179190751416
 30
0.0
 40
1.6030828516377369
 50
0.0
 51
90.0
  0
LINE
  8
DETAIL
  6
CONTINUOUS
 62
     5
 10
195.11247459730251
 20
55.707129094412267
 30
0.0
 11
196.11440137957609
 21
56.70905587668608
 31
0.0
  0
LINE
  8
DETAIL
  6
CONTINUOUS
 62
     5
 10
220.4238921001928
 20
-73.14065510597311
 30
0.0
 11
218.82080924855501
 21
-73.14065510597311
 31
0.0
  0
LINE
  8
DETAIL
  6
CONTINUOUS
 62
     5
 10
215.3140655105974
 20
-56.709055876685852
 30
0.0
 11
196.11440137957609
 21
-56.709055876685852
 31
0.0
  0
LINE
  8
DETAIL
  6
CONTINUOUS
 62
     5
 10
195.11247459730251
 20
-55.707129094412487
 30
0.0
 11
154.1965317919074
 21
-55.707129094412487
 31
0.0
  0
LINE
  8
DETAIL
  6
CONTINUOUS
 62
     5
 10
195.11247459730251
 20
-55.707129094412487
 30
0.0
 11
196.11440137957609
 21
-56.709055876685852
 31
0.0
  0
LINE
  8
DETAIL
  6
CONTINUOUS
 62
     5
 10
195.11247459730251
 20
-55.707129094412487
 30
0.0
 11
195.11247459730251
 21
55.707129094412267
 31
0.0
  0
LINE
  8
DETAIL
  6
CONTINUOUS
 62
     5
 10
196.11440137957609
 20
-56.709055876685852
 30
0.0
 11
196.11440137957609
 21
56.70905587668608
 31
0.0
  0
LINE
  8
DETAIL
  6
CONTINUOUS
 62
     5
 10
195.11247459730251
 20
55.707129094412267
 30
0.0
 11
154.1965317919074
 21
55.707129094412267
 31
0.0
  0
LINE
  8
DETAIL
  6
CONTINUOUS
 62
     5
 10
215.3140655105974
 20
56.70905587668608
 30
0.0
 11
196.11440137957609
 21
56.70905587668608
 31
0.0
  0
ARC
  8
DETAIL
  6
CONTINUOUS
 62
     5
 10
154.1965317919074
 20
-49.094412331406367
 30
0.0
 40
6.612716763005742
 50
184.09090909090389
 51
270.0
  0
ARC
  8
DETAIL
  6
CONTINUOUS
 62
     5
 10
154.1965317919074
 20
49.094412331406602
 30
0.0
 40
6.6127167630058077
 50
90.0
 51
175.90909090909611
  0
LINE
  8
BASIS
  6
DASHDOT
 62
     6
 10
-62.288901152777271
 20
0.0
 30
0.0
 11
311.46265720145539
 21
0.0
 31
0.0
  0
ARC
  8
DETAIL
  6
CONTINUOUS
 62
     5
 10
156.810044056484
 20
108.4213609691722
 30
0.0
 40
72.26764233881363
 50
18.27285937609248
 51
91.198361258344107
  0
ARC
  8
DETAIL
  6
CONTINUOUS
 62
     5
 10
157.96889746981921
 20
98.724719631262815
 30
0.0
 40
104.653563896807
 50
18.00915438421908
 51
91.462066250166842
  0
ARC
  8
DETAIL
  6
CONTINUOUS
 62
     5
 10
157.36595946456779
 20
102.39596179788531
 30
0.0
 40
104.15687989476621
 50
15.9856155011443
 51
91.13728266431167
  0
ARC
  8
DETAIL
  6
CONTINUOUS
 62
     5
 10
7.4648792413099727
 20
194.73061471943109
 30
0.0
 40
2.570335510201581
 50
6.3856637105421212
 51
76.559496010519112
  0
ARC
  8
DETAIL
  6
CONTINUOUS
 62
     5
 10
11.44568215314121
 20
212.81916110450021
 30
0.0
 40
15.951547061016431
 50
238.04623243722571
 51
257.75439776965288
  0
ARC
  8
DETAIL
  6
CONTINUOUS
 62
     5
 10
8.178848958992603
 20
194.50713182671319
 30
0.0
 40
6.3617138382839844
 50
3.6101788556003052
 51
74.706048693827839
  0
ARC
  8
DETAIL
  6
CONTINUOUS
 62
     5
 10
9.8781322618688137
 20
205.6065968138532
 30
0.0
 40
4.963095002691956
 50
196.1055168704456
 51
269.75472445339642
  0
ARC
  8
DETAIL
  6
CONTINUOUS
 62
     5
 10
8.2323180309786039
 20
244.12767054787901
 30
0.0
 40
6.3066537981287443
 50
3.389673345744602
 51
73.540138887628771
  0
ARC
  8
DETAIL
  6
CONTINUOUS
 62
     5
 10
10.622008453939999
 20
256.52504240762067
 30
0.0
 40
6.3777199505788804
 50
210.2491874292916
 51
264.57704156907732
  0
ARC
  8
DETAIL
  6
CONTINUOUS
 62
     5
 10
159.4998513107403
 20
-112.2253228689567
 30
0.0
 40
68.5766838339879
 50
266.48770043031118
 51
344.04107893529152
  0
ARC
  8
DETAIL
  6
CONTINUOUS
 62
     5
 10
160.69630320596841
 20
-102.58185381297331
 30
0.0
 40
100.90682588691659
 50
266.93370247522267
 51
343.59507688956751
  0
ARC
  8
DETAIL
  6
CONTINUOUS
 62
     5
 10
160.0173870864719
 20
-105.9872093097969
 30
0.0
 40
100.65578220703701
 50
267.31299314345381
 51
345.56410869026399
  0
ARC
  8
DETAIL
  6
CONTINUOUS
 62
     5
 10
7.4648792413099727
 20
-194.73061471943089
 30
0.0
 40
2.570335510201581
 50
283.44050398948087
 51
353.61433628945792
  0
ARC
  8
DETAIL
  6
CONTINUOUS
 62
     5
 10
11.313411534227271
 20
-212.3965688853124
 30
0.0
 40
15.510565590852639
 50
102.09921620598131
 51
122.3853645971915
  0
ARC
  8
DETAIL
  6
CONTINUOUS
 62
     5
 10
8.178848958992603
 20
-194.50713182671311
 30
0.0
 40
6.3617138382839844
 50
285.29395130617212
 51
356.38982114439972
  0
ARC
  8
DETAIL
  6
CONTINUOUS
 62
     5
 10
9.8781322618688137
 20
-205.60659681385309
 30
0.0
 40
4.963095002691956
 50
90.245275546603565
 51
163.8944831295544
  0
ARC
  8
DETAIL
  6
CONTINUOUS
 62
     5
 10
8.2323180309786039
 20
-244.12767054787889
 30
0.0
 40
6.3066537981287443
 50
286.45986111237119
 51
356.6103266542554
  0
ARC
  8
DETAIL
  6
CONTINUOUS
 62
     5
 10
10.622008453939999
 20
-256.5250424076205
 30
0.0
 40
6.3777199505788804
 50
95.422958430922861
 51
149.7508125707084
  0
ARC
  8
DETAIL
  6
CONTINUOUS
 62
     5
 10
174.9641552321709
 20
-55.479978229497988
 30
0.0
 40
124.7428204702197
 50
98.483449100460163
 51
107.0130281843593
  0
ARC
  8
DETAIL
  6
CONTINUOUS
 62
     5
 10
156.99926636850711
 20
73.914828828219242
 30
0.0
 40
6.0327523731100827
 50
265.83992969901902
 51
7.4298754365631714
  0
ARC
  8
DETAIL
  6
CONTINUOUS
 62
     5
 10
-1240.8007755339149
 20
13.577385832028311
 30
0.0
 40
1405.1119738487771
 50
2.4929565178168982
 51
4.4238120466000517
  0
ARC
  8
DETAIL
  6
CONTINUOUS
 62
     5
 10
111.9448835214516
 20
118.7902873645216
 30
0.0
 40
48.284230545659213
 50
3.7621486702796409
 51
22.534580862872389
  0
ARC
  8
DETAIL
  6
CONTINUOUS
 62
     5
 10
139.33984446338769
 20
118.4754661826248
 30
0.0
 40
25.497044088269408
 50
47.569643033273692
 51
99.207355620947595
  0
ARC
  8
DETAIL
  6
CONTINUOUS
 62
     5
 10
-190.28829887379041
 20
658.63635275227443
 30
0.0
 40
784.83397451998951
 50
294.50675178091382
 51
295.50187690228267
  0
ARC
  8
DETAIL
  6
CONTINUOUS
 62
     5
 10
-727.9569749007361
 20
-31.562045861196399
 30
0.0
 40
891.09411895752726
 50
352.58854375747478
 51
358.4473245794083
  0
ARC
  8
DETAIL
  6
CONTINUOUS
 62
     5
 10
22.00643579210373
 20
-117.31272670100419
 30
0.0
 40
136.83671072765651
 50
332.41621331044553
 51
347.68087393410042
  0
ARC
  8
DETAIL
  6
CONTINUOUS
 62
     5
 10
-3455.4210921249201
 20
-39.616688753206397
 30
0.0
 40
3595.374600615588
 50
1.571947400634355
 51
1.6483343506139589
  0
ARC
  8
DETAIL
  6
CONTINUOUS
 62
     5
 10
67.204710843181601
 20
225.3303548881008
 30
0.0
 40
180.99450773153279
 50
292.08667842777652
 51
293.23252114882382
  0
LINE
  8
DETAIL
  6
CONTINUOUS
 62
     5
 10
135.26038396131389
 20
-50.792059928583967
 30
0.0
 11
138.6004465989536
 21
-53.467677898406009
 31
0.0
  0
LINE
  8
DETAIL
  6
CONTINUOUS
 62
     5
 10
138.6004465989536
 20
-53.467677898406009
 30
0.0
 11
138.58902237888469
 21
-53.967376627883141
 31
0.0
  0
ARC
  8
DETAIL
  6
CONTINUOUS
 62
     5
 10
-3.1307224019372479
 20
-42.668663790980588
 30
0.0
 40
166.67790396253901
 50
5.4793383823993773
 51
33.871596689257458
  0
ARC
  8
DETAIL
  6
CONTINUOUS
 62
     5
 10
39.475346194429221
 20
234.29783715842291
 30
0.0
 40
19.459968533428391
 50
182.79550337345449
 51
236.29265746988469
  0
ARC
  8
DETAIL
  6
CONTINUOUS
 62
     5
 10
67.416234934595195
 20
270.46371445107621
 30
0.0
 40
65.128923553331632
 50
233.4999445267737
 51
258.99570834926158
  0
ARC
  8
DETAIL
  6
CONTINUOUS
 62
     5
 10
39.475346194429221
 20
-234.29783715842291
 30
0.0
 40
19.459968533428391
 50
123.7073425301153
 51
177.20449662654551
  0
ARC
  8
DETAIL
  6
CONTINUOUS
 62
     5
 10
67.416234934595195
 20
-270.46371445107621
 30
0.0
 40
65.128923553331632
 50
101.00429165073839
 51
126.5000554732264
  0
LINE
  8
DETAIL
  6
CONTINUOUS
 62
     5
 10
21.536076202045312
 20
-300.72778873823751
 30
0.0
 11
16.53607620239546
 21
-350.72778873788741
 31
0.0
  0
LINE
  8
DETAIL
  6
CONTINUOUS
 62
     5
 10
18.55096463146748
 20
-300.42927758096948
 30
0.0
 11
13.55096463181764
 21
-350.42927758114462
 31
0.0
  0
LINE
  8
DETAIL
  6
CONTINUOUS
 62
     5
 10
22.630617111678301
 20
-300.83724282878057
 30
0.0
 11
14.47131215178325
 21
-300.02131233315851
 31
0.0
  0
LINE
  8
DETAIL
  6
CONTINUOUS
 62
     5
 10
16.53607620239546
 20
-350.72778873788741
 30
0.0
 11
11.44017199731735
 21
-350.21819831774712
 31
0.0
  0
ARC
  8
DETAIL
  6
CONTINUOUS
 62
     5
 10
97.735473335089523
 20
-266.7644548242576
 30
0.0
 40
77.100040021216941
 50
131.1535219362824
 51
166.12276364044331
  0
ARC
  8
DETAIL
  6
CONTINUOUS
 62
     5
 10
83.996738424413707
 20
-257.94559447905141
 30
0.0
 40
53.127995693550297
 50
104.5830845797506
 51
166.84360524753831
  0
LINE
  8
DETAIL
  6
CONTINUOUS
 62
     5
 10
15.565853060860549
 20
-300.13076642401688
 30
0.0
 11
11.44017199731735
 21
-350.21819831774712
 31
0.0
  0
ARC
  8
DETAIL
  6
CONTINUOUS
 62
     5
 10
415.68519961871652
 20
-338.70167635449661
 30
0.0
 40
403.07412972944883
 50
167.03542934074949
 51
174.4932280695019
  0
ARC
  8
DETAIL
  6
CONTINUOUS
 62
     5
 10
366.95661094785572
 20
-332.82353781448057
 30
0.0
 40
345.80849194053121
 50
165.4337825705241
 51
174.6927181475277
  0
ARC
  8
DETAIL
  6
CONTINUOUS
 62
     5
 10
1995.4911625695349
 20
2510.2666282067348
 30
0.0
 40
3130.7890980597072
 50
233.54624272559349
 51
234.1570680683258
  0
ARC
  8
DETAIL
  6
CONTINUOUS
 62
     5
 10
158.80112368349501
 20
-24.765144288823361
 30
0.0
 40
4.4528595279752166
 50
319.95336778633163
 51
333.48382719091239
  0
ARC
  8
OUTLINE
  6
CONTINUOUS
 62
     3
 10
157.36595946456779
 20
102.39596179788531
 30
0.0
 40
104.15687989476621
 50
15.9856155011443
 51
91.13728266431167
  0
ARC
  8
OUTLINE
  6
CONTINUOUS
 62
     3
 10
8.2323180309786039
 20
244.12767054787901
 30
0.0
 40
6.3066537981287443
 50
3.389673345744602
 51
73.540138887628771
  0
ARC
  8
OUTLINE
  6
CONTINUOUS
 62
     3
 10
160.0173870864719
 20
-105.9872093097969
 30
0.0
 40
100.65578220703701
 50
267.31299314345381
 51
345.56410869026399
  0
ARC
  8
OUTLINE
  6
CONTINUOUS
 62
     3
 10
8.2323180309786039
 20
-244.12767054787889
 30
0.0
 40
6.3066537981287443
 50
286.45986111237119
 51
356.6103266542554
  0
ARC
  8
OUTLINE
  6
CONTINUOUS
 62
     3
 10
39.475346194429221
 20
234.29783715842291
 30
0.0
 40
19.459968533428391
 50
182.79550337345449
 51
236.2926574698896
  0
ARC
  8
OUTLINE
  6
CONTINUOUS
 62
     3
 10
67.416234934595195
 20
270.46371445107621
 30
0.0
 40
65.128923553331632
 50
233.49994452677859
 51
258.99570834926158
  0
ARC
  8
OUTLINE
  6
CONTINUOUS
 62
     3
 10
39.475346194429221
 20
-234.29783715842291
 30
0.0
 40
19.459968533428391
 50
123.7073425301104
 51
177.20449662654551
  0
ARC
  8
OUTLINE
  6
CONTINUOUS
 62
     3
 10
67.416234934595195
 20
-270.46371445107621
 30
0.0
 40
65.128923553331632
 50
101.00429165073839
 51
126.50005547322149
  0
ENDSEC
  0
EOF
