  0
SECTION
  2
HEADER
  9
$ACADVER
  1
AC1009
  9
$DWGCODEPAGE
  3
dos932
  9
$INSBASE
 10
0.0
 20
0.0
 30
0.0
  9
$EXTMIN
 10
-446.84141389657998
 20
-389.00755658863091
 30
-0.0015258207003583
  9
$EXTMAX
 10
1071.3317987291739
 20
652.0843586792289
 30
0.0000000349246037
  9
$LIMMIN
 10
-2970.0
 20
-2100.0
  9
$LIMMAX
 10
2970.0
 20
2100.0
  9
$ORTHOMODE
 70
     1
  9
$REGENMODE
 70
     1
  9
$FILLMODE
 70
     1
  9
$QTEXTMODE
 70
     0
  9
$MIRRTEXT
 70
     0
  9
$LTSCALE
 40
20.0
  9
$ATTMODE
 70
     1
  9
$TEXTSIZE
 40
64.0
  9
$TRACEWID
 40
0.05
  9
$TEXTSTYLE
  7
STANDARD
  9
$CLAYER
  8
SIZE
  9
$CELTYPE
  6
CONTINUOUS
  9
$CECOLOR
 62
     7
  9
$DIMSCALE
 40
1.0
  9
$DIMASZ
 40
12.0
  9
$DIMEXO
 40
20.0
  9
$DIMDLI
 40
200.0
  9
$DIMRND
 40
0.0
  9
$DIMDLE
 40
0.0
  9
$DIMEXE
 40
20.0
  9
$DIMTP
 40
0.0
  9
$DIMTM
 40
0.0
  9
$DIMTXT
 40
64.0
  9
$DIMCEN
 40
0.09
  9
$DIMTSZ
 40
0.0
  9
$DIMTOL
 70
     0
  9
$DIMLIM
 70
     0
  9
$DIMTIH
 70
     0
  9
$DIMTOH
 70
     0
  9
$DIMSE1
 70
     0
  9
$DIMSE2
 70
     0
  9
$DIMTAD
 70
     1
  9
$DIMZIN
 70
     8
  9
$DIMBLK
  1

  9
$DIMASO
 70
     1
  9
$DIMSHO
 70
     0
  9
$DIMPOST
  1

  9
$DIMAPOST
  1

  9
$DIMALT
 70
     0
  9
$DIMALTD
 70
     2
  9
$DIMALTF
 40
25.399999999999999
  9
$DIMLFAC
 40
1.0
  9
$DIMTOFL
 70
     1
  9
$DIMTVP
 40
0.0
  9
$DIMTIX
 70
     1
  9
$DIMSOXD
 70
     0
  9
$DIMSAH
 70
     0
  9
$DIMBLK1
  1

  9
$DIMBLK2
  1

  9
$DIMSTYLE
  2
STANDARD
  9
$DIMCLRD
 70
     7
  9
$DIMCLRE
 70
     7
  9
$DIMCLRT
 70
     7
  9
$DIMTFAC
 40
1.0
  9
$DIMGAP
 40
25.0
  9
$LUNITS
 70
     2
  9
$LUPREC
 70
     4
  9
$SKETCHINC
 40
0.1
  9
$FILLETRAD
 40
3.0
  9
$AUNITS
 70
     1
  9
$AUPREC
 70
     3
  9
$MENU
  1
ACAD
  9
$ELEVATION
 40
0.0
  9
$PELEVATION
 40
0.0
  9
$THICKNESS
 40
0.0
  9
$LIMCHECK
 70
     0
  9
$CHAMFERA
 40
0.0
  9
$CHAMFERB
 40
0.0
  9
$SKPOLY
 70
     0
  9
$TDCREATE
 40
2453019.62301037
  9
$TDUPDATE
 40
2458949.45306338
  9
$TDINDWG
 40
1.719576169
  9
$TDUSRTIMER
 40
1.719576169
  9
$USRTIMER
 70
     1
  9
$ANGBASE
 50
0.0
  9
$ANGDIR
 70
     0
  9
$PDMODE
 70
     3
  9
$PDSIZE
 40
-2.0
  9
$PLINEWID
 40
0.0
  9
$SPLFRAME
 70
     0
  9
$SPLINETYPE
 70
     6
  9
$SPLINESEGS
 70
     8
  9
$SURFTAB1
 70
     6
  9
$SURFTAB2
 70
     6
  9
$SURFTYPE
 70
     6
  9
$SURFU
 70
     6
  9
$SURFV
 70
     6
  9
$UCSNAME
  2

  9
$UCSORG
 10
0.0
 20
0.0
 30
0.0
  9
$UCSXDIR
 10
1.0
 20
0.0
 30
0.0
  9
$UCSYDIR
 10
0.0
 20
1.0
 30
0.0
  9
$PUCSNAME
  2

  9
$PUCSORG
 10
0.0
 20
0.0
 30
0.0
  9
$PUCSXDIR
 10
1.0
 20
0.0
 30
0.0
  9
$PUCSYDIR
 10
0.0
 20
1.0
 30
0.0
  9
$USERI1
 70
     0
  9
$USERI2
 70
     0
  9
$USERI3
 70
     0
  9
$USERI4
 70
     0
  9
$USERI5
 70
     0
  9
$USERR1
 40
20.0
  9
$USERR2
 40
0.0
  9
$USERR3
 40
0.0
  9
$USERR4
 40
0.0
  9
$USERR5
 40
0.0
  9
$WORLDVIEW
 70
     1
  9
$SHADEDGE
 70
     3
  9
$SHADEDIF
 70
    70
  9
$TILEMODE
 70
     1
  9
$MAXACTVP
 70
    48
  9
$PINSBASE
 10
0.0
 20
0.0
 30
0.0
  9
$PLIMCHECK
 70
     0
  9
$PEXTMIN
 10
-100000000000000000000.0
 20
-100000000000000000000.0
 30
-100000000000000000000.0
  9
$PEXTMAX
 10
100000000000000000000.0
 20
100000000000000000000.0
 30
100000000000000000000.0
  9
$PLIMMIN
 10
0.0
 20
0.0
  9
$PLIMMAX
 10
12.0
 20
9.0
  9
$UNITMODE
 70
     0
  9
$VISRETAIN
 70
     0
  9
$PLINEGEN
 70
     0
  9
$PSLTSCALE
 70
     0
  9
$TREEDEPTH
 70
  3020
  9
$ATTDIA
 70
     0
  9
$ATTREQ
 70
     1
  9
$BLIPMODE
 70
     1
  9
$COORDS
 70
     1
  9
$DRAGMODE
 70
     2
  9
$OSMODE
 70
     0
  9
$HANDLING
 70
     0
  9
$HANDSEED
  5
10151
  0
ENDSEC
  0
SECTION
  2
TABLES
  0
TABLE
  2
LTYPE
 70
     2
  0
LTYPE
  2
CONTINUOUS
 70
     0
  3
実線
 72
    65
 73
     0
 40
0.0
  0
LTYPE
  2
DASHDOT
 70
     0
  3
____ _ ____ _ ____ _ ____ _ ____ _ ____ _ ____
 72
    65
 73
     4
 40
5.5
 49
4.0
 49
-0.6
 49
0.3
 49
-0.6
  0
ENDTAB
  0
TABLE
  2
LAYER
 70
    12
  0
LAYER
  2
0
 70
     0
 62
     7
  6
CONTINUOUS
  0
LAYER
  2
BASIS
 70
     0
 62
     6
  6
DASHDOT
  0
LAYER
  2
OUTLINE
 70
     0
 62
     3
  6
CONTINUOUS
  0
LAYER
  2
DETAIL
 70
     0
 62
     5
  6
CONTINUOUS
  0
LAYER
  2
SIZE
 70
     0
 62
    30
  6
CONTINUOUS
  0
LAYER
  2
ARRANGE
 70
     0
 62
     1
  6
CONTINUOUS
  0
LAYER
  2
DEFPOINTS
 70
     0
 62
     7
  6
CONTINUOUS
  0
LAYER
  2
ETC
 70
     0
 62
    61
  6
CONTINUOUS
  0
LAYER
  2
FIX
 70
     0
 62
    11
  6
CONTINUOUS
  0
LAYER
  2
NOTE
 70
     0
 62
     4
  6
CONTINUOUS
  0
LAYER
  2
SERVICESPACE
 70
    64
 62
     2
  6
DASHDOT
  0
LAYER
  2
SYMBOLLINE
 70
    64
 62
    15
  6
CONTINUOUS
  0
ENDTAB
  0
TABLE
  2
STYLE
 70
     1
  0
STYLE
  2
STANDARD
 70
     0
 40
64.0
 41
0.9
 50
0.0
 71
     0
 42
64.0
  3
SIMPLEX.shx
  4
BIGFONT.shx
  0
ENDTAB
  0
TABLE
  2
APPID
 70
    19
  0
APPID
  2
ACAD
 70
     0
  0
APPID
  2
AUTOCAD_POSTSCRIPT_FIGURE
 70
     0
  0
APPID
  2
ACAD_EXEMPT_FROM_CAD_STANDARDS
 70
     0
  0
APPID
  2
ACAD_PSEXT
 70
     0
  0
APPID
  2
ACAUTHENVIRON
 70
     0
  0
APPID
  2
GENIUS_GENOENT_13
 70
     0
  0
APPID
  2
GENIUS_GENCFG_13
 70
     0
  0
APPID
  2
GENIUS_GENCFG0_13
 70
     0
  0
APPID
  2
GENIUS_GENCFG1_13
 70
     0
  0
APPID
  2
GENIUS_GENCFG2_13
 70
     0
  0
APPID
  2
GENIUS_GENCFG3_13
 70
     0
  0
APPID
  2
GENIUS_GENCFG4_13
 70
     0
  0
APPID
  2
GENIUS_GEVCFG0_13
 70
     0
  0
APPID
  2
CONTENTBLOCKICON
 70
     0
  0
APPID
  2
CONTENTBLOCKDESCRIPTION
 70
     0
  0
APPID
  2
ACAD_NAV_VCDISPLAY
 70
     0
  0
APPID
  2
ACAD_MLEADERVER
 70
     0
  0
APPID
  2
ACDBDYNAMICBLOCKTRUENAME
 70
     0
  0
APPID
  2
ACDBDYNAMICBLOCKGUID
 70
     0
  0
ENDTAB
  0
TABLE
  2
DIMSTYLE
 70
     1
  0
DIMSTYLE
  2
STANDARD
 70
     0
  3

  4

  5
_ORIGIN
  6

  7

 40
1.0
 41
12.0
 42
20.0
 43
200.0
 44
20.0
 45
0.0
 46
0.0
 47
0.0
 48
0.0
140
64.0
141
0.09
142
0.0
143
25.399999999999999
144
1.0
145
0.0
146
1.0
147
25.0
 71
     0
 72
     0
 73
     0
 74
     0
 75
     0
 76
     0
 77
     1
 78
     8
170
     0
171
     2
172
     1
173
     0
174
     1
175
     0
176
     7
177
     7
178
     7
  0
ENDTAB
  0
TABLE
  2
VIEW
 70
     1
  0
VIEW
  2
ALL
 70
     0
 40
4282.6198079999986
 10
0.0
 20
41.309904000000003
 41
5940.0
 11
0.0
 21
0.0
 31
1.0
 12
0.0
 22
0.0
 32
0.0
 42
50.0
 43
0.0
 44
0.0
 50
0.0
 71
     0
  0
ENDTAB
  0
TABLE
  2
UCS
 70
     0
  0
ENDTAB
  0
TABLE
  2
VPORT
 70
     1
  0
VPORT
  2
*ACTIVE
 70
     0
 10
0.0
 20
0.0
 11
1.0
 21
1.0
 12
312.24519241629707
 22
131.538401045299
 13
0.0
 23
0.0
 14
1.0
 24
1.0
 15
0.0
 25
0.0
 16
0.0
 26
0.0
 36
1.0
 17
0.0
 27
0.0
 37
0.0
 40
1047.9941821094151
 41
1.747787610619469
 42
50.0
 43
0.0
 44
0.0
 50
0.0
 51
0.0
 71
     0
 72
  1000
 73
     1
 74
     3
 75
     0
 76
     0
 77
     0
 78
     0
  0
ENDTAB
  0
ENDSEC
  0
SECTION
  2
BLOCKS
  0
BLOCK
  8
0
  2
_ORIGIN
 70
     0
 10
0.0
 20
0.0
 30
0.0
  3
_ORIGIN
  1
_ORIGIN
  0
CIRCLE
  8
0
  6
CONTINUOUS
 62
     7
 10
0.0
 20
0.0
 30
0.0
 40
0.5
  0
LINE
  8
0
  6
CONTINUOUS
 62
     7
 10
0.0
 20
0.0
 30
0.0
 11
-1.0
 21
0.0
 31
0.0
  0
ENDBLK
  8
0
  0
ENDSEC
  0
SECTION
  2
ENTITIES
  0
POINT
  8
ARRANGE
  6
CONTINUOUS
 62
     1
 10
0.0
 20
0.0
 30
0.0
  0
CIRCLE
  8
ARRANGE
  6
CONTINUOUS
 62
     1
 10
0.0
 20
0.0
 30
0.0
 40
40.0
  0
TEXT
  8
ETC
  6
CONTINUOUS
 62
    61
 10
308.38039964551541
 20
587.96709437737286
 30
0.0
 40
64.0
  1
EWG-40CTA2-Q_4
 41
0.9
  0
TEXT
  8
ETC
  6
CONTINUOUS
 62
    61
 10
304.19440564551508
 20
470.01178436254168
 30
0.0
 40
64.0
  1
産業扇
 41
0.9
  0
TEXT
  8
ETC
  6
CONTINUOUS
 62
    61
 10
354.89580389407092
 20
361.86301147631639
 30
0.0
 40
40.0
  1
EWG-40CTA2-Q
 41
0.9
  0
TEXT
  8
NOTE
  6
CONTINUOUS
 62
     4
 10
111.20894172444881
 20
-374.36737008823332
 30
0.0
 40
64.0
  1
4-φ14
 41
0.9
  0
LINE
  8
SIZE
  6
CONTINUOUS
 62
    30
 10
-10.00000000039131
 20
273.75960617635531
 30
0.0
 11
-10.00000000039131
 21
321.46920480854169
 31
0.0
  0
LINE
  8
SIZE
  6
CONTINUOUS
 62
    30
 10
0.0
 20
278.49710982658962
 30
0.0
 11
0.0
 21
321.46920480854169
 31
0.0
  0
LINE
  8
SIZE
  6
CONTINUOUS
 62
    30
 10
-22.00000000039131
 20
301.46920480854169
 30
0.0
 11
-34.00000000039131
 21
301.46920480854169
 31
0.0
  0
LINE
  8
SIZE
  6
CONTINUOUS
 62
    30
 10
12.0
 20
301.46920480854169
 30
0.0
 11
156.28571428571431
 21
301.46920480854169
 31
0.0
  0
LINE
  8
SIZE
  6
CONTINUOUS
 62
    30
 10
-10.00000000039131
 20
301.46920480854169
 30
0.0
 11
0.0
 21
301.46920480854169
 31
0.0
  0
CIRCLE
  8
SIZE
  6
CONTINUOUS
 62
    30
 10
-10.00000000039131
 20
301.46920480854169
 30
0.0
 40
6.0
  0
LINE
  8
SIZE
  6
CONTINUOUS
 62
    30
 10
-10.00000000039131
 20
301.46920480854169
 30
0.0
 11
-22.00000000039131
 21
301.46920480854169
 31
0.0
  0
CIRCLE
  8
SIZE
  6
CONTINUOUS
 62
    30
 10
0.0
 20
301.46920480854169
 30
0.0
 40
6.0
  0
LINE
  8
SIZE
  6
CONTINUOUS
 62
    30
 10
0.0
 20
301.46920480854169
 30
0.0
 11
12.0
 21
301.46920480854169
 31
0.0
  0
TEXT
  8
SIZE
  6
CONTINUOUS
 62
    30
 10
49.000000000000092
 20
326.46920480854169
 30
0.0
 40
64.0
  1
10
 41
0.9
 72
     1
 11
90.142857142857224
 21
326.46920480854169
 31
0.0
  0
POINT
  8
DEFPOINTS
  6
CONTINUOUS
 62
    30
 10
-10.00000000039131
 20
253.75960617635531
 30
0.0
  0
POINT
  8
DEFPOINTS
  6
CONTINUOUS
 62
    30
 10
0.0
 20
258.49710982658962
 30
0.0
  0
POINT
  8
DEFPOINTS
  6
CONTINUOUS
 62
    30
 10
0.0
 20
301.46920480854169
 30
0.0
  0
LINE
  8
SIZE
  6
CONTINUOUS
 62
    30
 10
-20.038535645472511
 20
263.36801541425802
 30
0.0
 11
-20.038535645472511
 21
321.46920480854169
 31
0.0
  0
LINE
  8
SIZE
  6
CONTINUOUS
 62
    30
 10
-10.01926782273614
 20
273.38728323699422
 30
0.0
 11
-10.01926782273614
 21
321.46920480854169
 31
0.0
  0
LINE
  8
SIZE
  6
CONTINUOUS
 62
    30
 10
1.98073217726386
 20
301.46920480854169
 30
0.0
 11
13.98073217726386
 21
301.46920480854169
 31
0.0
  0
LINE
  8
SIZE
  6
CONTINUOUS
 62
    30
 10
-32.038535645472507
 20
301.46920480854169
 30
0.0
 11
-270.41991877642272
 21
301.46920480854169
 31
0.0
  0
LINE
  8
SIZE
  6
CONTINUOUS
 62
    30
 10
-10.01926782273614
 20
301.46920480854169
 30
0.0
 11
-20.038535645472511
 21
301.46920480854169
 31
0.0
  0
CIRCLE
  8
SIZE
  6
CONTINUOUS
 62
    30
 10
-10.01926782273614
 20
301.46920480854169
 30
0.0
 40
6.0
  0
LINE
  8
SIZE
  6
CONTINUOUS
 62
    30
 10
-10.01926782273614
 20
301.46920480854169
 30
0.0
 11
1.98073217726386
 21
301.46920480854169
 31
0.0
  0
CIRCLE
  8
SIZE
  6
CONTINUOUS
 62
    30
 10
-20.038535645472511
 20
301.46920480854169
 30
0.0
 40
6.0
  0
LINE
  8
SIZE
  6
CONTINUOUS
 62
    30
 10
-20.038535645472511
 20
301.46920480854169
 30
0.0
 11
-32.038535645472507
 21
301.46920480854169
 31
0.0
  0
TEXT
  8
SIZE
  6
CONTINUOUS
 62
    30
 10
-245.41991877642269
 20
326.46920480854169
 30
0.0
 40
64.0
  1
10
 41
0.9
 72
     1
 11
-204.27706163356561
 21
326.46920480854169
 31
0.0
  0
POINT
  8
DEFPOINTS
  6
CONTINUOUS
 62
    30
 10
-20.038535645472511
 20
243.368015414258
 30
0.0
  0
POINT
  8
DEFPOINTS
  6
CONTINUOUS
 62
    30
 10
-10.01926782273614
 20
253.38728323699411
 30
0.0
  0
POINT
  8
DEFPOINTS
  6
CONTINUOUS
 62
    30
 10
-10.01926782273614
 20
301.46920480854169
 30
0.0
  0
LINE
  8
SIZE
  6
CONTINUOUS
 62
    30
 10
18.499999999999769
 20
259.99999722098443
 30
0.0
 11
352.13545641544181
 21
259.99999722098443
 31
0.0
  0
LINE
  8
SIZE
  6
CONTINUOUS
 62
    30
 10
18.497109826589391
 20
-260.0
 30
0.0
 11
352.13545641544169
 21
-260.00000000000011
 31
0.0
  0
LINE
  8
SIZE
  6
CONTINUOUS
 62
    30
 10
332.13545641544181
 20
247.9999972209844
 30
0.0
 11
332.13545641544169
 21
-248.00000000000011
 31
0.0
  0
CIRCLE
  8
SIZE
  6
CONTINUOUS
 62
    30
 10
332.13545641544181
 20
259.99999722098443
 30
0.0
 40
6.0
  0
LINE
  8
SIZE
  6
CONTINUOUS
 62
    30
 10
332.13545641544181
 20
259.99999722098443
 30
0.0
 11
332.13545641544181
 21
247.9999972209844
 31
0.0
  0
CIRCLE
  8
SIZE
  6
CONTINUOUS
 62
    30
 10
332.13545641544169
 20
-260.00000000000011
 30
0.0
 40
6.0
  0
LINE
  8
SIZE
  6
CONTINUOUS
 62
    30
 10
332.13545641544169
 20
-260.00000000000011
 30
0.0
 11
332.13545641544169
 21
-248.00000000000011
 31
0.0
  0
TEXT
  8
SIZE
  6
CONTINUOUS
 62
    30
 10
307.13545641544181
 20
-80.859766315696021
 30
0.0
 40
64.0
  1
520
 50
90.0
 41
0.9
 72
     1
 11
307.13545641544181
 21
-6.8026234585531711
 31
0.0
  0
POINT
  8
DEFPOINTS
  6
CONTINUOUS
 62
    30
 10
-1.5000000000002269
 20
259.99999722098443
 30
0.0
  0
POINT
  8
DEFPOINTS
  6
CONTINUOUS
 62
    30
 10
-1.5028901734106059
 20
-260.0
 30
0.0
  0
POINT
  8
DEFPOINTS
  6
CONTINUOUS
 62
    30
 10
332.13545641544169
 20
-260.00000000000011
 30
0.0
  0
LINE
  8
SIZE
  6
CONTINUOUS
 62
    30
 10
40.719751224611848
 20
230.4431599229288
 30
0.0
 11
224.80384637328521
 21
230.44315992292869
 31
0.0
  0
LINE
  8
SIZE
  6
CONTINUOUS
 62
    30
 10
40.719751224611848
 20
-230.4431599229288
 30
0.0
 11
224.8038463732851
 21
-230.4431599229288
 31
0.0
  0
LINE
  8
SIZE
  6
CONTINUOUS
 62
    30
 10
204.80384637328521
 20
218.44315992292869
 30
0.0
 11
204.8038463732851
 21
-218.4431599229288
 31
0.0
  0
CIRCLE
  8
SIZE
  6
CONTINUOUS
 62
    30
 10
204.80384637328521
 20
230.44315992292869
 30
0.0
 40
6.0
  0
LINE
  8
SIZE
  6
CONTINUOUS
 62
    30
 10
204.80384637328521
 20
230.44315992292869
 30
0.0
 11
204.80384637328521
 21
218.44315992292869
 31
0.0
  0
CIRCLE
  8
SIZE
  6
CONTINUOUS
 62
    30
 10
204.8038463732851
 20
-230.4431599229288
 30
0.0
 40
6.0
  0
LINE
  8
SIZE
  6
CONTINUOUS
 62
    30
 10
204.8038463732851
 20
-230.4431599229288
 30
0.0
 11
204.8038463732851
 21
-218.4431599229288
 31
0.0
  0
TEXT
  8
SIZE
  6
CONTINUOUS
 62
    30
 10
179.8038463732851
 20
-74.05714285714285
 30
0.0
 40
64.0
  1
460
 50
90.0
 41
0.9
 72
     1
 11
179.8038463732851
 21
0.0
 31
0.0
  0
POINT
  8
DEFPOINTS
  6
CONTINUOUS
 62
    30
 10
20.719751224611851
 20
230.4431599229288
 30
0.0
  0
POINT
  8
DEFPOINTS
  6
CONTINUOUS
 62
    30
 10
20.719751224611851
 20
-230.4431599229288
 30
0.0
  0
POINT
  8
DEFPOINTS
  6
CONTINUOUS
 62
    30
 10
204.8038463732851
 20
-230.4431599229288
 30
0.0
  0
CIRCLE
  8
FIX
  6
CONTINUOUS
 62
    11
 10
0.0
 20
-230.4431599229288
 30
0.0
 40
7.0
  0
CIRCLE
  8
FIX
  6
CONTINUOUS
 62
    11
 10
0.0
 20
230.4431599229288
 30
0.0
 40
7.0
  0
LINE
  8
SIZE
  6
CONTINUOUS
 62
    30
 10
0.0
 20
278.49710982658962
 30
0.0
 11
0.0
 21
456.38025177120647
 31
0.0
  0
LINE
  8
SIZE
  6
CONTINUOUS
 62
    30
 10
-135.26011560693661
 20
200.67319707799709
 30
0.0
 11
-135.26011560693649
 21
456.38025177120647
 31
0.0
  0
LINE
  8
SIZE
  6
CONTINUOUS
 62
    30
 10
-123.26011560693649
 20
436.38025177120647
 30
0.0
 11
-12.0
 21
436.38025177120647
 31
0.0
  0
LINE
  8
SIZE
  6
CONTINUOUS
 62
    30
 10
0.0
 20
436.38025177120647
 30
0.0
 11
199.14285714285711
 21
436.38025177120647
 31
0.0
  0
CIRCLE
  8
SIZE
  6
CONTINUOUS
 62
    30
 10
-135.26011560693649
 20
436.38025177120647
 30
0.0
 40
6.0
  0
LINE
  8
SIZE
  6
CONTINUOUS
 62
    30
 10
-135.26011560693649
 20
436.38025177120647
 30
0.0
 11
-123.26011560693649
 21
436.38025177120647
 31
0.0
  0
CIRCLE
  8
SIZE
  6
CONTINUOUS
 62
    30
 10
0.0
 20
436.38025177120647
 30
0.0
 40
6.0
  0
LINE
  8
SIZE
  6
CONTINUOUS
 62
    30
 10
0.0
 20
436.38025177120647
 30
0.0
 11
-12.0
 21
436.38025177120647
 31
0.0
  0
TEXT
  8
SIZE
  6
CONTINUOUS
 62
    30
 10
36.999999999999993
 20
461.38025177120647
 30
0.0
 40
64.0
  1
135
 41
0.9
 72
     1
 11
105.5714285714286
 21
461.38025177120647
 31
0.0
  0
POINT
  8
DEFPOINTS
  6
CONTINUOUS
 62
    30
 10
0.0
 20
258.49710982658962
 30
0.0
  0
POINT
  8
DEFPOINTS
  6
CONTINUOUS
 62
    30
 10
-135.26011560693661
 20
180.67319707799709
 30
0.0
  0
POINT
  8
DEFPOINTS
  6
CONTINUOUS
 62
    30
 10
-135.26011560693649
 20
436.38025177120647
 30
0.0
  0
LINE
  8
SIZE
  6
CONTINUOUS
 62
    30
 10
0.0
 20
278.49710982658962
 30
0.0
 11
0.0
 21
536.56135762234362
 31
0.0
  0
LINE
  8
SIZE
  6
CONTINUOUS
 62
    30
 10
-308.1919089060093
 20
-28.573809311435301
 30
0.0
 11
-308.19190890600919
 21
536.56135762234362
 31
0.0
  0
LINE
  8
SIZE
  6
CONTINUOUS
 62
    30
 10
-12.0
 20
516.56135762234362
 30
0.0
 11
-296.19190890600919
 21
516.56135762234362
 31
0.0
  0
CIRCLE
  8
SIZE
  6
CONTINUOUS
 62
    30
 10
0.0
 20
516.56135762234362
 30
0.0
 40
6.0
  0
LINE
  8
SIZE
  6
CONTINUOUS
 62
    30
 10
0.0
 20
516.56135762234362
 30
0.0
 11
-12.0
 21
516.56135762234362
 31
0.0
  0
CIRCLE
  8
SIZE
  6
CONTINUOUS
 62
    30
 10
-308.19190890600919
 20
516.56135762234362
 30
0.0
 40
6.0
  0
LINE
  8
SIZE
  6
CONTINUOUS
 62
    30
 10
-308.19190890600919
 20
516.56135762234362
 30
0.0
 11
-296.19190890600919
 21
516.56135762234362
 31
0.0
  0
TEXT
  8
SIZE
  6
CONTINUOUS
 62
    30
 10
-228.15309731014739
 20
541.56135762234362
 30
0.0
 40
64.0
  1
308
 41
0.9
 72
     1
 11
-154.09595445300459
 21
541.56135762234362
 31
0.0
  0
POINT
  8
DEFPOINTS
  6
CONTINUOUS
 62
    30
 10
0.0
 20
258.49710982658962
 30
0.0
  0
POINT
  8
DEFPOINTS
  6
CONTINUOUS
 62
    30
 10
-308.1919089060093
 20
-48.573809311435298
 30
0.0
  0
POINT
  8
DEFPOINTS
  6
CONTINUOUS
 62
    30
 10
-308.19190890600919
 20
516.56135762234362
 30
0.0
  0
TEXT
  8
NOTE
  6
CONTINUOUS
 62
     4
 10
-344.21134606783272
 20
-338.68968792478938
 30
0.0
 40
64.0
  1
EL
 41
0.9
 72
     2
 11
-259.18277463926131
 21
-338.68968792478938
 31
0.0
  0
LINE
  8
SIZE
  6
CONTINUOUS
 62
    30
 10
-318.6743737957612
 20
65.325626204238802
 30
0.0
 11
-366.97315554879691
 21
65.325626204238802
 31
0.0
  0
LINE
  8
SIZE
  6
CONTINUOUS
 62
    30
 10
-318.6743737957612
 20
-65.325626204239029
 30
0.0
 11
-366.97315554879691
 21
-65.325626204239029
 31
0.0
  0
LINE
  8
SIZE
  6
CONTINUOUS
 62
    30
 10
-346.97315554879708
 20
53.325626204238802
 30
0.0
 11
-346.97315554879708
 21
-53.325626204239043
 31
0.0
  0
CIRCLE
  8
SIZE
  6
CONTINUOUS
 62
    30
 10
-346.97315554879708
 20
65.325626204238802
 30
0.0
 40
6.0
  0
LINE
  8
SIZE
  6
CONTINUOUS
 62
    30
 10
-346.97315554879708
 20
65.325626204238802
 30
0.0
 11
-346.97315554879708
 21
53.325626204238802
 31
0.0
  0
CIRCLE
  8
SIZE
  6
CONTINUOUS
 62
    30
 10
-346.97315554879708
 20
-65.325626204239029
 30
0.0
 40
6.0
  0
LINE
  8
SIZE
  6
CONTINUOUS
 62
    30
 10
-346.97315554879708
 20
-65.325626204239029
 30
0.0
 11
-346.97315554879708
 21
-53.325626204239093
 31
0.0
  0
TEXT
  8
SIZE
  6
CONTINUOUS
 62
    30
 10
-382.63982221546371
 20
-96.548571428571535
 30
0.0
 40
64.0
  1
φ131
 50
90.0
 41
0.9
 72
     1
 11
-382.63982221546371
 21
-0.0000000000001137
 31
0.0
  0
POINT
  8
DEFPOINTS
  6
CONTINUOUS
 62
    30
 10
-298.6743737957612
 20
65.325626204238802
 30
0.0
  0
POINT
  8
DEFPOINTS
  6
CONTINUOUS
 62
    30
 10
-298.6743737957612
 20
-65.325626204239029
 30
0.0
  0
POINT
  8
DEFPOINTS
  6
CONTINUOUS
 62
    30
 10
-346.97315554879708
 20
-65.325626204239029
 30
0.0
  0
LINE
  8
NOTE
  6
CONTINUOUS
 62
     4
 10
-48.549767529049859
 20
230.4431599229288
 30
0.0
 11
25.75406022214656
 21
230.4431599229288
 31
0.0
  0
LINE
  8
NOTE
  6
CONTINUOUS
 62
     4
 10
-48.549767529049859
 20
-230.4431599229288
 30
0.0
 11
25.75406022214656
 21
-230.4431599229288
 31
0.0
  0
LINE
  8
DETAIL
  6
CONTINUOUS
 62
     4
 10
-100.52437553210819
 20
-210.5217689914189
 30
0.0
 11
-95.472309577356867
 21
-206.90772293763891
 31
0.0
  0
LINE
  8
DETAIL
  6
CONTINUOUS
 62
     4
 10
-95.472309577356867
 20
-206.90772293763891
 30
0.0
 11
-98.04049548576711
 21
-212.563615478153
 31
0.0
  0
LINE
  8
DETAIL
  6
CONTINUOUS
 62
     4
 10
-95.472309577356867
 20
-206.90772293763891
 30
0.0
 11
-103.09256144051839
 21
-216.17766153193301
 31
0.0
  0
LINE
  8
NOTE
  6
CONTINUOUS
 62
     4
 10
-103.09256144051839
 20
-216.17766153193301
 30
0.0
 11
-224.83356016849569
 21
-364.27402407764322
 31
0.0
  0
LINE
  8
NOTE
  6
CONTINUOUS
 62
     4
 10
-224.83356016849569
 20
-364.27402407764322
 30
0.0
 11
-360.00105158016078
 21
-364.37860580208559
 31
0.0
  0
LINE
  8
DETAIL
  6
CONTINUOUS
 62
     4
 10
1.9466328506205171
 20
-236.3419157099473
 30
0.0
 11
-0.0000000000002274
 21
-230.4431599229288
 31
0.0
  0
LINE
  8
DETAIL
  6
CONTINUOUS
 62
     4
 10
-0.0000000000002274
 20
-230.4431599229288
 30
0.0
 11
4.6352176254299593
 21
-234.57830887488939
 31
0.0
  0
LINE
  8
DETAIL
  6
CONTINUOUS
 62
     4
 10
-0.0000000000002274
 20
-230.4431599229288
 30
0.0
 11
6.5818504760507608
 21
-240.47706466190789
 31
0.0
  0
LINE
  8
NOTE
  6
CONTINUOUS
 62
     4
 10
6.5818504760507608
 20
-240.47706466190789
 30
0.0
 11
103.877734768713
 21
-388.80277306861888
 31
0.0
  0
LINE
  8
NOTE
  6
CONTINUOUS
 62
     4
 10
103.877734768713
 20
-388.80277306861888
 30
0.0
 11
394.01203122688622
 21
-388.37093916375812
 31
0.0
  0
LINE
  8
OUTLINE
  6
CONTINUOUS
 62
     3
 10
-10.01926782273631
 20
-253.38728323699431
 30
0.0
 11
-10.01926782273631
 21
-250.17586801186101
 31
0.0
  0
ARC
  8
OUTLINE
  6
CONTINUOUS
 62
     3
 10
-6.4123314065500381
 20
-253.38728323699431
 30
0.0
 40
3.606936416184908
 50
180.0
 51
270.0
  0
LINE
  8
OUTLINE
  6
CONTINUOUS
 62
     3
 10
-3.0057803468207571
 20
-256.99421965317919
 30
0.0
 11
-6.4123314065500381
 21
-256.99421965317919
 31
0.0
  0
LINE
  8
OUTLINE
  6
CONTINUOUS
 62
     3
 10
-20.038535645471711
 20
-243.36801541425831
 30
0.0
 11
-20.038535645471711
 21
-233.34874759153169
 31
0.0
  0
LINE
  8
OUTLINE
  6
CONTINUOUS
 62
     3
 10
-13.89435725220801
 20
-246.97495183044319
 30
0.0
 11
-16.4315992292868
 21
-246.97495183044319
 31
0.0
  0
ARC
  8
OUTLINE
  6
CONTINUOUS
 62
     3
 10
-16.4315992292868
 20
-243.36801541425831
 30
0.0
 40
3.606936416184908
 50
180.0
 51
270.0
  0
LINE
  8
OUTLINE
  6
CONTINUOUS
 62
     3
 10
-135.26011560693721
 20
-206.53232367995409
 30
0.0
 11
-177.3410404624274
 21
-206.53232367995409
 31
0.0
  0
LINE
  8
OUTLINE
  6
CONTINUOUS
 62
     3
 10
-131.2524084778411
 20
-206.53232367995409
 30
0.0
 11
-131.2524084778411
 21
-209.80346820809251
 31
0.0
  0
ARC
  8
OUTLINE
  6
CONTINUOUS
 62
     3
 10
-133.25626204238819
 20
-209.80346820809251
 30
0.0
 40
2.0038535645471711
 50
180.0
 51
0.0
  0
LINE
  8
OUTLINE
  6
CONTINUOUS
 62
     3
 10
-135.2601156069363
 20
-206.53232367995409
 30
0.0
 11
-135.2601156069363
 21
-209.80346820809251
 31
0.0
  0
LINE
  8
OUTLINE
  6
CONTINUOUS
 62
     3
 10
-54.984261746365974
 20
-206.53232367995409
 30
0.0
 11
-131.2524084778411
 21
-206.53232367995409
 31
0.0
  0
ARC
  8
OUTLINE
  6
CONTINUOUS
 62
     3
 10
-298.67437379576182
 20
-58.312138728323823
 30
0.0
 40
7.013487475915098
 50
180.0
 51
270.0
  0
LINE
  8
OUTLINE
  6
CONTINUOUS
 62
     3
 10
-298.67437379576182
 20
-65.325626204238915
 30
0.0
 11
-283.54527938343023
 21
-65.325626204238915
 31
0.0
  0
LINE
  8
OUTLINE
  6
CONTINUOUS
 62
     3
 10
-283.54527938343023
 20
-94.682080924855626
 30
0.0
 11
-279.53757225433537
 21
-94.682080924855626
 31
0.0
  0
LINE
  8
OUTLINE
  6
CONTINUOUS
 62
     3
 10
-283.54527938343023
 20
65.325626204238915
 30
0.0
 11
-283.54527938343023
 21
94.682080924855427
 31
0.0
  0
LINE
  8
OUTLINE
  6
CONTINUOUS
 62
     3
 10
-279.53757225433537
 20
-94.682080924855626
 30
0.0
 11
-279.53757225433537
 21
-131.0803515374221
 31
0.0
  0
LINE
  8
OUTLINE
  6
CONTINUOUS
 62
     3
 10
-305.68786127167601
 20
-58.31204999664692
 30
0.0
 11
-305.68786127167601
 21
58.31204999664692
 31
0.0
  0
ARC
  8
OUTLINE
  6
CONTINUOUS
 62
     3
 10
-298.67437379576182
 20
58.312138728323589
 30
0.0
 40
7.0134874759152277
 50
90.0
 51
180.0
  0
LINE
  8
OUTLINE
  6
CONTINUOUS
 62
     3
 10
-298.67437379576182
 20
65.325626204238915
 30
0.0
 11
-283.54527938343023
 21
65.325626204238915
 31
0.0
  0
LINE
  8
OUTLINE
  6
CONTINUOUS
 62
     3
 10
-283.54527938343023
 20
-94.682066275905299
 30
0.0
 11
-283.54527938343023
 21
-65.325626204238915
 31
0.0
  0
LINE
  8
OUTLINE
  6
CONTINUOUS
 62
     3
 10
-279.53757225433537
 20
94.682080924855427
 30
0.0
 11
-283.54527938343023
 21
94.682080924855427
 31
0.0
  0
LINE
  8
OUTLINE
  6
CONTINUOUS
 62
     3
 10
-279.53757225433537
 20
131.0803515380727
 30
0.0
 11
-279.53757225433537
 21
94.682080924855427
 31
0.0
  0
LINE
  8
OUTLINE
  6
CONTINUOUS
 62
     3
 10
-135.2601156069363
 20
209.80344138052689
 30
0.0
 11
-135.2601156069363
 21
206.53232368060461
 31
0.0
  0
LINE
  8
OUTLINE
  6
CONTINUOUS
 62
     3
 10
-177.3410404624274
 20
206.53232368060461
 30
0.0
 11
-135.2601156069363
 21
206.53232368060461
 31
0.0
  0
LINE
  8
OUTLINE
  6
CONTINUOUS
 62
     3
 10
-131.2524084778411
 20
206.53232368060461
 30
0.0
 11
-54.984261746366883
 21
206.53232368060461
 31
0.0
  0
ARC
  8
OUTLINE
  6
CONTINUOUS
 62
     3
 10
-133.25626204238819
 20
209.80346820809251
 30
0.0
 40
2.0038535645471711
 50
0.0
 51
180.0
  0
LINE
  8
OUTLINE
  6
CONTINUOUS
 62
     3
 10
-131.2524084778411
 20
209.7458110913594
 30
0.0
 11
-131.2524084778411
 21
206.53232368060461
 31
0.0
  0
LINE
  8
OUTLINE
  6
CONTINUOUS
 62
     3
 10
-3.0057803468207571
 20
256.99421965317902
 30
0.0
 11
-3.0057803468207571
 21
258.49710982658962
 31
0.0
  0
LINE
  8
OUTLINE
  6
CONTINUOUS
 62
     3
 10
-16.4315992292868
 20
246.9749518304429
 30
0.0
 11
-13.89435725220801
 21
246.9749518304429
 31
0.0
  0
ARC
  8
OUTLINE
  6
CONTINUOUS
 62
     3
 10
-16.4315992292868
 20
243.368015414258
 30
0.0
 40
3.6069364161849649
 50
90.0
 51
180.0
  0
LINE
  8
OUTLINE
  6
CONTINUOUS
 62
     3
 10
-20.038535645471711
 20
233.3487475916171
 30
0.0
 11
-20.038535645471711
 21
243.368015414258
 31
0.0
  0
LINE
  8
OUTLINE
  6
CONTINUOUS
 62
     3
 10
-10.01926782273631
 20
250.1758680125115
 30
0.0
 11
-10.01926782273631
 21
253.38728323699411
 31
0.0
  0
ARC
  8
OUTLINE
  6
CONTINUOUS
 62
     3
 10
-6.4123314065500381
 20
253.38728323699411
 30
0.0
 40
3.6069364161849649
 50
90.0
 51
180.0
  0
LINE
  8
OUTLINE
  6
CONTINUOUS
 62
     3
 10
-6.4123314065500381
 20
256.99421965317902
 30
0.0
 11
-3.0057803468207571
 21
256.99421965317902
 31
0.0
  0
LINE
  8
OUTLINE
  6
CONTINUOUS
 62
     3
 10
0.0
 20
-258.49710982658962
 30
0.0
 11
0.0
 21
258.49710982658962
 31
0.0
  0
ARC
  8
OUTLINE
  6
CONTINUOUS
 62
     3
 10
-1.502890173409924
 20
-258.49710982658962
 30
0.0
 40
1.5028901734103779
 50
180.0
 51
0.0
  0
LINE
  8
OUTLINE
  6
CONTINUOUS
 62
     3
 10
-3.0057803468207571
 20
-258.49710982658962
 30
0.0
 11
-3.0057803468207571
 21
-256.99421965317919
 31
0.0
  0
ARC
  8
OUTLINE
  6
CONTINUOUS
 62
     3
 10
-1.502890173409924
 20
258.49710982658962
 30
0.0
 40
1.5028901734103779
 50
0.0
 51
180.0
  0
LINE
  8
DETAIL
  6
CONTINUOUS
 62
     5
 10
-3.0057803468209841
 20
-256.99421965317919
 30
0.0
 11
-6.4123314065510613
 21
-256.99421965317919
 31
0.0
  0
LINE
  8
DETAIL
  6
CONTINUOUS
 62
     5
 10
-5.1098265895954
 20
-253.8226442482796
 30
0.0
 11
-3.0057803468209841
 21
-253.8226442482796
 31
0.0
  0
LINE
  8
DETAIL
  6
CONTINUOUS
 62
     5
 10
-13.89435725220847
 20
-246.97495183044319
 30
0.0
 11
-16.431599229287261
 21
-246.97495183044319
 31
0.0
  0
LINE
  8
DETAIL
  6
CONTINUOUS
 62
     5
 10
-20.038535645472169
 20
-241.9653179190752
 30
0.0
 11
-20.539499036608959
 21
-241.9653179190752
 31
0.0
  0
LINE
  8
DETAIL
  6
CONTINUOUS
 62
     5
 10
-14.52793834296733
 20
-217.09911790301041
 30
0.0
 11
-18.088203018792569
 21
-217.09911790301041
 31
0.0
  0
LINE
  8
DETAIL
  6
CONTINUOUS
 62
     5
 10
-14.52793834296733
 20
-214.2068044162352
 30
0.0
 11
-18.088203018792569
 21
-214.2068044162352
 31
0.0
  0
LINE
  8
DETAIL
  6
CONTINUOUS
 62
     5
 10
-14.52793834296733
 20
-208.42217744138341
 30
0.0
 11
-18.088203018792569
 21
-208.42217744138341
 31
0.0
  0
LINE
  8
DETAIL
  6
CONTINUOUS
 62
     5
 10
-14.52793834296733
 20
-206.53232367995409
 30
0.0
 11
-177.3410404624278
 21
-206.53232367995409
 31
0.0
  0
LINE
  8
DETAIL
  6
CONTINUOUS
 62
     5
 10
-5.1098265895954
 20
-204.22979870900599
 30
0.0
 11
-3.0057803468209841
 21
-204.22979870900599
 31
0.0
  0
LINE
  8
DETAIL
  6
CONTINUOUS
 62
     5
 10
-177.3410404624278
 20
-203.34421218136779
 30
0.0
 11
-14.52793834296733
 21
-203.34421218136779
 31
0.0
  0
LINE
  8
DETAIL
  6
CONTINUOUS
 62
     5
 10
-6.4123314065510613
 20
-192.89429115667011
 30
0.0
 11
-3.0057803468209841
 21
-192.89429115667011
 31
0.0
  0
LINE
  8
DETAIL
  6
CONTINUOUS
 62
     5
 10
-306.1888246628132
 20
-43.884393063583957
 30
0.0
 11
-306.1888246628132
 21
-53.302504816955647
 31
0.0
  0
LINE
  8
DETAIL
  6
CONTINUOUS
 62
     5
 10
-305.68786127167641
 20
-58.31204999664692
 30
0.0
 11
-305.68786127167641
 21
58.31204999664692
 31
0.0
  0
LINE
  8
DETAIL
  6
CONTINUOUS
 62
     5
 10
-14.52793834296733
 20
-180.67319707734649
 30
0.0
 11
-177.3410404624278
 21
-180.67319707734649
 31
0.0
  0
LINE
  8
DETAIL
  6
CONTINUOUS
 62
     5
 10
-283.54527938342972
 20
-94.682066275905299
 30
0.0
 11
-283.54527938342972
 21
94.682080924855427
 31
0.0
  0
LINE
  8
DETAIL
  6
CONTINUOUS
 62
     5
 10
-282.54335260115602
 20
-95.183044315992433
 30
0.0
 11
-282.54335260115602
 21
-94.682080924855626
 31
0.0
  0
LINE
  8
DETAIL
  6
CONTINUOUS
 62
     5
 10
-279.53757225433537
 20
131.0803515380727
 30
0.0
 11
-279.53757225433537
 21
-131.0803515374221
 31
0.0
  0
LINE
  8
DETAIL
  6
CONTINUOUS
 62
     5
 10
-14.52793834296733
 20
-163.1385838328454
 30
0.0
 11
-10.0192678227362
 21
-163.1385838328454
 31
0.0
  0
LINE
  8
DETAIL
  6
CONTINUOUS
 62
     5
 10
-16.431599229287261
 20
-151.09460705917991
 30
0.0
 11
-13.02504816955695
 21
-151.09460705917991
 31
0.0
  0
LINE
  8
DETAIL
  6
CONTINUOUS
 62
     5
 10
-247.4759152215801
 20
-131.0803515374221
 30
0.0
 11
-247.4759152215801
 21
131.0803515380727
 31
0.0
  0
LINE
  8
DETAIL
  6
CONTINUOUS
 62
     5
 10
-242.466281310212
 20
-88.670520231213914
 30
0.0
 11
-242.466281310212
 21
88.6705202312138
 31
0.0
  0
LINE
  8
DETAIL
  6
CONTINUOUS
 62
     5
 10
-232.5277252862397
 20
47.032115026999918
 30
0.0
 11
-231.94605009633909
 21
48.039606009658883
 31
0.0
  0
LINE
  8
DETAIL
  6
CONTINUOUS
 62
     5
 10
-238.45857418111771
 20
85.664658086830258
 30
0.0
 11
-238.45857418111771
 21
-85.664658086830514
 31
0.0
  0
LINE
  8
DETAIL
  6
CONTINUOUS
 62
     5
 10
-231.94605009633909
 20
61.064654179215722
 30
0.0
 11
-231.94605009633909
 21
48.039606009658883
 31
0.0
  0
LINE
  8
DETAIL
  6
CONTINUOUS
 62
     5
 10
-231.94605009633909
 20
-48.039606009008367
 30
0.0
 11
-231.94605009633909
 21
-61.064654178565213
 31
0.0
  0
LINE
  8
DETAIL
  6
CONTINUOUS
 62
     5
 10
-228.7398843930637
 20
-57.808392136176053
 30
0.0
 11
-228.7398843930637
 21
-51.295868051397527
 31
0.0
  0
LINE
  8
DETAIL
  6
CONTINUOUS
 62
     5
 10
-228.7398843930637
 20
51.295868052048043
 30
0.0
 11
-228.7398843930637
 21
57.808392136826569
 31
0.0
  0
LINE
  8
DETAIL
  6
CONTINUOUS
 62
     5
 10
-232.5277252862397
 20
-47.032115026349402
 30
0.0
 11
-231.94605009633909
 21
-48.039606009008367
 31
0.0
  0
LINE
  8
DETAIL
  6
CONTINUOUS
 62
     5
 10
-202.8542058576185
 20
66.127167630057784
 30
0.0
 11
-202.8542058576185
 21
-66.127167630058011
 31
0.0
  0
LINE
  8
DETAIL
  6
CONTINUOUS
 62
     5
 10
-201.46589538367991
 20
65.325626204238915
 30
0.0
 11
-201.46589538367991
 21
-65.325626204238915
 31
0.0
  0
LINE
  8
DETAIL
  6
CONTINUOUS
 62
     5
 10
-232.5277252862397
 20
-62.072145160573648
 30
0.0
 11
-231.94605009633909
 21
-61.064654178565213
 31
0.0
  0
LINE
  8
DETAIL
  6
CONTINUOUS
 62
     5
 10
-183.8535645472061
 20
12.372204212746739
 30
0.0
 11
-183.36966437579781
 21
12.856099651677599
 31
0.0
  0
LINE
  8
DETAIL
  6
CONTINUOUS
 62
     5
 10
-279.53757225433537
 20
-95.183044315992433
 30
0.0
 11
-282.54335260115602
 21
-95.183044315992433
 31
0.0
  0
LINE
  8
DETAIL
  6
CONTINUOUS
 62
     5
 10
-283.54527938342972
 20
-94.682080924855626
 30
0.0
 11
-279.53757225433537
 21
-94.682080924855626
 31
0.0
  0
LINE
  8
DETAIL
  6
CONTINUOUS
 62
     5
 10
-185.3564547206166
 20
58.31204962385209
 30
0.0
 11
-185.3564547206166
 21
-58.312049623201567
 31
0.0
  0
LINE
  8
DETAIL
  6
CONTINUOUS
 62
     5
 10
-183.8535645472061
 20
56.13617168605947
 30
0.0
 11
-183.8535645472061
 21
-56.136171685409181
 31
0.0
  0
LINE
  8
DETAIL
  6
CONTINUOUS
 62
     5
 10
-180.34682080924861
 20
-26.057750733778899
 30
0.0
 11
-180.34682080924861
 21
26.057750734429192
 31
0.0
  0
LINE
  8
DETAIL
  6
CONTINUOUS
 62
     5
 10
-236.4547206165704
 20
-66.127167630058011
 30
0.0
 11
-202.8542058576185
 21
-66.127167630058011
 31
0.0
  0
LINE
  8
DETAIL
  6
CONTINUOUS
 62
     5
 10
-298.6743737957612
 20
-65.325626204238915
 30
0.0
 11
-283.54527938342972
 21
-65.325626204238915
 31
0.0
  0
LINE
  8
DETAIL
  6
CONTINUOUS
 62
     5
 10
-201.46589538367991
 20
-65.325626204238915
 30
0.0
 11
-192.36994219653181
 21
-65.325626204238915
 31
0.0
  0
LINE
  8
DETAIL
  6
CONTINUOUS
 62
     5
 10
-238.45857418111771
 20
-62.072145160573648
 30
0.0
 11
-232.5277252862397
 21
-62.072145160573648
 31
0.0
  0
LINE
  8
DETAIL
  6
CONTINUOUS
 62
     5
 10
-238.45857418111771
 20
-58.312137626854792
 30
0.0
 11
-232.5277252862397
 21
-58.312137626854792
 31
0.0
  0
LINE
  8
DETAIL
  6
CONTINUOUS
 62
     5
 10
-228.7398843930637
 20
-57.808392136176053
 30
0.0
 11
-231.94605009633909
 21
-57.808392136176053
 31
0.0
  0
LINE
  8
DETAIL
  6
CONTINUOUS
 62
     5
 10
-306.1888246628132
 20
-53.302504816955647
 30
0.0
 11
-305.68786127167641
 21
-53.302504816955647
 31
0.0
  0
LINE
  8
DETAIL
  6
CONTINUOUS
 62
     5
 10
-232.5277252862397
 20
62.072145161223943
 30
0.0
 11
-231.94605009633909
 21
61.064654179215722
 31
0.0
  0
LINE
  8
DETAIL
  6
CONTINUOUS
 62
     5
 10
-165.81888246628151
 20
15.028901734104011
 30
0.0
 11
-166.3127995470812
 21
20.674399800115001
 31
0.0
  0
LINE
  8
DETAIL
  6
CONTINUOUS
 62
     5
 10
-165.81888246628151
 20
-15.02890173410424
 30
0.0
 11
-165.81888246628151
 21
15.028901734104011
 31
0.0
  0
LINE
  8
DETAIL
  6
CONTINUOUS
 62
     5
 10
-165.81888246628151
 20
-15.02890173410424
 30
0.0
 11
-166.3127995470812
 21
-20.674399799464481
 31
0.0
  0
LINE
  8
DETAIL
  6
CONTINUOUS
 62
     5
 10
-183.8535645472061
 20
-56.136351695868598
 30
0.0
 11
-185.3564547206166
 21
-57.639241044966639
 31
0.0
  0
LINE
  8
DETAIL
  6
CONTINUOUS
 62
     5
 10
-228.7398843930637
 20
-51.295868051397527
 30
0.0
 11
-231.94605009633909
 21
-51.295868051397527
 31
0.0
  0
LINE
  8
DETAIL
  6
CONTINUOUS
 62
     5
 10
-238.45857418111771
 20
-50.792122560068037
 30
0.0
 11
-232.5277252862397
 21
-50.792122560068037
 31
0.0
  0
LINE
  8
DETAIL
  6
CONTINUOUS
 62
     5
 10
-238.45857418111771
 20
-47.032115026349402
 30
0.0
 11
-232.5277252862397
 21
-47.032115026349402
 31
0.0
  0
LINE
  8
DETAIL
  6
CONTINUOUS
 62
     5
 10
-306.1888246628132
 20
-43.884393063583957
 30
0.0
 11
-305.68786127167641
 21
-43.884393063583957
 31
0.0
  0
LINE
  8
DETAIL
  6
CONTINUOUS
 62
     5
 10
-183.8535645472061
 20
-12.37220421209622
 30
0.0
 11
-183.36966437579781
 21
-12.856099651027311
 31
0.0
  0
LINE
  8
DETAIL
  6
CONTINUOUS
 62
     5
 10
-135.26011560693661
 20
209.80344138052689
 30
0.0
 11
-135.26011560693661
 21
206.53232368060461
 31
0.0
  0
LINE
  8
DETAIL
  6
CONTINUOUS
 62
     5
 10
-135.26011560693661
 20
180.67319707799709
 30
0.0
 11
-135.26011560693661
 21
-180.67319707734649
 31
0.0
  0
LINE
  8
DETAIL
  6
CONTINUOUS
 62
     5
 10
-135.26011560693661
 20
-206.53232367995409
 30
0.0
 11
-135.26011560693661
 21
-209.80346820809251
 31
0.0
  0
LINE
  8
DETAIL
  6
CONTINUOUS
 62
     5
 10
-131.2524084778421
 20
209.7458110913594
 30
0.0
 11
-131.2524084778421
 21
206.53232368060461
 31
0.0
  0
LINE
  8
DETAIL
  6
CONTINUOUS
 62
     5
 10
-131.2524084778421
 20
180.67319707799709
 30
0.0
 11
-131.2524084778421
 21
-180.67319707734649
 31
0.0
  0
LINE
  8
DETAIL
  6
CONTINUOUS
 62
     5
 10
-131.2524084778421
 20
-206.53232367995409
 30
0.0
 11
-131.2524084778421
 21
-209.80346820809251
 31
0.0
  0
LINE
  8
DETAIL
  6
CONTINUOUS
 62
     5
 10
-18.088203018792569
 20
185.92647213587571
 30
0.0
 11
-18.535645472061791
 21
185.15147907239191
 31
0.0
  0
LINE
  8
DETAIL
  6
CONTINUOUS
 62
     5
 10
-201.46589538367991
 20
-65.325626204238915
 30
0.0
 11
-202.8542058576185
 21
-66.127167630058011
 31
0.0
  0
LINE
  8
DETAIL
  6
CONTINUOUS
 62
     5
 10
-180.34682080924861
 20
-26.057750733778899
 30
0.0
 11
-170.8667519244301
 21
-25.228352176813591
 31
0.0
  0
LINE
  8
DETAIL
  6
CONTINUOUS
 62
     5
 10
-182.23611916362651
 20
-13.325626204238921
 30
0.0
 11
-180.34682080924861
 21
-13.325626204238921
 31
0.0
  0
LINE
  8
DETAIL
  6
CONTINUOUS
 62
     5
 10
-165.81888246628151
 20
-8.5163776493257046
 30
0.0
 11
-135.26011560693661
 21
-8.5163776493257046
 31
0.0
  0
LINE
  8
DETAIL
  6
CONTINUOUS
 62
     5
 10
-165.81888246628151
 20
8.5163776493254773
 30
0.0
 11
-135.26011560693661
 21
8.5163776493254773
 31
0.0
  0
LINE
  8
DETAIL
  6
CONTINUOUS
 62
     5
 10
-182.23611916362651
 20
13.325626204238921
 30
0.0
 11
-180.34682080924861
 21
13.325626204238921
 31
0.0
  0
LINE
  8
DETAIL
  6
CONTINUOUS
 62
     5
 10
-183.8535645472061
 20
56.136351696519341
 30
0.0
 11
-185.3564547206166
 21
57.639241045617148
 31
0.0
  0
LINE
  8
DETAIL
  6
CONTINUOUS
 62
     5
 10
-18.088203018792569
 20
-217.09911790301041
 30
0.0
 11
-18.535645472061791
 21
-216.32412484017729
 31
0.0
  0
LINE
  8
DETAIL
  6
CONTINUOUS
 62
     5
 10
-180.34682080924861
 20
26.057750734429192
 30
0.0
 11
-170.8667519244301
 21
25.2283521774641
 31
0.0
  0
LINE
  8
DETAIL
  6
CONTINUOUS
 62
     5
 10
-201.46589538367991
 20
65.325626204238915
 30
0.0
 11
-202.8542058576185
 21
66.127167630057784
 31
0.0
  0
LINE
  8
DETAIL
  6
CONTINUOUS
 62
     5
 10
-238.45857418111771
 20
47.032115026999918
 30
0.0
 11
-232.5277252862397
 21
47.032115026999918
 31
0.0
  0
LINE
  8
DETAIL
  6
CONTINUOUS
 62
     5
 10
-238.45857418111771
 20
50.792122560718553
 30
0.0
 11
-232.5277252862397
 21
50.792122560718553
 31
0.0
  0
LINE
  8
DETAIL
  6
CONTINUOUS
 62
     5
 10
-228.7398843930637
 20
51.295868052048043
 30
0.0
 11
-231.94605009633909
 21
51.295868052048043
 31
0.0
  0
LINE
  8
DETAIL
  6
CONTINUOUS
 62
     5
 10
-228.7398843930637
 20
57.808392136826569
 30
0.0
 11
-231.94605009633909
 21
57.808392136826569
 31
0.0
  0
LINE
  8
DETAIL
  6
CONTINUOUS
 62
     5
 10
-238.45857418111771
 20
58.312137627505308
 30
0.0
 11
-232.5277252862397
 21
58.312137627505308
 31
0.0
  0
LINE
  8
DETAIL
  6
CONTINUOUS
 62
     5
 10
-238.45857418111771
 20
62.072145161223943
 30
0.0
 11
-232.5277252862397
 21
62.072145161223943
 31
0.0
  0
LINE
  8
DETAIL
  6
CONTINUOUS
 62
     5
 10
-242.466281310212
 20
63.569471134899693
 30
0.0
 11
-238.45857418111771
 21
63.569471134899693
 31
0.0
  0
LINE
  8
DETAIL
  6
CONTINUOUS
 62
     5
 10
-298.6743737957612
 20
65.325626204238915
 30
0.0
 11
-283.54527938342972
 21
65.325626204238915
 31
0.0
  0
LINE
  8
DETAIL
  6
CONTINUOUS
 62
     5
 10
-201.46589538367991
 20
65.325626204238915
 30
0.0
 11
-192.36994219653181
 21
65.325626204238915
 31
0.0
  0
LINE
  8
DETAIL
  6
CONTINUOUS
 62
     5
 10
-236.4547206165704
 20
66.127167630057784
 30
0.0
 11
-202.8542058576185
 21
66.127167630057784
 31
0.0
  0
LINE
  8
DETAIL
  6
CONTINUOUS
 62
     5
 10
-20.539499036608959
 20
-241.9653179190752
 30
0.0
 11
-20.539499036608959
 21
-229.5532241261167
 31
0.0
  0
LINE
  8
DETAIL
  6
CONTINUOUS
 62
     5
 10
-20.038535645472169
 20
-243.36801541425831
 30
0.0
 11
-20.038535645472169
 21
-206.53232367995409
 31
0.0
  0
LINE
  8
DETAIL
  6
CONTINUOUS
 62
     5
 10
-20.038535645472169
 20
-180.67319707734649
 30
0.0
 11
-20.038535645472169
 21
180.67319707799709
 31
0.0
  0
LINE
  8
DETAIL
  6
CONTINUOUS
 62
     5
 10
-20.038535645472169
 20
206.53232368060461
 30
0.0
 11
-20.038535645472169
 21
243.368015414258
 31
0.0
  0
LINE
  8
DETAIL
  6
CONTINUOUS
 62
     5
 10
-18.535645472061791
 20
-216.32412484017729
 30
0.0
 11
-18.535645472061791
 21
-206.53232367995409
 31
0.0
  0
LINE
  8
DETAIL
  6
CONTINUOUS
 62
     5
 10
-18.535645472061791
 20
175.13221124965591
 30
0.0
 11
-18.535645472061791
 21
185.15147907239191
 31
0.0
  0
LINE
  8
DETAIL
  6
CONTINUOUS
 62
     5
 10
-279.53757225433537
 20
94.682080924855427
 30
0.0
 11
-283.54527938342972
 21
94.682080924855427
 31
0.0
  0
LINE
  8
DETAIL
  6
CONTINUOUS
 62
     5
 10
-14.52793834296733
 20
-200.2048355523859
 30
0.0
 11
-14.52793834296733
 21
-203.34421218136779
 31
0.0
  0
LINE
  8
DETAIL
  6
CONTINUOUS
 62
     5
 10
-14.52793834296733
 20
-244.50056063388641
 30
0.0
 11
-14.52793834296733
 21
-203.34421218136779
 31
0.0
  0
LINE
  8
DETAIL
  6
CONTINUOUS
 62
     5
 10
-14.52793834296733
 20
-200.2048355523859
 30
0.0
 11
-14.52793834296733
 21
-163.1385838328454
 31
0.0
  0
LINE
  8
DETAIL
  6
CONTINUOUS
 62
     5
 10
-14.52793834296733
 20
200.20483555303659
 30
0.0
 11
-14.52793834296733
 21
203.34421218201831
 31
0.0
  0
LINE
  8
DETAIL
  6
CONTINUOUS
 62
     5
 10
-14.52793834296733
 20
163.13858383349589
 30
0.0
 11
-14.52793834296733
 21
200.20483555303659
 31
0.0
  0
LINE
  8
DETAIL
  6
CONTINUOUS
 62
     5
 10
-14.52793834296733
 20
203.34421218201831
 30
0.0
 11
-14.52793834296733
 21
244.5005606345369
 31
0.0
  0
LINE
  8
DETAIL
  6
CONTINUOUS
 62
     5
 10
-10.0192678227362
 20
-189.28735474048489
 30
0.0
 11
-10.0192678227362
 21
-194.907715093962
 31
0.0
  0
LINE
  8
DETAIL
  6
CONTINUOUS
 62
     5
 10
-10.0192678227362
 20
-253.38728323699431
 30
0.0
 11
-10.0192678227362
 21
-250.17586801186101
 31
0.0
  0
LINE
  8
DETAIL
  6
CONTINUOUS
 62
     5
 10
-10.0192678227362
 20
-189.28735474048489
 30
0.0
 11
-10.0192678227362
 21
189.2873547411356
 31
0.0
  0
LINE
  8
DETAIL
  6
CONTINUOUS
 62
     5
 10
-10.0192678227362
 20
189.2873547411356
 30
0.0
 11
-10.0192678227362
 21
194.90771509461251
 31
0.0
  0
LINE
  8
DETAIL
  6
CONTINUOUS
 62
     5
 10
-10.0192678227362
 20
250.1758680125115
 30
0.0
 11
-10.0192678227362
 21
253.38728323699411
 31
0.0
  0
LINE
  8
DETAIL
  6
CONTINUOUS
 62
     5
 10
-5.1098265895954
 20
-253.8226442482796
 30
0.0
 11
-5.1098265895954
 21
-203.82636743547781
 31
0.0
  0
LINE
  8
DETAIL
  6
CONTINUOUS
 62
     5
 10
-5.1098265895954
 20
203.82636743612829
 30
0.0
 11
-5.1098265895954
 21
253.82264424893009
 31
0.0
  0
LINE
  8
DETAIL
  6
CONTINUOUS
 62
     5
 10
-3.0057803468209841
 20
-258.49710982658962
 30
0.0
 11
-3.0057803468209841
 21
258.49710982658962
 31
0.0
  0
LINE
  8
DETAIL
  6
CONTINUOUS
 62
     5
 10
0.0
 20
-258.49710982658962
 30
0.0
 11
0.0
 21
258.49710982658962
 31
0.0
  0
LINE
  8
DETAIL
  6
CONTINUOUS
 62
     5
 10
-13.02504816955695
 20
151.09460705917971
 30
0.0
 11
-16.431599229287261
 21
151.09460705917971
 31
0.0
  0
LINE
  8
DETAIL
  6
CONTINUOUS
 62
     5
 10
-14.52793834296733
 20
163.13858383349589
 30
0.0
 11
-10.0192678227362
 21
163.13858383349589
 31
0.0
  0
LINE
  8
DETAIL
  6
CONTINUOUS
 62
     5
 10
-14.52793834296733
 20
174.35721818682279
 30
0.0
 11
-18.088203018792569
 21
174.35721818682279
 31
0.0
  0
LINE
  8
DETAIL
  6
CONTINUOUS
 62
     5
 10
-14.52793834296733
 20
177.2495316742486
 30
0.0
 11
-18.088203018792569
 21
177.2495316742486
 31
0.0
  0
LINE
  8
DETAIL
  6
CONTINUOUS
 62
     5
 10
-177.3410404624278
 20
180.67319707799709
 30
0.0
 11
-18.535645472061791
 21
180.67319707799709
 31
0.0
  0
LINE
  8
DETAIL
  6
CONTINUOUS
 62
     5
 10
-14.52793834296733
 20
183.03415864844979
 30
0.0
 11
-18.088203018792569
 21
183.03415864844979
 31
0.0
  0
LINE
  8
DETAIL
  6
CONTINUOUS
 62
     5
 10
-14.52793834296733
 20
185.92647213587571
 30
0.0
 11
-18.088203018792569
 21
185.92647213587571
 31
0.0
  0
LINE
  8
DETAIL
  6
CONTINUOUS
 62
     5
 10
-3.0057803468209841
 20
192.8942911573204
 30
0.0
 11
-6.4123314065510613
 21
192.8942911573204
 31
0.0
  0
LINE
  8
DETAIL
  6
CONTINUOUS
 62
     5
 10
-18.088203018792569
 20
174.35721818682279
 30
0.0
 11
-18.535645472061791
 21
175.13221124965591
 31
0.0
  0
LINE
  8
DETAIL
  6
CONTINUOUS
 62
     5
 10
-14.52793834296733
 20
203.34421218201831
 30
0.0
 11
-177.3410404624278
 21
203.34421218201831
 31
0.0
  0
LINE
  8
DETAIL
  6
CONTINUOUS
 62
     5
 10
-5.1098265895954
 20
204.22979870900579
 30
0.0
 11
-3.0057803468209841
 21
204.22979870900579
 31
0.0
  0
LINE
  8
DETAIL
  6
CONTINUOUS
 62
     5
 10
-177.3410404624278
 20
206.53232368060461
 30
0.0
 11
-14.52793834296733
 21
206.53232368060461
 31
0.0
  0
LINE
  8
DETAIL
  6
CONTINUOUS
 62
     5
 10
-16.431599229287261
 20
246.9749518304429
 30
0.0
 11
-13.89435725220847
 21
246.9749518304429
 31
0.0
  0
LINE
  8
DETAIL
  6
CONTINUOUS
 62
     5
 10
-3.0057803468209841
 20
253.82264424893009
 30
0.0
 11
-5.1098265895954
 21
253.82264424893009
 31
0.0
  0
LINE
  8
DETAIL
  6
CONTINUOUS
 62
     5
 10
-6.4123314065510613
 20
256.99421965317902
 30
0.0
 11
-3.0057803468209841
 21
256.99421965317902
 31
0.0
  0
ARC
  8
DETAIL
  6
CONTINUOUS
 62
     5
 10
-428.33643339934451
 20
-15.951402373145131
 30
0.0
 40
185.87015347036009
 50
0.0069842024961221
 51
0.358464494999805
  0
ARC
  8
DETAIL
  6
CONTINUOUS
 62
     5
 10
-428.33643339934451
 20
15.951402373145131
 30
0.0
 40
185.87015347036009
 50
359.64153550500021
 51
359.99301579750392
  0
ARC
  8
DETAIL
  6
CONTINUOUS
 62
     5
 10
-301.65761078998082
 20
-48.593448940269823
 30
0.0
 40
6.5350674373796016
 50
133.89739816710599
 51
226.10260183289409
  0
ARC
  8
DETAIL
  6
CONTINUOUS
 62
     5
 10
-298.6743737957612
 20
-58.312138728323823
 30
0.0
 40
7.013487475915241
 50
180.0
 51
270.0
  0
ARC
  8
DETAIL
  6
CONTINUOUS
 62
     5
 10
-192.36994219653181
 20
-58.312138728323823
 30
0.0
 40
7.013487475915233
 50
270.0
 51
0.0
  0
ARC
  8
DETAIL
  6
CONTINUOUS
 62
     5
 10
-248.47784200385371
 20
-88.670520231213914
 30
0.0
 40
6.0115606936415764
 50
279.59990325230132
 51
0.0
  0
ARC
  8
DETAIL
  6
CONTINUOUS
 62
     5
 10
-171.30337028876721
 20
-20.237781435127541
 30
0.0
 40
5.0096339113680397
 50
274.99999999999977
 51
355.00000000000023
  0
ARC
  8
DETAIL
  6
CONTINUOUS
 62
     5
 10
-186.88606294177131
 20
-28.55491329479764
 30
0.0
 40
4.7357739244301396
 50
309.88964597830119
 51
50.110354021698761
  0
ARC
  8
DETAIL
  6
CONTINUOUS
 62
     5
 10
-236.4547206165704
 20
-68.131021194604955
 30
0.0
 40
2.0038535645472431
 50
90.0
 51
179.9999999963002
  0
ARC
  8
DETAIL
  6
CONTINUOUS
 62
     5
 10
-182.23611916362651
 20
-11.72254335260118
 30
0.0
 40
1.6030828516377611
 50
225.0002801910999
 51
270.0
  0
ARC
  8
DETAIL
  6
CONTINUOUS
 62
     5
 10
-242.65627030483211
 20
-14.75154120821753
 30
0.0
 40
0.189989038860954
 50
348.77202728009257
 51
359.96071109500639
  0
ARC
  8
DETAIL
  6
CONTINUOUS
 62
     5
 10
-298.6743737957612
 20
58.312138728323589
 30
0.0
 40
7.0134874759152277
 50
90.0
 51
180.0
  0
ARC
  8
DETAIL
  6
CONTINUOUS
 62
     5
 10
-192.36994219653181
 20
58.312138728323589
 30
0.0
 40
7.0134874759152694
 50
0.0
 51
90.0
  0
ARC
  8
DETAIL
  6
CONTINUOUS
 62
     5
 10
-248.47784200385371
 20
88.6705202312138
 30
0.0
 40
6.0115606936416563
 50
0.0
 51
80.400096747698697
  0
ARC
  8
DETAIL
  6
CONTINUOUS
 62
     5
 10
-171.30337028876721
 20
20.237781435778061
 30
0.0
 40
5.0096339113680362
 50
4.9999999999997957
 51
85.000000000000213
  0
ARC
  8
DETAIL
  6
CONTINUOUS
 62
     5
 10
-186.88606294177131
 20
28.55491329479764
 30
0.0
 40
4.7357739244301396
 50
309.88964597830119
 51
50.110354021698761
  0
ARC
  8
DETAIL
  6
CONTINUOUS
 62
     5
 10
-186.88606294177131
 20
0.0
 30
0.0
 40
4.7357739244301396
 50
309.88964597830119
 51
50.110354021698761
  0
ARC
  8
DETAIL
  6
CONTINUOUS
 62
     5
 10
-236.4547206165704
 20
68.131021194604955
 30
0.0
 40
2.0038535645472431
 50
180.00000000369991
 51
270.0
  0
ARC
  8
DETAIL
  6
CONTINUOUS
 62
     5
 10
-182.23611916362651
 20
11.722543352600949
 30
0.0
 40
1.6030828516377329
 50
90.0
 51
134.99971980919469
  0
ARC
  8
DETAIL
  6
CONTINUOUS
 62
     5
 10
-242.65627030483211
 20
14.75154120886828
 30
0.0
 40
0.189989038860909
 50
0.0392889049935792
 51
11.227972719907431
  0
ARC
  8
DETAIL
  6
CONTINUOUS
 62
     5
 10
-6.4123314065510613
 20
-189.28735474048489
 30
0.0
 40
3.6069364161848512
 50
180.0
 51
270.0
  0
ARC
  8
DETAIL
  6
CONTINUOUS
 62
     5
 10
-16.431599229287261
 20
-243.36801541425831
 30
0.0
 40
3.6069364161848512
 50
180.0
 51
270.0
  0
ARC
  8
DETAIL
  6
CONTINUOUS
 62
     5
 10
-16.431599229287261
 20
-147.4876706429948
 30
0.0
 40
3.6069364161848512
 50
180.0
 51
270.0
  0
ARC
  8
DETAIL
  6
CONTINUOUS
 62
     5
 10
-6.4123314065510613
 20
-253.38728323699431
 30
0.0
 40
3.6069364161848512
 50
180.0
 51
270.0
  0
ARC
  8
DETAIL
  6
CONTINUOUS
 62
     5
 10
-13.02504816955695
 20
-154.10038740600069
 30
0.0
 40
3.0057803468206998
 50
0.0
 51
90.0
  0
ARC
  8
DETAIL
  6
CONTINUOUS
 62
     5
 10
-133.25626204238921
 20
-209.80346820809251
 30
0.0
 40
2.0038535645471431
 50
180.0
 51
0.0
  0
ARC
  8
DETAIL
  6
CONTINUOUS
 62
     5
 10
-1.5028901734106059
 20
-258.49710982658962
 30
0.0
 40
1.5028901734103219
 50
180.0
 51
0.0
  0
ARC
  8
DETAIL
  6
CONTINUOUS
 62
     5
 10
-6.4123314065510613
 20
189.2873547411356
 30
0.0
 40
3.6069364161849928
 50
90.0
 51
180.0
  0
ARC
  8
DETAIL
  6
CONTINUOUS
 62
     5
 10
-16.431599229287261
 20
147.48767064299469
 30
0.0
 40
3.6069364161849928
 50
90.0
 51
180.0
  0
ARC
  8
DETAIL
  6
CONTINUOUS
 62
     5
 10
-16.431599229287261
 20
243.368015414258
 30
0.0
 40
3.6069364161849649
 50
90.0
 51
180.0
  0
ARC
  8
DETAIL
  6
CONTINUOUS
 62
     5
 10
-6.4123314065510613
 20
253.38728323699411
 30
0.0
 40
3.6069364161849649
 50
90.0
 51
180.0
  0
ARC
  8
DETAIL
  6
CONTINUOUS
 62
     5
 10
-13.02504816955695
 20
154.10038740600041
 30
0.0
 40
3.005780346820786
 50
270.0
 51
356.25000462240479
  0
ARC
  8
DETAIL
  6
CONTINUOUS
 62
     5
 10
-133.25626204238921
 20
209.80346820809251
 30
0.0
 40
2.0038535645471711
 50
0.0
 51
180.0
  0
ARC
  8
DETAIL
  6
CONTINUOUS
 62
     5
 10
-1.5028901734106059
 20
258.49710982658962
 30
0.0
 40
1.5028901734103779
 50
0.0
 51
180.0
  0
LINE
  8
DETAIL
  6
CONTINUOUS
 62
     5
 10
-230.4431599229288
 20
-79.653179190751416
 30
0.0
 11
-230.4431599229288
 21
-74.643545279383488
 31
0.0
  0
LINE
  8
DETAIL
  6
CONTINUOUS
 62
     5
 10
-230.4431599229288
 20
74.643545279383488
 30
0.0
 11
-230.4431599229288
 21
79.653179190751416
 31
0.0
  0
LINE
  8
DETAIL
  6
CONTINUOUS
 62
     5
 10
-242.466281310212
 20
-85.664739884393157
 30
0.0
 11
-238.45857418111771
 21
-85.664739884393157
 31
0.0
  0
LINE
  8
DETAIL
  6
CONTINUOUS
 62
     5
 10
-230.4431599229288
 20
-79.653179190751416
 30
0.0
 11
-238.45857418111771
 21
-79.653179190751416
 31
0.0
  0
LINE
  8
DETAIL
  6
CONTINUOUS
 62
     5
 10
-230.4431599229288
 20
-74.643545279383488
 30
0.0
 11
-238.45857418111771
 21
-74.643545279383488
 31
0.0
  0
LINE
  8
DETAIL
  6
CONTINUOUS
 62
     5
 10
-242.466281310212
 20
-63.569471134249397
 30
0.0
 11
-238.45857418111771
 21
-63.569471134249397
 31
0.0
  0
LINE
  8
DETAIL
  6
CONTINUOUS
 62
     5
 10
-230.4431599229288
 20
74.643545279383488
 30
0.0
 11
-238.45857418111771
 21
74.643545279383488
 31
0.0
  0
LINE
  8
DETAIL
  6
CONTINUOUS
 62
     5
 10
-230.4431599229288
 20
79.653179190751416
 30
0.0
 11
-238.45857418111771
 21
79.653179190751416
 31
0.0
  0
LINE
  8
DETAIL
  6
CONTINUOUS
 62
     5
 10
-242.466281310212
 20
85.66473988439293
 30
0.0
 11
-238.45857418111771
 21
85.66473988439293
 31
0.0
  0
LINE
  8
BASIS
  6
DASHDOT
 62
     6
 10
-339.59221798576158
 20
0.0
 30
0.0
 11
62.037028723833373
 21
0.0
 31
0.0
  0
ARC
  8
DETAIL
  6
CONTINUOUS
 62
     5
 10
-179.5770002217827
 20
102.62439325492321
 30
0.0
 40
103.9319850740511
 50
88.767261664017312
 51
164.10984016966341
  0
ARC
  8
DETAIL
  6
CONTINUOUS
 62
     5
 10
-178.31069309235011
 20
96.319717126717933
 30
0.0
 40
107.028887540159
 50
89.480908705575047
 51
161.04787065963109
  0
ARC
  8
DETAIL
  6
CONTINUOUS
 62
     5
 10
-179.29444822128281
 20
109.0464645247534
 30
0.0
 40
71.653364318499769
 50
88.437813911005563
 51
162.09096545455739
  0
ARC
  8
DETAIL
  6
CONTINUOUS
 62
     5
 10
-7.434675095950638
 20
194.71600823209431
 30
0.0
 40
2.5916927064155608
 50
104.01490649251301
 51
175.75797108464809
  0
ARC
  8
DETAIL
  6
CONTINUOUS
 62
     5
 10
-10.541280470920359
 20
210.59185320260991
 30
0.0
 40
13.58931915512612
 50
280.5107512525293
 51
303.68861855085368
  0
ARC
  8
DETAIL
  6
CONTINUOUS
 62
     5
 10
-8.0794983657352759
 20
194.43226356615119
 30
0.0
 40
6.4659440374839088
 50
104.9391412292324
 51
175.78314097979441
  0
ARC
  8
DETAIL
  6
CONTINUOUS
 62
     5
 10
-9.8698550613510179
 20
205.85084148326811
 30
0.0
 40
5.1726556254472236
 50
271.36790092906818
 51
336.95960461725872
  0
ARC
  8
DETAIL
  6
CONTINUOUS
 62
     5
 10
-8.2323180326802685
 20
244.127670549231
 30
0.0
 40
6.3066537963497042
 50
106.4598611010417
 51
176.61032666560931
  0
ARC
  8
DETAIL
  6
CONTINUOUS
 62
     5
 10
-9.9511880313150414
 20
255.41019132464359
 30
0.0
 40
5.2347660304861217
 50
269.25482921999787
 51
337.64540405733783
  0
ARC
  8
DETAIL
  6
CONTINUOUS
 62
     5
 10
-179.5770002217827
 20
-102.62439325488501
 30
0.0
 40
103.9319850740511
 50
195.89015983033659
 51
271.23273833598267
  0
ARC
  8
DETAIL
  6
CONTINUOUS
 62
     5
 10
-178.31069309235011
 20
-96.31971712667972
 30
0.0
 40
107.028887540159
 50
198.95212934036891
 51
270.51909129442498
  0
ARC
  8
DETAIL
  6
CONTINUOUS
 62
     5
 10
-179.29444822128281
 20
-109.0464645247152
 30
0.0
 40
71.653364318499769
 50
197.90903454544261
 51
271.56218608899439
  0
ARC
  8
DETAIL
  6
CONTINUOUS
 62
     5
 10
-7.434675095950638
 20
-194.71600823209431
 30
0.0
 40
2.5916927064155608
 50
184.24202891535191
 51
255.98509350748699
  0
ARC
  8
DETAIL
  6
CONTINUOUS
 62
     5
 10
-10.541280470920469
 20
-210.59185320260991
 30
0.0
 40
13.58931915512612
 50
56.311381449146289
 51
79.489248747470711
  0
ARC
  8
DETAIL
  6
CONTINUOUS
 62
     5
 10
-8.0794983657352759
 20
-194.43226356615111
 30
0.0
 40
6.4659440374839088
 50
184.2168590202055
 51
255.0608587707676
  0
ARC
  8
DETAIL
  6
CONTINUOUS
 62
     5
 10
-9.8698550613511316
 20
-205.85084148326811
 30
0.0
 40
5.1726556254472236
 50
23.0403953827409
 51
88.632099070931829
  0
ARC
  8
DETAIL
  6
CONTINUOUS
 62
     5
 10
-8.2323180326803822
 20
-244.127670549231
 30
0.0
 40
6.3066537963497042
 50
183.38967333439081
 51
253.5401388989583
  0
ARC
  8
DETAIL
  6
CONTINUOUS
 62
     5
 10
-9.9511880313151551
 20
-255.4101913246441
 30
0.0
 40
5.2347660304861217
 50
22.354595942662161
 51
90.745170780002098
  0
ARC
  8
DETAIL
  6
CONTINUOUS
 62
     5
 10
-43.346435130450352
 20
236.4080059753214
 30
0.0
 40
23.50781232399369
 50
303.52203560496417
 51
352.52243630877791
  0
ARC
  8
DETAIL
  6
CONTINUOUS
 62
     5
 10
-72.65795049783901
 20
283.49631019246362
 30
0.0
 40
78.967173520910592
 50
282.93294573597649
 51
302.38380900379349
  0
ARC
  8
DETAIL
  6
CONTINUOUS
 62
     5
 10
-43.346435130450459
 20
-236.4080059753214
 30
0.0
 40
23.50781232399369
 50
7.4775636912220946
 51
56.477964395035379
  0
ARC
  8
DETAIL
  6
CONTINUOUS
 62
     5
 10
-72.657950497839124
 20
-283.49631019246408
 30
0.0
 40
78.967173520910592
 50
57.616190996206377
 51
77.067054264023497
  0
ARC
  8
DETAIL
  6
CONTINUOUS
 62
     5
 10
-146.41952139262881
 20
130.79170238589319
 30
0.0
 40
12.57359245635852
 50
105.0655565721889
 51
162.808143744456
  0
ARC
  8
DETAIL
  6
CONTINUOUS
 62
     5
 10
69.503160111701391
 20
82.764454805001549
 30
0.0
 40
233.7339034939655
 50
167.20999020906791
 51
181.7709438265766
  0
ARC
  8
DETAIL
  6
CONTINUOUS
 62
     5
 10
-156.52882680606871
 20
75.289576621386402
 30
0.0
 40
7.5944447875743837
 50
178.10151993627409
 51
248.438807056532
  0
ARC
  8
DETAIL
  6
CONTINUOUS
 62
     5
 10
-180.31977005523751
 20
-71.911447702712493
 30
0.0
 40
141.70271353608169
 50
73.343780298081896
 51
81.477501406020423
  0
ARC
  8
DETAIL
  6
CONTINUOUS
 62
     5
 10
127.1984146709421
 20
61.493102975481783
 30
0.0
 40
266.91250885186582
 50
179.49498763580161
 51
180.53251764424229
  0
ARC
  8
DETAIL
  6
CONTINUOUS
 62
     5
 10
-110.11702387405531
 20
125.093672512955
 30
0.0
 40
72.401922196396299
 50
245.88124537571429
 51
249.67948211538231
  0
ARC
  8
DETAIL
  6
CONTINUOUS
 62
     5
 10
63.290064944194633
 20
392.82109064991442
 30
0.0
 40
490.76306381757041
 50
243.14699009765889
 51
246.1353258116533
  0
ARC
  8
DETAIL
  6
CONTINUOUS
 62
     5
 10
-160.0929914953291
 20
-48.664140206702868
 30
0.0
 40
4.0208349428788051
 50
64.92846117555024
 51
182.18038823747241
  0
ARC
  8
DETAIL
  6
CONTINUOUS
 62
     5
 10
801.79631169209415
 20
-27.89649860698896
 30
0.0
 40
966.13376065198213
 50
181.24077723222621
 51
186.9243204803193
  0
ARC
  8
DETAIL
  6
CONTINUOUS
 62
     5
 10
-20.419435450486251
 20
-116.18413079692181
 30
0.0
 40
139.74368238558191
 50
191.63699061549241
 51
207.48072779189681
  0
ARC
  8
DETAIL
  6
CONTINUOUS
 62
     5
 10
-131.2110978999909
 20
-58.903940088343312
 30
0.0
 40
9.8045126300338019
 50
114.3922531985405
 51
149.8687395630061
  0
ARC
  8
DETAIL
  6
CONTINUOUS
 62
     5
 10
-142.72060830957389
 20
101.6635308098889
 30
0.0
 40
41.85355517667255
 50
79.732021935397313
 51
99.58226699752413
  0
ARC
  8
DETAIL
  6
CONTINUOUS
 62
     5
 10
-18.895929842035969
 20
-33.149833202173816
 30
0.0
 40
143.94711498178609
 50
143.93804435668949
 51
163.17452156192741
  0
ARC
  8
DETAIL
  6
CONTINUOUS
 62
     5
 10
-435.85150115110451
 20
35.151916496632111
 30
0.0
 40
279.25903258918282
 50
347.08273241683838
 51
351.00362464436768
  0
ARC
  8
DETAIL
  6
CONTINUOUS
 62
     5
 10
-163.36470430444231
 20
-27.28079145134922
 30
0.0
 40
0.2947926183490808
 50
178.8218088312214
 51
277.38314014851312
  0
ARC
  8
DETAIL
  6
CONTINUOUS
 62
     5
 10
2551.5940453032549
 20
-3734.28367200311
 30
0.0
 40
4594.6090564391443
 50
125.81611242085491
 51
126.2200612891297
  0
ARC
  8
OUTLINE
  6
CONTINUOUS
 62
     3
 10
-179.57700022086789
 20
102.6243932549035
 30
0.0
 40
103.9319850740511
 50
88.767261664017312
 51
164.10984016966131
  0
ARC
  8
OUTLINE
  6
CONTINUOUS
 62
     3
 10
-8.2323180317655442
 20
244.1276705492113
 30
0.0
 40
6.3066537963497042
 50
106.4598611010417
 51
176.61032666560931
  0
ARC
  8
OUTLINE
  6
CONTINUOUS
 62
     3
 10
-179.57700022086789
 20
-102.6243932549047
 30
0.0
 40
103.9319850740511
 50
195.89015983033869
 51
271.23273833598267
  0
ARC
  8
OUTLINE
  6
CONTINUOUS
 62
     3
 10
-8.2323180317656579
 20
-244.12767054925069
 30
0.0
 40
6.3066537963497042
 50
183.38967333439081
 51
253.5401388989583
  0
ARC
  8
OUTLINE
  6
CONTINUOUS
 62
     3
 10
-43.346435129535621
 20
236.40800597530171
 30
0.0
 40
23.50781232399369
 50
303.52203560496417
 51
352.52243630877712
  0
ARC
  8
OUTLINE
  6
CONTINUOUS
 62
     3
 10
-72.6579504969243
 20
283.49631019244401
 30
0.0
 40
78.967173520910592
 50
282.93294573597649
 51
302.38380900379178
  0
ARC
  8
OUTLINE
  6
CONTINUOUS
 62
     3
 10
-43.346435129535728
 20
-236.4080059753411
 30
0.0
 40
23.50781232399369
 50
7.4775636912229029
 51
56.477964395035379
  0
ARC
  8
OUTLINE
  6
CONTINUOUS
 62
     3
 10
-72.657950496924414
 20
-283.49631019248369
 30
0.0
 40
78.967173520910592
 50
57.616190996208182
 51
77.067054264023497
  0
ENDSEC
  0
EOF
