  0
SECTION
  2
HEADER
  9
$ACADVER
  1
AC1009
  9
$DWGCODEPAGE
  3
dos932
  9
$INSBASE
 10
0.0
 20
0.0
 30
0.0
  9
$EXTMIN
 10
-584.60996874446391
 20
-477.12706352715401
 30
-0.0015258207003583
  9
$EXTMAX
 10
1102.148449155673
 20
558.83789860973775
 30
35.212707595448848
  9
$LIMMIN
 10
-2970.0
 20
-2100.0
  9
$LIMMAX
 10
2970.0
 20
2100.0
  9
$ORTHOMODE
 70
     1
  9
$REGENMODE
 70
     1
  9
$FILLMODE
 70
     1
  9
$QTEXTMODE
 70
     0
  9
$MIRRTEXT
 70
     0
  9
$LTSCALE
 40
20.0
  9
$ATTMODE
 70
     1
  9
$TEXTSIZE
 40
64.0
  9
$TRACEWID
 40
0.05
  9
$TEXTSTYLE
  7
STANDARD
  9
$CLAYER
  8
SIZE
  9
$CELTYPE
  6
CONTINUOUS
  9
$CECOLOR
 62
     7
  9
$DIMSCALE
 40
1.0
  9
$DIMASZ
 40
12.0
  9
$DIMEXO
 40
20.0
  9
$DIMDLI
 40
200.0
  9
$DIMRND
 40
0.0
  9
$DIMDLE
 40
0.0
  9
$DIMEXE
 40
20.0
  9
$DIMTP
 40
0.0
  9
$DIMTM
 40
0.0
  9
$DIMTXT
 40
64.0
  9
$DIMCEN
 40
0.09
  9
$DIMTSZ
 40
0.0
  9
$DIMTOL
 70
     0
  9
$DIMLIM
 70
     0
  9
$DIMTIH
 70
     0
  9
$DIMTOH
 70
     0
  9
$DIMSE1
 70
     0
  9
$DIMSE2
 70
     0
  9
$DIMTAD
 70
     1
  9
$DIMZIN
 70
     8
  9
$DIMBLK
  1

  9
$DIMASO
 70
     1
  9
$DIMSHO
 70
     0
  9
$DIMPOST
  1

  9
$DIMAPOST
  1

  9
$DIMALT
 70
     0
  9
$DIMALTD
 70
     2
  9
$DIMALTF
 40
25.399999999999999
  9
$DIMLFAC
 40
1.0
  9
$DIMTOFL
 70
     1
  9
$DIMTVP
 40
0.0
  9
$DIMTIX
 70
     1
  9
$DIMSOXD
 70
     0
  9
$DIMSAH
 70
     0
  9
$DIMBLK1
  1

  9
$DIMBLK2
  1

  9
$DIMSTYLE
  2
STANDARD
  9
$DIMCLRD
 70
     7
  9
$DIMCLRE
 70
     7
  9
$DIMCLRT
 70
     7
  9
$DIMTFAC
 40
1.0
  9
$DIMGAP
 40
25.0
  9
$LUNITS
 70
     2
  9
$LUPREC
 70
     4
  9
$SKETCHINC
 40
0.1
  9
$FILLETRAD
 40
3.0
  9
$AUNITS
 70
     1
  9
$AUPREC
 70
     3
  9
$MENU
  1
ACAD
  9
$ELEVATION
 40
0.0
  9
$PELEVATION
 40
0.0
  9
$THICKNESS
 40
0.0
  9
$LIMCHECK
 70
     0
  9
$CHAMFERA
 40
0.0
  9
$CHAMFERB
 40
0.0
  9
$SKPOLY
 70
     0
  9
$TDCREATE
 40
2453019.62301037
  9
$TDUPDATE
 40
2458949.45318581
  9
$TDINDWG
 40
1.7200970023
  9
$TDUSRTIMER
 40
1.7200970023
  9
$USRTIMER
 70
     1
  9
$ANGBASE
 50
0.0
  9
$ANGDIR
 70
     0
  9
$PDMODE
 70
     3
  9
$PDSIZE
 40
-2.0
  9
$PLINEWID
 40
0.0
  9
$SPLFRAME
 70
     0
  9
$SPLINETYPE
 70
     6
  9
$SPLINESEGS
 70
     8
  9
$SURFTAB1
 70
     6
  9
$SURFTAB2
 70
     6
  9
$SURFTYPE
 70
     6
  9
$SURFU
 70
     6
  9
$SURFV
 70
     6
  9
$UCSNAME
  2

  9
$UCSORG
 10
0.0
 20
0.0
 30
0.0
  9
$UCSXDIR
 10
1.0
 20
0.0
 30
0.0
  9
$UCSYDIR
 10
0.0
 20
1.0
 30
0.0
  9
$PUCSNAME
  2

  9
$PUCSORG
 10
0.0
 20
0.0
 30
0.0
  9
$PUCSXDIR
 10
1.0
 20
0.0
 30
0.0
  9
$PUCSYDIR
 10
0.0
 20
1.0
 30
0.0
  9
$USERI1
 70
     0
  9
$USERI2
 70
     0
  9
$USERI3
 70
     0
  9
$USERI4
 70
     0
  9
$USERI5
 70
     0
  9
$USERR1
 40
20.0
  9
$USERR2
 40
0.0
  9
$USERR3
 40
0.0
  9
$USERR4
 40
0.0
  9
$USERR5
 40
0.0
  9
$WORLDVIEW
 70
     1
  9
$SHADEDGE
 70
     3
  9
$SHADEDIF
 70
    70
  9
$TILEMODE
 70
     1
  9
$MAXACTVP
 70
    48
  9
$PINSBASE
 10
0.0
 20
0.0
 30
0.0
  9
$PLIMCHECK
 70
     0
  9
$PEXTMIN
 10
-100000000000000000000.0
 20
-100000000000000000000.0
 30
-100000000000000000000.0
  9
$PEXTMAX
 10
100000000000000000000.0
 20
100000000000000000000.0
 30
100000000000000000000.0
  9
$PLIMMIN
 10
0.0
 20
0.0
  9
$PLIMMAX
 10
12.0
 20
9.0
  9
$UNITMODE
 70
     0
  9
$VISRETAIN
 70
     0
  9
$PLINEGEN
 70
     0
  9
$PSLTSCALE
 70
     0
  9
$TREEDEPTH
 70
  3020
  9
$ATTDIA
 70
     0
  9
$ATTREQ
 70
     1
  9
$BLIPMODE
 70
     1
  9
$COORDS
 70
     1
  9
$DRAGMODE
 70
     2
  9
$OSMODE
 70
     0
  9
$HANDLING
 70
     0
  9
$HANDSEED
  5
109D5
  0
ENDSEC
  0
SECTION
  2
TABLES
  0
TABLE
  2
LTYPE
 70
     2
  0
LTYPE
  2
CONTINUOUS
 70
     0
  3
実線
 72
    65
 73
     0
 40
0.0
  0
LTYPE
  2
DASHDOT
 70
     0
  3
____ _ ____ _ ____ _ ____ _ ____ _ ____ _ ____
 72
    65
 73
     4
 40
5.5
 49
4.0
 49
-0.6
 49
0.3
 49
-0.6
  0
ENDTAB
  0
TABLE
  2
LAYER
 70
    12
  0
LAYER
  2
0
 70
     0
 62
     7
  6
CONTINUOUS
  0
LAYER
  2
BASIS
 70
     0
 62
     6
  6
DASHDOT
  0
LAYER
  2
OUTLINE
 70
     0
 62
     3
  6
CONTINUOUS
  0
LAYER
  2
DETAIL
 70
     0
 62
     5
  6
CONTINUOUS
  0
LAYER
  2
SIZE
 70
     0
 62
    30
  6
CONTINUOUS
  0
LAYER
  2
ARRANGE
 70
     0
 62
     1
  6
CONTINUOUS
  0
LAYER
  2
DEFPOINTS
 70
     0
 62
     7
  6
CONTINUOUS
  0
LAYER
  2
ETC
 70
     0
 62
    61
  6
CONTINUOUS
  0
LAYER
  2
FIX
 70
     0
 62
    11
  6
CONTINUOUS
  0
LAYER
  2
NOTE
 70
     0
 62
     4
  6
CONTINUOUS
  0
LAYER
  2
SERVICESPACE
 70
    64
 62
     2
  6
DASHDOT
  0
LAYER
  2
SYMBOLLINE
 70
    64
 62
    15
  6
CONTINUOUS
  0
ENDTAB
  0
TABLE
  2
STYLE
 70
     1
  0
STYLE
  2
STANDARD
 70
     0
 40
64.0
 41
0.9
 50
0.0
 71
     0
 42
64.0
  3
SIMPLEX.shx
  4
BIGFONT.shx
  0
ENDTAB
  0
TABLE
  2
APPID
 70
    19
  0
APPID
  2
ACAD
 70
     0
  0
APPID
  2
AUTOCAD_POSTSCRIPT_FIGURE
 70
     0
  0
APPID
  2
ACAD_EXEMPT_FROM_CAD_STANDARDS
 70
     0
  0
APPID
  2
ACAD_PSEXT
 70
     0
  0
APPID
  2
ACAUTHENVIRON
 70
     0
  0
APPID
  2
GENIUS_GENOENT_13
 70
     0
  0
APPID
  2
GENIUS_GENCFG_13
 70
     0
  0
APPID
  2
GENIUS_GENCFG0_13
 70
     0
  0
APPID
  2
GENIUS_GENCFG1_13
 70
     0
  0
APPID
  2
GENIUS_GENCFG2_13
 70
     0
  0
APPID
  2
GENIUS_GENCFG3_13
 70
     0
  0
APPID
  2
GENIUS_GENCFG4_13
 70
     0
  0
APPID
  2
GENIUS_GEVCFG0_13
 70
     0
  0
APPID
  2
CONTENTBLOCKICON
 70
     0
  0
APPID
  2
CONTENTBLOCKDESCRIPTION
 70
     0
  0
APPID
  2
ACAD_NAV_VCDISPLAY
 70
     0
  0
APPID
  2
ACAD_MLEADERVER
 70
     0
  0
APPID
  2
ACDBDYNAMICBLOCKTRUENAME
 70
     0
  0
APPID
  2
ACDBDYNAMICBLOCKGUID
 70
     0
  0
ENDTAB
  0
TABLE
  2
DIMSTYLE
 70
     1
  0
DIMSTYLE
  2
STANDARD
 70
     0
  3

  4

  5
_ORIGIN
  6

  7

 40
1.0
 41
12.0
 42
20.0
 43
200.0
 44
20.0
 45
0.0
 46
0.0
 47
0.0
 48
0.0
140
64.0
141
0.09
142
0.0
143
25.399999999999999
144
1.0
145
0.0
146
1.0
147
25.0
 71
     0
 72
     0
 73
     0
 74
     0
 75
     0
 76
     0
 77
     1
 78
     8
170
     0
171
     2
172
     1
173
     0
174
     1
175
     0
176
     7
177
     7
178
     7
  0
ENDTAB
  0
TABLE
  2
VIEW
 70
     1
  0
VIEW
  2
ALL
 70
     0
 40
4282.6198079999986
 10
0.0
 20
41.309904000000003
 41
5940.0
 11
0.0
 21
0.0
 31
1.0
 12
0.0
 22
0.0
 32
0.0
 42
50.0
 43
0.0
 44
0.0
 50
0.0
 71
     0
  0
ENDTAB
  0
TABLE
  2
UCS
 70
     0
  0
ENDTAB
  0
TABLE
  2
VPORT
 70
     1
  0
VPORT
  2
*ACTIVE
 70
     0
 10
0.0
 20
0.0
 11
1.0
 21
1.0
 12
258.76924020560472
 22
40.855417541291899
 13
0.0
 23
0.0
 14
1.0
 24
1.0
 15
0.0
 25
0.0
 16
0.0
 26
0.0
 36
1.0
 17
0.0
 27
0.0
 37
0.0
 40
1042.833238128959
 41
1.747787610619469
 42
50.0
 43
0.0
 44
0.0
 50
0.0
 51
0.0
 71
     0
 72
  1000
 73
     1
 74
     3
 75
     0
 76
     0
 77
     0
 78
     0
  0
ENDTAB
  0
ENDSEC
  0
SECTION
  2
BLOCKS
  0
BLOCK
  8
0
  2
_ORIGIN
 70
     0
 10
0.0
 20
0.0
 30
0.0
  3
_ORIGIN
  1
_ORIGIN
  0
CIRCLE
  8
0
  6
CONTINUOUS
 62
     7
 10
0.0
 20
0.0
 30
0.0
 40
0.5
  0
LINE
  8
0
  6
CONTINUOUS
 62
     7
 10
0.0
 20
0.0
 30
0.0
 11
-1.0
 21
0.0
 31
0.0
  0
ENDBLK
  8
0
  0
ENDSEC
  0
SECTION
  2
ENTITIES
  0
POINT
  8
ARRANGE
  6
CONTINUOUS
 62
     1
 10
0.0
 20
0.0
 30
0.0
  0
CIRCLE
  8
ARRANGE
  6
CONTINUOUS
 62
     1
 10
0.0
 20
0.0
 30
0.0
 40
40.0
  0
TEXT
  8
ETC
  6
CONTINUOUS
 62
    61
 10
344.87539504366401
 20
494.56101113953292
 30
0.0
 40
64.0
  1
EWG-40CTA2-Q_6
 41
0.9
  0
TEXT
  8
ETC
  6
CONTINUOUS
 62
    61
 10
340.68940104366362
 20
376.60570112470168
 30
0.0
 40
64.0
  1
産業扇
 41
0.9
  0
TEXT
  8
ETC
  6
CONTINUOUS
 62
    61
 10
391.39079929221953
 20
268.45692823847639
 30
0.0
 40
40.0
  1
EWG-40CTA2-Q
 41
0.9
  0
LINE
  8
SIZE
  6
CONTINUOUS
 62
    30
 10
-259.99999722098431
 20
18.5
 30
0.0
 11
-259.99999722098431
 21
264.96668498765212
 31
0.0
  0
LINE
  8
SIZE
  6
CONTINUOUS
 62
    30
 10
259.99124255832919
 20
18.65911678100144
 30
0.0
 11
259.99124255832919
 21
264.96668498765212
 31
0.0
  0
LINE
  8
SIZE
  6
CONTINUOUS
 62
    30
 10
-247.99999722098431
 20
244.96668498765209
 30
0.0
 11
247.99124255832919
 21
244.96668498765209
 31
0.0
  0
CIRCLE
  8
SIZE
  6
CONTINUOUS
 62
    30
 10
-259.99999722098431
 20
244.96668498765209
 30
0.0
 40
6.0
  0
LINE
  8
SIZE
  6
CONTINUOUS
 62
    30
 10
-259.99999722098431
 20
244.96668498765209
 30
0.0
 11
-247.99999722098431
 21
244.96668498765209
 31
0.0
  0
CIRCLE
  8
SIZE
  6
CONTINUOUS
 62
    30
 10
259.99124255832919
 20
244.96668498765209
 30
0.0
 40
6.0
  0
LINE
  8
SIZE
  6
CONTINUOUS
 62
    30
 10
259.99124255832919
 20
244.96668498765209
 30
0.0
 11
247.99124255832919
 21
244.96668498765209
 31
0.0
  0
TEXT
  8
SIZE
  6
CONTINUOUS
 62
    30
 10
-74.057142857371474
 20
269.96668498765212
 30
0.0
 40
64.0
  1
520
 41
0.9
 72
     1
 11
-0.0000000002286242
 21
269.96668498765212
 31
0.0
  0
POINT
  8
DEFPOINTS
  6
CONTINUOUS
 62
    30
 10
-259.99999722098431
 20
-1.5
 30
0.0
  0
POINT
  8
DEFPOINTS
  6
CONTINUOUS
 62
    30
 10
259.99124255832919
 20
-1.3408832189986131
 30
0.0
  0
POINT
  8
DEFPOINTS
  6
CONTINUOUS
 62
    30
 10
259.99124255832919
 20
244.96668498765209
 30
0.0
  0
LINE
  8
SIZE
  6
CONTINUOUS
 62
    30
 10
-230.44315992292869
 20
36.901938740462242
 30
0.0
 11
-230.44315992292869
 21
151.39419561661629
 31
0.0
  0
LINE
  8
SIZE
  6
CONTINUOUS
 62
    30
 10
230.44315992292869
 20
36.901938740462242
 30
0.0
 11
230.44315992292869
 21
151.39419561661629
 31
0.0
  0
LINE
  8
SIZE
  6
CONTINUOUS
 62
    30
 10
-218.44315992292869
 20
131.39419561661629
 30
0.0
 11
218.44315992292869
 21
131.39419561661629
 31
0.0
  0
CIRCLE
  8
SIZE
  6
CONTINUOUS
 62
    30
 10
-230.44315992292869
 20
131.39419561661629
 30
0.0
 40
6.0
  0
LINE
  8
SIZE
  6
CONTINUOUS
 62
    30
 10
-230.44315992292869
 20
131.39419561661629
 30
0.0
 11
-218.44315992292869
 21
131.39419561661629
 31
0.0
  0
CIRCLE
  8
SIZE
  6
CONTINUOUS
 62
    30
 10
230.44315992292869
 20
131.39419561661629
 30
0.0
 40
6.0
  0
LINE
  8
SIZE
  6
CONTINUOUS
 62
    30
 10
230.44315992292869
 20
131.39419561661629
 30
0.0
 11
218.44315992292869
 21
131.39419561661629
 31
0.0
  0
TEXT
  8
SIZE
  6
CONTINUOUS
 62
    30
 10
-74.05714285714285
 20
156.39419561661629
 30
0.0
 40
64.0
  1
460
 41
0.9
 72
     1
 11
0.0
 21
156.39419561661629
 31
0.0
  0
POINT
  8
DEFPOINTS
  6
CONTINUOUS
 62
    30
 10
-230.44315992292869
 20
16.901938740462239
 30
0.0
  0
POINT
  8
DEFPOINTS
  6
CONTINUOUS
 62
    30
 10
230.44315992292869
 20
16.901938740462239
 30
0.0
  0
POINT
  8
DEFPOINTS
  6
CONTINUOUS
 62
    30
 10
230.44315992292869
 20
131.39419561661629
 30
0.0
  0
CIRCLE
  8
FIX
  6
CONTINUOUS
 62
    11
 10
-230.44315992292869
 20
0.247200003400053
 30
0.0
 40
7.0
  0
CIRCLE
  8
FIX
  6
CONTINUOUS
 62
    11
 10
230.4431599229288
 20
0.0
 30
0.0
 40
7.0
  0
LINE
  8
SIZE
  6
CONTINUOUS
 62
    30
 10
278.49710982658962
 20
0.0
 30
0.0
 11
456.30209699471152
 21
0.0
 31
0.0
  0
LINE
  8
SIZE
  6
CONTINUOUS
 62
    30
 10
273.38728323699428
 20
-10.019267822735969
 30
0.0
 11
456.30209699471152
 21
-10.01926782273603
 31
0.0
  0
LINE
  8
SIZE
  6
CONTINUOUS
 62
    30
 10
436.30209699471152
 20
-22.01926782273603
 30
0.0
 11
436.30209699471152
 21
-34.019267822736033
 31
0.0
  0
LINE
  8
SIZE
  6
CONTINUOUS
 62
    30
 10
436.30209699471152
 20
11.99999999999989
 30
0.0
 11
436.30209699471152
 21
156.28571428571419
 31
0.0
  0
LINE
  8
SIZE
  6
CONTINUOUS
 62
    30
 10
436.30209699471152
 20
-10.01926782273603
 30
0.0
 11
436.30209699471152
 21
0.0
 31
0.0
  0
CIRCLE
  8
SIZE
  6
CONTINUOUS
 62
    30
 10
436.30209699471152
 20
-10.01926782273603
 30
0.0
 40
6.0
  0
LINE
  8
SIZE
  6
CONTINUOUS
 62
    30
 10
436.30209699471152
 20
-10.01926782273603
 30
0.0
 11
436.30209699471152
 21
-22.01926782273603
 31
0.0
  0
CIRCLE
  8
SIZE
  6
CONTINUOUS
 62
    30
 10
436.30209699471152
 20
0.0
 30
0.0
 40
6.0
  0
LINE
  8
SIZE
  6
CONTINUOUS
 62
    30
 10
436.30209699471152
 20
0.0
 30
0.0
 11
436.30209699471152
 21
11.99999999999989
 31
0.0
  0
TEXT
  8
SIZE
  6
CONTINUOUS
 62
    30
 10
411.30209699471152
 20
48.999999999999972
 30
0.0
 40
64.0
  1
10
 50
90.0
 41
0.9
 72
     1
 11
411.30209699471152
 21
90.14285714285711
 31
0.0
  0
POINT
  8
DEFPOINTS
  6
CONTINUOUS
 62
    30
 10
258.49710982658962
 20
0.0
 30
0.0
  0
POINT
  8
DEFPOINTS
  6
CONTINUOUS
 62
    30
 10
253.38728323699431
 20
-10.019267822735969
 30
0.0
  0
POINT
  8
DEFPOINTS
  6
CONTINUOUS
 62
    30
 10
436.30209699471152
 20
-10.01926782273603
 30
0.0
  0
LINE
  8
SIZE
  6
CONTINUOUS
 62
    30
 10
273.38728323699428
 20
-10.019267822735969
 30
0.0
 11
456.30209699471152
 21
-10.01926782273603
 31
0.0
  0
LINE
  8
SIZE
  6
CONTINUOUS
 62
    30
 10
263.36801541425802
 20
-20.038535645471939
 30
0.0
 11
456.30209699471152
 21
-20.038535645471999
 31
0.0
  0
LINE
  8
SIZE
  6
CONTINUOUS
 62
    30
 10
436.30209699471152
 20
1.9807321772640309
 30
0.0
 11
436.30209699471152
 21
13.980732177263921
 31
0.0
  0
LINE
  8
SIZE
  6
CONTINUOUS
 62
    30
 10
436.30209699471152
 20
-32.038535645472002
 30
0.0
 11
436.30209699471152
 21
-257.26694449511137
 31
0.0
  0
LINE
  8
SIZE
  6
CONTINUOUS
 62
    30
 10
436.30209699471152
 20
-10.01926782273603
 30
0.0
 11
436.30209699471152
 21
-20.038535645471999
 31
0.0
  0
CIRCLE
  8
SIZE
  6
CONTINUOUS
 62
    30
 10
436.30209699471152
 20
-10.01926782273603
 30
0.0
 40
6.0
  0
LINE
  8
SIZE
  6
CONTINUOUS
 62
    30
 10
436.30209699471152
 20
-10.01926782273603
 30
0.0
 11
436.30209699471152
 21
1.9807321772640309
 31
0.0
  0
CIRCLE
  8
SIZE
  6
CONTINUOUS
 62
    30
 10
436.30209699471152
 20
-20.038535645471999
 30
0.0
 40
6.0
  0
LINE
  8
SIZE
  6
CONTINUOUS
 62
    30
 10
436.30209699471152
 20
-20.038535645471999
 30
0.0
 11
436.30209699471152
 21
-32.038535645472002
 31
0.0
  0
TEXT
  8
SIZE
  6
CONTINUOUS
 62
    30
 10
411.30209699471152
 20
-232.2669444951112
 30
0.0
 40
64.0
  1
10
 50
90.0
 41
0.9
 72
     1
 11
411.30209699471152
 21
-191.12408735225409
 31
0.0
  0
POINT
  8
DEFPOINTS
  6
CONTINUOUS
 62
    30
 10
253.38728323699431
 20
-10.019267822735969
 30
0.0
  0
POINT
  8
DEFPOINTS
  6
CONTINUOUS
 62
    30
 10
243.368015414258
 20
-20.038535645471939
 30
0.0
  0
POINT
  8
DEFPOINTS
  6
CONTINUOUS
 62
    30
 10
436.30209699471152
 20
-20.038535645471999
 30
0.0
  0
LINE
  8
SIZE
  6
CONTINUOUS
 62
    30
 10
278.49710982658962
 20
0.0
 30
0.0
 11
604.12080999244654
 21
-0.0000000000001137
 31
0.0
  0
LINE
  8
SIZE
  6
CONTINUOUS
 62
    30
 10
200.67319707734649
 20
-135.26011560693681
 30
0.0
 11
604.12080999244654
 21
-135.26011560693689
 31
0.0
  0
LINE
  8
SIZE
  6
CONTINUOUS
 62
    30
 10
584.12080999244654
 20
-12.00000000000011
 30
0.0
 11
584.12080999244654
 21
-123.26011560693691
 31
0.0
  0
LINE
  8
SIZE
  6
CONTINUOUS
 62
    30
 10
584.12080999244654
 20
-135.26011560693689
 30
0.0
 11
584.12080999244631
 21
-334.402972749794
 31
0.0
  0
CIRCLE
  8
SIZE
  6
CONTINUOUS
 62
    30
 10
584.12080999244654
 20
-0.0000000000001137
 30
0.0
 40
6.0
  0
LINE
  8
SIZE
  6
CONTINUOUS
 62
    30
 10
584.12080999244654
 20
-0.0000000000001137
 30
0.0
 11
584.12080999244654
 21
-12.00000000000011
 31
0.0
  0
CIRCLE
  8
SIZE
  6
CONTINUOUS
 62
    30
 10
584.12080999244654
 20
-135.26011560693689
 30
0.0
 40
6.0
  0
LINE
  8
SIZE
  6
CONTINUOUS
 62
    30
 10
584.12080999244654
 20
-135.26011560693689
 30
0.0
 11
584.12080999244654
 21
-123.26011560693691
 31
0.0
  0
TEXT
  8
SIZE
  6
CONTINUOUS
 62
    30
 10
559.12080999244654
 20
-309.40297274979389
 30
0.0
 40
64.0
  1
135
 50
90.0
 41
0.9
 72
     1
 11
559.12080999244654
 21
-240.83154417836531
 31
0.0
  0
POINT
  8
DEFPOINTS
  6
CONTINUOUS
 62
    30
 10
258.49710982658962
 20
0.0
 30
0.0
  0
POINT
  8
DEFPOINTS
  6
CONTINUOUS
 62
    30
 10
180.67319707734649
 20
-135.26011560693681
 30
0.0
  0
POINT
  8
DEFPOINTS
  6
CONTINUOUS
 62
    30
 10
584.12080999244654
 20
-135.26011560693689
 30
0.0
  0
TEXT
  8
NOTE
  6
CONTINUOUS
 62
     4
 10
-577.23322031510793
 20
89.813382410918052
 30
0.0
 40
64.0
  1
4-φ14
 41
0.9
  0
LINE
  8
SIZE
  6
CONTINUOUS
 62
    30
 10
-278.49710982658962
 20
0.0
 30
0.0
 11
-383.81931770129682
 21
0.0
 31
0.0
  0
LINE
  8
SIZE
  6
CONTINUOUS
 62
    30
 10
-20.019356962389001
 20
-308.19193114585772
 30
0.0
 11
-383.81931770129682
 21
-308.19193114585772
 31
0.0
  0
LINE
  8
SIZE
  6
CONTINUOUS
 62
    30
 10
-363.81931770129682
 20
-12.0
 30
0.0
 11
-363.81931770129682
 21
-296.19193114585772
 31
0.0
  0
CIRCLE
  8
SIZE
  6
CONTINUOUS
 62
    30
 10
-363.81931770129682
 20
0.0
 30
0.0
 40
6.0
  0
LINE
  8
SIZE
  6
CONTINUOUS
 62
    30
 10
-363.81931770129682
 20
0.0
 30
0.0
 11
-363.81931770129682
 21
-12.0
 31
0.0
  0
CIRCLE
  8
SIZE
  6
CONTINUOUS
 62
    30
 10
-363.81931770129682
 20
-308.19193114585772
 30
0.0
 40
6.0
  0
LINE
  8
SIZE
  6
CONTINUOUS
 62
    30
 10
-363.81931770129682
 20
-308.19193114585772
 30
0.0
 11
-363.81931770129682
 21
-296.19193114585772
 31
0.0
  0
TEXT
  8
SIZE
  6
CONTINUOUS
 62
    30
 10
-388.81931770129682
 20
-228.15310843007171
 30
0.0
 40
64.0
  1
308
 50
90.0
 41
0.9
 72
     1
 11
-388.81931770129682
 21
-154.09596557292889
 31
0.0
  0
POINT
  8
DEFPOINTS
  6
CONTINUOUS
 62
    30
 10
-258.49710982658962
 20
0.0
 30
0.0
  0
POINT
  8
DEFPOINTS
  6
CONTINUOUS
 62
    30
 10
-0.0193569623889971
 20
-308.19193114585772
 30
0.0
  0
POINT
  8
DEFPOINTS
  6
CONTINUOUS
 62
    30
 10
-363.81931770129682
 20
-308.19193114585772
 30
0.0
  0
TEXT
  8
NOTE
  6
CONTINUOUS
 62
     4
 10
371.87292752520182
 20
-377.20606026203927
 30
0.0
 40
64.0
  1
EL
 41
0.9
 72
     2
 11
456.90149895377323
 21
-377.20606026203927
 31
0.0
  0
LINE
  8
NOTE
  6
CONTINUOUS
 62
     4
 10
230.4431599229288
 20
-26.779166858797449
 30
0.0
 11
230.4431599229288
 21
26.779166858797449
 31
0.0
  0
LINE
  8
NOTE
  6
CONTINUOUS
 62
     4
 10
-230.44315992292869
 20
-24.44335423918443
 30
0.0
 11
-230.44315992292869
 21
24.937754245984479
 31
0.0
  0
LINE
  8
DETAIL
  6
CONTINUOUS
 62
     4
 10
198.4487092435545
 20
-81.487510206124796
 30
0.0
 11
197.24077843392871
 21
-75.394431965271792
 31
0.0
  0
LINE
  8
DETAIL
  6
CONTINUOUS
 62
     4
 10
197.24077843392871
 20
-75.394431965271792
 30
0.0
 11
201.3334233631399
 21
-80.067220936903425
 31
0.0
  0
LINE
  8
DETAIL
  6
CONTINUOUS
 62
     4
 10
197.24077843392871
 20
-75.394431965271792
 30
0.0
 11
202.54135417276581
 21
-86.160299177756428
 31
0.0
  0
LINE
  8
NOTE
  6
CONTINUOUS
 62
     4
 10
202.54135417276581
 20
-86.160299177756428
 30
0.0
 11
355.77223560406389
 21
-397.38372161739011
 31
0.0
  0
LINE
  8
NOTE
  6
CONTINUOUS
 62
     4
 10
355.77223560406389
 20
-397.38372161739011
 30
0.0
 11
463.84324692596459
 21
-397.7193381386744
 31
0.0
  0
LINE
  8
DETAIL
  6
CONTINUOUS
 62
     4
 10
-233.14791443409021
 20
5.7438390598275646
 30
0.0
 11
-230.384515794458
 21
0.1807169823895265
 31
0.0
  0
LINE
  8
DETAIL
  6
CONTINUOUS
 62
     4
 10
-230.384515794458
 20
0.1807169823895265
 30
0.0
 11
-235.55925543389401
 21
3.6168149079512659
 31
0.0
  0
LINE
  8
DETAIL
  6
CONTINUOUS
 62
     4
 10
-230.384515794458
 20
0.1807169823895265
 30
0.0
 11
-238.32265407352631
 21
9.179936985389304
 31
0.0
  0
LINE
  8
NOTE
  6
CONTINUOUS
 62
     4
 10
-238.32265407352619
 20
9.179936985389304
 30
0.0
 11
-286.48810867395952
 21
63.783611960005032
 31
0.0
  0
LINE
  8
NOTE
  6
CONTINUOUS
 62
     4
 10
-286.48810867395952
 20
63.783611960005032
 30
0.0
 11
-584.35667091899359
 21
63.945066809185391
 31
0.0
  0
LINE
  8
OUTLINE
  6
CONTINUOUS
 62
     3
 10
258.49710982658922
 20
0.0
 30
0.0
 11
-258.49710982658962
 21
0.0
 31
0.0
  0
ARC
  8
OUTLINE
  6
CONTINUOUS
 62
     3
 10
258.49710982658922
 20
-1.5028901734106059
 30
0.0
 40
1.5028901734103779
 50
270.0
 51
90.0
  0
ARC
  8
OUTLINE
  6
CONTINUOUS
 62
     3
 10
-258.49710982658962
 20
-1.5028901734106059
 30
0.0
 40
1.5028901734103779
 50
90.0
 51
270.0
  0
LINE
  8
OUTLINE
  6
CONTINUOUS
 62
     3
 10
-250.1758680125117
 20
-10.019267822736539
 30
0.0
 11
-253.3872832369934
 21
-10.019267822736539
 31
0.0
  0
ARC
  8
OUTLINE
  6
CONTINUOUS
 62
     3
 10
-253.3872832369934
 20
-6.412331406551175
 30
0.0
 40
3.6069364161853641
 50
180.0
 51
270.0
  0
LINE
  8
OUTLINE
  6
CONTINUOUS
 62
     3
 10
-246.974951830442
 20
-16.431599229287261
 30
0.0
 11
-246.974951830442
 21
-13.894357252208691
 31
0.0
  0
ARC
  8
OUTLINE
  6
CONTINUOUS
 62
     3
 10
-243.368015414258
 20
-16.431599229287261
 30
0.0
 40
3.606936416184908
 50
180.0
 51
270.0
  0
LINE
  8
OUTLINE
  6
CONTINUOUS
 62
     3
 10
-256.99421965317919
 20
-3.005780346821211
 30
0.0
 11
-258.49710982658962
 21
-3.005780346821211
 31
0.0
  0
LINE
  8
OUTLINE
  6
CONTINUOUS
 62
     3
 10
-256.99421965317919
 20
-6.412331406551175
 30
0.0
 11
-256.99421965317919
 21
-3.005780346821211
 31
0.0
  0
LINE
  8
OUTLINE
  6
CONTINUOUS
 62
     3
 10
-233.34874759161769
 20
-20.038535645472169
 30
0.0
 11
-243.368015414258
 21
-20.038535645472169
 31
0.0
  0
LINE
  8
OUTLINE
  6
CONTINUOUS
 62
     3
 10
-209.74581109135991
 20
-131.25240847784201
 30
0.0
 11
-206.53232368060389
 21
-131.25240847784201
 31
0.0
  0
ARC
  8
OUTLINE
  6
CONTINUOUS
 62
     3
 10
-209.803468208092
 20
-133.25626204238941
 30
0.0
 40
2.0038535645471711
 50
90.0
 51
270.0
  0
LINE
  8
OUTLINE
  6
CONTINUOUS
 62
     3
 10
-206.53232368060389
 20
-131.25240847784201
 30
0.0
 11
-206.53232368060389
 21
-54.98426174636802
 31
0.0
  0
LINE
  8
OUTLINE
  6
CONTINUOUS
 62
     3
 10
-209.80344138052669
 20
-135.2601156069363
 30
0.0
 11
-206.53232368060389
 21
-135.2601156069363
 31
0.0
  0
LINE
  8
OUTLINE
  6
CONTINUOUS
 62
     3
 10
-206.53232368060389
 20
-177.3410404624278
 30
0.0
 11
-206.53232368060389
 21
-135.2601156069363
 31
0.0
  0
LINE
  8
OUTLINE
  6
CONTINUOUS
 62
     3
 10
58.312049996646238
 20
-305.68786127167658
 30
0.0
 11
-58.312049996646692
 21
-305.68786127167658
 31
0.0
  0
ARC
  8
OUTLINE
  6
CONTINUOUS
 62
     3
 10
-58.312138728324037
 20
-298.67437379576131
 30
0.0
 40
7.013487475915098
 50
180.0
 51
270.0
  0
LINE
  8
OUTLINE
  6
CONTINUOUS
 62
     3
 10
-65.325626204238688
 20
-298.67437379576131
 30
0.0
 11
-65.325626204238688
 21
-283.54527938342972
 31
0.0
  0
ARC
  8
OUTLINE
  6
CONTINUOUS
 62
     3
 10
58.312138728324037
 20
-298.67437379576131
 30
0.0
 40
7.013487475915098
 50
270.0
 51
0.0
  0
LINE
  8
OUTLINE
  6
CONTINUOUS
 62
     3
 10
65.325626204239597
 20
-298.67437379576131
 30
0.0
 11
65.325626204239597
 21
-283.54527938342972
 31
0.0
  0
LINE
  8
OUTLINE
  6
CONTINUOUS
 62
     3
 10
206.53232367995409
 20
-131.25240847784201
 30
0.0
 11
209.80346820809251
 21
-131.25240847784201
 31
0.0
  0
ARC
  8
OUTLINE
  6
CONTINUOUS
 62
     3
 10
209.80346820809251
 20
-133.25626204238941
 30
0.0
 40
2.0038535645471711
 50
270.0
 51
90.0
  0
LINE
  8
OUTLINE
  6
CONTINUOUS
 62
     3
 10
206.53232367995409
 20
-135.2601156069363
 30
0.0
 11
209.80346820809251
 21
-135.2601156069363
 31
0.0
  0
LINE
  8
OUTLINE
  6
CONTINUOUS
 62
     3
 10
206.53232367995409
 20
-135.26011560693721
 30
0.0
 11
206.53232367995409
 21
-177.3410404624278
 31
0.0
  0
LINE
  8
OUTLINE
  6
CONTINUOUS
 62
     3
 10
246.97495183044381
 20
-13.894357252208691
 30
0.0
 11
246.97495183044381
 21
-16.431599229287261
 31
0.0
  0
ARC
  8
OUTLINE
  6
CONTINUOUS
 62
     3
 10
243.36801541425851
 20
-16.431599229287261
 30
0.0
 40
3.606936416184908
 50
270.0
 51
0.0
  0
LINE
  8
OUTLINE
  6
CONTINUOUS
 62
     3
 10
253.38728323699431
 20
-10.019267822736539
 30
0.0
 11
250.17586801186101
 21
-10.019267822736539
 31
0.0
  0
ARC
  8
OUTLINE
  6
CONTINUOUS
 62
     3
 10
253.38728323699431
 20
-6.412331406551175
 30
0.0
 40
3.606936416184908
 50
270.0
 51
0.0
  0
LINE
  8
OUTLINE
  6
CONTINUOUS
 62
     3
 10
256.99421965317919
 20
-3.005780346821211
 30
0.0
 11
256.99421965317919
 21
-6.412331406551175
 31
0.0
  0
LINE
  8
OUTLINE
  6
CONTINUOUS
 62
     3
 10
206.53232367995409
 20
-54.984261746366883
 30
0.0
 11
206.53232367995409
 21
-131.25240847784201
 31
0.0
  0
LINE
  8
OUTLINE
  6
CONTINUOUS
 62
     3
 10
243.36801541425851
 20
-20.038535645472169
 30
0.0
 11
233.3487475915326
 21
-20.038535645472169
 31
0.0
  0
LINE
  8
OUTLINE
  6
CONTINUOUS
 62
     3
 10
258.49710982658922
 20
-3.005780346821211
 30
0.0
 11
256.99421965317919
 21
-3.005780346821211
 31
0.0
  0
LINE
  8
OUTLINE
  6
CONTINUOUS
 62
     3
 10
89.672447013487272
 20
-279.53757225433537
 30
0.0
 11
131.08035153742179
 21
-279.53757225433537
 31
0.0
  0
LINE
  8
OUTLINE
  6
CONTINUOUS
 62
     3
 10
89.672447013487272
 20
-283.54527938342972
 30
0.0
 11
65.325626204239597
 21
-283.54527938342972
 31
0.0
  0
LINE
  8
OUTLINE
  6
CONTINUOUS
 62
     3
 10
89.672447013487272
 20
-283.54527938342972
 30
0.0
 11
89.672447013487272
 21
-279.53757225433537
 31
0.0
  0
LINE
  8
OUTLINE
  6
CONTINUOUS
 62
     3
 10
-65.325626204238688
 20
-283.54527938342972
 30
0.0
 11
-89.672447013487727
 21
-283.54527938342972
 31
0.0
  0
LINE
  8
OUTLINE
  6
CONTINUOUS
 62
     3
 10
-89.672447013487727
 20
-283.54527938342972
 30
0.0
 11
-89.672447013487727
 21
-279.53757225433537
 31
0.0
  0
LINE
  8
OUTLINE
  6
CONTINUOUS
 62
     3
 10
-131.08035153807259
 20
-279.53757225433537
 30
0.0
 11
-89.672447013487727
 21
-279.53757225433537
 31
0.0
  0
LINE
  8
DETAIL
  6
CONTINUOUS
 62
     5
 10
-256.99421965317907
 20
-3.005780346821211
 30
0.0
 11
-256.99421965317907
 21
-6.4123314065514023
 31
0.0
  0
LINE
  8
DETAIL
  6
CONTINUOUS
 62
     5
 10
-253.82264424893029
 20
-5.1098265895957411
 30
0.0
 11
-253.82264424893029
 21
-3.005780346821211
 31
0.0
  0
LINE
  8
DETAIL
  6
CONTINUOUS
 62
     5
 10
-246.9749518304433
 20
-13.894357252208691
 30
0.0
 11
-246.9749518304433
 21
-16.431599229287261
 31
0.0
  0
LINE
  8
DETAIL
  6
CONTINUOUS
 62
     5
 10
-216.3241248401774
 20
-18.535645472061791
 30
0.0
 11
-216.3241248401774
 21
-14.527938342967669
 31
0.0
  0
LINE
  8
DETAIL
  6
CONTINUOUS
 62
     5
 10
-211.31449092880919
 20
-14.527938342967669
 30
0.0
 11
-211.31449092880919
 21
-18.08820301814217
 31
0.0
  0
LINE
  8
DETAIL
  6
CONTINUOUS
 62
     5
 10
-206.53232368060461
 20
-14.527938342967669
 30
0.0
 11
-206.53232368060461
 21
-177.3410404624278
 31
0.0
  0
LINE
  8
DETAIL
  6
CONTINUOUS
 62
     5
 10
-204.22979870900571
 20
-5.1098265895957411
 30
0.0
 11
-204.22979870900571
 21
-3.005780346821211
 31
0.0
  0
LINE
  8
DETAIL
  6
CONTINUOUS
 62
     5
 10
-203.34421218136791
 20
-177.3410404624278
 30
0.0
 11
-203.34421218136791
 21
-14.527938342967669
 31
0.0
  0
LINE
  8
DETAIL
  6
CONTINUOUS
 62
     5
 10
-192.89429115732051
 20
-6.4123314065514023
 30
0.0
 11
-192.89429115732051
 21
-3.005780346821211
 31
0.0
  0
LINE
  8
DETAIL
  6
CONTINUOUS
 62
     5
 10
-180.6731970773466
 20
-177.3410404624278
 30
0.0
 11
-180.6731970773466
 21
-14.527938342967669
 31
0.0
  0
LINE
  8
DETAIL
  6
CONTINUOUS
 62
     5
 10
-163.1385838328454
 20
-14.527938342967669
 30
0.0
 11
-163.1385838328454
 21
-10.01926782273631
 31
0.0
  0
LINE
  8
DETAIL
  6
CONTINUOUS
 62
     5
 10
-151.09460705917979
 20
-16.431599229287261
 30
0.0
 11
-151.09460705917979
 21
-13.025048169557071
 31
0.0
  0
LINE
  8
DETAIL
  6
CONTINUOUS
 62
     5
 10
-134.75915221579959
 20
-20.038535645472621
 30
0.0
 11
-134.75915221579959
 21
-20.53949903660941
 31
0.0
  0
LINE
  8
DETAIL
  6
CONTINUOUS
 62
     5
 10
-258.49710982658962
 20
0.0
 30
0.0
 11
258.49710982658962
 21
0.0
 31
0.0
  0
LINE
  8
DETAIL
  6
CONTINUOUS
 62
     5
 10
-258.49710982658962
 20
-3.005780346821211
 30
0.0
 11
258.49710982658962
 21
-3.005780346821211
 31
0.0
  0
LINE
  8
DETAIL
  6
CONTINUOUS
 62
     5
 10
-253.82264424893029
 20
-5.1098265895957411
 30
0.0
 11
-203.82636743547781
 21
-5.1098265895957411
 31
0.0
  0
LINE
  8
DETAIL
  6
CONTINUOUS
 62
     5
 10
203.82636743547769
 20
-5.1098265895957411
 30
0.0
 11
253.82264424893009
 21
-5.1098265895957411
 31
0.0
  0
LINE
  8
DETAIL
  6
CONTINUOUS
 62
     5
 10
-189.2873547411356
 20
-10.01926782273631
 30
0.0
 11
-194.90771509461271
 21
-10.01926782273631
 31
0.0
  0
LINE
  8
DETAIL
  6
CONTINUOUS
 62
     5
 10
-253.38728323699419
 20
-10.01926782273631
 30
0.0
 11
-250.17586801251159
 21
-10.01926782273631
 31
0.0
  0
LINE
  8
DETAIL
  6
CONTINUOUS
 62
     5
 10
-189.2873547411356
 20
-10.01926782273631
 30
0.0
 11
189.28735474113549
 21
-10.01926782273631
 31
0.0
  0
LINE
  8
DETAIL
  6
CONTINUOUS
 62
     5
 10
189.28735474113549
 20
-10.01926782273631
 30
0.0
 11
194.9077150946124
 21
-10.01926782273631
 31
0.0
  0
LINE
  8
DETAIL
  6
CONTINUOUS
 62
     5
 10
250.1758680125115
 20
-10.01926782273631
 30
0.0
 11
253.38728323699411
 21
-10.01926782273631
 31
0.0
  0
LINE
  8
DETAIL
  6
CONTINUOUS
 62
     5
 10
-244.50056063453681
 20
-14.527938342967669
 30
0.0
 11
-163.1385838328454
 21
-14.527938342967669
 31
0.0
  0
LINE
  8
DETAIL
  6
CONTINUOUS
 62
     5
 10
163.1385838328454
 20
-14.527938342967669
 30
0.0
 11
244.5005606345369
 21
-14.527938342967669
 31
0.0
  0
LINE
  8
DETAIL
  6
CONTINUOUS
 62
     5
 10
-216.3241248401774
 20
-18.535645472061791
 30
0.0
 11
-206.53232368060461
 21
-18.535645472061791
 31
0.0
  0
LINE
  8
DETAIL
  6
CONTINUOUS
 62
     5
 10
175.13221124965591
 20
-18.535645472061791
 30
0.0
 11
185.15147907239191
 21
-18.535645472061791
 31
0.0
  0
LINE
  8
DETAIL
  6
CONTINUOUS
 62
     5
 10
-243.36801541425811
 20
-20.038535645472621
 30
0.0
 11
-206.53232368060461
 21
-20.038535645472621
 31
0.0
  0
LINE
  8
DETAIL
  6
CONTINUOUS
 62
     5
 10
-180.6731970773466
 20
-20.038535645472621
 30
0.0
 11
180.67319707734649
 21
-20.038535645472621
 31
0.0
  0
LINE
  8
DETAIL
  6
CONTINUOUS
 62
     5
 10
206.53232368060449
 20
-20.038535645472621
 30
0.0
 11
243.368015414258
 21
-20.038535645472621
 31
0.0
  0
LINE
  8
DETAIL
  6
CONTINUOUS
 62
     5
 10
-134.75897535230081
 20
-20.53949903660941
 30
0.0
 11
-22.54352946465497
 21
-20.53949903660941
 31
0.0
  0
LINE
  8
DETAIL
  6
CONTINUOUS
 62
     5
 10
-89.672447013487613
 20
-247.47591522158041
 30
0.0
 11
-89.672447013487613
 21
-283.54527938342972
 31
0.0
  0
LINE
  8
DETAIL
  6
CONTINUOUS
 62
     5
 10
-66.127167630057897
 20
-236.45472061657071
 30
0.0
 11
-66.127167630057897
 21
-202.85420585696781
 31
0.0
  0
LINE
  8
DETAIL
  6
CONTINUOUS
 62
     5
 10
-65.325626204239029
 20
-298.67437379576131
 30
0.0
 11
-65.325626204239029
 21
-283.54527938342972
 31
0.0
  0
LINE
  8
DETAIL
  6
CONTINUOUS
 62
     5
 10
-65.325626204239029
 20
-201.46589538302959
 30
0.0
 11
-65.325626204239029
 21
-192.36994219653209
 31
0.0
  0
LINE
  8
DETAIL
  6
CONTINUOUS
 62
     5
 10
-61.064654178565213
 20
-238.45857418111791
 30
0.0
 11
-61.064654178565213
 21
-231.9460500963396
 31
0.0
  0
LINE
  8
DETAIL
  6
CONTINUOUS
 62
     5
 10
-57.808392136176167
 20
-228.7398843930641
 30
0.0
 11
-57.808392136176167
 21
-231.9460500963396
 31
0.0
  0
LINE
  8
DETAIL
  6
CONTINUOUS
 62
     5
 10
-54.552130093786793
 20
-238.45857418111791
 30
0.0
 11
-54.552130093786793
 21
-232.52772528624021
 31
0.0
  0
LINE
  8
DETAIL
  6
CONTINUOUS
 62
     5
 10
-51.295868051397633
 20
-228.7398843930641
 30
0.0
 11
-51.295868051397633
 21
-231.9460500963396
 31
0.0
  0
LINE
  8
DETAIL
  6
CONTINUOUS
 62
     5
 10
184.25527761194101
 20
-75.394990366089132
 30
0.0
 11
208.4292378853938
 21
-75.394990366089132
 31
0.0
  0
LINE
  8
DETAIL
  6
CONTINUOUS
 62
     5
 10
184.25527761194101
 20
-78.901734104046682
 30
0.0
 11
208.4292378853938
 21
-78.901734104046682
 31
0.0
  0
LINE
  8
DETAIL
  6
CONTINUOUS
 62
     5
 10
-48.03960600900848
 20
-231.9460500963396
 30
0.0
 11
-48.03960600900848
 21
-238.45857418111791
 31
0.0
  0
LINE
  8
DETAIL
  6
CONTINUOUS
 62
     5
 10
-40.077071290944218
 20
-277.53371868978809
 30
0.0
 11
-40.077071290944218
 21
-256.74524688927272
 31
0.0
  0
LINE
  8
DETAIL
  6
CONTINUOUS
 62
     5
 10
-65.325626204239029
 20
-201.46589538302959
 30
0.0
 11
-66.127167630057897
 21
-202.85420585696781
 31
0.0
  0
LINE
  8
DETAIL
  6
CONTINUOUS
 62
     5
 10
-26.057750734429529
 20
-180.34682080924881
 30
0.0
 11
-25.22835217746422
 21
-170.8667519237797
 31
0.0
  0
LINE
  8
DETAIL
  6
CONTINUOUS
 62
     5
 10
-13.325626204239031
 20
-182.23611916362691
 30
0.0
 11
-13.325626204239031
 21
-180.34682080924881
 31
0.0
  0
LINE
  8
DETAIL
  6
CONTINUOUS
 62
     5
 10
-12.37220421209622
 20
-183.85356454720659
 30
0.0
 11
-12.85609965102719
 21
-183.36966437514729
 31
0.0
  0
LINE
  8
DETAIL
  6
CONTINUOUS
 62
     5
 10
209.80346820809251
 20
-131.25240847784241
 30
0.0
 11
206.53232368060449
 21
-131.25240847784241
 31
0.0
  0
LINE
  8
DETAIL
  6
CONTINUOUS
 62
     5
 10
180.67319707734649
 20
-131.25240847784241
 30
0.0
 11
-180.6731970773466
 21
-131.25240847784241
 31
0.0
  0
LINE
  8
DETAIL
  6
CONTINUOUS
 62
     5
 10
-206.53232368060461
 20
-131.25240847784241
 30
0.0
 11
-209.80346820809251
 21
-131.25240847784241
 31
0.0
  0
LINE
  8
DETAIL
  6
CONTINUOUS
 62
     5
 10
-56.136351696519228
 20
-183.85356454720659
 30
0.0
 11
-57.639241045617382
 21
-185.35645472061671
 31
0.0
  0
LINE
  8
DETAIL
  6
CONTINUOUS
 62
     5
 10
-8.5163776493257046
 20
-165.81888246628159
 30
0.0
 11
-8.5163776493257046
 21
-135.26011560693681
 31
0.0
  0
LINE
  8
DETAIL
  6
CONTINUOUS
 62
     5
 10
-4.7090558766859658
 20
-306.18882466281337
 30
0.0
 11
-4.7090558766859658
 21
-305.68786127167658
 31
0.0
  0
LINE
  8
DETAIL
  6
CONTINUOUS
 62
     5
 10
4.7090558766858521
 20
-306.18882466281337
 30
0.0
 11
4.7090558766858521
 21
-305.68786127167658
 31
0.0
  0
LINE
  8
DETAIL
  6
CONTINUOUS
 62
     5
 10
8.5163776493255909
 20
-165.81888246628159
 30
0.0
 11
8.5163776493255909
 21
-135.26011560693681
 31
0.0
  0
LINE
  8
DETAIL
  6
CONTINUOUS
 62
     5
 10
209.80346820809251
 20
-135.26011560693681
 30
0.0
 11
206.53232368060449
 21
-135.26011560693681
 31
0.0
  0
LINE
  8
DETAIL
  6
CONTINUOUS
 62
     5
 10
180.67319707734649
 20
-135.26011560693681
 30
0.0
 11
-180.6731970773466
 21
-135.26011560693681
 31
0.0
  0
LINE
  8
DETAIL
  6
CONTINUOUS
 62
     5
 10
-206.53232368060461
 20
-135.26011560693681
 30
0.0
 11
-209.80346820809251
 21
-135.26011560693681
 31
0.0
  0
LINE
  8
DETAIL
  6
CONTINUOUS
 62
     5
 10
13.3256262042388
 20
-182.23611916362691
 30
0.0
 11
13.3256262042388
 21
-180.34682080924881
 31
0.0
  0
LINE
  8
DETAIL
  6
CONTINUOUS
 62
     5
 10
26.057750734429192
 20
-180.34682080924881
 30
0.0
 11
25.2283521774641
 21
-170.8667519237797
 31
0.0
  0
LINE
  8
DETAIL
  6
CONTINUOUS
 62
     5
 10
56.136351696519228
 20
-183.85356454720659
 30
0.0
 11
57.639241045617041
 21
-185.35645472061671
 31
0.0
  0
LINE
  8
DETAIL
  6
CONTINUOUS
 62
     5
 10
15.028901734103901
 20
-165.81888246628159
 30
0.0
 11
20.674399794259671
 21
-166.3127995464308
 31
0.0
  0
LINE
  8
DETAIL
  6
CONTINUOUS
 62
     5
 10
-15.028901734104011
 20
-165.81888246628159
 30
0.0
 11
15.028901734103901
 21
-165.81888246628159
 31
0.0
  0
LINE
  8
DETAIL
  6
CONTINUOUS
 62
     5
 10
-15.028901734104011
 20
-165.81888246628159
 30
0.0
 11
-20.674399794259781
 21
-166.3127995464308
 31
0.0
  0
LINE
  8
DETAIL
  6
CONTINUOUS
 62
     5
 10
40.077071290943991
 20
-256.74524688927272
 30
0.0
 11
40.077071290943991
 21
-277.53371868978809
 31
0.0
  0
LINE
  8
DETAIL
  6
CONTINUOUS
 62
     5
 10
43.575967655331169
 20
-273.52601156069392
 30
0.0
 11
43.575967655331169
 21
-280.53949903660941
 31
0.0
  0
LINE
  8
DETAIL
  6
CONTINUOUS
 62
     5
 10
48.039606009008139
 20
-238.45857418111791
 30
0.0
 11
48.039606009008139
 21
-231.9460500963396
 31
0.0
  0
LINE
  8
DETAIL
  6
CONTINUOUS
 62
     5
 10
51.295868051397413
 20
-228.7398843930641
 30
0.0
 11
51.295868051397413
 21
-231.9460500963396
 31
0.0
  0
LINE
  8
DETAIL
  6
CONTINUOUS
 62
     5
 10
65.325626204238802
 20
-201.46589538302959
 30
0.0
 11
66.12716763005767
 21
-202.85420585696781
 31
0.0
  0
LINE
  8
DETAIL
  6
CONTINUOUS
 62
     5
 10
-26.057750734429529
 20
-180.34682080924881
 30
0.0
 11
26.057750734429192
 21
-180.34682080924881
 31
0.0
  0
LINE
  8
DETAIL
  6
CONTINUOUS
 62
     5
 10
56.136351696519228
 20
-183.85356454720659
 30
0.0
 11
-56.136351696519228
 21
-183.85356454720659
 31
0.0
  0
LINE
  8
DETAIL
  6
CONTINUOUS
 62
     5
 10
58.312138728323703
 20
-185.35645472061671
 30
0.0
 11
-58.31213872832393
 21
-185.35645472061671
 31
0.0
  0
LINE
  8
DETAIL
  6
CONTINUOUS
 62
     5
 10
12.37220421209611
 20
-183.85356454720659
 30
0.0
 11
12.85609965102719
 21
-183.36966437514729
 31
0.0
  0
LINE
  8
DETAIL
  6
CONTINUOUS
 62
     5
 10
54.552130093786559
 20
-238.45857418111791
 30
0.0
 11
54.552130093786559
 21
-232.52772528624021
 31
0.0
  0
LINE
  8
DETAIL
  6
CONTINUOUS
 62
     5
 10
57.808392136175939
 20
-228.7398843930641
 30
0.0
 11
57.808392136175939
 21
-231.9460500963396
 31
0.0
  0
LINE
  8
DETAIL
  6
CONTINUOUS
 62
     5
 10
59.16752155568895
 20
-274.5680966009063
 30
0.0
 11
59.16752155568895
 21
-280.53949903660941
 31
0.0
  0
LINE
  8
DETAIL
  6
CONTINUOUS
 62
     5
 10
60.382415699021522
 20
-274.38618249726028
 30
0.0
 11
60.382415699021522
 21
-280.53949903660941
 31
0.0
  0
LINE
  8
DETAIL
  6
CONTINUOUS
 62
     5
 10
61.064654178565092
 20
-231.9460500963396
 30
0.0
 11
61.064654178565092
 21
-238.45857418111791
 31
0.0
  0
LINE
  8
DETAIL
  6
CONTINUOUS
 62
     5
 10
65.325626204238802
 20
-298.67437379576131
 30
0.0
 11
65.325626204238802
 21
-283.54527938342972
 31
0.0
  0
LINE
  8
DETAIL
  6
CONTINUOUS
 62
     5
 10
65.325626204238802
 20
-201.46589538302959
 30
0.0
 11
65.325626204238802
 21
-192.36994219653209
 31
0.0
  0
LINE
  8
DETAIL
  6
CONTINUOUS
 62
     5
 10
66.12716763005767
 20
-236.45472061657071
 30
0.0
 11
66.12716763005767
 21
-202.85420585696781
 31
0.0
  0
LINE
  8
DETAIL
  6
CONTINUOUS
 62
     5
 10
65.325626204238802
 20
-201.46589538302959
 30
0.0
 11
-65.325626204239029
 21
-201.46589538302959
 31
0.0
  0
LINE
  8
DETAIL
  6
CONTINUOUS
 62
     5
 10
66.12716763005767
 20
-202.85420585696781
 30
0.0
 11
-66.127167630057897
 21
-202.85420585696781
 31
0.0
  0
LINE
  8
DETAIL
  6
CONTINUOUS
 62
     5
 10
86.165703275529722
 20
-242.46628131021239
 30
0.0
 11
86.165703275529722
 21
-238.45857418111791
 31
0.0
  0
LINE
  8
DETAIL
  6
CONTINUOUS
 62
     5
 10
89.672447013487385
 20
-247.47591522158041
 30
0.0
 11
89.672447013487385
 21
-262.06371676679021
 31
0.0
  0
LINE
  8
DETAIL
  6
CONTINUOUS
 62
     5
 10
89.685159406695334
 20
-271.30675422616321
 30
0.0
 11
89.672447013487385
 21
-283.54527938342972
 31
0.0
  0
LINE
  8
DETAIL
  6
CONTINUOUS
 62
     5
 10
-57.808392136176167
 20
-228.7398843930641
 30
0.0
 11
-51.295868051397633
 21
-228.7398843930641
 31
0.0
  0
LINE
  8
DETAIL
  6
CONTINUOUS
 62
     5
 10
51.295868051397413
 20
-228.7398843930641
 30
0.0
 11
57.808392136175939
 21
-228.7398843930641
 31
0.0
  0
LINE
  8
DETAIL
  6
CONTINUOUS
 62
     5
 10
61.064654178565092
 20
-231.9460500963396
 30
0.0
 11
48.039606009008139
 21
-231.9460500963396
 31
0.0
  0
LINE
  8
DETAIL
  6
CONTINUOUS
 62
     5
 10
-48.03960600900848
 20
-231.9460500963396
 30
0.0
 11
-61.064654178565213
 21
-231.9460500963396
 31
0.0
  0
LINE
  8
DETAIL
  6
CONTINUOUS
 62
     5
 10
86.165703275529722
 20
-238.45857418111791
 30
0.0
 11
-86.16570327552995
 21
-238.45857418111791
 31
0.0
  0
LINE
  8
DETAIL
  6
CONTINUOUS
 62
     5
 10
86.165703275529722
 20
-242.46628131021239
 30
0.0
 11
83.869947366163615
 21
-242.46628131021239
 31
0.0
  0
LINE
  8
DETAIL
  6
CONTINUOUS
 62
     5
 10
-83.869947366163615
 20
-242.46628131021239
 30
0.0
 11
-86.16570327552995
 21
-242.46628131021239
 31
0.0
  0
LINE
  8
DETAIL
  6
CONTINUOUS
 62
     5
 10
-83.660886319845872
 20
-242.46628131021239
 30
0.0
 11
83.660886319845758
 21
-242.46628131021239
 31
0.0
  0
LINE
  8
DETAIL
  6
CONTINUOUS
 62
     5
 10
-131.0803515374223
 20
-247.47591522158041
 30
0.0
 11
-89.672447013487613
 21
-247.47591522158041
 31
0.0
  0
LINE
  8
DETAIL
  6
CONTINUOUS
 62
     5
 10
89.672447013487385
 20
-247.47591522158041
 30
0.0
 11
131.0803515374221
 21
-247.47591522158041
 31
0.0
  0
LINE
  8
DETAIL
  6
CONTINUOUS
 62
     5
 10
151.09460705917959
 20
-13.025048169557071
 30
0.0
 11
151.09460705917959
 21
-16.431599229287261
 31
0.0
  0
LINE
  8
DETAIL
  6
CONTINUOUS
 62
     5
 10
-131.08035140503151
 20
-279.53757229275482
 30
0.0
 11
-89.672447013487613
 21
-279.53757225433537
 31
0.0
  0
LINE
  8
DETAIL
  6
CONTINUOUS
 62
     5
 10
89.672447013487385
 20
-279.53757225433537
 30
0.0
 11
107.8357773884843
 21
-279.53757225433537
 31
0.0
  0
LINE
  8
DETAIL
  6
CONTINUOUS
 62
     5
 10
107.8357773884843
 20
-279.53757225433537
 30
0.0
 11
131.0803515382274
 21
-279.53757224700303
 31
0.0
  0
LINE
  8
DETAIL
  6
CONTINUOUS
 62
     5
 10
35.067437379576063
 20
-282.54335260115641
 30
0.0
 11
-35.067437379576177
 21
-282.54335260115641
 31
0.0
  0
LINE
  8
DETAIL
  6
CONTINUOUS
 62
     5
 10
-89.672447013487613
 20
-283.54527938342972
 30
0.0
 11
40.366497473262712
 21
-283.54527938342972
 31
0.0
  0
LINE
  8
DETAIL
  6
CONTINUOUS
 62
     5
 10
62.266314854740472
 20
-283.54527938342972
 30
0.0
 11
89.672447013487385
 21
-283.54527938342972
 31
0.0
  0
LINE
  8
DETAIL
  6
CONTINUOUS
 62
     5
 10
163.1385838328454
 20
-14.527938342967669
 30
0.0
 11
163.1385838328454
 21
-10.01926782273631
 31
0.0
  0
LINE
  8
DETAIL
  6
CONTINUOUS
 62
     5
 10
175.13221124965591
 20
-18.535645472061791
 30
0.0
 11
175.13221124965591
 21
-14.527938342967669
 31
0.0
  0
LINE
  8
DETAIL
  6
CONTINUOUS
 62
     5
 10
58.312138728323703
 20
-305.68786127167658
 30
0.0
 11
-58.31213872832393
 21
-305.68786127167658
 31
0.0
  0
LINE
  8
DETAIL
  6
CONTINUOUS
 62
     5
 10
-4.7090558766859658
 20
-306.18882466281337
 30
0.0
 11
4.7090558766858521
 21
-306.18882466281337
 31
0.0
  0
LINE
  8
DETAIL
  6
CONTINUOUS
 62
     5
 10
180.14184516102401
 20
-14.527938342967669
 30
0.0
 11
180.14184516102401
 21
-18.08820301814217
 31
0.0
  0
LINE
  8
DETAIL
  6
CONTINUOUS
 62
     5
 10
180.67319707734649
 20
-18.535645472061791
 30
0.0
 11
180.67319707734649
 21
-31.560693641618851
 31
0.0
  0
LINE
  8
DETAIL
  6
CONTINUOUS
 62
     5
 10
180.67319707734649
 20
-31.560693641618851
 30
0.0
 11
180.67319707734649
 21
-177.3410404624278
 31
0.0
  0
LINE
  8
DETAIL
  6
CONTINUOUS
 62
     5
 10
184.2548412968996
 20
-75.394990366089132
 30
0.0
 11
184.2548412968996
 21
-78.901734104046682
 31
0.0
  0
LINE
  8
DETAIL
  6
CONTINUOUS
 62
     5
 10
185.15147907239191
 20
-14.527938342967669
 30
0.0
 11
185.15147907239191
 21
-18.535645472061791
 31
0.0
  0
LINE
  8
DETAIL
  6
CONTINUOUS
 62
     5
 10
192.89429115732051
 20
-3.005780346821211
 30
0.0
 11
192.89429115732051
 21
-6.4123314065514023
 31
0.0
  0
LINE
  8
DETAIL
  6
CONTINUOUS
 62
     5
 10
203.34421218136779
 20
-14.527938342967669
 30
0.0
 11
203.34421218136779
 21
-75.394990366089132
 31
0.0
  0
LINE
  8
DETAIL
  6
CONTINUOUS
 62
     5
 10
203.34421218136779
 20
-78.901734104046682
 30
0.0
 11
203.34421218136779
 21
-177.3410404624278
 31
0.0
  0
LINE
  8
DETAIL
  6
CONTINUOUS
 62
     5
 10
204.22979870900591
 20
-5.1098265895957411
 30
0.0
 11
204.22979870900591
 21
-3.005780346821211
 31
0.0
  0
LINE
  8
DETAIL
  6
CONTINUOUS
 62
     5
 10
206.53232368060449
 20
-177.3410404624278
 30
0.0
 11
206.53232368060449
 21
-78.901734104046682
 31
0.0
  0
LINE
  8
DETAIL
  6
CONTINUOUS
 62
     5
 10
206.53232368060449
 20
-75.394990366089132
 30
0.0
 11
206.53232368060449
 21
-14.527938342967669
 31
0.0
  0
LINE
  8
DETAIL
  6
CONTINUOUS
 62
     5
 10
208.42925261046469
 20
-75.394990366089132
 30
0.0
 11
208.42925261046469
 21
-78.901734104046682
 31
0.0
  0
LINE
  8
DETAIL
  6
CONTINUOUS
 62
     5
 10
246.9749518304429
 20
-16.431599229287261
 30
0.0
 11
246.9749518304429
 21
-13.894357252208691
 31
0.0
  0
LINE
  8
DETAIL
  6
CONTINUOUS
 62
     5
 10
253.82264424893009
 20
-3.005780346821211
 30
0.0
 11
253.82264424893009
 21
-5.1098265895957411
 31
0.0
  0
LINE
  8
DETAIL
  6
CONTINUOUS
 62
     5
 10
256.99421965317902
 20
-6.4123314065514023
 30
0.0
 11
256.99421965317902
 21
-3.005780346821211
 31
0.0
  0
ARC
  8
DETAIL
  6
CONTINUOUS
 62
     5
 10
-189.2873547411356
 20
-6.4123314065514023
 30
0.0
 40
3.606936416184908
 50
180.0
 51
270.0
  0
ARC
  8
DETAIL
  6
CONTINUOUS
 62
     5
 10
-147.4876706429948
 20
-16.431599229287261
 30
0.0
 40
3.606936416185023
 50
180.0
 51
270.0
  0
ARC
  8
DETAIL
  6
CONTINUOUS
 62
     5
 10
-243.36801541425811
 20
-16.431599229287261
 30
0.0
 40
3.606936416185023
 50
180.0
 51
270.0
  0
ARC
  8
DETAIL
  6
CONTINUOUS
 62
     5
 10
-253.38728323699419
 20
-6.4123314065514023
 30
0.0
 40
3.606936416184908
 50
180.0
 51
270.0
  0
ARC
  8
DETAIL
  6
CONTINUOUS
 62
     5
 10
-154.10038740600061
 20
-13.025048169557071
 30
0.0
 40
3.0057803468207571
 50
0.0
 51
90.0
  0
ARC
  8
DETAIL
  6
CONTINUOUS
 62
     5
 10
-209.80346820809251
 20
-133.25626204238941
 30
0.0
 40
2.003853564547057
 50
90.0
 51
270.0
  0
ARC
  8
DETAIL
  6
CONTINUOUS
 62
     5
 10
-258.49710982658962
 20
-1.5028901734106059
 30
0.0
 40
1.502890173410492
 50
90.0
 51
270.0
  0
ARC
  8
DETAIL
  6
CONTINUOUS
 62
     5
 10
-58.31213872832393
 20
-192.36994219653209
 30
0.0
 40
7.0134874759152126
 50
90.0
 51
180.0
  0
ARC
  8
DETAIL
  6
CONTINUOUS
 62
     5
 10
-58.31213872832393
 20
-298.67437379576131
 30
0.0
 40
7.0134874759152126
 50
180.0
 51
270.0
  0
ARC
  8
DETAIL
  6
CONTINUOUS
 62
     5
 10
-83.660886319845872
 20
-248.47784200385411
 30
0.0
 40
6.0115606936417416
 50
90.0
 51
180.0
  0
ARC
  8
DETAIL
  6
CONTINUOUS
 62
     5
 10
-68.131021194605069
 20
-236.45472061657071
 30
0.0
 40
2.003853564547057
 50
270.0
 51
0.0
  0
ARC
  8
DETAIL
  6
CONTINUOUS
 62
     5
 10
20.237781435778061
 20
-171.30337028876741
 30
0.0
 40
5.0096339113679784
 50
5.000000011102494
 51
85.00000006400073
  0
ARC
  8
DETAIL
  6
CONTINUOUS
 62
     5
 10
-20.237781435127431
 20
-171.30337028876741
 30
0.0
 40
5.0096339113679402
 50
94.999999935999284
 51
174.99999998889751
  0
ARC
  8
DETAIL
  6
CONTINUOUS
 62
     5
 10
-28.55491329479776
 20
-186.88606294177131
 30
0.0
 40
4.7357739244301076
 50
39.889645978302028
 51
140.11035402169799
  0
ARC
  8
DETAIL
  6
CONTINUOUS
 62
     5
 10
28.554913294797529
 20
-186.88606294177131
 30
0.0
 40
4.7357739244300667
 50
39.889645978302028
 51
140.11035402169799
  0
ARC
  8
DETAIL
  6
CONTINUOUS
 62
     5
 10
0.0
 20
-186.88606294177131
 30
0.0
 40
4.7357739244301076
 50
39.889645978302028
 51
140.11035402169799
  0
ARC
  8
DETAIL
  6
CONTINUOUS
 62
     5
 10
-11.72254335260129
 20
-182.23611916362691
 30
0.0
 40
1.6030828516377369
 50
180.0
 51
224.99971980699371
  0
ARC
  8
DETAIL
  6
CONTINUOUS
 62
     5
 10
11.722543352601059
 20
-182.23611916362691
 30
0.0
 40
1.6030828516376661
 50
315.00028019300629
 51
0.0
  0
ARC
  8
DETAIL
  6
CONTINUOUS
 62
     5
 10
0.0
 20
-301.65761078998139
 30
0.0
 40
6.5350674373795883
 50
223.89739816710039
 51
316.1026018328995
  0
ARC
  8
DETAIL
  6
CONTINUOUS
 62
     5
 10
-35.067437379576177
 20
-277.53371868978809
 30
0.0
 40
5.0096339113680974
 50
180.0
 51
270.0
  0
ARC
  8
DETAIL
  6
CONTINUOUS
 62
     5
 10
-35.067437379576177
 20
-256.74524688927272
 30
0.0
 40
5.0096339113679882
 50
100.6151078506974
 51
180.0
  0
ARC
  8
DETAIL
  6
CONTINUOUS
 62
     5
 10
35.067437379576063
 20
-256.74524688927272
 30
0.0
 40
5.0096339113679864
 50
0.0
 51
79.38489214930263
  0
ARC
  8
DETAIL
  6
CONTINUOUS
 62
     5
 10
35.067437379576063
 20
-277.53371868978809
 30
0.0
 40
5.0096339113680406
 50
270.0
 51
0.0
  0
ARC
  8
DETAIL
  6
CONTINUOUS
 62
     5
 10
0.0
 20
-443.85356454720659
 30
0.0
 40
195.37572254335251
 50
79.38489214930263
 51
100.6151078506974
  0
ARC
  8
DETAIL
  6
CONTINUOUS
 62
     5
 10
147.48767064299469
 20
-16.431599229287261
 30
0.0
 40
3.6069364161851341
 50
270.0
 51
0.0
  0
ARC
  8
DETAIL
  6
CONTINUOUS
 62
     5
 10
154.10038740600041
 20
-13.025048169557071
 30
0.0
 40
3.005780346820897
 50
93.749995377699591
 51
180.0
  0
ARC
  8
DETAIL
  6
CONTINUOUS
 62
     5
 10
58.312138728323703
 20
-298.67437379576131
 30
0.0
 40
7.013487475915098
 50
270.0
 51
0.0
  0
ARC
  8
DETAIL
  6
CONTINUOUS
 62
     5
 10
58.312138728323703
 20
-192.36994219653209
 30
0.0
 40
7.0134874759152126
 50
0.0
 51
90.0
  0
ARC
  8
DETAIL
  6
CONTINUOUS
 62
     5
 10
83.660886319845758
 20
-248.47784200385411
 30
0.0
 40
6.0115606936415711
 50
0.0
 51
90.0
  0
ARC
  8
DETAIL
  6
CONTINUOUS
 62
     5
 10
68.131021194604955
 20
-236.45472061657071
 30
0.0
 40
2.003853564547228
 50
180.0
 51
270.0
  0
ARC
  8
DETAIL
  6
CONTINUOUS
 62
     5
 10
189.28735474113549
 20
-6.4123314065514023
 30
0.0
 40
3.606936416184908
 50
270.0
 51
0.0
  0
ARC
  8
DETAIL
  6
CONTINUOUS
 62
     5
 10
243.368015414258
 20
-16.431599229287261
 30
0.0
 40
3.6069364161851341
 50
270.0
 51
0.0
  0
ARC
  8
DETAIL
  6
CONTINUOUS
 62
     5
 10
253.38728323699411
 20
-6.4123314065514023
 30
0.0
 40
3.606936416184908
 50
270.0
 51
0.0
  0
ARC
  8
DETAIL
  6
CONTINUOUS
 62
     5
 10
209.80346820809251
 20
-133.25626204238941
 30
0.0
 40
2.0038535645472848
 50
270.0
 51
90.0
  0
ARC
  8
DETAIL
  6
CONTINUOUS
 62
     5
 10
258.49710982658962
 20
-1.5028901734106059
 30
0.0
 40
1.502890173410492
 50
270.0
 51
90.0
  0
LINE
  8
DETAIL
  6
CONTINUOUS
 62
     5
 10
59.16752155568895
 20
-280.53949903660941
 30
0.0
 11
59.1680125395593
 21
-280.58513412221242
 31
0.0
  0
LINE
  8
DETAIL
  6
CONTINUOUS
 62
     5
 10
59.1680125395593
 20
-280.58513412221242
 30
0.0
 11
59.168958759878592
 21
-280.63076766753028
 31
0.0
  0
LINE
  8
DETAIL
  6
CONTINUOUS
 62
     5
 10
59.168958759878592
 20
-280.63076766753028
 30
0.0
 11
59.168958759878592
 21
-280.63076766753028
 31
0.0
  0
LINE
  8
DETAIL
  6
CONTINUOUS
 62
     5
 10
59.168958759878592
 20
-280.63076766753028
 30
0.0
 11
59.170718811206477
 21
-280.67639444343672
 31
0.0
  0
LINE
  8
DETAIL
  6
CONTINUOUS
 62
     5
 10
59.170718811206477
 20
-280.67639444343672
 30
0.0
 11
59.173264720545937
 21
-280.72199446544067
 31
0.0
  0
LINE
  8
DETAIL
  6
CONTINUOUS
 62
     5
 10
59.173264720545937
 20
-280.72199446544067
 30
0.0
 11
59.173264720545937
 21
-280.72199446544067
 31
0.0
  0
LINE
  8
DETAIL
  6
CONTINUOUS
 62
     5
 10
59.173264720545937
 20
-280.72199446544067
 30
0.0
 11
59.176498786275829
 21
-280.76755080201201
 31
0.0
  0
LINE
  8
DETAIL
  6
CONTINUOUS
 62
     5
 10
59.176498786275829
 20
-280.76755080201201
 30
0.0
 11
59.180430959838191
 21
-280.81307348882052
 31
0.0
  0
LINE
  8
DETAIL
  6
CONTINUOUS
 62
     5
 10
59.180430959838191
 20
-280.81307348882052
 30
0.0
 11
59.180430959838191
 21
-280.81307348882052
 31
0.0
  0
LINE
  8
DETAIL
  6
CONTINUOUS
 62
     5
 10
59.180430959838191
 20
-280.81307348882052
 30
0.0
 11
59.185087094767141
 21
-280.85855602497548
 31
0.0
  0
LINE
  8
DETAIL
  6
CONTINUOUS
 62
     5
 10
59.185087094767141
 20
-280.85855602497548
 30
0.0
 11
59.190448999902628
 21
-280.90389879614759
 31
0.0
  0
LINE
  8
DETAIL
  6
CONTINUOUS
 62
     5
 10
59.190448999902628
 20
-280.90389879614759
 30
0.0
 11
59.190448999902628
 21
-280.90389879614759
 31
0.0
  0
LINE
  8
DETAIL
  6
CONTINUOUS
 62
     5
 10
59.190448999902628
 20
-280.90389879614759
 30
0.0
 11
59.196504604339573
 21
-280.94906528128507
 31
0.0
  0
LINE
  8
DETAIL
  6
CONTINUOUS
 62
     5
 10
59.196504604339573
 20
-280.94906528128507
 30
0.0
 11
59.203310362887237
 21
-280.99436444590128
 31
0.0
  0
LINE
  8
DETAIL
  6
CONTINUOUS
 62
     5
 10
59.203310362887237
 20
-280.99436444590128
 30
0.0
 11
59.203310362887237
 21
-280.99436444590128
 31
0.0
  0
LINE
  8
DETAIL
  6
CONTINUOUS
 62
     5
 10
59.203310362887237
 20
-280.99436444590128
 30
0.0
 11
59.210917423562357
 21
-281.04005553417392
 31
0.0
  0
LINE
  8
DETAIL
  6
CONTINUOUS
 62
     5
 10
59.210917423562357
 20
-281.04005553417392
 30
0.0
 11
59.219287181498323
 21
-281.08585341838528
 31
0.0
  0
LINE
  8
DETAIL
  6
CONTINUOUS
 62
     5
 10
59.219287181498323
 20
-281.08585341838528
 30
0.0
 11
59.219287181498323
 21
-281.08585341838528
 31
0.0
  0
LINE
  8
DETAIL
  6
CONTINUOUS
 62
     5
 10
59.219287181498323
 20
-281.08585341838528
 30
0.0
 11
59.228370654661489
 21
-281.13142320992802
 31
0.0
  0
LINE
  8
DETAIL
  6
CONTINUOUS
 62
     5
 10
59.228370654661489
 20
-281.13142320992802
 30
0.0
 11
59.238167105235902
 21
-281.17677534852743
 31
0.0
  0
LINE
  8
DETAIL
  6
CONTINUOUS
 62
     5
 10
59.238167105235902
 20
-281.17677534852743
 30
0.0
 11
59.238167105235902
 21
-281.17677534852743
 31
0.0
  0
LINE
  8
DETAIL
  6
CONTINUOUS
 62
     5
 10
59.238167105235902
 20
-281.17677534852743
 30
0.0
 11
59.248685302909621
 21
-281.22198542783121
 31
0.0
  0
LINE
  8
DETAIL
  6
CONTINUOUS
 62
     5
 10
59.248685302909621
 20
-281.22198542783121
 30
0.0
 11
59.259923803168022
 21
-281.26704432884168
 31
0.0
  0
LINE
  8
DETAIL
  6
CONTINUOUS
 62
     5
 10
59.259923803168022
 20
-281.26704432884168
 30
0.0
 11
59.259923803168022
 21
-281.26704432884168
 31
0.0
  0
LINE
  8
DETAIL
  6
CONTINUOUS
 62
     5
 10
59.259923803168022
 20
-281.26704432884168
 30
0.0
 11
59.271876761093843
 21
-281.31192013496172
 31
0.0
  0
LINE
  8
DETAIL
  6
CONTINUOUS
 62
     5
 10
59.271876761093843
 20
-281.31192013496172
 30
0.0
 11
59.284530944362473
 21
-281.35657445184358
 31
0.0
  0
LINE
  8
DETAIL
  6
CONTINUOUS
 62
     5
 10
59.284530944362473
 20
-281.35657445184358
 30
0.0
 11
59.284530944362473
 21
-281.35657445184358
 31
0.0
  0
LINE
  8
DETAIL
  6
CONTINUOUS
 62
     5
 10
59.284530944362473
 20
-281.35657445184358
 30
0.0
 11
59.297881214755762
 21
-281.40099492161272
 31
0.0
  0
LINE
  8
DETAIL
  6
CONTINUOUS
 62
     5
 10
59.297881214755762
 20
-281.40099492161272
 30
0.0
 11
59.31196219788751
 21
-281.44527981004649
 31
0.0
  0
LINE
  8
DETAIL
  6
CONTINUOUS
 62
     5
 10
59.31196219788751
 20
-281.44527981004649
 30
0.0
 11
59.31196219788751
 21
-281.44527981004649
 31
0.0
  0
LINE
  8
DETAIL
  6
CONTINUOUS
 62
     5
 10
59.31196219788751
 20
-281.44527981004649
 30
0.0
 11
59.326803008609772
 21
-281.4895090041191
 31
0.0
  0
LINE
  8
DETAIL
  6
CONTINUOUS
 62
     5
 10
59.326803008609772
 20
-281.4895090041191
 30
0.0
 11
59.342370954895962
 21
-281.53357825194558
 31
0.0
  0
LINE
  8
DETAIL
  6
CONTINUOUS
 62
     5
 10
59.342370954895962
 20
-281.53357825194558
 30
0.0
 11
59.342370954895962
 21
-281.53357825194558
 31
0.0
  0
LINE
  8
DETAIL
  6
CONTINUOUS
 62
     5
 10
59.342370954895962
 20
-281.53357825194558
 30
0.0
 11
59.358626851505512
 21
-281.57736660667769
 31
0.0
  0
LINE
  8
DETAIL
  6
CONTINUOUS
 62
     5
 10
59.358626851505512
 20
-281.57736660667769
 30
0.0
 11
59.375567347219999
 21
-281.62087048047488
 31
0.0
  0
LINE
  8
DETAIL
  6
CONTINUOUS
 62
     5
 10
59.375567347219999
 20
-281.62087048047488
 30
0.0
 11
59.375567347219999
 21
-281.62087048047488
 31
0.0
  0
LINE
  8
DETAIL
  6
CONTINUOUS
 62
     5
 10
59.375567347219999
 20
-281.62087048047488
 30
0.0
 11
59.39319608813571
 21
-281.6641085868157
 31
0.0
  0
LINE
  8
DETAIL
  6
CONTINUOUS
 62
     5
 10
59.39319608813571
 20
-281.6641085868157
 30
0.0
 11
59.411508875588417
 21
-281.70707148544619
 31
0.0
  0
LINE
  8
DETAIL
  6
CONTINUOUS
 62
     5
 10
59.411508875588417
 20
-281.70707148544619
 30
0.0
 11
59.411508875588417
 21
-281.70707148544619
 31
0.0
  0
LINE
  8
DETAIL
  6
CONTINUOUS
 62
     5
 10
59.411508875588417
 20
-281.70707148544619
 30
0.0
 11
59.430498435978848
 21
-281.74974151166037
 31
0.0
  0
LINE
  8
DETAIL
  6
CONTINUOUS
 62
     5
 10
59.430498435978848
 20
-281.74974151166037
 30
0.0
 11
59.450153040731493
 21
-281.79209625667198
 31
0.0
  0
LINE
  8
DETAIL
  6
CONTINUOUS
 62
     5
 10
59.450153040731493
 20
-281.79209625667198
 30
0.0
 11
59.450153040731493
 21
-281.79209625667198
 31
0.0
  0
LINE
  8
DETAIL
  6
CONTINUOUS
 62
     5
 10
59.450153040731493
 20
-281.79209625667198
 30
0.0
 11
59.470466263693538
 21
-281.8341239081883
 31
0.0
  0
LINE
  8
DETAIL
  6
CONTINUOUS
 62
     5
 10
59.470466263693538
 20
-281.8341239081883
 30
0.0
 11
59.491457343378777
 21
-281.87585978396419
 31
0.0
  0
LINE
  8
DETAIL
  6
CONTINUOUS
 62
     5
 10
59.491457343378777
 20
-281.87585978396419
 30
0.0
 11
59.491457343378777
 21
-281.87585978396419
 31
0.0
  0
LINE
  8
DETAIL
  6
CONTINUOUS
 62
     5
 10
59.491457343378777
 20
-281.87585978396419
 30
0.0
 11
59.51314190717153
 21
-281.91733200729368
 31
0.0
  0
LINE
  8
DETAIL
  6
CONTINUOUS
 62
     5
 10
59.51314190717153
 20
-281.91733200729368
 30
0.0
 11
59.535495473272363
 21
-281.95849279357287
 31
0.0
  0
LINE
  8
DETAIL
  6
CONTINUOUS
 62
     5
 10
59.535495473272363
 20
-281.95849279357287
 30
0.0
 11
59.535495473272363
 21
-281.95849279357287
 31
0.0
  0
LINE
  8
DETAIL
  6
CONTINUOUS
 62
     5
 10
59.535495473272363
 20
-281.95849279357287
 30
0.0
 11
59.558488306326467
 21
-281.99928615246932
 31
0.0
  0
LINE
  8
DETAIL
  6
CONTINUOUS
 62
     5
 10
59.558488306326467
 20
-281.99928615246932
 30
0.0
 11
59.582109765939997
 21
-282.03969917862861
 31
0.0
  0
LINE
  8
DETAIL
  6
CONTINUOUS
 62
     5
 10
59.582109765939997
 20
-282.03969917862861
 30
0.0
 11
59.582109765939997
 21
-282.03969917862861
 31
0.0
  0
LINE
  8
DETAIL
  6
CONTINUOUS
 62
     5
 10
59.582109765939997
 20
-282.03969917862861
 30
0.0
 11
59.606357727944442
 21
-282.07973347823389
 31
0.0
  0
LINE
  8
DETAIL
  6
CONTINUOUS
 62
     5
 10
59.606357727944442
 20
-282.07973347823389
 30
0.0
 11
59.631245038110023
 21
-282.11940561864247
 31
0.0
  0
LINE
  8
DETAIL
  6
CONTINUOUS
 62
     5
 10
59.631245038110023
 20
-282.11940561864247
 30
0.0
 11
59.631245038110023
 21
-282.11940561864247
 31
0.0
  0
LINE
  8
DETAIL
  6
CONTINUOUS
 62
     5
 10
59.631245038110023
 20
-282.11940561864247
 30
0.0
 11
59.656768541012873
 21
-282.15871017508653
 31
0.0
  0
LINE
  8
DETAIL
  6
CONTINUOUS
 62
     5
 10
59.656768541012873
 20
-282.15871017508653
 30
0.0
 11
59.682846106510283
 21
-282.19753879312628
 31
0.0
  0
LINE
  8
DETAIL
  6
CONTINUOUS
 62
     5
 10
59.682846106510283
 20
-282.19753879312628
 30
0.0
 11
59.682846106510283
 21
-282.19753879312628
 31
0.0
  0
LINE
  8
DETAIL
  6
CONTINUOUS
 62
     5
 10
59.682846106510283
 20
-282.19753879312628
 30
0.0
 11
59.709451093013847
 21
-282.23585657528292
 31
0.0
  0
LINE
  8
DETAIL
  6
CONTINUOUS
 62
     5
 10
59.709451093013847
 20
-282.23585657528292
 30
0.0
 11
59.736857787869553
 21
-282.27402538158998
 31
0.0
  0
LINE
  8
DETAIL
  6
CONTINUOUS
 62
     5
 10
59.736857787869553
 20
-282.27402538158998
 30
0.0
 11
59.736857787869553
 21
-282.27402538158998
 31
0.0
  0
LINE
  8
DETAIL
  6
CONTINUOUS
 62
     5
 10
59.736857787869553
 20
-282.27402538158998
 30
0.0
 11
59.765299644472748
 21
-282.31234766450189
 31
0.0
  0
LINE
  8
DETAIL
  6
CONTINUOUS
 62
     5
 10
59.765299644472748
 20
-282.31234766450189
 30
0.0
 11
59.794545851480848
 21
-282.35049148864852
 31
0.0
  0
LINE
  8
DETAIL
  6
CONTINUOUS
 62
     5
 10
59.794545851480848
 20
-282.35049148864852
 30
0.0
 11
59.794545851480848
 21
-282.35049148864852
 31
0.0
  0
LINE
  8
DETAIL
  6
CONTINUOUS
 62
     5
 10
59.794545851480848
 20
-282.35049148864852
 30
0.0
 11
59.824320252827988
 21
-282.38806750098303
 31
0.0
  0
LINE
  8
DETAIL
  6
CONTINUOUS
 62
     5
 10
59.824320252827988
 20
-282.38806750098303
 30
0.0
 11
59.854629578294627
 21
-282.42509106556957
 31
0.0
  0
LINE
  8
DETAIL
  6
CONTINUOUS
 62
     5
 10
59.854629578294627
 20
-282.42509106556957
 30
0.0
 11
59.854629578294627
 21
-282.42509106556957
 31
0.0
  0
LINE
  8
DETAIL
  6
CONTINUOUS
 62
     5
 10
59.854629578294627
 20
-282.42509106556957
 30
0.0
 11
59.885535890191143
 21
-282.46165502879558
 31
0.0
  0
LINE
  8
DETAIL
  6
CONTINUOUS
 62
     5
 10
59.885535890191143
 20
-282.46165502879558
 30
0.0
 11
59.917039695102289
 21
-282.49775744922141
 31
0.0
  0
LINE
  8
DETAIL
  6
CONTINUOUS
 62
     5
 10
59.917039695102289
 20
-282.49775744922141
 30
0.0
 11
59.917039695102289
 21
-282.49775744922141
 31
0.0
  0
LINE
  8
DETAIL
  6
CONTINUOUS
 62
     5
 10
59.917039695102289
 20
-282.49775744922141
 30
0.0
 11
59.949116944945217
 21
-282.53336629699811
 31
0.0
  0
LINE
  8
DETAIL
  6
CONTINUOUS
 62
     5
 10
59.949116944945217
 20
-282.53336629699811
 30
0.0
 11
59.98170692869428
 21
-282.56842397647188
 31
0.0
  0
LINE
  8
DETAIL
  6
CONTINUOUS
 62
     5
 10
59.98170692869428
 20
-282.56842397647188
 30
0.0
 11
59.98170692869428
 21
-282.56842397647188
 31
0.0
  0
LINE
  8
DETAIL
  6
CONTINUOUS
 62
     5
 10
59.98170692869428
 20
-282.56842397647188
 30
0.0
 11
60.014791821462381
 21
-282.60291576329968
 31
0.0
  0
LINE
  8
DETAIL
  6
CONTINUOUS
 62
     5
 10
60.014791821462381
 20
-282.60291576329968
 30
0.0
 11
60.048562005861193
 21
-282.63702398418951
 31
0.0
  0
LINE
  8
DETAIL
  6
CONTINUOUS
 62
     5
 10
60.048562005861193
 20
-282.63702398418951
 30
0.0
 11
60.048562005861193
 21
-282.63702398418951
 31
0.0
  0
LINE
  8
DETAIL
  6
CONTINUOUS
 62
     5
 10
60.048562005861193
 20
-282.63702398418951
 30
0.0
 11
60.083177291231891
 21
-282.67089866956462
 31
0.0
  0
LINE
  8
DETAIL
  6
CONTINUOUS
 62
     5
 10
60.083177291231891
 20
-282.67089866956462
 30
0.0
 11
60.118466986335193
 21
-282.70436361366109
 31
0.0
  0
LINE
  8
DETAIL
  6
CONTINUOUS
 62
     5
 10
60.118466986335193
 20
-282.70436361366109
 30
0.0
 11
60.118466986335193
 21
-282.70436361366109
 31
0.0
  0
LINE
  8
DETAIL
  6
CONTINUOUS
 62
     5
 10
60.118466986335193
 20
-282.70436361366109
 30
0.0
 11
60.154229208926843
 21
-282.73721405672057
 31
0.0
  0
LINE
  8
DETAIL
  6
CONTINUOUS
 62
     5
 10
60.154229208926843
 20
-282.73721405672057
 30
0.0
 11
60.190467813324062
 21
-282.76945725919518
 31
0.0
  0
LINE
  8
DETAIL
  6
CONTINUOUS
 62
     5
 10
60.190467813324062
 20
-282.76945725919518
 30
0.0
 11
60.190467813324062
 21
-282.76945725919518
 31
0.0
  0
LINE
  8
DETAIL
  6
CONTINUOUS
 62
     5
 10
60.190467813324062
 20
-282.76945725919518
 30
0.0
 11
60.227224292418668
 21
-282.80113927572262
 31
0.0
  0
LINE
  8
DETAIL
  6
CONTINUOUS
 62
     5
 10
60.227224292418668
 20
-282.80113927572262
 30
0.0
 11
60.264484956835418
 21
-282.83224931746832
 31
0.0
  0
LINE
  8
DETAIL
  6
CONTINUOUS
 62
     5
 10
60.264484956835418
 20
-282.83224931746832
 30
0.0
 11
60.264484956835418
 21
-282.83224931746832
 31
0.0
  0
LINE
  8
DETAIL
  6
CONTINUOUS
 62
     5
 10
60.264484956835418
 20
-282.83224931746832
 30
0.0
 11
60.302226069758831
 21
-282.86276622314972
 31
0.0
  0
LINE
  8
DETAIL
  6
CONTINUOUS
 62
     5
 10
60.302226069758831
 20
-282.86276622314972
 30
0.0
 11
60.340438886876427
 21
-282.89268418515439
 31
0.0
  0
LINE
  8
DETAIL
  6
CONTINUOUS
 62
     5
 10
60.340438886876427
 20
-282.89268418515439
 30
0.0
 11
60.340438886876427
 21
-282.89268418515439
 31
0.0
  0
LINE
  8
DETAIL
  6
CONTINUOUS
 62
     5
 10
60.340438886876427
 20
-282.89268418515439
 30
0.0
 11
60.379117215065321
 21
-282.92200009148428
 31
0.0
  0
LINE
  8
DETAIL
  6
CONTINUOUS
 62
     5
 10
60.379117215065321
 20
-282.92200009148428
 30
0.0
 11
60.41825007345517
 21
-282.95070625892907
 31
0.0
  0
LINE
  8
DETAIL
  6
CONTINUOUS
 62
     5
 10
60.41825007345517
 20
-282.95070625892907
 30
0.0
 11
60.41825007345517
 21
-282.95070625892907
 31
0.0
  0
LINE
  8
DETAIL
  6
CONTINUOUS
 62
     5
 10
60.41825007345517
 20
-282.95070625892907
 30
0.0
 11
60.45782601024905
 21
-282.97879470979359
 31
0.0
  0
LINE
  8
DETAIL
  6
CONTINUOUS
 62
     5
 10
60.45782601024905
 20
-282.97879470979359
 30
0.0
 11
60.497836477691983
 21
-283.00626085965501
 31
0.0
  0
LINE
  8
DETAIL
  6
CONTINUOUS
 62
     5
 10
60.497836477691983
 20
-283.00626085965501
 30
0.0
 11
60.497836477691983
 21
-283.00626085965501
 31
0.0
  0
LINE
  8
DETAIL
  6
CONTINUOUS
 62
     5
 10
60.497836477691983
 20
-283.00626085965501
 30
0.0
 11
60.538272082348392
 21
-283.03310014341059
 31
0.0
  0
LINE
  8
DETAIL
  6
CONTINUOUS
 62
     5
 10
60.538272082348392
 20
-283.03310014341059
 30
0.0
 11
60.579117144025759
 21
-283.05930467997217
 31
0.0
  0
LINE
  8
DETAIL
  6
CONTINUOUS
 62
     5
 10
60.579117144025759
 20
-283.05930467997217
 30
0.0
 11
60.579117144025759
 21
-283.05930467997217
 31
0.0
  0
LINE
  8
DETAIL
  6
CONTINUOUS
 62
     5
 10
60.579117144025759
 20
-283.05930467997217
 30
0.0
 11
60.620359668286369
 21
-283.08486832813492
 31
0.0
  0
LINE
  8
DETAIL
  6
CONTINUOUS
 62
     5
 10
60.620359668286369
 20
-283.08486832813492
 30
0.0
 11
60.662008690471907
 21
-283.10979522220919
 31
0.0
  0
LINE
  8
DETAIL
  6
CONTINUOUS
 62
     5
 10
60.662008690471907
 20
-283.10979522220919
 30
0.0
 11
60.662008690471907
 21
-283.10979522220919
 31
0.0
  0
LINE
  8
DETAIL
  6
CONTINUOUS
 62
     5
 10
60.662008690471907
 20
-283.10979522220919
 30
0.0
 11
60.704059045279912
 21
-283.13408261886519
 31
0.0
  0
LINE
  8
DETAIL
  6
CONTINUOUS
 62
     5
 10
60.704059045279912
 20
-283.13408261886519
 30
0.0
 11
60.746427735045813
 21
-283.1576899886918
 31
0.0
  0
LINE
  8
DETAIL
  6
CONTINUOUS
 62
     5
 10
60.746427735045813
 20
-283.1576899886918
 30
0.0
 11
60.746427735045813
 21
-283.1576899886918
 31
0.0
  0
LINE
  8
DETAIL
  6
CONTINUOUS
 62
     5
 10
60.746427735045813
 20
-283.1576899886918
 30
0.0
 11
60.789084878931703
 21
-283.18060257295917
 31
0.0
  0
LINE
  8
DETAIL
  6
CONTINUOUS
 62
     5
 10
60.789084878931703
 20
-283.18060257295917
 30
0.0
 11
60.83229089576264
 21
-283.20294648174718
 31
0.0
  0
LINE
  8
DETAIL
  6
CONTINUOUS
 62
     5
 10
60.83229089576264
 20
-283.20294648174718
 30
0.0
 11
60.83229089576264
 21
-283.20294648174718
 31
0.0
  0
LINE
  8
DETAIL
  6
CONTINUOUS
 62
     5
 10
60.83229089576264
 20
-283.20294648174718
 30
0.0
 11
60.876265369978803
 21
-283.22482573252051
 31
0.0
  0
LINE
  8
DETAIL
  6
CONTINUOUS
 62
     5
 10
60.876265369978803
 20
-283.22482573252051
 30
0.0
 11
60.920774248808023
 21
-283.24611510347472
 31
0.0
  0
LINE
  8
DETAIL
  6
CONTINUOUS
 62
     5
 10
60.920774248808023
 20
-283.24611510347472
 30
0.0
 11
60.920774248808023
 21
-283.24611510347472
 31
0.0
  0
LINE
  8
DETAIL
  6
CONTINUOUS
 62
     5
 10
60.920774248808023
 20
-283.24611510347472
 30
0.0
 11
60.965540117021078
 21
-283.26666950333617
 31
0.0
  0
LINE
  8
DETAIL
  6
CONTINUOUS
 62
     5
 10
60.965540117021078
 20
-283.26666950333617
 30
0.0
 11
61.010565746767163
 21
-283.28649360221561
 31
0.0
  0
LINE
  8
DETAIL
  6
CONTINUOUS
 62
     5
 10
61.010565746767163
 20
-283.28649360221561
 30
0.0
 11
61.010565746767163
 21
-283.28649360221561
 31
0.0
  0
LINE
  8
DETAIL
  6
CONTINUOUS
 62
     5
 10
61.010565746767163
 20
-283.28649360221561
 30
0.0
 11
61.055909698062919
 21
-283.30562085087291
 31
0.0
  0
LINE
  8
DETAIL
  6
CONTINUOUS
 62
     5
 10
61.055909698062919
 20
-283.30562085087291
 30
0.0
 11
61.101573495018897
 21
-283.32405006128062
 31
0.0
  0
LINE
  8
DETAIL
  6
CONTINUOUS
 62
     5
 10
61.101573495018897
 20
-283.32405006128062
 30
0.0
 11
61.101573495018897
 21
-283.32405006128062
 31
0.0
  0
LINE
  8
DETAIL
  6
CONTINUOUS
 62
     5
 10
61.101573495018897
 20
-283.32405006128062
 30
0.0
 11
61.147531391831187
 21
-283.34176858415532
 31
0.0
  0
LINE
  8
DETAIL
  6
CONTINUOUS
 62
     5
 10
61.147531391831187
 20
-283.34176858415532
 30
0.0
 11
61.193705598941847
 21
-283.35875256398123
 31
0.0
  0
LINE
  8
DETAIL
  6
CONTINUOUS
 62
     5
 10
61.193705598941847
 20
-283.35875256398123
 30
0.0
 11
61.193705598941847
 21
-283.35875256398123
 31
0.0
  0
LINE
  8
DETAIL
  6
CONTINUOUS
 62
     5
 10
61.193705598941847
 20
-283.35875256398123
 30
0.0
 11
61.240071618585489
 21
-283.37499520961478
 31
0.0
  0
LINE
  8
DETAIL
  6
CONTINUOUS
 62
     5
 10
61.240071618585489
 20
-283.37499520961478
 30
0.0
 11
61.286870163914607
 21
-283.39056919362929
 31
0.0
  0
LINE
  8
DETAIL
  6
CONTINUOUS
 62
     5
 10
61.286870163914607
 20
-283.39056919362929
 30
0.0
 11
61.286870163914607
 21
-283.39056919362929
 31
0.0
  0
LINE
  8
DETAIL
  6
CONTINUOUS
 62
     5
 10
61.286870163914607
 20
-283.39056919362929
 30
0.0
 11
61.33430245927309
 21
-283.4055330778192
 31
0.0
  0
LINE
  8
DETAIL
  6
CONTINUOUS
 62
     5
 10
61.33430245927309
 20
-283.4055330778192
 30
0.0
 11
61.382146562852881
 21
-283.41980951714481
 31
0.0
  0
LINE
  8
DETAIL
  6
CONTINUOUS
 62
     5
 10
61.382146562852881
 20
-283.41980951714481
 30
0.0
 11
61.382146562852881
 21
-283.41980951714481
 31
0.0
  0
LINE
  8
DETAIL
  6
CONTINUOUS
 62
     5
 10
61.382146562852881
 20
-283.41980951714481
 30
0.0
 11
61.430141757722033
 21
-283.43331020017479
 31
0.0
  0
LINE
  8
DETAIL
  6
CONTINUOUS
 62
     5
 10
61.430141757722033
 20
-283.43331020017479
 30
0.0
 11
61.478295392603968
 21
-283.44603885674968
 31
0.0
  0
LINE
  8
DETAIL
  6
CONTINUOUS
 62
     5
 10
61.478295392603968
 20
-283.44603885674968
 30
0.0
 11
61.478295392603968
 21
-283.44603885674968
 31
0.0
  0
LINE
  8
DETAIL
  6
CONTINUOUS
 62
     5
 10
61.478295392603968
 20
-283.44603885674968
 30
0.0
 11
61.5266630376168
 21
-283.45801593521838
 31
0.0
  0
LINE
  8
DETAIL
  6
CONTINUOUS
 62
     5
 10
61.5266630376168
 20
-283.45801593521838
 30
0.0
 11
61.575225082794418
 21
-283.46923671669668
 31
0.0
  0
LINE
  8
DETAIL
  6
CONTINUOUS
 62
     5
 10
61.575225082794418
 20
-283.46923671669668
 30
0.0
 11
61.575225082794418
 21
-283.46923671669668
 31
0.0
  0
LINE
  8
DETAIL
  6
CONTINUOUS
 62
     5
 10
61.575225082794418
 20
-283.46923671669668
 30
0.0
 11
61.623951286819761
 21
-283.47969234740623
 31
0.0
  0
LINE
  8
DETAIL
  6
CONTINUOUS
 62
     5
 10
61.623951286819761
 20
-283.47969234740623
 30
0.0
 11
61.672844063050547
 21
-283.48938260123907
 31
0.0
  0
LINE
  8
DETAIL
  6
CONTINUOUS
 62
     5
 10
61.672844063050547
 20
-283.48938260123907
 30
0.0
 11
61.672844063050547
 21
-283.48938260123907
 31
0.0
  0
LINE
  8
DETAIL
  6
CONTINUOUS
 62
     5
 10
61.672844063050547
 20
-283.48938260123907
 30
0.0
 11
61.72190012885892
 21
-283.49830707314368
 31
0.0
  0
LINE
  8
DETAIL
  6
CONTINUOUS
 62
     5
 10
61.72190012885892
 20
-283.49830707314368
 30
0.0
 11
61.771060762999348
 21
-283.50645601463088
 31
0.0
  0
LINE
  8
DETAIL
  6
CONTINUOUS
 62
     5
 10
61.771060762999348
 20
-283.50645601463088
 30
0.0
 11
61.771060762999348
 21
-283.50645601463088
 31
0.0
  0
LINE
  8
DETAIL
  6
CONTINUOUS
 62
     5
 10
61.771060762999348
 20
-283.50645601463088
 30
0.0
 11
61.820273030164692
 21
-283.51382137774112
 31
0.0
  0
LINE
  8
DETAIL
  6
CONTINUOUS
 62
     5
 10
61.820273030164692
 20
-283.51382137774112
 30
0.0
 11
61.86956257741781
 21
-283.52041126006912
 31
0.0
  0
LINE
  8
DETAIL
  6
CONTINUOUS
 62
     5
 10
61.86956257741781
 20
-283.52041126006912
 30
0.0
 11
61.86956257741781
 21
-283.52041126006912
 31
0.0
  0
LINE
  8
DETAIL
  6
CONTINUOUS
 62
     5
 10
61.86956257741781
 20
-283.52041126006912
 30
0.0
 11
61.918962063094
 21
-283.52623355048678
 31
0.0
  0
LINE
  8
DETAIL
  6
CONTINUOUS
 62
     5
 10
61.918962063094
 20
-283.52623355048678
 30
0.0
 11
61.968453608245113
 21
-283.53127915741652
 31
0.0
  0
LINE
  8
DETAIL
  6
CONTINUOUS
 62
     5
 10
61.968453608245113
 20
-283.53127915741652
 30
0.0
 11
61.968453608245113
 21
-283.53127915741652
 31
0.0
  0
LINE
  8
DETAIL
  6
CONTINUOUS
 62
     5
 10
61.968453608245113
 20
-283.53127915741652
 30
0.0
 11
62.0180102392452
 21
-283.53554284352867
 31
0.0
  0
LINE
  8
DETAIL
  6
CONTINUOUS
 62
     5
 10
62.0180102392452
 20
-283.53554284352867
 30
0.0
 11
62.067619141037653
 21
-283.53905176892488
 31
0.0
  0
LINE
  8
DETAIL
  6
CONTINUOUS
 62
     5
 10
62.067619141037653
 20
-283.53905176892488
 30
0.0
 11
62.067619141037653
 21
-283.53905176892488
 31
0.0
  0
LINE
  8
DETAIL
  6
CONTINUOUS
 62
     5
 10
62.067619141037653
 20
-283.53905176892488
 30
0.0
 11
62.117269513959741
 21
-283.54181304074592
 31
0.0
  0
LINE
  8
DETAIL
  6
CONTINUOUS
 62
     5
 10
62.117269513959741
 20
-283.54181304074592
 30
0.0
 11
62.166944461350909
 21
-283.54372115684549
 31
0.0
  0
LINE
  8
DETAIL
  6
CONTINUOUS
 62
     5
 10
62.166944461350909
 20
-283.54372115684549
 30
0.0
 11
62.166944461350909
 21
-283.54372115684549
 31
0.0
  0
LINE
  8
DETAIL
  6
CONTINUOUS
 62
     5
 10
62.166944461350909
 20
-283.54372115684549
 30
0.0
 11
62.216628119655979
 21
-283.54474697268461
 31
0.0
  0
LINE
  8
DETAIL
  6
CONTINUOUS
 62
     5
 10
62.216628119655979
 20
-283.54474697268461
 30
0.0
 11
62.266314854740472
 21
-283.54527938342972
 31
0.0
  0
LINE
  8
DETAIL
  6
CONTINUOUS
 62
     5
 10
63.477000203588197
 20
-283.54527938342972
 30
0.0
 11
63.427401823114003
 21
-283.5447474370194
 31
0.0
  0
LINE
  8
DETAIL
  6
CONTINUOUS
 62
     5
 10
63.427401823114003
 20
-283.5447474370194
 30
0.0
 11
63.377806506023603
 21
-283.54372251850458
 31
0.0
  0
LINE
  8
DETAIL
  6
CONTINUOUS
 62
     5
 10
63.377806506023603
 20
-283.54372251850458
 30
0.0
 11
63.377806506023603
 21
-283.54372251850458
 31
0.0
  0
LINE
  8
DETAIL
  6
CONTINUOUS
 62
     5
 10
63.377806506023603
 20
-283.54372251850458
 30
0.0
 11
63.32821988666467
 21
-283.54181607756641
 31
0.0
  0
LINE
  8
DETAIL
  6
CONTINUOUS
 62
     5
 10
63.32821988666467
 20
-283.54181607756641
 30
0.0
 11
63.278657883243447
 21
-283.53905725101413
 31
0.0
  0
LINE
  8
DETAIL
  6
CONTINUOUS
 62
     5
 10
63.278657883243447
 20
-283.53905725101413
 30
0.0
 11
63.278657883243447
 21
-283.53905725101413
 31
0.0
  0
LINE
  8
DETAIL
  6
CONTINUOUS
 62
     5
 10
63.278657883243447
 20
-283.53905725101413
 30
0.0
 11
63.229137405306012
 21
-283.53555145949719
 31
0.0
  0
LINE
  8
DETAIL
  6
CONTINUOUS
 62
     5
 10
63.229137405306012
 20
-283.53555145949719
 30
0.0
 11
63.179669043902443
 21
-283.53129157188408
 31
0.0
  0
LINE
  8
DETAIL
  6
CONTINUOUS
 62
     5
 10
63.179669043902443
 20
-283.53129157188408
 30
0.0
 11
63.179669043902443
 21
-283.53129157188408
 31
0.0
  0
LINE
  8
DETAIL
  6
CONTINUOUS
 62
     5
 10
63.179669043902443
 20
-283.53129157188408
 30
0.0
 11
63.130265557990363
 21
-283.5262504490961
 31
0.0
  0
LINE
  8
DETAIL
  6
CONTINUOUS
 62
     5
 10
63.130265557990363
 20
-283.5262504490961
 30
0.0
 11
63.080954696655112
 21
-283.52043347204221
 31
0.0
  0
LINE
  8
DETAIL
  6
CONTINUOUS
 62
     5
 10
63.080954696655112
 20
-283.52043347204221
 30
0.0
 11
63.080954696655112
 21
-283.52043347204221
 31
0.0
  0
LINE
  8
DETAIL
  6
CONTINUOUS
 62
     5
 10
63.080954696655112
 20
-283.52043347204221
 30
0.0
 11
63.031754546010689
 21
-283.51384976958423
 31
0.0
  0
LINE
  8
DETAIL
  6
CONTINUOUS
 62
     5
 10
63.031754546010689
 20
-283.51384976958423
 30
0.0
 11
62.982629550156048
 21
-283.50649094241408
 31
0.0
  0
LINE
  8
DETAIL
  6
CONTINUOUS
 62
     5
 10
62.982629550156048
 20
-283.50649094241408
 30
0.0
 11
62.982629550156048
 21
-283.50649094241408
 31
0.0
  0
LINE
  8
DETAIL
  6
CONTINUOUS
 62
     5
 10
62.982629550156048
 20
-283.50649094241408
 30
0.0
 11
62.933551611872417
 21
-283.49834844277387
 31
0.0
  0
LINE
  8
DETAIL
  6
CONTINUOUS
 62
     5
 10
62.933551611872417
 20
-283.49834844277387
 30
0.0
 11
62.884576110686908
 21
-283.48943065728832
 31
0.0
  0
LINE
  8
DETAIL
  6
CONTINUOUS
 62
     5
 10
62.884576110686908
 20
-283.48943065728832
 30
0.0
 11
62.884576110686908
 21
-283.48943065728832
 31
0.0
  0
LINE
  8
DETAIL
  6
CONTINUOUS
 62
     5
 10
62.884576110686908
 20
-283.48943065728832
 30
0.0
 11
62.835764678035389
 21
-283.47974776813692
 31
0.0
  0
LINE
  8
DETAIL
  6
CONTINUOUS
 62
     5
 10
62.835764678035389
 20
-283.47974776813692
 30
0.0
 11
62.787120476244013
 21
-283.46930020534001
 31
0.0
  0
LINE
  8
DETAIL
  6
CONTINUOUS
 62
     5
 10
62.787120476244013
 20
-283.46930020534001
 30
0.0
 11
62.787120476244013
 21
-283.46930020534001
 31
0.0
  0
LINE
  8
DETAIL
  6
CONTINUOUS
 62
     5
 10
62.787120476244013
 20
-283.46930020534001
 30
0.0
 11
62.73864032987683
 21
-283.45808811656292
 31
0.0
  0
LINE
  8
DETAIL
  6
CONTINUOUS
 62
     5
 10
62.73864032987683
 20
-283.45808811656292
 30
0.0
 11
62.690354181555222
 21
-283.44612027220961
 31
0.0
  0
LINE
  8
DETAIL
  6
CONTINUOUS
 62
     5
 10
62.690354181555222
 20
-283.44612027220961
 30
0.0
 11
62.690354181555222
 21
-283.44612027220961
 31
0.0
  0
LINE
  8
DETAIL
  6
CONTINUOUS
 62
     5
 10
62.690354181555222
 20
-283.44612027220961
 30
0.0
 11
62.642281752635093
 21
-283.43340141367082
 31
0.0
  0
LINE
  8
DETAIL
  6
CONTINUOUS
 62
     5
 10
62.642281752635093
 20
-283.43340141367082
 30
0.0
 11
62.594368761348619
 21
-283.41991154353758
 31
0.0
  0
LINE
  8
DETAIL
  6
CONTINUOUS
 62
     5
 10
62.594368761348619
 20
-283.41991154353758
 30
0.0
 11
62.594368761348619
 21
-283.41991154353758
 31
0.0
  0
LINE
  8
DETAIL
  6
CONTINUOUS
 62
     5
 10
62.594368761348619
 20
-283.41991154353758
 30
0.0
 11
62.546608148755809
 21
-283.40564706281663
 31
0.0
  0
LINE
  8
DETAIL
  6
CONTINUOUS
 62
     5
 10
62.546608148755809
 20
-283.40564706281663
 30
0.0
 11
62.499255750351843
 21
-283.39069470496469
 31
0.0
  0
LINE
  8
DETAIL
  6
CONTINUOUS
 62
     5
 10
62.499255750351843
 20
-283.39069470496469
 30
0.0
 11
62.499255750351843
 21
-283.39069470496469
 31
0.0
  0
LINE
  8
DETAIL
  6
CONTINUOUS
 62
     5
 10
62.499255750351843
 20
-283.39069470496469
 30
0.0
 11
62.452529397992407
 21
-283.37513045034689
 31
0.0
  0
LINE
  8
DETAIL
  6
CONTINUOUS
 62
     5
 10
62.452529397992407
 20
-283.37513045034689
 30
0.0
 11
62.406232014541501
 21
-283.35889693450281
 31
0.0
  0
LINE
  8
DETAIL
  6
CONTINUOUS
 62
     5
 10
62.406232014541501
 20
-283.35889693450281
 30
0.0
 11
62.406232014541501
 21
-283.35889693450281
 31
0.0
  0
LINE
  8
DETAIL
  6
CONTINUOUS
 62
     5
 10
62.406232014541501
 20
-283.35889693450281
 30
0.0
 11
62.360127802062827
 21
-283.34192295161438
 31
0.0
  0
LINE
  8
DETAIL
  6
CONTINUOUS
 62
     5
 10
62.360127802062827
 20
-283.34192295161438
 30
0.0
 11
62.314240988410688
 21
-283.32421527525031
 31
0.0
  0
LINE
  8
DETAIL
  6
CONTINUOUS
 62
     5
 10
62.314240988410688
 20
-283.32421527525031
 30
0.0
 11
62.314240988410688
 21
-283.32421527525031
 31
0.0
  0
LINE
  8
DETAIL
  6
CONTINUOUS
 62
     5
 10
62.314240988410688
 20
-283.32421527525031
 30
0.0
 11
62.268648052854253
 21
-283.30579742556301
 31
0.0
  0
LINE
  8
DETAIL
  6
CONTINUOUS
 62
     5
 10
62.268648052854253
 20
-283.30579742556301
 30
0.0
 11
62.223374454533882
 21
-283.28668192964238
 31
0.0
  0
LINE
  8
DETAIL
  6
CONTINUOUS
 62
     5
 10
62.223374454533882
 20
-283.28668192964238
 30
0.0
 11
62.223374454533882
 21
-283.28668192964238
 31
0.0
  0
LINE
  8
DETAIL
  6
CONTINUOUS
 62
     5
 10
62.223374454533882
 20
-283.28668192964238
 30
0.0
 11
62.178418911238737
 21
-283.26687006452568
 31
0.0
  0
LINE
  8
DETAIL
  6
CONTINUOUS
 62
     5
 10
62.178418911238737
 20
-283.26687006452568
 30
0.0
 11
62.133724195486018
 21
-283.24632910011343
 31
0.0
  0
LINE
  8
DETAIL
  6
CONTINUOUS
 62
     5
 10
62.133724195486018
 20
-283.24632910011343
 30
0.0
 11
62.133724195486018
 21
-283.24632910011343
 31
0.0
  0
LINE
  8
DETAIL
  6
CONTINUOUS
 62
     5
 10
62.133724195486018
 20
-283.24632910011343
 30
0.0
 11
62.089287793779476
 21
-283.22505455992359
 31
0.0
  0
LINE
  8
DETAIL
  6
CONTINUOUS
 62
     5
 10
62.089287793779476
 20
-283.22505455992359
 30
0.0
 11
62.045381993841723
 21
-283.20318898909971
 31
0.0
  0
LINE
  8
DETAIL
  6
CONTINUOUS
 62
     5
 10
62.045381993841723
 20
-283.20318898909971
 30
0.0
 11
62.045381993841723
 21
-283.20318898909971
 31
0.0
  0
LINE
  8
DETAIL
  6
CONTINUOUS
 62
     5
 10
62.045381993841723
 20
-283.20318898909971
 30
0.0
 11
62.002236543513497
 21
-283.18085542775361
 31
0.0
  0
LINE
  8
DETAIL
  6
CONTINUOUS
 62
     5
 10
62.002236543513497
 20
-283.18085542775361
 30
0.0
 11
61.959636229891323
 21
-283.15795187424919
 31
0.0
  0
LINE
  8
DETAIL
  6
CONTINUOUS
 62
     5
 10
61.959636229891323
 20
-283.15795187424919
 30
0.0
 11
61.959636229891323
 21
-283.15795187424919
 31
0.0
  0
LINE
  8
DETAIL
  6
CONTINUOUS
 62
     5
 10
61.959636229891323
 20
-283.15795187424919
 30
0.0
 11
61.917325807425748
 21
-283.13435465983679
 31
0.0
  0
LINE
  8
DETAIL
  6
CONTINUOUS
 62
     5
 10
61.917325807425748
 20
-283.13435465983679
 30
0.0
 11
61.875334860725161
 21
-283.11007848905751
 31
0.0
  0
LINE
  8
DETAIL
  6
CONTINUOUS
 62
     5
 10
61.875334860725161
 20
-283.11007848905751
 30
0.0
 11
61.875334860725161
 21
-283.11007848905751
 31
0.0
  0
LINE
  8
DETAIL
  6
CONTINUOUS
 62
     5
 10
61.875334860725161
 20
-283.11007848905751
 30
0.0
 11
61.833744992980542
 21
-283.08516330749381
 31
0.0
  0
LINE
  8
DETAIL
  6
CONTINUOUS
 62
     5
 10
61.833744992980542
 20
-283.08516330749381
 30
0.0
 11
61.792561051554799
 21
-283.05961165160483
 31
0.0
  0
LINE
  8
DETAIL
  6
CONTINUOUS
 62
     5
 10
61.792561051554799
 20
-283.05961165160483
 30
0.0
 11
61.792561051554799
 21
-283.05961165160483
 31
0.0
  0
LINE
  8
DETAIL
  6
CONTINUOUS
 62
     5
 10
61.792561051554799
 20
-283.05961165160483
 30
0.0
 11
61.751774243142449
 21
-283.03341952136861
 31
0.0
  0
LINE
  8
DETAIL
  6
CONTINUOUS
 62
     5
 10
61.751774243142449
 20
-283.03341952136861
 30
0.0
 11
61.711397967592227
 21
-283.00659417997031
 31
0.0
  0
LINE
  8
DETAIL
  6
CONTINUOUS
 62
     5
 10
61.711397967592227
 20
-283.00659417997031
 30
0.0
 11
61.711397967592227
 21
-283.00659417997031
 31
0.0
  0
LINE
  8
DETAIL
  6
CONTINUOUS
 62
     5
 10
61.711397967592227
 20
-283.00659417997031
 30
0.0
 11
61.671448168843988
 21
-282.97914379547137
 31
0.0
  0
LINE
  8
DETAIL
  6
CONTINUOUS
 62
     5
 10
61.671448168843988
 20
-282.97914379547137
 30
0.0
 11
61.631928774049243
 21
-282.95106889223462
 31
0.0
  0
LINE
  8
DETAIL
  6
CONTINUOUS
 62
     5
 10
61.631928774049243
 20
-282.95106889223462
 30
0.0
 11
61.631928774049243
 21
-282.95106889223462
 31
0.0
  0
LINE
  8
DETAIL
  6
CONTINUOUS
 62
     5
 10
61.631928774049243
 20
-282.95106889223462
 30
0.0
 11
61.592843751036071
 21
-282.92237060819679
 31
0.0
  0
LINE
  8
DETAIL
  6
CONTINUOUS
 62
     5
 10
61.592843751036071
 20
-282.92237060819679
 30
0.0
 11
61.554209247128369
 21
-282.89306017928521
 31
0.0
  0
LINE
  8
DETAIL
  6
CONTINUOUS
 62
     5
 10
61.554209247128369
 20
-282.89306017928521
 30
0.0
 11
61.554209247128369
 21
-282.89306017928521
 31
0.0
  0
LINE
  8
DETAIL
  6
CONTINUOUS
 62
     5
 10
61.554209247128369
 20
-282.89306017928521
 30
0.0
 11
61.516041786754499
 21
-282.86314920847548
 31
0.0
  0
LINE
  8
DETAIL
  6
CONTINUOUS
 62
     5
 10
61.516041786754499
 20
-282.86314920847548
 30
0.0
 11
61.478347223266269
 21
-282.83264066895032
 31
0.0
  0
LINE
  8
DETAIL
  6
CONTINUOUS
 62
     5
 10
61.478347223266269
 20
-282.83264066895032
 30
0.0
 11
61.478347223266269
 21
-282.83264066895032
 31
0.0
  0
LINE
  8
DETAIL
  6
CONTINUOUS
 62
     5
 10
61.478347223266269
 20
-282.83264066895032
 30
0.0
 11
61.441132790206552
 21
-282.80153939281172
 31
0.0
  0
LINE
  8
DETAIL
  6
CONTINUOUS
 62
     5
 10
61.441132790206552
 20
-282.80153939281172
 30
0.0
 11
61.40442191295881
 21
-282.76986627764342
 31
0.0
  0
LINE
  8
DETAIL
  6
CONTINUOUS
 62
     5
 10
61.40442191295881
 20
-282.76986627764342
 30
0.0
 11
61.40442191295881
 21
-282.76986627764342
 31
0.0
  0
LINE
  8
DETAIL
  6
CONTINUOUS
 62
     5
 10
61.40442191295881
 20
-282.76986627764342
 30
0.0
 11
61.368228540795712
 21
-282.73763232936648
 31
0.0
  0
LINE
  8
DETAIL
  6
CONTINUOUS
 62
     5
 10
61.368228540795712
 20
-282.73763232936648
 30
0.0
 11
61.332512526702772
 21
-282.70479292177919
 31
0.0
  0
LINE
  8
DETAIL
  6
CONTINUOUS
 62
     5
 10
61.332512526702772
 20
-282.70479292177919
 30
0.0
 11
61.332512526702772
 21
-282.70479292177919
 31
0.0
  0
LINE
  8
DETAIL
  6
CONTINUOUS
 62
     5
 10
61.332512526702772
 20
-282.70479292177919
 30
0.0
 11
61.297270247919982
 21
-282.67134113640168
 31
0.0
  0
LINE
  8
DETAIL
  6
CONTINUOUS
 62
     5
 10
61.297270247919982
 20
-282.67134113640168
 30
0.0
 11
61.262698274993802
 21
-282.63747651777157
 31
0.0
  0
LINE
  8
DETAIL
  6
CONTINUOUS
 62
     5
 10
61.262698274993802
 20
-282.63747651777157
 30
0.0
 11
61.262698274993802
 21
-282.63747651777157
 31
0.0
  0
LINE
  8
DETAIL
  6
CONTINUOUS
 62
     5
 10
61.262698274993802
 20
-282.63747651777157
 30
0.0
 11
61.228962860736708
 21
-282.6033708377322
 31
0.0
  0
LINE
  8
DETAIL
  6
CONTINUOUS
 62
     5
 10
61.228962860736708
 20
-282.6033708377322
 30
0.0
 11
61.195908793723447
 21
-282.56887831434142
 31
0.0
  0
LINE
  8
DETAIL
  6
CONTINUOUS
 62
     5
 10
61.195908793723447
 20
-282.56887831434142
 30
0.0
 11
61.195908793723447
 21
-282.56887831434142
 31
0.0
  0
LINE
  8
DETAIL
  6
CONTINUOUS
 62
     5
 10
61.195908793723447
 20
-282.56887831434142
 30
0.0
 11
61.163351103562263
 21
-282.5338217088065
 31
0.0
  0
LINE
  8
DETAIL
  6
CONTINUOUS
 62
     5
 10
61.163351103562263
 20
-282.5338217088065
 30
0.0
 11
61.131307248231337
 21
-282.49821550872758
 31
0.0
  0
LINE
  8
DETAIL
  6
CONTINUOUS
 62
     5
 10
61.131307248231337
 20
-282.49821550872758
 30
0.0
 11
61.131307248231337
 21
-282.49821550872758
 31
0.0
  0
LINE
  8
DETAIL
  6
CONTINUOUS
 62
     5
 10
61.131307248231337
 20
-282.49821550872758
 30
0.0
 11
61.099836446417498
 21
-282.46211600849068
 31
0.0
  0
LINE
  8
DETAIL
  6
CONTINUOUS
 62
     5
 10
61.099836446417498
 20
-282.46211600849068
 30
0.0
 11
61.068962531270358
 21
-282.42555500324261
 31
0.0
  0
LINE
  8
DETAIL
  6
CONTINUOUS
 62
     5
 10
61.068962531270358
 20
-282.42555500324261
 30
0.0
 11
61.068962531270358
 21
-282.42555500324261
 31
0.0
  0
LINE
  8
DETAIL
  6
CONTINUOUS
 62
     5
 10
61.068962531270358
 20
-282.42555500324261
 30
0.0
 11
61.038685267999988
 21
-282.38853473096083
 31
0.0
  0
LINE
  8
DETAIL
  6
CONTINUOUS
 62
     5
 10
61.038685267999988
 20
-282.38853473096083
 30
0.0
 11
61.008943535594653
 21
-282.35096370019772
 31
0.0
  0
LINE
  8
DETAIL
  6
CONTINUOUS
 62
     5
 10
61.008943535594653
 20
-282.35096370019772
 30
0.0
 11
61.008943535594653
 21
-282.35096370019772
 31
0.0
  0
LINE
  8
DETAIL
  6
CONTINUOUS
 62
     5
 10
61.008943535594653
 20
-282.35096370019772
 30
0.0
 11
60.979730724093884
 21
-282.31282684138517
 31
0.0
  0
LINE
  8
DETAIL
  6
CONTINUOUS
 62
     5
 10
60.979730724093884
 20
-282.31282684138517
 30
0.0
 11
60.95131915395757
 21
-282.27450850190462
 31
0.0
  0
LINE
  8
DETAIL
  6
CONTINUOUS
 62
     5
 10
60.95131915395757
 20
-282.27450850190462
 30
0.0
 11
60.95131915395757
 21
-282.27450850190462
 31
0.0
  0
LINE
  8
DETAIL
  6
CONTINUOUS
 62
     5
 10
60.95131915395757
 20
-282.27450850190462
 30
0.0
 11
60.923936445974391
 21
-282.23633637403941
 31
0.0
  0
LINE
  8
DETAIL
  6
CONTINUOUS
 62
     5
 10
60.923936445974391
 20
-282.23633637403941
 30
0.0
 11
60.897352491826503
 21
-282.19801211272602
 31
0.0
  0
LINE
  8
DETAIL
  6
CONTINUOUS
 62
     5
 10
60.897352491826503
 20
-282.19801211272602
 30
0.0
 11
60.897352491826503
 21
-282.19801211272602
 31
0.0
  0
LINE
  8
DETAIL
  6
CONTINUOUS
 62
     5
 10
60.897352491826503
 20
-282.19801211272602
 30
0.0
 11
60.87129692930273
 21
-282.15917876399038
 31
0.0
  0
LINE
  8
DETAIL
  6
CONTINUOUS
 62
     5
 10
60.87129692930273
 20
-282.15917876399038
 30
0.0
 11
60.845796109723778
 21
-282.11987097555681
 31
0.0
  0
LINE
  8
DETAIL
  6
CONTINUOUS
 62
     5
 10
60.845796109723778
 20
-282.11987097555681
 30
0.0
 11
60.845796109723778
 21
-282.11987097555681
 31
0.0
  0
LINE
  8
DETAIL
  6
CONTINUOUS
 62
     5
 10
60.845796109723778
 20
-282.11987097555681
 30
0.0
 11
60.820931061791157
 21
-282.08019582828751
 31
0.0
  0
LINE
  8
DETAIL
  6
CONTINUOUS
 62
     5
 10
60.820931061791157
 20
-282.08019582828751
 30
0.0
 11
60.796704810193091
 21
-282.04015853389552
 31
0.0
  0
LINE
  8
DETAIL
  6
CONTINUOUS
 62
     5
 10
60.796704810193091
 20
-282.04015853389552
 30
0.0
 11
60.796704810193091
 21
-282.04015853389552
 31
0.0
  0
LINE
  8
DETAIL
  6
CONTINUOUS
 62
     5
 10
60.796704810193091
 20
-282.04015853389552
 30
0.0
 11
60.773104704244588
 21
-281.99974280553101
 31
0.0
  0
LINE
  8
DETAIL
  6
CONTINUOUS
 62
     5
 10
60.773104704244588
 20
-281.99974280553101
 30
0.0
 11
60.750133395777652
 21
-281.95894823123922
 31
0.0
  0
LINE
  8
DETAIL
  6
CONTINUOUS
 62
     5
 10
60.750133395777652
 20
-281.95894823123922
 30
0.0
 11
60.750133395777652
 21
-281.95894823123922
 31
0.0
  0
LINE
  8
DETAIL
  6
CONTINUOUS
 62
     5
 10
60.750133395777652
 20
-281.95894823123922
 30
0.0
 11
60.727801560739522
 21
-281.91778796018161
 31
0.0
  0
LINE
  8
DETAIL
  6
CONTINUOUS
 62
     5
 10
60.727801560739522
 20
-281.91778796018161
 30
0.0
 11
60.706136669021362
 21
-281.87631351108672
 31
0.0
  0
LINE
  8
DETAIL
  6
CONTINUOUS
 62
     5
 10
60.706136669021362
 20
-281.87631351108672
 30
0.0
 11
60.706136669021362
 21
-281.87631351108672
 31
0.0
  0
LINE
  8
DETAIL
  6
CONTINUOUS
 62
     5
 10
60.706136669021362
 20
-281.87631351108672
 30
0.0
 11
60.685161330126682
 21
-281.83456888653927
 31
0.0
  0
LINE
  8
DETAIL
  6
CONTINUOUS
 62
     5
 10
60.685161330126682
 20
-281.83456888653927
 30
0.0
 11
60.664861918064503
 21
-281.79252965497972
 31
0.0
  0
LINE
  8
DETAIL
  6
CONTINUOUS
 62
     5
 10
60.664861918064503
 20
-281.79252965497972
 30
0.0
 11
60.664861918064503
 21
-281.79252965497972
 31
0.0
  0
LINE
  8
DETAIL
  6
CONTINUOUS
 62
     5
 10
60.664861918064503
 20
-281.79252965497972
 30
0.0
 11
60.645221532858159
 21
-281.75016490076632
 31
0.0
  0
LINE
  8
DETAIL
  6
CONTINUOUS
 62
     5
 10
60.645221532858159
 20
-281.75016490076632
 30
0.0
 11
60.626246414083077
 21
-281.70748620607583
 31
0.0
  0
LINE
  8
DETAIL
  6
CONTINUOUS
 62
     5
 10
60.626246414083077
 20
-281.70748620607583
 30
0.0
 11
60.626246414083077
 21
-281.70748620607583
 31
0.0
  0
LINE
  8
DETAIL
  6
CONTINUOUS
 62
     5
 10
60.626246414083077
 20
-281.70748620607583
 30
0.0
 11
60.60794761645036
 21
-281.66451482154162
 31
0.0
  0
LINE
  8
DETAIL
  6
CONTINUOUS
 62
     5
 10
60.60794761645036
 20
-281.66451482154162
 30
0.0
 11
60.590332315658877
 21
-281.62126817380198
 31
0.0
  0
LINE
  8
DETAIL
  6
CONTINUOUS
 62
     5
 10
60.590332315658877
 20
-281.62126817380198
 30
0.0
 11
60.590332315658877
 21
-281.62126817380198
 31
0.0
  0
LINE
  8
DETAIL
  6
CONTINUOUS
 62
     5
 10
60.590332315658877
 20
-281.62126817380198
 30
0.0
 11
60.573404811778687
 21
-281.57775593303631
 31
0.0
  0
LINE
  8
DETAIL
  6
CONTINUOUS
 62
     5
 10
60.573404811778687
 20
-281.57775593303631
 30
0.0
 11
60.557161781371967
 21
-281.53396056758578
 31
0.0
  0
LINE
  8
DETAIL
  6
CONTINUOUS
 62
     5
 10
60.557161781371967
 20
-281.53396056758578
 30
0.0
 11
60.557161781371967
 21
-281.53396056758578
 31
0.0
  0
LINE
  8
DETAIL
  6
CONTINUOUS
 62
     5
 10
60.557161781371967
 20
-281.53396056758578
 30
0.0
 11
60.541606588384518
 21
-281.48988590316827
 31
0.0
  0
LINE
  8
DETAIL
  6
CONTINUOUS
 62
     5
 10
60.541606588384518
 20
-281.48988590316827
 30
0.0
 11
60.526776969803791
 21
-281.44564839685307
 31
0.0
  0
LINE
  8
DETAIL
  6
CONTINUOUS
 62
     5
 10
60.526776969803791
 20
-281.44564839685307
 30
0.0
 11
60.526776969803791
 21
-281.44564839685307
 31
0.0
  0
LINE
  8
DETAIL
  6
CONTINUOUS
 62
     5
 10
60.526776969803791
 20
-281.44564839685307
 30
0.0
 11
60.512704433690828
 21
-281.40134850677902
 31
0.0
  0
LINE
  8
DETAIL
  6
CONTINUOUS
 62
     5
 10
60.512704433690828
 20
-281.40134850677902
 30
0.0
 11
60.499361199357281
 21
-281.35691006400788
 31
0.0
  0
LINE
  8
DETAIL
  6
CONTINUOUS
 62
     5
 10
60.499361199357281
 20
-281.35691006400788
 30
0.0
 11
60.499361199357281
 21
-281.35691006400788
 31
0.0
  0
LINE
  8
DETAIL
  6
CONTINUOUS
 62
     5
 10
60.499361199357281
 20
-281.35691006400788
 30
0.0
 11
60.486714185787719
 21
-281.31223922646438
 31
0.0
  0
LINE
  8
DETAIL
  6
CONTINUOUS
 62
     5
 10
60.486714185787719
 20
-281.31223922646438
 30
0.0
 11
60.474768399405207
 21
-281.26734808658381
 31
0.0
  0
LINE
  8
DETAIL
  6
CONTINUOUS
 62
     5
 10
60.474768399405207
 20
-281.26734808658381
 30
0.0
 11
60.474768399405207
 21
-281.26734808658381
 31
0.0
  0
LINE
  8
DETAIL
  6
CONTINUOUS
 62
     5
 10
60.474768399405207
 20
-281.26734808658381
 30
0.0
 11
60.463536624997801
 21
-281.22227385617862
 31
0.0
  0
LINE
  8
DETAIL
  6
CONTINUOUS
 62
     5
 10
60.463536624997801
 20
-281.22227385617862
 30
0.0
 11
60.453024673376042
 21
-281.17704829004992
 31
0.0
  0
LINE
  8
DETAIL
  6
CONTINUOUS
 62
     5
 10
60.453024673376042
 20
-281.17704829004992
 30
0.0
 11
60.453024673376042
 21
-281.17704829004992
 31
0.0
  0
LINE
  8
DETAIL
  6
CONTINUOUS
 62
     5
 10
60.453024673376042
 20
-281.17704829004992
 30
0.0
 11
60.443234063974273
 21
-281.13168075212752
 31
0.0
  0
LINE
  8
DETAIL
  6
CONTINUOUS
 62
     5
 10
60.443234063974273
 20
-281.13168075212752
 30
0.0
 11
60.434156124698227
 21
-281.08609649987602
 31
0.0
  0
LINE
  8
DETAIL
  6
CONTINUOUS
 62
     5
 10
60.434156124698227
 20
-281.08609649987602
 30
0.0
 11
60.434156124698227
 21
-281.08609649987602
 31
0.0
  0
LINE
  8
DETAIL
  6
CONTINUOUS
 62
     5
 10
60.434156124698227
 20
-281.08609649987602
 30
0.0
 11
60.425791570594008
 21
-281.04028523486181
 31
0.0
  0
LINE
  8
DETAIL
  6
CONTINUOUS
 62
     5
 10
60.425791570594008
 20
-281.04028523486181
 30
0.0
 11
60.418188856799702
 21
-280.99457854153138
 31
0.0
  0
LINE
  8
DETAIL
  6
CONTINUOUS
 62
     5
 10
60.418188856799702
 20
-280.99457854153138
 30
0.0
 11
60.418188856799702
 21
-280.99457854153138
 31
0.0
  0
LINE
  8
DETAIL
  6
CONTINUOUS
 62
     5
 10
60.418188856799702
 20
-280.99457854153138
 30
0.0
 11
60.411386175696748
 21
-280.94925876464481
 31
0.0
  0
LINE
  8
DETAIL
  6
CONTINUOUS
 62
     5
 10
60.411386175696748
 20
-280.94925876464481
 30
0.0
 11
60.405332928548773
 21
-280.90406940734061
 31
0.0
  0
LINE
  8
DETAIL
  6
CONTINUOUS
 62
     5
 10
60.405332928548773
 20
-280.90406940734061
 30
0.0
 11
60.405332928548773
 21
-280.90406940734061
 31
0.0
  0
LINE
  8
DETAIL
  6
CONTINUOUS
 62
     5
 10
60.405332928548773
 20
-280.90406940734061
 30
0.0
 11
60.399973280763668
 21
-280.85870475762391
 31
0.0
  0
LINE
  8
DETAIL
  6
CONTINUOUS
 62
     5
 10
60.399973280763668
 20
-280.85870475762391
 30
0.0
 11
60.395319245439737
 21
-280.81320108458863
 31
0.0
  0
LINE
  8
DETAIL
  6
CONTINUOUS
 62
     5
 10
60.395319245439737
 20
-280.81320108458863
 30
0.0
 11
60.395319245439737
 21
-280.81320108458863
 31
0.0
  0
LINE
  8
DETAIL
  6
CONTINUOUS
 62
     5
 10
60.395319245439737
 20
-280.81320108458863
 30
0.0
 11
60.391388834900788
 21
-280.76765710915203
 31
0.0
  0
LINE
  8
DETAIL
  6
CONTINUOUS
 62
     5
 10
60.391388834900788
 20
-280.76765710915203
 30
0.0
 11
60.388156210677948
 21
-280.7220793784395
 31
0.0
  0
LINE
  8
DETAIL
  6
CONTINUOUS
 62
     5
 10
60.388156210677948
 20
-280.7220793784395
 30
0.0
 11
60.388156210677948
 21
-280.7220793784395
 31
0.0
  0
LINE
  8
DETAIL
  6
CONTINUOUS
 62
     5
 10
60.388156210677948
 20
-280.7220793784395
 30
0.0
 11
60.385611460474713
 21
-280.67645807464868
 31
0.0
  0
LINE
  8
DETAIL
  6
CONTINUOUS
 62
     5
 10
60.385611460474713
 20
-280.67645807464868
 30
0.0
 11
60.383852227469902
 21
-280.63081009405818
 31
0.0
  0
LINE
  8
DETAIL
  6
CONTINUOUS
 62
     5
 10
60.383852227469902
 20
-280.63081009405818
 30
0.0
 11
60.383852227469902
 21
-280.63081009405818
 31
0.0
  0
LINE
  8
DETAIL
  6
CONTINUOUS
 62
     5
 10
60.383852227469902
 20
-280.63081009405818
 30
0.0
 11
60.382906450934001
 21
-280.58515534083381
 31
0.0
  0
LINE
  8
DETAIL
  6
CONTINUOUS
 62
     5
 10
60.382906450934001
 20
-280.58515534083381
 30
0.0
 11
60.382415699021522
 21
-280.53949903660941
 31
0.0
  0
LINE
  8
DETAIL
  6
CONTINUOUS
 62
     5
 10
-86.16570327552995
 20
-242.46628131021239
 30
0.0
 11
-86.16570327552995
 21
-238.45857418111791
 31
0.0
  0
LINE
  8
DETAIL
  6
CONTINUOUS
 62
     5
 10
-63.56947113424917
 20
-242.46628131021239
 30
0.0
 11
-63.56947113424917
 21
-238.45857418111791
 31
0.0
  0
LINE
  8
DETAIL
  6
CONTINUOUS
 62
     5
 10
-2.504816955684078
 20
-230.4431599229292
 30
0.0
 11
-2.504816955684078
 21
-238.45857418111791
 31
0.0
  0
LINE
  8
DETAIL
  6
CONTINUOUS
 62
     5
 10
2.5048169556839639
 20
-230.4431599229292
 30
0.0
 11
2.5048169556839639
 21
-238.45857418111791
 31
0.0
  0
LINE
  8
DETAIL
  6
CONTINUOUS
 62
     5
 10
63.569471134249063
 20
-242.46628131021239
 30
0.0
 11
63.569471134249063
 21
-238.45857418111791
 31
0.0
  0
LINE
  8
DETAIL
  6
CONTINUOUS
 62
     5
 10
-2.504816955684078
 20
-230.4431599229292
 30
0.0
 11
2.5048169556839639
 21
-230.4431599229292
 31
0.0
  0
LINE
  8
BASIS
  6
DASHDOT
 62
     6
 10
0.0
 20
-327.18397753849081
 30
0.0
 11
0.0
 21
60.01624219440555
 31
0.0
  0
LINE
  8
SIZE
  6
CONTINUOUS
 62
    30
 10
-65.325626204238688
 20
-318.67437379576131
 30
0.0
 11
-65.325626204238688
 21
-476.98208428407861
 31
0.0
  0
LINE
  8
SIZE
  6
CONTINUOUS
 62
    30
 10
65.325626204239597
 20
-318.67437379576131
 30
0.0
 11
65.325626204239597
 21
-476.98208428407861
 31
0.0
  0
LINE
  8
SIZE
  6
CONTINUOUS
 62
    30
 10
-53.325626204238688
 20
-456.98208428407861
 30
0.0
 11
53.325626204239597
 21
-456.98208428407861
 31
0.0
  0
LINE
  8
SIZE
  6
CONTINUOUS
 62
    30
 10
65.325626204239597
 20
-456.98208428407861
 30
0.0
 11
300.12562620423961
 21
-456.98208428407861
 31
0.0
  0
CIRCLE
  8
SIZE
  6
CONTINUOUS
 62
    30
 10
-65.325626204238688
 20
-456.98208428407861
 30
0.0
 40
6.0
  0
LINE
  8
SIZE
  6
CONTINUOUS
 62
    30
 10
-65.325626204238688
 20
-456.98208428407861
 30
0.0
 11
-53.325626204238688
 21
-456.98208428407861
 31
0.0
  0
CIRCLE
  8
SIZE
  6
CONTINUOUS
 62
    30
 10
65.325626204239597
 20
-456.98208428407861
 30
0.0
 40
6.0
  0
LINE
  8
SIZE
  6
CONTINUOUS
 62
    30
 10
65.325626204239597
 20
-456.98208428407861
 30
0.0
 11
53.325626204239597
 21
-456.98208428407861
 31
0.0
  0
TEXT
  8
SIZE
  6
CONTINUOUS
 62
    30
 10
92.177054775668154
 20
-421.31541761741198
 30
0.0
 40
64.0
  1
φ131
 41
0.9
 72
     1
 11
188.7256262042396
 21
-421.31541761741198
 31
0.0
  0
POINT
  8
DEFPOINTS
  6
CONTINUOUS
 62
    30
 10
-65.325626204238688
 20
-298.67437379576131
 30
0.0
  0
POINT
  8
DEFPOINTS
  6
CONTINUOUS
 62
    30
 10
65.325626204239597
 20
-298.67437379576131
 30
0.0
  0
POINT
  8
DEFPOINTS
  6
CONTINUOUS
 62
    30
 10
65.325626204239597
 20
-456.98208428407861
 30
0.0
  0
ARC
  8
DETAIL
  6
CONTINUOUS
 62
     5
 10
-102.62439325492321
 20
-179.57700022178261
 30
0.0
 40
103.9319850740511
 50
178.7672616640173
 51
254.10984016966941
  0
ARC
  8
DETAIL
  6
CONTINUOUS
 62
     5
 10
-96.319717126717933
 20
-178.31069309234999
 30
0.0
 40
107.028887540159
 50
179.48090870557499
 51
251.04787065963069
  0
ARC
  8
DETAIL
  6
CONTINUOUS
 62
     5
 10
-109.0464645247534
 20
-179.29444822128269
 30
0.0
 40
71.653364318499769
 50
178.43781391100549
 51
252.09096545456109
  0
ARC
  8
DETAIL
  6
CONTINUOUS
 62
     5
 10
-194.71600823209431
 20
-7.4346750959505243
 30
0.0
 40
2.5916927064155608
 50
194.01490649251289
 51
265.75797108464809
  0
ARC
  8
DETAIL
  6
CONTINUOUS
 62
     5
 10
-210.59185320260991
 20
-10.541280470920359
 30
0.0
 40
13.58931915512612
 50
10.510751252529291
 51
33.688618550854159
  0
ARC
  8
DETAIL
  6
CONTINUOUS
 62
     5
 10
-194.43226356615111
 20
-8.0794983657351622
 30
0.0
 40
6.4659440374839088
 50
194.93914122923229
 51
265.78314097979438
  0
ARC
  8
DETAIL
  6
CONTINUOUS
 62
     5
 10
-205.85084148326811
 20
-9.8698550613510179
 30
0.0
 40
5.1726556254472236
 50
1.367900929068153
 51
66.959604617261775
  0
ARC
  8
DETAIL
  6
CONTINUOUS
 62
     5
 10
-244.127670549231
 20
-8.2323180326802685
 30
0.0
 40
6.3066537963497042
 50
196.4598611010415
 51
266.61032666560908
  0
ARC
  8
DETAIL
  6
CONTINUOUS
 62
     5
 10
-255.41019132464359
 20
-9.9511880313150414
 30
0.0
 40
5.2347660304861217
 50
359.25482921999787
 51
67.645404057338681
  0
ARC
  8
DETAIL
  6
CONTINUOUS
 62
     5
 10
102.62439325488501
 20
-179.57700022178261
 30
0.0
 40
103.9319850740511
 50
285.89015983033062
 51
1.232738335982714
  0
ARC
  8
DETAIL
  6
CONTINUOUS
 62
     5
 10
96.319717126679734
 20
-178.31069309234999
 30
0.0
 40
107.028887540159
 50
288.95212934036931
 51
0.5190912944249621
  0
ARC
  8
DETAIL
  6
CONTINUOUS
 62
     5
 10
109.0464645247152
 20
-179.29444822128269
 30
0.0
 40
71.653364318499769
 50
287.90903454543889
 51
1.562186088994459
  0
ARC
  8
DETAIL
  6
CONTINUOUS
 62
     5
 10
194.71600823209431
 20
-7.4346750959505243
 30
0.0
 40
2.5916927064155608
 50
274.24202891535191
 51
345.98509350748702
  0
ARC
  8
DETAIL
  6
CONTINUOUS
 62
     5
 10
210.59185320260991
 20
-10.541280470920359
 30
0.0
 40
13.58931915512612
 50
146.31138144914581
 51
169.4892487474707
  0
ARC
  8
DETAIL
  6
CONTINUOUS
 62
     5
 10
194.43226356615119
 20
-8.0794983657351622
 30
0.0
 40
6.4659440374839088
 50
274.21685902020562
 51
345.06085877076782
  0
ARC
  8
DETAIL
  6
CONTINUOUS
 62
     5
 10
205.85084148326811
 20
-9.8698550613510179
 30
0.0
 40
5.1726556254472236
 50
113.0403953827382
 51
178.63209907093179
  0
ARC
  8
DETAIL
  6
CONTINUOUS
 62
     5
 10
244.127670549231
 20
-8.2323180326802685
 30
0.0
 40
6.3066537963497042
 50
273.38967333439092
 51
343.5401388989585
  0
ARC
  8
DETAIL
  6
CONTINUOUS
 62
     5
 10
255.4101913246441
 20
-9.9511880313150414
 30
0.0
 40
5.2347660304861217
 50
112.35459594266131
 51
180.7451707800021
  0
ARC
  8
DETAIL
  6
CONTINUOUS
 62
     5
 10
-236.4080059753214
 20
-43.346435130450352
 30
0.0
 40
23.50781232399369
 50
33.522035604964401
 51
82.522436308778069
  0
ARC
  8
DETAIL
  6
CONTINUOUS
 62
     5
 10
-283.49631019246362
 20
-72.65795049783901
 30
0.0
 40
78.967173520910592
 50
12.932945735976711
 51
32.383809003799279
  0
ARC
  8
DETAIL
  6
CONTINUOUS
 62
     5
 10
236.4080059753214
 20
-43.346435130450352
 30
0.0
 40
23.50781232399369
 50
97.477563691221945
 51
146.4779643950356
  0
ARC
  8
DETAIL
  6
CONTINUOUS
 62
     5
 10
283.49631019246408
 20
-72.65795049783901
 30
0.0
 40
78.967173520910592
 50
147.61619099620069
 51
167.06705426402331
  0
ARC
  8
DETAIL
  6
CONTINUOUS
 62
     5
 10
-141.13938669566139
 20
-81.595566636396597
 30
0.0
 40
78.402673396202587
 50
239.7185582850868
 51
267.38979535135189
  0
ARC
  8
DETAIL
  6
CONTINUOUS
 62
     5
 10
-60.674680448879833
 20
689.74989230722713
 30
0.0
 40
853.81237439382232
 50
264.35160195363437
 51
269.35627069031949
  0
ARC
  8
DETAIL
  6
CONTINUOUS
 62
     5
 10
-70.694242678586761
 20
-158.82427016119979
 30
0.0
 40
5.200511301536956
 50
274.54514994707648
 51
16.200432961227449
  0
ARC
  8
DETAIL
  6
CONTINUOUS
 62
     5
 10
95.887745639493914
 20
-123.8044059697834
 30
0.0
 40
165.03802200216481
 50
185.50082562517659
 51
191.73592221483739
  0
ARC
  8
DETAIL
  6
CONTINUOUS
 62
     5
 10
93.096993767105687
 20
6962.8932512042647
 30
0.0
 40
7104.3538174155619
 50
268.69751218909732
 51
268.72534178533982
  0
ARC
  8
DETAIL
  6
CONTINUOUS
 62
     5
 10
-118.8841858052797
 20
-99.212933970284894
 30
0.0
 40
67.448808185490222
 50
323.10849388553407
 51
327.6941585868305
  0
ARC
  8
DETAIL
  6
CONTINUOUS
 62
     5
 10
320.71419729077837
 20
-348.10320653622728
 30
0.0
 40
361.7293679934545
 50
144.47590656225501
 51
148.7643647358789
  0
ARC
  8
DETAIL
  6
CONTINUOUS
 62
     5
 10
13.38717146164117
 20
-161.7962710662928
 30
0.0
 40
2.341718070085308
 50
147.12656776761571
 51
263.6174131605826
  0
ARC
  8
DETAIL
  6
CONTINUOUS
 62
     5
 10
-92.922493502188445
 20
1594.2726248887261
 30
0.0
 40
1761.591129030418
 50
273.45134342303169
 51
274.78105562451668
  0
ARC
  8
DETAIL
  6
CONTINUOUS
 62
     5
 10
60.133262499842203
 20
-13.89652647612365
 30
0.0
 40
145.86421889905989
 50
281.23176873861399
 51
303.69171464039988
  0
ARC
  8
DETAIL
  6
CONTINUOUS
 62
     5
 10
62.028353113387539
 20
-154.14235609848359
 30
0.0
 40
10.783489787396499
 50
203.43028178196599
 51
242.08670164368371
  0
ARC
  8
DETAIL
  6
CONTINUOUS
 62
     5
 10
59.7329240670947
 20
-155.86623473758121
 30
0.0
 40
8.2762194382463736
 50
250.57312940828081
 51
274.87532883750413
  0
ARC
  8
DETAIL
  6
CONTINUOUS
 62
     5
 10
61.510239887988519
 20
-88.75212188230762
 30
0.0
 40
75.368040581377016
 50
269.18355102126748
 51
281.49336114375791
  0
ARC
  8
DETAIL
  6
CONTINUOUS
 62
     5
 10
72.934034247922682
 20
-152.98556995910101
 30
0.0
 40
10.272387592664501
 50
290.4770912886143
 51
313.85833066451983
  0
ARC
  8
DETAIL
  6
CONTINUOUS
 62
     5
 10
79.579328995198921
 20
-159.9121641747515
 30
0.0
 40
0.6735983242449565
 50
314.50969986084658
 51
44.838076448685612
  0
ARC
  8
DETAIL
  6
CONTINUOUS
 62
     5
 10
53.393108552143993
 20
-183.5443571987696
 30
0.0
 40
35.945201262874782
 50
42.096425826675571
 51
44.792046311690598
  0
ARC
  8
DETAIL
  6
CONTINUOUS
 62
     5
 10
48.086097973139601
 20
-122.75500303518911
 30
0.0
 40
26.534980316594002
 50
208.11680464519361
 51
219.69402696381059
  0
ARC
  8
DETAIL
  6
CONTINUOUS
 62
     5
 10
-39.313998492406427
 20
789.49216179143764
 30
0.0
 40
955.05645096017588
 50
277.11025364123492
 51
277.69358695116341
  0
ARC
  8
DETAIL
  6
CONTINUOUS
 62
     5
 10
-195.8816378497375
 20
-422.31678175315358
 30
0.0
 40
381.12135188716422
 50
43.863887263176373
 51
48.867437767516051
  0
ARC
  8
DETAIL
  6
CONTINUOUS
 62
     5
 10
-120.2566369008829
 20
-237.90442081050469
 30
0.0
 40
189.82804401844791
 50
24.750277681103508
 51
31.231948172558511
  0
ARC
  8
DETAIL
  6
CONTINUOUS
 62
     5
 10
27.668329046517901
 20
321.28514859149368
 30
0.0
 40
460.98771465094921
 50
270.0
 51
271.78909784094998
  0
ARC
  8
DETAIL
  6
CONTINUOUS
 62
     5
 10
90.988870448106979
 20
81.806861495189992
 30
0.0
 40
343.81274907130933
 50
269.98985677392989
 51
275.41374831859912
  0
ARC
  8
DETAIL
  6
CONTINUOUS
 62
     5
 10
85.790029162832695
 20
227.1128130587438
 30
0.0
 40
498.37707227025231
 50
270.59699799979609
 51
274.23283348454902
  0
ARC
  8
DETAIL
  6
CONTINUOUS
 62
     5
 10
116.4045817580887
 20
-196.41571769035679
 30
0.0
 40
64.440282528790163
 50
276.25594488997132
 51
356.43683451116777
  0
ARC
  8
DETAIL
  6
CONTINUOUS
 62
     5
 10
116.25731063130441
 20
-196.4494801909957
 30
0.0
 40
73.726568372140505
 50
274.91582100194307
 51
355.48863227947197
  0
ARC
  8
DETAIL
  6
CONTINUOUS
 62
     5
 10
86.215013179737468
 20
-65.24468667967551
 30
0.0
 40
101.8156926695777
 50
354.27918918100659
 51
18.490232369449391
  0
ARC
  8
DETAIL
  6
CONTINUOUS
 62
     5
 10
99.955471233113371
 20
-64.339657254407882
 30
0.0
 40
97.42319878747476
 50
353.48461462016172
 51
21.813460767740761
  0
ARC
  8
DETAIL
  6
CONTINUOUS
 62
     5
 10
186.23528295956709
 20
-29.950369712771479
 30
0.0
 40
4.5445283341516536
 50
120.833664994654
 51
22.331655309113231
  0
ARC
  8
DETAIL
  6
CONTINUOUS
 62
     5
 10
105.7374402472803
 20
-597.16835795594614
 30
0.0
 40
335.48949991633822
 50
92.530016540189422
 51
98.772887847086182
  0
ARC
  8
DETAIL
  6
CONTINUOUS
 62
     5
 10
108.68972390007249
 20
-613.75816747160695
 30
0.0
 40
342.97834320170222
 50
92.959319059925534
 51
99.247559473595743
  0
ARC
  8
DETAIL
  6
CONTINUOUS
 62
     5
 10
-1240.846077544435
 20
-61.694539853604617
 30
0.0
 40
1428.319247024805
 50
354.42633824714051
 51
359.30976910285801
  0
ARC
  8
DETAIL
  6
CONTINUOUS
 62
     5
 10
-1090.020497535862
 20
-69.388365162426908
 30
35.211267973180412
 40
1286.653926770085
 50
354.07305813901712
 51
359.57638519956458
  0
CIRCLE
  8
DETAIL
  6
CONTINUOUS
 62
     5
 10
183.40572799922359
 20
-30.118970660881931
 30
0.0
 40
1.5019551727974541
  0
CIRCLE
  8
DETAIL
  6
CONTINUOUS
 62
     5
 10
185.2549487132853
 20
-25.004312828053461
 30
0.0
 40
1.5019551727974541
  0
ARC
  8
DETAIL
  6
CONTINUOUS
 62
     5
 10
32.22098380961404
 20
-289.0826915924784
 30
0.0
 40
6.9218086156379064
 50
126.8301001748669
 51
141.42959575781501
  0
ARC
  8
DETAIL
  6
CONTINUOUS
 62
     5
 10
32.309407694952029
 20
-289.13190894381222
 30
0.0
 40
7.0216477477344093
 50
141.56545727187591
 51
170.4737825062339
  0
ARC
  8
DETAIL
  6
CONTINUOUS
 62
     5
 10
32.934695253174311
 20
-289.24303798481679
 30
0.0
 40
7.6567067482899516
 50
170.42804462709941
 51
189.35028174771591
  0
ARC
  8
DETAIL
  6
CONTINUOUS
 62
     5
 10
33.651220024961901
 20
-289.12660897118519
 30
0.0
 40
8.3826277641440576
 50
189.33981344699961
 51
207.14863262933861
  0
ARC
  8
DETAIL
  6
CONTINUOUS
 62
     5
 10
34.248415698187159
 20
-288.8171679727252
 30
0.0
 40
9.0552263777751616
 50
207.16665293023581
 51
231.5287519952077
  0
ARC
  8
DETAIL
  6
CONTINUOUS
 62
     5
 10
34.26907372986318
 20
-288.83363240990951
 30
0.0
 40
9.0552263777759556
 50
231.36160487299259
 51
255.7237039379645
  0
ARC
  8
DETAIL
  6
CONTINUOUS
 62
     5
 10
34.100657057566018
 20
-289.48480998026872
 30
0.0
 40
8.3826277641450311
 50
255.74172423886461
 51
273.55054342119962
  0
ARC
  8
DETAIL
  6
CONTINUOUS
 62
     5
 10
34.147008885651637
 20
-290.20925112476539
 30
0.0
 40
7.6567067482867168
 50
273.54007512047639
 51
292.46231224110238
  0
ARC
  8
DETAIL
  6
CONTINUOUS
 62
     5
 10
34.394830271782673
 20
-290.79398931814251
 30
0.0
 40
7.0216477477346517
 50
292.41657436196198
 51
321.32489959632147
  0
ARC
  8
DETAIL
  6
CONTINUOUS
 62
     5
 10
34.376456142574341
 20
-290.81704345227052
 30
0.0
 40
7.0216477477344537
 50
321.56545727187938
 51
350.47378250623387
  0
ARC
  8
DETAIL
  6
CONTINUOUS
 62
     5
 10
33.751168584352001
 20
-290.70591441126578
 30
0.0
 40
7.6567067482900812
 50
350.42804462709938
 51
9.3502817477159414
  0
ARC
  8
DETAIL
  6
CONTINUOUS
 62
     5
 10
38.29869032307522
 20
-289.65123599350721
 30
0.0
 40
3.0134063479914222
 50
3.6017506035401632
 51
21.41056978587854
  0
ARC
  8
DETAIL
  6
CONTINUOUS
 62
     5
 10
61.296126019028748
 20
-296.04968850469521
 30
0.0
 40
31.18012194613879
 50
102.4592059240466
 51
122.3745473391576
  0
ARC
  8
DETAIL
  6
CONTINUOUS
 62
     5
 10
74.925141179803802
 20
-306.94203420034989
 30
0.0
 40
38.22431684529743
 50
123.95923855316011
 51
149.50652721805471
  0
ARC
  8
DETAIL
  6
CONTINUOUS
 62
     5
 10
29.16757344405659
 20
-277.17288709840102
 30
0.0
 40
16.49082990898032
 50
280.48893760405701
 51
321.02424267607859
  0
ARC
  8
DETAIL
  6
CONTINUOUS
 62
     5
 10
32.69670402415403
 20
-288.48200951083879
 30
0.0
 40
4.9343749033627322
 50
90.289940924329343
 51
263.86847553127501
  0
CIRCLE
  8
DETAIL
  6
CONTINUOUS
 62
     5
 10
191.37430444911811
 20
-25.087087395139289
 30
0.0
 40
1.5019551727974541
  0
ARC
  8
DETAIL
  6
CONTINUOUS
 62
     5
 10
51.607567556519768
 20
-273.68188966397253
 30
0.0
 40
8.0348000735127236
 50
76.570825001802262
 51
178.15672075833049
  0
ARC
  8
DETAIL
  6
CONTINUOUS
 62
     5
 10
40.462037627091377
 20
-280.43092210630653
 30
0.0
 40
3.1158223907289142
 50
268.24286975937008
 51
358.00301210898169
  0
ARC
  8
DETAIL
  6
CONTINUOUS
 62
     5
 10
419.96219594824288
 20
5.9280091552690237
 30
0.0
 40
235.2395366639183
 50
187.53668376443821
 51
188.1018466676785
  0
ARC
  8
DETAIL
  6
CONTINUOUS
 62
     5
 10
205.826237696411
 20
-22.723520614775051
 30
0.0
 40
22.17093299883539
 50
185.90463950899479
 51
197.28221964399961
  0
ARC
  8
DETAIL
  6
CONTINUOUS
 62
     5
 10
16805.907186319939
 20
-16707.521369308579
 30
0.0
 40
23546.082829180301
 50
134.8833736859695
 51
134.8988415214157
  0
ARC
  8
DETAIL
  6
CONTINUOUS
 62
     5
 10
154.64723512167009
 20
6.0424074862762609
 30
0.0
 40
49.550050387535933
 50
311.40896304103978
 51
319.26505271115752
  0
ARC
  8
OUTLINE
  6
CONTINUOUS
 62
     3
 10
-102.62439325490359
 20
-179.577000229611
 30
0.0
 40
103.9319850740511
 50
178.7672616640173
 51
254.10984016966941
  0
ARC
  8
OUTLINE
  6
CONTINUOUS
 62
     3
 10
-244.1276705492113
 20
-8.2323180405087442
 30
0.0
 40
6.3066537963497042
 50
196.4598611010415
 51
266.61032666560908
  0
ARC
  8
OUTLINE
  6
CONTINUOUS
 62
     3
 10
102.6243932549047
 20
-179.577000229611
 30
0.0
 40
103.9319850740511
 50
285.89015983033062
 51
1.232738335982714
  0
ARC
  8
OUTLINE
  6
CONTINUOUS
 62
     3
 10
244.12767054925061
 20
-8.2323180405087442
 30
0.0
 40
6.3066537963497042
 50
273.38967333439092
 51
343.5401388989585
  0
ARC
  8
OUTLINE
  6
CONTINUOUS
 62
     3
 10
-236.40800597530171
 20
-43.346435138278821
 30
0.0
 40
23.50781232399369
 50
33.522035604964401
 51
82.522436308778069
  0
ARC
  8
OUTLINE
  6
CONTINUOUS
 62
     3
 10
-283.49631019244401
 20
-72.657950505667486
 30
0.0
 40
78.967173520910592
 50
12.932945735976711
 51
32.383809003799279
  0
ARC
  8
OUTLINE
  6
CONTINUOUS
 62
     3
 10
236.4080059753411
 20
-43.346435138278821
 30
0.0
 40
23.50781232399369
 50
97.477563691221945
 51
146.4779643950356
  0
ARC
  8
OUTLINE
  6
CONTINUOUS
 62
     3
 10
283.49631019248358
 20
-72.657950505667486
 30
0.0
 40
78.967173520910592
 50
147.61619099620069
 51
167.06705426402331
  0
ARC
  8
DETAIL
  6
CONTINUOUS
 62
     5
 10
186.23528295956709
 20
-29.950369712771479
 30
0.0
 40
4.5445283341516536
 50
62.057200463953329
 51
83.287477145809945
  0
ENDSEC
  0
EOF
