  0
SECTION
  2
HEADER
  9
$ACADVER
  1
AC1009
  9
$DWGCODEPAGE
  3
dos932
  9
$INSBASE
 10
0.0
 20
0.0
 30
0.0
  9
$EXTMIN
 10
-634.46043266968445
 20
-411.43797653661932
 30
-35.212707502316583
  9
$EXTMAX
 10
1107.5866815838799
 20
558.83789860973775
 30
0.0000000349246037
  9
$LIMMIN
 10
-2970.0
 20
-2100.0
  9
$LIMMAX
 10
2970.0
 20
2100.0
  9
$ORTHOMODE
 70
     1
  9
$REGENMODE
 70
     1
  9
$FILLMODE
 70
     1
  9
$QTEXTMODE
 70
     0
  9
$MIRRTEXT
 70
     0
  9
$LTSCALE
 40
20.0
  9
$ATTMODE
 70
     1
  9
$TEXTSIZE
 40
64.0
  9
$TRACEWID
 40
0.05
  9
$TEXTSTYLE
  7
STANDARD
  9
$CLAYER
  8
SIZE
  9
$CELTYPE
  6
CONTINUOUS
  9
$CECOLOR
 62
     7
  9
$DIMSCALE
 40
1.0
  9
$DIMASZ
 40
12.0
  9
$DIMEXO
 40
20.0
  9
$DIMDLI
 40
200.0
  9
$DIMRND
 40
0.0
  9
$DIMDLE
 40
0.0
  9
$DIMEXE
 40
20.0
  9
$DIMTP
 40
0.0
  9
$DIMTM
 40
0.0
  9
$DIMTXT
 40
64.0
  9
$DIMCEN
 40
0.09
  9
$DIMTSZ
 40
0.0
  9
$DIMTOL
 70
     0
  9
$DIMLIM
 70
     0
  9
$DIMTIH
 70
     0
  9
$DIMTOH
 70
     0
  9
$DIMSE1
 70
     0
  9
$DIMSE2
 70
     0
  9
$DIMTAD
 70
     1
  9
$DIMZIN
 70
     8
  9
$DIMBLK
  1

  9
$DIMASO
 70
     1
  9
$DIMSHO
 70
     0
  9
$DIMPOST
  1

  9
$DIMAPOST
  1

  9
$DIMALT
 70
     0
  9
$DIMALTD
 70
     2
  9
$DIMALTF
 40
25.399999999999999
  9
$DIMLFAC
 40
1.0
  9
$DIMTOFL
 70
     1
  9
$DIMTVP
 40
0.0
  9
$DIMTIX
 70
     1
  9
$DIMSOXD
 70
     0
  9
$DIMSAH
 70
     0
  9
$DIMBLK1
  1

  9
$DIMBLK2
  1

  9
$DIMSTYLE
  2
STANDARD
  9
$DIMCLRD
 70
     7
  9
$DIMCLRE
 70
     7
  9
$DIMCLRT
 70
     7
  9
$DIMTFAC
 40
1.0
  9
$DIMGAP
 40
25.0
  9
$LUNITS
 70
     2
  9
$LUPREC
 70
     4
  9
$SKETCHINC
 40
0.1
  9
$FILLETRAD
 40
3.0
  9
$AUNITS
 70
     1
  9
$AUPREC
 70
     3
  9
$MENU
  1
ACAD
  9
$ELEVATION
 40
0.0
  9
$PELEVATION
 40
0.0
  9
$THICKNESS
 40
0.0
  9
$LIMCHECK
 70
     0
  9
$CHAMFERA
 40
0.0
  9
$CHAMFERB
 40
0.0
  9
$SKPOLY
 70
     0
  9
$TDCREATE
 40
2453019.62301037
  9
$TDUPDATE
 40
2458949.453967269
  9
$TDINDWG
 40
1.7142983912
  9
$TDUSRTIMER
 40
1.7142983912
  9
$USRTIMER
 70
     1
  9
$ANGBASE
 50
0.0
  9
$ANGDIR
 70
     0
  9
$PDMODE
 70
     3
  9
$PDSIZE
 40
-2.0
  9
$PLINEWID
 40
0.0
  9
$SPLFRAME
 70
     0
  9
$SPLINETYPE
 70
     6
  9
$SPLINESEGS
 70
     8
  9
$SURFTAB1
 70
     6
  9
$SURFTAB2
 70
     6
  9
$SURFTYPE
 70
     6
  9
$SURFU
 70
     6
  9
$SURFV
 70
     6
  9
$UCSNAME
  2

  9
$UCSORG
 10
0.0
 20
0.0
 30
0.0
  9
$UCSXDIR
 10
1.0
 20
0.0
 30
0.0
  9
$UCSYDIR
 10
0.0
 20
1.0
 30
0.0
  9
$PUCSNAME
  2

  9
$PUCSORG
 10
0.0
 20
0.0
 30
0.0
  9
$PUCSXDIR
 10
1.0
 20
0.0
 30
0.0
  9
$PUCSYDIR
 10
0.0
 20
1.0
 30
0.0
  9
$USERI1
 70
     0
  9
$USERI2
 70
     0
  9
$USERI3
 70
     0
  9
$USERI4
 70
     0
  9
$USERI5
 70
     0
  9
$USERR1
 40
20.0
  9
$USERR2
 40
0.0
  9
$USERR3
 40
0.0
  9
$USERR4
 40
0.0
  9
$USERR5
 40
0.0
  9
$WORLDVIEW
 70
     1
  9
$SHADEDGE
 70
     3
  9
$SHADEDIF
 70
    70
  9
$TILEMODE
 70
     1
  9
$MAXACTVP
 70
    48
  9
$PINSBASE
 10
0.0
 20
0.0
 30
0.0
  9
$PLIMCHECK
 70
     0
  9
$PEXTMIN
 10
-100000000000000000000.0
 20
-100000000000000000000.0
 30
-100000000000000000000.0
  9
$PEXTMAX
 10
100000000000000000000.0
 20
100000000000000000000.0
 30
100000000000000000000.0
  9
$PLIMMIN
 10
0.0
 20
0.0
  9
$PLIMMAX
 10
12.0
 20
9.0
  9
$UNITMODE
 70
     0
  9
$VISRETAIN
 70
     0
  9
$PLINEGEN
 70
     0
  9
$PSLTSCALE
 70
     0
  9
$TREEDEPTH
 70
  3020
  9
$ATTDIA
 70
     0
  9
$ATTREQ
 70
     1
  9
$BLIPMODE
 70
     1
  9
$COORDS
 70
     1
  9
$DRAGMODE
 70
     2
  9
$OSMODE
 70
     0
  9
$HANDLING
 70
     0
  9
$HANDSEED
  5
11BA5
  0
ENDSEC
  0
SECTION
  2
TABLES
  0
TABLE
  2
LTYPE
 70
     2
  0
LTYPE
  2
CONTINUOUS
 70
     0
  3
実線
 72
    65
 73
     0
 40
0.0
  0
LTYPE
  2
DASHDOT
 70
     0
  3
____ _ ____ _ ____ _ ____ _ ____ _ ____ _ ____
 72
    65
 73
     4
 40
5.5
 49
4.0
 49
-0.6
 49
0.3
 49
-0.6
  0
ENDTAB
  0
TABLE
  2
LAYER
 70
    12
  0
LAYER
  2
0
 70
     0
 62
     7
  6
CONTINUOUS
  0
LAYER
  2
BASIS
 70
     0
 62
     6
  6
DASHDOT
  0
LAYER
  2
OUTLINE
 70
     0
 62
     3
  6
CONTINUOUS
  0
LAYER
  2
DETAIL
 70
     0
 62
     5
  6
CONTINUOUS
  0
LAYER
  2
SIZE
 70
     0
 62
    30
  6
CONTINUOUS
  0
LAYER
  2
ARRANGE
 70
     0
 62
     1
  6
CONTINUOUS
  0
LAYER
  2
DEFPOINTS
 70
     0
 62
     7
  6
CONTINUOUS
  0
LAYER
  2
ETC
 70
     0
 62
    61
  6
CONTINUOUS
  0
LAYER
  2
FIX
 70
     0
 62
    11
  6
CONTINUOUS
  0
LAYER
  2
NOTE
 70
     0
 62
     4
  6
CONTINUOUS
  0
LAYER
  2
SERVICESPACE
 70
    64
 62
     2
  6
DASHDOT
  0
LAYER
  2
SYMBOLLINE
 70
    64
 62
    15
  6
CONTINUOUS
  0
ENDTAB
  0
TABLE
  2
STYLE
 70
     1
  0
STYLE
  2
STANDARD
 70
     0
 40
64.0
 41
0.9
 50
0.0
 71
     0
 42
64.0
  3
SIMPLEX.shx
  4
BIGFONT.shx
  0
ENDTAB
  0
TABLE
  2
APPID
 70
    19
  0
APPID
  2
ACAD
 70
     0
  0
APPID
  2
AUTOCAD_POSTSCRIPT_FIGURE
 70
     0
  0
APPID
  2
ACAD_EXEMPT_FROM_CAD_STANDARDS
 70
     0
  0
APPID
  2
ACAD_PSEXT
 70
     0
  0
APPID
  2
ACAUTHENVIRON
 70
     0
  0
APPID
  2
GENIUS_GENOENT_13
 70
     0
  0
APPID
  2
GENIUS_GENCFG_13
 70
     0
  0
APPID
  2
GENIUS_GENCFG0_13
 70
     0
  0
APPID
  2
GENIUS_GENCFG1_13
 70
     0
  0
APPID
  2
GENIUS_GENCFG2_13
 70
     0
  0
APPID
  2
GENIUS_GENCFG3_13
 70
     0
  0
APPID
  2
GENIUS_GENCFG4_13
 70
     0
  0
APPID
  2
GENIUS_GEVCFG0_13
 70
     0
  0
APPID
  2
CONTENTBLOCKICON
 70
     0
  0
APPID
  2
CONTENTBLOCKDESCRIPTION
 70
     0
  0
APPID
  2
ACAD_NAV_VCDISPLAY
 70
     0
  0
APPID
  2
ACAD_MLEADERVER
 70
     0
  0
APPID
  2
ACDBDYNAMICBLOCKTRUENAME
 70
     0
  0
APPID
  2
ACDBDYNAMICBLOCKGUID
 70
     0
  0
ENDTAB
  0
TABLE
  2
DIMSTYLE
 70
     1
  0
DIMSTYLE
  2
STANDARD
 70
     0
  3

  4

  5
_ORIGIN
  6

  7

 40
1.0
 41
12.0
 42
20.0
 43
200.0
 44
20.0
 45
0.0
 46
0.0
 47
0.0
 48
0.0
140
64.0
141
0.09
142
0.0
143
25.399999999999999
144
1.0
145
0.0
146
1.0
147
25.0
 71
     0
 72
     0
 73
     0
 74
     0
 75
     0
 76
     0
 77
     1
 78
     8
170
     0
171
     2
172
     1
173
     0
174
     1
175
     0
176
     7
177
     7
178
     7
  0
ENDTAB
  0
TABLE
  2
VIEW
 70
     1
  0
VIEW
  2
ALL
 70
     0
 40
4282.6198079999986
 10
0.0
 20
41.309904000000003
 41
5940.0
 11
0.0
 21
0.0
 31
1.0
 12
0.0
 22
0.0
 32
0.0
 42
50.0
 43
0.0
 44
0.0
 50
0.0
 71
     0
  0
ENDTAB
  0
TABLE
  2
UCS
 70
     0
  0
ENDTAB
  0
TABLE
  2
VPORT
 70
     1
  0
VPORT
  2
*ACTIVE
 70
     0
 10
0.0
 20
0.0
 11
1.0
 21
1.0
 12
236.5631244570977
 22
73.699961036559273
 13
0.0
 23
0.0
 14
1.0
 24
1.0
 15
0.0
 25
0.0
 16
0.0
 26
0.0
 36
1.0
 17
0.0
 27
0.0
 37
0.0
 40
1000.496377601811
 41
1.747787610619469
 42
50.0
 43
0.0
 44
0.0
 50
0.0
 51
0.0
 71
     0
 72
  1000
 73
     1
 74
     3
 75
     0
 76
     0
 77
     0
 78
     0
  0
ENDTAB
  0
ENDSEC
  0
SECTION
  2
BLOCKS
  0
BLOCK
  8
0
  2
_ORIGIN
 70
     0
 10
0.0
 20
0.0
 30
0.0
  3
_ORIGIN
  1
_ORIGIN
  0
CIRCLE
  8
0
  6
CONTINUOUS
 62
     7
 10
0.0
 20
0.0
 30
0.0
 40
0.5
  0
LINE
  8
0
  6
CONTINUOUS
 62
     7
 10
0.0
 20
0.0
 30
0.0
 11
-1.0
 21
0.0
 31
0.0
  0
ENDBLK
  8
0
  0
ENDSEC
  0
SECTION
  2
ENTITIES
  0
CIRCLE
  8
ARRANGE
  6
CONTINUOUS
 62
     1
 10
0.0
 20
0.0
 30
0.0
 40
40.0
  0
POINT
  8
ARRANGE
  6
CONTINUOUS
 62
     1
 10
0.0
 20
0.0
 30
0.0
  0
TEXT
  8
ETC
  6
CONTINUOUS
 62
    61
 10
344.87539504366401
 20
494.56101113953292
 30
0.0
 40
64.0
  1
EWG-45DSA2-Q_6
 41
0.9
  0
TEXT
  8
ETC
  6
CONTINUOUS
 62
    61
 10
340.68940104366362
 20
376.60570112470168
 30
0.0
 40
64.0
  1
産業扇
 41
0.9
  0
TEXT
  8
ETC
  6
CONTINUOUS
 62
    61
 10
391.39079929221953
 20
268.45692823847639
 30
0.0
 40
40.0
  1
EWG-45DSA2-Q
 41
0.9
  0
LINE
  8
SIZE
  6
CONTINUOUS
 62
    30
 10
-309.99999804575413
 20
18.5
 30
0.0
 11
-309.99999804575413
 21
264.96668498765212
 31
0.0
  0
LINE
  8
SIZE
  6
CONTINUOUS
 62
    30
 10
309.9912903893736
 20
18.65911678100144
 30
0.0
 11
309.9912903893736
 21
264.96668498765212
 31
0.0
  0
LINE
  8
SIZE
  6
CONTINUOUS
 62
    30
 10
-297.99999804575413
 20
244.96668498765209
 30
0.0
 11
297.9912903893736
 21
244.96668498765209
 31
0.0
  0
CIRCLE
  8
SIZE
  6
CONTINUOUS
 62
    30
 10
-309.99999804575413
 20
244.96668498765209
 30
0.0
 40
6.0
  0
LINE
  8
SIZE
  6
CONTINUOUS
 62
    30
 10
-309.99999804575413
 20
244.96668498765209
 30
0.0
 11
-297.99999804575413
 21
244.96668498765209
 31
0.0
  0
CIRCLE
  8
SIZE
  6
CONTINUOUS
 62
    30
 10
309.9912903893736
 20
244.96668498765209
 30
0.0
 40
6.0
  0
LINE
  8
SIZE
  6
CONTINUOUS
 62
    30
 10
309.9912903893736
 20
244.96668498765209
 30
0.0
 11
297.9912903893736
 21
244.96668498765209
 31
0.0
  0
TEXT
  8
SIZE
  6
CONTINUOUS
 62
    30
 10
-74.057142857371474
 20
269.96668498765212
 30
0.0
 40
64.0
  1
620
 41
0.9
 72
     1
 11
-0.0000000002286242
 21
269.96668498765212
 31
0.0
  0
POINT
  8
DEFPOINTS
  6
CONTINUOUS
 62
    30
 10
-309.99999804575413
 20
-1.5
 30
0.0
  0
POINT
  8
DEFPOINTS
  6
CONTINUOUS
 62
    30
 10
309.9912903893736
 20
-1.3408832189986699
 30
0.0
  0
POINT
  8
DEFPOINTS
  6
CONTINUOUS
 62
    30
 10
309.9912903893736
 20
244.96668498765209
 30
0.0
  0
LINE
  8
SIZE
  6
CONTINUOUS
 62
    30
 10
-280.45234248788398
 20
42.799048810987642
 30
0.0
 11
-280.45234248788398
 21
151.39419561661629
 31
0.0
  0
LINE
  8
SIZE
  6
CONTINUOUS
 62
    30
 10
280.4523424878837
 20
42.799048810987642
 30
0.0
 11
280.4523424878837
 21
151.39419561661629
 31
0.0
  0
LINE
  8
SIZE
  6
CONTINUOUS
 62
    30
 10
-268.45234248788398
 20
131.39419561661629
 30
0.0
 11
268.4523424878837
 21
131.39419561661629
 31
0.0
  0
CIRCLE
  8
SIZE
  6
CONTINUOUS
 62
    30
 10
-280.45234248788398
 20
131.39419561661629
 30
0.0
 40
6.0
  0
LINE
  8
SIZE
  6
CONTINUOUS
 62
    30
 10
-280.45234248788398
 20
131.39419561661629
 30
0.0
 11
-268.45234248788398
 21
131.39419561661629
 31
0.0
  0
CIRCLE
  8
SIZE
  6
CONTINUOUS
 62
    30
 10
280.4523424878837
 20
131.39419561661629
 30
0.0
 40
6.0
  0
LINE
  8
SIZE
  6
CONTINUOUS
 62
    30
 10
280.4523424878837
 20
131.39419561661629
 30
0.0
 11
268.4523424878837
 21
131.39419561661629
 31
0.0
  0
TEXT
  8
SIZE
  6
CONTINUOUS
 62
    30
 10
-74.057142857142964
 20
156.39419561661629
 30
0.0
 40
64.0
  1
560
 41
0.9
 72
     1
 11
-0.0000000000001137
 21
156.39419561661629
 31
0.0
  0
POINT
  8
DEFPOINTS
  6
CONTINUOUS
 62
    30
 10
-280.45234248788398
 20
22.799048810987639
 30
0.0
  0
POINT
  8
DEFPOINTS
  6
CONTINUOUS
 62
    30
 10
280.4523424878837
 20
22.799048810987639
 30
0.0
  0
POINT
  8
DEFPOINTS
  6
CONTINUOUS
 62
    30
 10
280.4523424878837
 20
131.39419561661629
 30
0.0
  0
CIRCLE
  8
FIX
  6
CONTINUOUS
 62
    11
 10
-280.45234248788398
 20
0.0
 30
0.0
 40
7.0
  0
CIRCLE
  8
FIX
  6
CONTINUOUS
 62
    11
 10
280.45234248788358
 20
0.0
 30
0.0
 40
7.0
  0
LINE
  8
SIZE
  6
CONTINUOUS
 62
    30
 10
328.49757673667199
 20
0.0
 30
0.0
 11
464.68468251126211
 21
0.0
 31
0.0
  0
LINE
  8
SIZE
  6
CONTINUOUS
 62
    30
 10
323.38933764135709
 20
-10.016155088853109
 30
0.0
 11
464.68468251126211
 21
-10.016155088853219
 31
0.0
  0
LINE
  8
SIZE
  6
CONTINUOUS
 62
    30
 10
444.68468251126211
 20
-22.016155088853111
 30
0.0
 11
444.68468251126211
 21
-34.016155088853218
 31
0.0
  0
LINE
  8
SIZE
  6
CONTINUOUS
 62
    30
 10
444.68468251126211
 20
11.99999999999989
 30
0.0
 11
444.68468251126211
 21
156.28571428571419
 31
0.0
  0
LINE
  8
SIZE
  6
CONTINUOUS
 62
    30
 10
444.68468251126211
 20
-10.016155088853219
 30
0.0
 11
444.68468251126211
 21
0.0
 31
0.0
  0
CIRCLE
  8
SIZE
  6
CONTINUOUS
 62
    30
 10
444.68468251126211
 20
-10.016155088853219
 30
0.0
 40
6.0
  0
LINE
  8
SIZE
  6
CONTINUOUS
 62
    30
 10
444.68468251126211
 20
-10.016155088853219
 30
0.0
 11
444.68468251126211
 21
-22.016155088853111
 31
0.0
  0
CIRCLE
  8
SIZE
  6
CONTINUOUS
 62
    30
 10
444.68468251126211
 20
0.0
 30
0.0
 40
6.0
  0
LINE
  8
SIZE
  6
CONTINUOUS
 62
    30
 10
444.68468251126211
 20
0.0
 30
0.0
 11
444.68468251126211
 21
11.99999999999989
 31
0.0
  0
TEXT
  8
SIZE
  6
CONTINUOUS
 62
    30
 10
419.68468251126211
 20
48.999999999999972
 30
0.0
 40
64.0
  1
10
 50
90.0
 41
0.9
 72
     1
 11
419.68468251126211
 21
90.14285714285711
 31
0.0
  0
POINT
  8
DEFPOINTS
  6
CONTINUOUS
 62
    30
 10
308.49757673667199
 20
0.0
 30
0.0
  0
POINT
  8
DEFPOINTS
  6
CONTINUOUS
 62
    30
 10
303.38933764135709
 20
-10.016155088853109
 30
0.0
  0
POINT
  8
DEFPOINTS
  6
CONTINUOUS
 62
    30
 10
444.68468251126211
 20
-10.016155088853219
 30
0.0
  0
LINE
  8
SIZE
  6
CONTINUOUS
 62
    30
 10
323.38933764135709
 20
-10.016155088853109
 30
0.0
 11
464.68468251126211
 21
-10.016155088853219
 31
0.0
  0
LINE
  8
SIZE
  6
CONTINUOUS
 62
    30
 10
313.37318255250398
 20
-20.032310177705991
 30
0.0
 11
464.68468251126211
 21
-20.032310177705991
 31
0.0
  0
LINE
  8
SIZE
  6
CONTINUOUS
 62
    30
 10
444.68468251126211
 20
1.9838449111467751
 30
0.0
 11
444.68468251126211
 21
13.983844911146781
 31
0.0
  0
LINE
  8
SIZE
  6
CONTINUOUS
 62
    30
 10
444.68468251126211
 20
-32.032310177705988
 30
0.0
 11
444.68468251126211
 21
-257.26694449511137
 31
0.0
  0
LINE
  8
SIZE
  6
CONTINUOUS
 62
    30
 10
444.68468251126211
 20
-10.016155088853219
 30
0.0
 11
444.68468251126211
 21
-20.032310177705991
 31
0.0
  0
CIRCLE
  8
SIZE
  6
CONTINUOUS
 62
    30
 10
444.68468251126211
 20
-10.016155088853219
 30
0.0
 40
6.0
  0
LINE
  8
SIZE
  6
CONTINUOUS
 62
    30
 10
444.68468251126211
 20
-10.016155088853219
 30
0.0
 11
444.68468251126211
 21
1.9838449111467751
 31
0.0
  0
CIRCLE
  8
SIZE
  6
CONTINUOUS
 62
    30
 10
444.68468251126211
 20
-20.032310177705991
 30
0.0
 40
6.0
  0
LINE
  8
SIZE
  6
CONTINUOUS
 62
    30
 10
444.68468251126211
 20
-20.032310177705991
 30
0.0
 11
444.68468251126211
 21
-32.032310177705988
 31
0.0
  0
TEXT
  8
SIZE
  6
CONTINUOUS
 62
    30
 10
419.68468251126211
 20
-232.2669444951112
 30
0.0
 40
64.0
  1
10
 50
90.0
 41
0.9
 72
     1
 11
419.68468251126211
 21
-191.12408735225409
 31
0.0
  0
POINT
  8
DEFPOINTS
  6
CONTINUOUS
 62
    30
 10
303.38933764135709
 20
-10.016155088853109
 30
0.0
  0
POINT
  8
DEFPOINTS
  6
CONTINUOUS
 62
    30
 10
293.37318255250398
 20
-20.032310177705991
 30
0.0
  0
POINT
  8
DEFPOINTS
  6
CONTINUOUS
 62
    30
 10
444.68468251126211
 20
-20.032310177705991
 30
0.0
  0
LINE
  8
SIZE
  6
CONTINUOUS
 62
    30
 10
328.49757673667199
 20
0.0
 30
0.0
 11
620.36530057570599
 21
-0.0000000000001137
 31
0.0
  0
LINE
  8
SIZE
  6
CONTINUOUS
 62
    30
 10
250.16665507610449
 20
-135.21809369951541
 30
0.0
 11
620.36530057570599
 21
-135.21809369951549
 31
0.0
  0
LINE
  8
SIZE
  6
CONTINUOUS
 62
    30
 10
600.36530057570599
 20
-12.00000000000011
 30
0.0
 11
600.36530057570599
 21
-123.21809369951551
 31
0.0
  0
LINE
  8
SIZE
  6
CONTINUOUS
 62
    30
 10
600.36530057570599
 20
-135.21809369951549
 30
0.0
 11
600.36530057570599
 21
-334.36095084237257
 31
0.0
  0
CIRCLE
  8
SIZE
  6
CONTINUOUS
 62
    30
 10
600.36530057570599
 20
0.0
 30
0.0
 40
6.0
  0
LINE
  8
SIZE
  6
CONTINUOUS
 62
    30
 10
600.36530057570599
 20
0.0
 30
0.0
 11
600.36530057570599
 21
-12.00000000000011
 31
0.0
  0
CIRCLE
  8
SIZE
  6
CONTINUOUS
 62
    30
 10
600.36530057570599
 20
-135.21809369951549
 30
0.0
 40
6.0
  0
LINE
  8
SIZE
  6
CONTINUOUS
 62
    30
 10
600.36530057570599
 20
-135.21809369951549
 30
0.0
 11
600.36530057570599
 21
-123.21809369951551
 31
0.0
  0
TEXT
  8
SIZE
  6
CONTINUOUS
 62
    30
 10
575.36530057570599
 20
-309.36095084237252
 30
0.0
 40
64.0
  1
135
 50
90.0
 41
0.9
 72
     1
 11
575.36530057570599
 21
-240.78952227094399
 31
0.0
  0
POINT
  8
DEFPOINTS
  6
CONTINUOUS
 62
    30
 10
308.49757673667199
 20
0.0
 30
0.0
  0
POINT
  8
DEFPOINTS
  6
CONTINUOUS
 62
    30
 10
230.16665507610449
 20
-135.21809369951541
 30
0.0
  0
POINT
  8
DEFPOINTS
  6
CONTINUOUS
 62
    30
 10
600.36530057570599
 20
-135.21809369951549
 30
0.0
  0
TEXT
  8
NOTE
  6
CONTINUOUS
 62
     4
 10
-627.3010470085336
 20
89.632665428528526
 30
0.0
 40
64.0
  1
4-φ14
 41
0.9
  0
LINE
  8
SIZE
  6
CONTINUOUS
 62
    30
 10
-328.49757673667199
 20
0.0
 30
0.0
 11
-383.81931770129682
 21
0.0
 31
0.0
  0
LINE
  8
SIZE
  6
CONTINUOUS
 62
    30
 10
-24.006462035540949
 20
-335.54119547657518
 30
0.0
 11
-383.81931770129682
 21
-335.54119547657518
 31
0.0
  0
LINE
  8
SIZE
  6
CONTINUOUS
 62
    30
 10
-363.81931770129682
 20
-12.0
 30
0.0
 11
-363.81931770129682
 21
-323.54119547657518
 31
0.0
  0
CIRCLE
  8
SIZE
  6
CONTINUOUS
 62
    30
 10
-363.81931770129682
 20
0.0
 30
0.0
 40
6.0
  0
LINE
  8
SIZE
  6
CONTINUOUS
 62
    30
 10
-363.81931770129682
 20
0.0
 30
0.0
 11
-363.81931770129682
 21
-12.0
 31
0.0
  0
CIRCLE
  8
SIZE
  6
CONTINUOUS
 62
    30
 10
-363.81931770129682
 20
-335.54119547657518
 30
0.0
 40
6.0
  0
LINE
  8
SIZE
  6
CONTINUOUS
 62
    30
 10
-363.81931770129682
 20
-335.54119547657518
 30
0.0
 11
-363.81931770129682
 21
-323.54119547657518
 31
0.0
  0
TEXT
  8
SIZE
  6
CONTINUOUS
 62
    30
 10
-388.81931770129682
 20
-241.8277405954305
 30
0.0
 40
64.0
  1
335
 50
90.0
 41
0.9
 72
     1
 11
-388.81931770129682
 21
-167.77059773828759
 31
0.0
  0
POINT
  8
DEFPOINTS
  6
CONTINUOUS
 62
    30
 10
-308.49757673667199
 20
0.0
 30
0.0
  0
POINT
  8
DEFPOINTS
  6
CONTINUOUS
 62
    30
 10
-4.0064620355409488
 20
-335.54119547657518
 30
0.0
  0
POINT
  8
DEFPOINTS
  6
CONTINUOUS
 62
    30
 10
-363.81931770129682
 20
-335.54119547657518
 30
0.0
  0
LINE
  8
DETAIL
  6
CONTINUOUS
 62
     4
 10
-283.21574112751608
 20
5.5631220774380381
 30
0.0
 11
-280.45234248788398
 21
0.0
 31
0.0
  0
LINE
  8
DETAIL
  6
CONTINUOUS
 62
     4
 10
-280.45234248788398
 20
0.0
 30
0.0
 11
-285.62708212732002
 21
3.436097925561739
 31
0.0
  0
LINE
  8
DETAIL
  6
CONTINUOUS
 62
     4
 10
-280.45234248788398
 20
0.0
 30
0.0
 11
-288.39048076695218
 21
8.9992200029997775
 31
0.0
  0
LINE
  8
NOTE
  6
CONTINUOUS
 62
     4
 10
-288.39048076695218
 20
8.9992200029997775
 30
0.0
 11
-336.55593536738547
 21
63.602894977615513
 31
0.0
  0
LINE
  8
NOTE
  6
CONTINUOUS
 62
     4
 10
-336.55593536738547
 20
63.602894977615513
 30
0.0
 11
-634.42449761241937
 21
63.764349826795858
 31
0.0
  0
LINE
  8
NOTE
  6
CONTINUOUS
 62
     4
 10
-280.45234248788398
 20
-35.993442964608448
 30
0.0
 11
-280.45234248788398
 21
18.123274831851521
 31
0.0
  0
LINE
  8
NOTE
  6
CONTINUOUS
 62
     4
 10
280.4523424878837
 20
-35.993442964608448
 30
0.0
 11
280.4523424878837
 21
18.123274831851521
 31
0.0
  0
LINE
  8
DETAIL
  6
CONTINUOUS
 62
     4
 10
249.62373016720289
 20
-94.915489791077334
 30
0.0
 11
248.41579935757699
 21
-88.82241155022416
 31
0.0
  0
LINE
  8
DETAIL
  6
CONTINUOUS
 62
     4
 10
248.41579935757699
 20
-88.82241155022416
 30
0.0
 11
252.50844428678829
 21
-93.49520052185585
 31
0.0
  0
LINE
  8
DETAIL
  6
CONTINUOUS
 62
     4
 10
248.41579935757699
 20
-88.82241155022416
 30
0.0
 11
253.71637509641411
 21
-99.58827876270891
 31
0.0
  0
LINE
  8
NOTE
  6
CONTINUOUS
 62
     4
 10
253.71637509641411
 20
-99.588278762708796
 30
0.0
 11
406.94725652771223
 21
-410.81170120234248
 31
0.0
  0
LINE
  8
NOTE
  6
CONTINUOUS
 62
     4
 10
406.94725652771223
 20
-410.81170120234248
 30
0.0
 11
515.01826784961293
 21
-411.14731772362683
 31
0.0
  0
TEXT
  8
NOTE
  6
CONTINUOUS
 62
     4
 10
423.04794844885038
 20
-390.63403984699181
 30
0.0
 40
64.0
  1
EL
 41
0.9
 72
     2
 11
508.07651987742179
 21
-390.63403984699181
 31
0.0
  0
ARC
  8
OUTLINE
  6
CONTINUOUS
 62
     3
 10
308.49757673667273
 20
-1.502423263327501
 30
0.0
 40
1.5024232633277279
 50
270.0
 51
90.0
  0
LINE
  8
OUTLINE
  6
CONTINUOUS
 62
     3
 10
308.49757673667273
 20
0.0
 30
0.0
 11
-308.49757673667142
 21
0.0
 31
0.0
  0
ARC
  8
OUTLINE
  6
CONTINUOUS
 62
     3
 10
-308.49757673667142
 20
-1.502423263327501
 30
0.0
 40
1.5024232633277279
 50
90.0
 51
270.0
  0
LINE
  8
OUTLINE
  6
CONTINUOUS
 62
     3
 10
-303.38933764135572
 20
-10.016155088852321
 30
0.0
 11
-300.17892012300348
 21
-10.016155088852321
 31
0.0
  0
ARC
  8
OUTLINE
  6
CONTINUOUS
 62
     3
 10
-303.38933764135572
 20
-6.4103392568656554
 30
0.0
 40
3.6058158319874569
 50
180.0
 51
270.0
  0
LINE
  8
OUTLINE
  6
CONTINUOUS
 62
     3
 10
-306.99515347334409
 20
-6.4103392568656554
 30
0.0
 11
-306.99515347334409
 21
-3.0048465266553421
 31
0.0
  0
LINE
  8
OUTLINE
  6
CONTINUOUS
 62
     3
 10
-306.99515347334409
 20
-3.0048465266553421
 30
0.0
 11
-308.49757673667142
 21
-3.0048465266553421
 31
0.0
  0
LINE
  8
OUTLINE
  6
CONTINUOUS
 62
     3
 10
-296.97899838449172
 20
-16.42649434571922
 30
0.0
 11
-296.97899838449172
 21
-13.890040626215299
 31
0.0
  0
ARC
  8
OUTLINE
  6
CONTINUOUS
 62
     3
 10
-293.37318255250369
 20
-16.42649434571922
 30
0.0
 40
3.6058158319870022
 50
180.0
 51
270.0
  0
LINE
  8
OUTLINE
  6
CONTINUOUS
 62
     3
 10
-257.08012157831439
 20
-20.03231017770554
 30
0.0
 11
-293.37318255250369
 21
-20.03231017770554
 31
0.0
  0
LINE
  8
OUTLINE
  6
CONTINUOUS
 62
     3
 10
-257.08012157831439
 20
-200.32310177705941
 30
0.0
 11
-257.08012157831439
 21
-20.03231017770554
 31
0.0
  0
ARC
  8
OUTLINE
  6
CONTINUOUS
 62
     3
 10
-95.153473344102849
 20
-311.50242326332818
 30
0.0
 40
1.6025848142166981
 50
180.0
 51
270.0
  0
LINE
  8
OUTLINE
  6
CONTINUOUS
 62
     3
 10
-96.756058158319547
 20
-302.48788368336062
 30
0.0
 11
-96.756058158319547
 21
-311.50242326332818
 31
0.0
  0
LINE
  8
OUTLINE
  6
CONTINUOUS
 62
     3
 10
-180.58921678300749
 20
-302.48788368336011
 30
0.0
 11
-96.756058158319547
 21
-302.48788368336119
 31
0.0
  0
LINE
  8
OUTLINE
  6
CONTINUOUS
 62
     3
 10
-91.156951275650727
 20
-313.10500807754511
 30
0.0
 11
-95.15345814905163
 21
-313.10500807754511
 31
0.0
  0
ARC
  8
OUTLINE
  6
CONTINUOUS
 62
     3
 10
-91.156951275650727
 20
-316.5105008077548
 30
0.0
 40
3.4054927302103311
 50
25.784805917393321
 51
90.0
  0
LINE
  8
OUTLINE
  6
CONTINUOUS
 62
     3
 10
-80.261506629772384
 20
-331.23521507169681
 30
0.0
 11
-88.090529298868887
 21
-315.02913758587943
 31
0.0
  0
ARC
  8
OUTLINE
  6
CONTINUOUS
 62
     3
 10
-76.112818073361041
 20
-329.23101777059838
 30
0.0
 40
4.6074313408722753
 50
205.7848059173933
 51
270.0
  0
LINE
  8
OUTLINE
  6
CONTINUOUS
 62
     3
 10
296.97899838449121
 20
-13.890040626215299
 30
0.0
 11
296.97899838449121
 21
-16.42649434571922
 31
0.0
  0
ARC
  8
OUTLINE
  6
CONTINUOUS
 62
     3
 10
293.3731825525042
 20
-16.42649434571922
 30
0.0
 40
3.605815831986547
 50
270.0
 51
0.0
  0
LINE
  8
OUTLINE
  6
CONTINUOUS
 62
     3
 10
293.3731825525042
 20
-20.03231017770554
 30
0.0
 11
257.08012157831581
 21
-20.03231017770554
 31
0.0
  0
LINE
  8
OUTLINE
  6
CONTINUOUS
 62
     3
 10
306.99515347334409
 20
-3.0048465266553421
 30
0.0
 11
306.99515347334409
 21
-6.4103392568656554
 31
0.0
  0
ARC
  8
OUTLINE
  6
CONTINUOUS
 62
     3
 10
303.38933764135709
 20
-6.4103392568656554
 30
0.0
 40
3.605815831986547
 50
270.0
 51
0.0
  0
LINE
  8
OUTLINE
  6
CONTINUOUS
 62
     3
 10
303.38933764135709
 20
-10.016155088852321
 30
0.0
 11
300.17892012222819
 21
-10.016155088852321
 31
0.0
  0
LINE
  8
OUTLINE
  6
CONTINUOUS
 62
     3
 10
257.08012157831581
 20
-20.03231017770554
 30
0.0
 11
257.08012157831581
 21
-200.32310177705941
 31
0.0
  0
LINE
  8
OUTLINE
  6
CONTINUOUS
 62
     3
 10
308.49757673667273
 20
-3.0048465266553421
 30
0.0
 11
306.99515347334409
 21
-3.0048465266553421
 31
0.0
  0
ARC
  8
OUTLINE
  6
CONTINUOUS
 62
     3
 10
76.112826239245351
 20
-329.23101777059782
 30
0.0
 40
4.6074313408721528
 50
270.0
 51
334.21519345940112
  0
LINE
  8
OUTLINE
  6
CONTINUOUS
 62
     3
 10
80.261514773917042
 20
-331.23521511672982
 30
0.0
 11
88.090537698464232
 21
-315.02913755249108
 31
0.0
  0
ARC
  8
OUTLINE
  6
CONTINUOUS
 62
     3
 10
91.15695965894065
 20
-316.51050080775423
 30
0.0
 40
3.4054927302099709
 50
90.0
 51
154.21519345940109
  0
LINE
  8
OUTLINE
  6
CONTINUOUS
 62
     3
 10
95.153473344103986
 20
-313.10500807754448
 30
0.0
 11
91.15695965894065
 21
-313.10500807754448
 31
0.0
  0
ARC
  8
OUTLINE
  6
CONTINUOUS
 62
     3
 10
95.153473344103986
 20
-311.50242326332761
 30
0.0
 40
1.6025848142166981
 50
270.0
 51
0.0
  0
LINE
  8
OUTLINE
  6
CONTINUOUS
 62
     3
 10
96.756058158320229
 20
-302.48788368336011
 30
0.0
 11
96.756058158320229
 21
-311.50242326332761
 31
0.0
  0
LINE
  8
OUTLINE
  6
CONTINUOUS
 62
     3
 10
96.756058158320229
 20
-302.48788368336011
 30
0.0
 11
180.5892167830084
 21
-302.48788368336011
 31
0.0
  0
LINE
  8
OUTLINE
  6
CONTINUOUS
 62
     3
 10
76.112826239245351
 20
-333.83844911146952
 30
0.0
 11
-76.112818073361041
 21
-333.83844911147008
 31
0.0
  0
LINE
  8
DETAIL
  6
CONTINUOUS
 62
     5
 10
-308.49757673667187
 20
0.0
 30
0.0
 11
308.49757673667239
 21
0.0
 31
0.0
  0
LINE
  8
DETAIL
  6
CONTINUOUS
 62
     5
 10
-308.49757673667187
 20
-3.0048465266557969
 30
0.0
 11
308.49757673667239
 21
-3.0048465266557969
 31
0.0
  0
LINE
  8
DETAIL
  6
CONTINUOUS
 62
     5
 10
-303.82456339745238
 20
-5.1082390953151844
 30
0.0
 11
-253.8438191667228
 21
-5.1082390953151844
 31
0.0
  0
LINE
  8
DETAIL
  6
CONTINUOUS
 62
     5
 10
253.84381916672331
 20
-5.1082390953151844
 30
0.0
 11
303.82456339745318
 21
-5.1082390953151844
 31
0.0
  0
LINE
  8
DETAIL
  6
CONTINUOUS
 62
     5
 10
-239.30932337653849
 20
-10.016155088853001
 30
0.0
 11
-244.9279376258028
 21
-10.016155088853001
 31
0.0
  0
LINE
  8
DETAIL
  6
CONTINUOUS
 62
     5
 10
-303.3893376413568
 20
-10.016155088853001
 30
0.0
 11
-300.17892012222723
 21
-10.016155088853001
 31
0.0
  0
LINE
  8
DETAIL
  6
CONTINUOUS
 62
     5
 10
-239.30932337653849
 20
-10.016155088853001
 30
0.0
 11
239.3093233765392
 21
-10.016155088853001
 31
0.0
  0
LINE
  8
DETAIL
  6
CONTINUOUS
 62
     5
 10
239.3093233765392
 20
-10.016155088853001
 30
0.0
 11
244.92793762657971
 21
-10.016155088853001
 31
0.0
  0
LINE
  8
DETAIL
  6
CONTINUOUS
 62
     5
 10
300.17892012300439
 20
-10.016155088853001
 30
0.0
 11
303.38933764135732
 21
-10.016155088853001
 31
0.0
  0
LINE
  8
DETAIL
  6
CONTINUOUS
 62
     5
 10
-306.99515347334381
 20
-3.0048465266557969
 30
0.0
 11
-306.99515347334381
 21
-6.4103392568661093
 31
0.0
  0
LINE
  8
DETAIL
  6
CONTINUOUS
 62
     5
 10
-303.82456339745238
 20
-5.1082390953151844
 30
0.0
 11
-303.82456339745238
 21
-3.0048465266557969
 31
0.0
  0
LINE
  8
DETAIL
  6
CONTINUOUS
 62
     5
 10
-296.97899838449092
 20
-13.890040625439839
 30
0.0
 11
-296.97899838449092
 21
-16.42649434571922
 31
0.0
  0
LINE
  8
DETAIL
  6
CONTINUOUS
 62
     5
 10
-294.50537591889872
 20
-14.523424878837201
 30
0.0
 11
-213.16867623235751
 21
-14.523424878837201
 31
0.0
  0
LINE
  8
DETAIL
  6
CONTINUOUS
 62
     5
 10
213.16867623313439
 20
-14.523424878837201
 30
0.0
 11
244.92793762657971
 21
-14.523424878837201
 31
0.0
  0
LINE
  8
DETAIL
  6
CONTINUOUS
 62
     5
 10
249.65781496953099
 20
-14.523424878837201
 30
0.0
 11
294.50537591967571
 21
-14.523424878837201
 31
0.0
  0
LINE
  8
DETAIL
  6
CONTINUOUS
 62
     5
 10
-266.33769383328922
 20
-18.529886914378149
 30
0.0
 11
-257.08012157831428
 21
-18.529886914378149
 31
0.0
  0
LINE
  8
DETAIL
  6
CONTINUOUS
 62
     5
 10
225.15857753167799
 20
-18.529886914378149
 30
0.0
 11
235.1747326205309
 21
-18.529886914378149
 31
0.0
  0
LINE
  8
DETAIL
  6
CONTINUOUS
 62
     5
 10
-293.37318255250369
 20
-20.032310177706108
 30
0.0
 11
-257.08012157831428
 21
-20.032310177706108
 31
0.0
  0
LINE
  8
DETAIL
  6
CONTINUOUS
 62
     5
 10
-230.16665507610401
 20
-20.032310177706108
 30
0.0
 11
230.16665507610449
 21
-20.032310177706108
 31
0.0
  0
LINE
  8
DETAIL
  6
CONTINUOUS
 62
     5
 10
257.0801215783149
 20
-20.032310177706108
 30
0.0
 11
293.37318255250432
 21
-20.032310177706108
 31
0.0
  0
LINE
  8
DETAIL
  6
CONTINUOUS
 62
     5
 10
-266.33769383328922
 20
-18.529886914378149
 30
0.0
 11
-266.33769383328922
 21
-14.523424878837201
 31
0.0
  0
LINE
  8
DETAIL
  6
CONTINUOUS
 62
     5
 10
-261.32961628886278
 20
-14.523424878837201
 30
0.0
 11
-261.32961628886278
 21
-18.082583469612359
 31
0.0
  0
LINE
  8
DETAIL
  6
CONTINUOUS
 62
     5
 10
-257.08012157831428
 20
-14.523424878837201
 30
0.0
 11
-257.08012157831428
 21
-200.32310177705961
 31
0.0
  0
LINE
  8
DETAIL
  6
CONTINUOUS
 62
     5
 10
-254.24712510435651
 20
-5.1082390953151844
 30
0.0
 11
-254.24712510435651
 21
-3.0048465266557969
 31
0.0
  0
LINE
  8
DETAIL
  6
CONTINUOUS
 62
     5
 10
-252.8306268669896
 20
-200.32310177705961
 30
0.0
 11
-252.8306268669896
 21
-14.523424878837201
 31
0.0
  0
LINE
  8
DETAIL
  6
CONTINUOUS
 62
     5
 10
-242.9151392085256
 20
-6.4103392568661093
 30
0.0
 11
-242.9151392085256
 21
-3.0048465266557969
 31
0.0
  0
LINE
  8
DETAIL
  6
CONTINUOUS
 62
     5
 10
-230.16665507610401
 20
-200.32310177705961
 30
0.0
 11
-230.16665507610401
 21
-14.523424878837201
 31
0.0
  0
LINE
  8
DETAIL
  6
CONTINUOUS
 62
     5
 10
235.66082883971421
 20
-84.886914378029019
 30
0.0
 11
261.65755023396082
 21
-84.886914378029019
 31
0.0
  0
LINE
  8
DETAIL
  6
CONTINUOUS
 62
     5
 10
235.66082883971421
 20
-88.392568659127733
 30
0.0
 11
261.65755023396082
 21
-88.392568659127733
 31
0.0
  0
LINE
  8
DETAIL
  6
CONTINUOUS
 62
     5
 10
-213.16867623235751
 20
-14.523424878837201
 30
0.0
 11
-213.16867623235751
 21
-10.016155088853001
 31
0.0
  0
LINE
  8
DETAIL
  6
CONTINUOUS
 62
     5
 10
-201.1284412186194
 20
-16.42649434571922
 30
0.0
 11
-201.1284412186194
 21
-13.021001615508791
 31
0.0
  0
LINE
  8
DETAIL
  6
CONTINUOUS
 62
     5
 10
230.16665507610449
 20
-131.21163166397389
 30
0.0
 11
-230.16665507610401
 21
-131.21163166397389
 31
0.0
  0
LINE
  8
DETAIL
  6
CONTINUOUS
 62
     5
 10
230.16665507610449
 20
-135.21809369951541
 30
0.0
 11
-230.16665507610401
 21
-135.21809369951541
 31
0.0
  0
LINE
  8
DETAIL
  6
CONTINUOUS
 62
     5
 10
-13.021001615508681
 20
-135.8190630048467
 30
0.0
 11
13.021001615509141
 21
-135.8190630048467
 31
0.0
  0
LINE
  8
DETAIL
  6
CONTINUOUS
 62
     5
 10
15.02423263327978
 20
-148.7399030694672
 30
0.0
 11
20.667976779752511
 21
-149.2336667019575
 31
0.0
  0
LINE
  8
DETAIL
  6
CONTINUOUS
 62
     5
 10
8.5137318255253831
 20
-143.43134087237479
 30
0.0
 11
6.5105008077547382
 21
-143.43134087237479
 31
0.0
  0
LINE
  8
DETAIL
  6
CONTINUOUS
 62
     5
 10
-6.5105008077541697
 20
-143.43134087237479
 30
0.0
 11
-8.5137318255248147
 21
-143.43134087237479
 31
0.0
  0
LINE
  8
DETAIL
  6
CONTINUOUS
 62
     5
 10
14.022617124394509
 20
-143.93214862681739
 30
0.0
 11
-14.02261712439395
 21
-143.93214862681739
 31
0.0
  0
LINE
  8
DETAIL
  6
CONTINUOUS
 62
     5
 10
14.022617124394509
 20
-146.4361873990309
 30
0.0
 11
-14.022168111031529
 21
-146.4361873990309
 31
0.0
  0
LINE
  8
DETAIL
  6
CONTINUOUS
 62
     5
 10
-14.022342767153649
 20
-148.43941841680149
 30
0.0
 11
14.022407715320011
 21
-148.43941841680149
 31
0.0
  0
LINE
  8
DETAIL
  6
CONTINUOUS
 62
     5
 10
-15.0242326332791
 20
-148.7399030694672
 30
0.0
 11
15.02423263327978
 21
-148.7399030694672
 31
0.0
  0
LINE
  8
DETAIL
  6
CONTINUOUS
 62
     5
 10
-26.049655248174421
 20
-163.26332794830421
 30
0.0
 11
26.049655248174989
 21
-163.26332794830421
 31
0.0
  0
LINE
  8
DETAIL
  6
CONTINUOUS
 62
     5
 10
13.020926248988991
 20
-167.97092084006491
 30
0.0
 11
-13.02092624898842
 21
-167.97092084006491
 31
0.0
  0
LINE
  8
DETAIL
  6
CONTINUOUS
 62
     5
 10
57.893376413570543
 20
-168.471728594507
 30
0.0
 11
-57.893376413569968
 21
-168.471728594507
 31
0.0
  0
LINE
  8
DETAIL
  6
CONTINUOUS
 62
     5
 10
-15.0242326332791
 20
-148.7399030694672
 30
0.0
 11
-20.667976779752049
 21
-149.2336667019575
 31
0.0
  0
LINE
  8
DETAIL
  6
CONTINUOUS
 62
     5
 10
13.021004090819471
 20
-135.81906548015729
 30
0.0
 11
13.62197609973612
 21
-135.21809369951541
 31
0.0
  0
LINE
  8
DETAIL
  6
CONTINUOUS
 62
     5
 10
-96.756058158319547
 20
-302.48788368336062
 30
0.0
 11
-96.756058158319547
 21
-311.50242326332813
 31
0.0
  0
LINE
  8
DETAIL
  6
CONTINUOUS
 62
     5
 10
65.305331179321684
 20
-224.73404714478229
 30
0.0
 11
-65.305331179321229
 21
-224.73404714478229
 31
0.0
  0
LINE
  8
DETAIL
  6
CONTINUOUS
 62
     5
 10
66.106623586430032
 20
-225.53533955189059
 30
0.0
 11
-66.106623586429464
 21
-225.53533955189059
 31
0.0
  0
LINE
  8
DETAIL
  6
CONTINUOUS
 62
     5
 10
-65.305331179321229
 20
-224.73404714478229
 30
0.0
 11
-66.106623586429464
 21
-225.53533955189059
 31
0.0
  0
LINE
  8
DETAIL
  6
CONTINUOUS
 62
     5
 10
-89.644588045233945
 20
-270.43618739903093
 30
0.0
 11
-89.644588045233945
 21
-302.48788368336062
 31
0.0
  0
LINE
  8
DETAIL
  6
CONTINUOUS
 62
     5
 10
-84.135702746364814
 20
-303.78998384491092
 30
0.0
 11
-84.135702746364814
 21
-302.98869143780291
 31
0.0
  0
LINE
  8
DETAIL
  6
CONTINUOUS
 62
     5
 10
-66.106623586429464
 20
-259.41841680129238
 30
0.0
 11
-66.106623586429464
 21
-225.53533955189059
 31
0.0
  0
LINE
  8
DETAIL
  6
CONTINUOUS
 62
     5
 10
-65.305331179321229
 20
-224.73404714478229
 30
0.0
 11
-65.305331179321229
 21
-175.88368336025829
 31
0.0
  0
LINE
  8
DETAIL
  6
CONTINUOUS
 62
     5
 10
-61.04568293008208
 20
-261.42164781906303
 30
0.0
 11
-61.04568293008208
 21
-254.9111470113086
 31
0.0
  0
LINE
  8
DETAIL
  6
CONTINUOUS
 62
     5
 10
-57.790432526204768
 20
-251.7059773828756
 30
0.0
 11
-51.279931718450371
 21
-251.7059773828756
 31
0.0
  0
LINE
  8
DETAIL
  6
CONTINUOUS
 62
     5
 10
51.279931718450833
 20
-251.7059773828756
 30
0.0
 11
57.790432526205343
 21
-251.7059773828756
 31
0.0
  0
LINE
  8
DETAIL
  6
CONTINUOUS
 62
     5
 10
61.045682930082528
 20
-254.9111470113086
 30
0.0
 11
48.024681314573627
 21
-254.9111470113086
 31
0.0
  0
LINE
  8
DETAIL
  6
CONTINUOUS
 62
     5
 10
-48.024681314573172
 20
-254.9111470113086
 30
0.0
 11
-61.04568293008208
 21
-254.9111470113086
 31
0.0
  0
LINE
  8
DETAIL
  6
CONTINUOUS
 62
     5
 10
86.138933764136027
 20
-261.42164781906303
 30
0.0
 11
-86.138933764135345
 21
-261.42164781906303
 31
0.0
  0
LINE
  8
DETAIL
  6
CONTINUOUS
 62
     5
 10
-41.55935936975095
 20
-261.72213247172868
 30
0.0
 11
-44.564205896406747
 21
-261.72213247172868
 31
0.0
  0
LINE
  8
DETAIL
  6
CONTINUOUS
 62
     5
 10
-26.049655248174421
 20
-163.26332794830421
 30
0.0
 11
-25.2205143644785
 21
-153.78620428124881
 31
0.0
  0
LINE
  8
DETAIL
  6
CONTINUOUS
 62
     5
 10
-57.790432526204768
 20
-251.7059773828756
 30
0.0
 11
-57.790432526204768
 21
-254.9111470113086
 31
0.0
  0
LINE
  8
DETAIL
  6
CONTINUOUS
 62
     5
 10
-54.535182122327569
 20
-261.42164781906303
 30
0.0
 11
-54.535182122327569
 21
-255.49264148934881
 31
0.0
  0
LINE
  8
DETAIL
  6
CONTINUOUS
 62
     5
 10
-51.279931718450371
 20
-251.7059773828756
 30
0.0
 11
-51.279931718450371
 21
-254.9111470113086
 31
0.0
  0
LINE
  8
DETAIL
  6
CONTINUOUS
 62
     5
 10
-48.024681314573172
 20
-261.42164781906303
 30
0.0
 11
-48.024681314573172
 21
-254.9111470113086
 31
0.0
  0
LINE
  8
DETAIL
  6
CONTINUOUS
 62
     5
 10
-44.564205896406747
 20
-265.42810985460432
 30
0.0
 11
-44.564205896406747
 21
-261.72213247172868
 31
0.0
  0
LINE
  8
DETAIL
  6
CONTINUOUS
 62
     5
 10
-41.55935936975095
 20
-265.42810985460432
 30
0.0
 11
-41.55935936975095
 21
-261.72213247172868
 31
0.0
  0
LINE
  8
DETAIL
  6
CONTINUOUS
 62
     5
 10
-40.064620355411648
 20
-334.84006462035569
 30
0.0
 11
-40.064620355411648
 21
-333.83844911147042
 31
0.0
  0
LINE
  8
DETAIL
  6
CONTINUOUS
 62
     5
 10
86.138933764136027
 20
-265.42810985460432
 30
0.0
 11
83.634894991922692
 21
-265.42810985460432
 31
0.0
  0
LINE
  8
DETAIL
  6
CONTINUOUS
 62
     5
 10
-83.634894991922238
 20
-265.42810985460432
 30
0.0
 11
-86.138933764135345
 21
-265.42810985460432
 31
0.0
  0
LINE
  8
DETAIL
  6
CONTINUOUS
 62
     5
 10
-180.58921678300811
 20
-270.43618739903093
 30
0.0
 11
-89.644588045233945
 21
-270.43618739903093
 31
0.0
  0
LINE
  8
DETAIL
  6
CONTINUOUS
 62
     5
 10
89.644588045234514
 20
-270.43618739903093
 30
0.0
 11
180.58921678300871
 21
-270.43618739903093
 31
0.0
  0
LINE
  8
DETAIL
  6
CONTINUOUS
 62
     5
 10
38.260403093461719
 20
-287.96445880452359
 30
0.0
 11
-38.260403093461377
 21
-287.96445880452359
 31
0.0
  0
LINE
  8
DETAIL
  6
CONTINUOUS
 62
     5
 10
-68.82185443676326
 20
-301.84726146435253
 30
0.0
 11
-41.689852219608717
 21
-288.74905350232348
 31
0.0
  0
LINE
  8
DETAIL
  6
CONTINUOUS
 62
     5
 10
-14.02261712439395
 20
-148.43941841680149
 30
0.0
 11
-14.02261712439395
 21
-143.93214862681739
 31
0.0
  0
LINE
  8
DETAIL
  6
CONTINUOUS
 62
     5
 10
-8.5137318255248147
 20
-167.97092084006491
 30
0.0
 11
-8.5137318255248147
 21
-163.26332794830421
 31
0.0
  0
LINE
  8
DETAIL
  6
CONTINUOUS
 62
     5
 10
-8.5137318255248147
 20
-148.7399030694672
 30
0.0
 11
-8.5137318255248147
 21
-148.43941841680149
 31
0.0
  0
LINE
  8
DETAIL
  6
CONTINUOUS
 62
     5
 10
-8.5137318255248147
 20
-143.43134087237479
 30
0.0
 11
-8.5137318255248147
 21
-135.8190630048467
 31
0.0
  0
LINE
  8
DETAIL
  6
CONTINUOUS
 62
     5
 10
-6.5105008077541697
 20
-143.93214862681739
 30
0.0
 11
-6.5105008077541697
 21
-143.43134087237479
 31
0.0
  0
LINE
  8
DETAIL
  6
CONTINUOUS
 62
     5
 10
-4.5072697899835248
 20
-333.83844911147042
 30
0.0
 11
-4.5072697899835248
 21
-335.04038772213261
 31
0.0
  0
LINE
  8
DETAIL
  6
CONTINUOUS
 62
     5
 10
76.738765645289618
 20
-301.98707592891748
 30
0.0
 11
69.111470113470432
 21
-301.98707592891748
 31
0.0
  0
LINE
  8
DETAIL
  6
CONTINUOUS
 62
     5
 10
-83.268278270753967
 20
-301.98707592891748
 30
0.0
 11
-69.409403428986252
 21
-301.98707592891748
 31
0.0
  0
LINE
  8
DETAIL
  6
CONTINUOUS
 62
     5
 10
76.738765645289618
 20
-301.98707592891748
 30
0.0
 11
83.268278270754536
 21
-301.98707592891748
 31
0.0
  0
LINE
  8
DETAIL
  6
CONTINUOUS
 62
     5
 10
-180.58921678320911
 20
-302.48788368333669
 30
0.0
 11
-89.644588045233945
 21
-302.48788368336062
 31
0.0
  0
LINE
  8
DETAIL
  6
CONTINUOUS
 62
     5
 10
89.644588045234514
 20
-302.48788368336062
 30
0.0
 11
180.58921678321349
 21
-302.48788368333669
 31
0.0
  0
LINE
  8
DETAIL
  6
CONTINUOUS
 62
     5
 10
96.756058158320116
 20
-304.79159935379641
 30
0.0
 11
85.003127221976229
 21
-304.79159935379641
 31
0.0
  0
LINE
  8
DETAIL
  6
CONTINUOUS
 62
     5
 10
-96.756058158319547
 20
-304.79159935379641
 30
0.0
 11
-85.00312722197566
 21
-304.79159935379641
 31
0.0
  0
LINE
  8
DETAIL
  6
CONTINUOUS
 62
     5
 10
-1.5935605162612769
 20
-299.07336665597211
 30
0.0
 11
1.5935605644015141
 21
-295.88624557453261
 31
0.0
  0
LINE
  8
DETAIL
  6
CONTINUOUS
 62
     5
 10
4.5072697899840932
 20
-333.83844911147042
 30
0.0
 11
4.5072697899840932
 21
-335.04038772213261
 31
0.0
  0
LINE
  8
DETAIL
  6
CONTINUOUS
 62
     5
 10
6.5105008077547382
 20
-143.93214862681739
 30
0.0
 11
6.5105008077547382
 21
-143.43134087237479
 31
0.0
  0
LINE
  8
DETAIL
  6
CONTINUOUS
 62
     5
 10
8.5137318255253831
 20
-167.97092084006491
 30
0.0
 11
8.5137318255253831
 21
-163.26332794830421
 31
0.0
  0
LINE
  8
DETAIL
  6
CONTINUOUS
 62
     5
 10
8.5137318255253831
 20
-148.7399030694672
 30
0.0
 11
8.5137318255253831
 21
-148.43941841680149
 31
0.0
  0
LINE
  8
DETAIL
  6
CONTINUOUS
 62
     5
 10
8.5137318255253831
 20
-143.43134087237479
 30
0.0
 11
8.5137318255253831
 21
-135.8190630048467
 31
0.0
  0
LINE
  8
DETAIL
  6
CONTINUOUS
 62
     5
 10
14.022617124394509
 20
-148.43941841680149
 30
0.0
 11
14.022617124394509
 21
-143.93214862681739
 31
0.0
  0
LINE
  8
DETAIL
  6
CONTINUOUS
 62
     5
 10
1.593560517038213
 20
-299.07336665597211
 30
0.0
 11
-1.5935605644009461
 21
-295.88624557453261
 31
0.0
  0
LINE
  8
DETAIL
  6
CONTINUOUS
 62
     5
 10
-36.558966074313162
 20
-333.93861066235888
 30
0.0
 11
-33.554119547657251
 21
-333.93861066235888
 31
0.0
  0
LINE
  8
DETAIL
  6
CONTINUOUS
 62
     5
 10
33.55411954765782
 20
-333.93861066235888
 30
0.0
 11
36.558966074313624
 21
-333.93861066235888
 31
0.0
  0
LINE
  8
DETAIL
  6
CONTINUOUS
 62
     5
 10
-40.064620355411648
 20
-334.84006462035569
 30
0.0
 11
-4.5072697899835248
 21
-334.84006462035569
 31
0.0
  0
LINE
  8
DETAIL
  6
CONTINUOUS
 62
     5
 10
4.5072697899840932
 20
-334.84006462035569
 30
0.0
 11
40.064620355412217
 21
-334.84006462035569
 31
0.0
  0
LINE
  8
DETAIL
  6
CONTINUOUS
 62
     5
 10
-4.0064620355409488
 20
-335.54119547657518
 30
0.0
 11
4.0064620355415173
 21
-335.54119547657518
 31
0.0
  0
LINE
  8
DETAIL
  6
CONTINUOUS
 62
     5
 10
40.064620355412217
 20
-334.84006462035569
 30
0.0
 11
40.064620355412217
 21
-333.83844911147042
 31
0.0
  0
LINE
  8
DETAIL
  6
CONTINUOUS
 62
     5
 10
48.024681314573627
 20
-261.42164781906303
 30
0.0
 11
48.024681314573627
 21
-254.9111470113086
 31
0.0
  0
LINE
  8
DETAIL
  6
CONTINUOUS
 62
     5
 10
51.279931718450833
 20
-251.7059773828756
 30
0.0
 11
51.279931718450833
 21
-254.9111470113086
 31
0.0
  0
LINE
  8
DETAIL
  6
CONTINUOUS
 62
     5
 10
54.535182122328017
 20
-261.42164781906303
 30
0.0
 11
54.535182122328017
 21
-255.49264148934881
 31
0.0
  0
LINE
  8
DETAIL
  6
CONTINUOUS
 62
     5
 10
57.790432526205343
 20
-251.7059773828756
 30
0.0
 11
57.790432526205343
 21
-254.9111470113086
 31
0.0
  0
LINE
  8
DETAIL
  6
CONTINUOUS
 62
     5
 10
61.045682930082528
 20
-261.42164781906303
 30
0.0
 11
61.045682930082528
 21
-254.9111470113086
 31
0.0
  0
LINE
  8
DETAIL
  6
CONTINUOUS
 62
     5
 10
65.305331179321684
 20
-224.73404714478229
 30
0.0
 11
65.305331179321684
 21
-175.88368336025829
 31
0.0
  0
LINE
  8
DETAIL
  6
CONTINUOUS
 62
     5
 10
66.106623586430032
 20
-259.41841680129238
 30
0.0
 11
66.106623586430032
 21
-225.53533955189059
 31
0.0
  0
LINE
  8
DETAIL
  6
CONTINUOUS
 62
     5
 10
26.049655248174989
 20
-163.26332794830421
 30
0.0
 11
25.220514364479069
 21
-153.78620428124881
 31
0.0
  0
LINE
  8
DETAIL
  6
CONTINUOUS
 62
     5
 10
41.689852219609293
 20
-288.74905350232348
 30
0.0
 11
69.111470113470432
 21
-301.98707592891748
 31
0.0
  0
LINE
  8
DETAIL
  6
CONTINUOUS
 62
     5
 10
84.135702746365382
 20
-302.98869143780291
 30
0.0
 11
84.135702746365382
 21
-303.78998384491092
 31
0.0
  0
LINE
  8
DETAIL
  6
CONTINUOUS
 62
     5
 10
86.138933764136027
 20
-265.42810985460432
 30
0.0
 11
86.138933764136027
 21
-261.42164781906303
 31
0.0
  0
LINE
  8
DETAIL
  6
CONTINUOUS
 62
     5
 10
89.644588045234514
 20
-270.43618739903093
 30
0.0
 11
89.644588045234514
 21
-288.63449015761842
 31
0.0
  0
LINE
  8
DETAIL
  6
CONTINUOUS
 62
     5
 10
89.644588045234514
 20
-297.29839515763132
 30
0.0
 11
89.644588045234514
 21
-302.48788368336062
 31
0.0
  0
LINE
  8
DETAIL
  6
CONTINUOUS
 62
     5
 10
96.756058158320116
 20
-311.50242326332813
 30
0.0
 11
96.756058158320116
 21
-302.48788368336062
 31
0.0
  0
LINE
  8
DETAIL
  6
CONTINUOUS
 62
     5
 10
65.305331179321684
 20
-224.73404714478229
 30
0.0
 11
66.106623586430032
 21
-225.53533955189059
 31
0.0
  0
LINE
  8
DETAIL
  6
CONTINUOUS
 62
     5
 10
-13.021004090042419
 20
-135.81906548093329
 30
0.0
 11
-13.62197609973555
 21
-135.21809369951541
 31
0.0
  0
LINE
  8
DETAIL
  6
CONTINUOUS
 62
     5
 10
201.12844121861991
 20
-13.021001615508791
 30
0.0
 11
201.12844121861991
 21
-16.42649434571922
 31
0.0
  0
LINE
  8
DETAIL
  6
CONTINUOUS
 62
     5
 10
213.16867623313439
 20
-14.523424878837201
 30
0.0
 11
213.16867623313439
 21
-10.016155088853001
 31
0.0
  0
LINE
  8
DETAIL
  6
CONTINUOUS
 62
     5
 10
225.15857753167799
 20
-18.529886914378149
 30
0.0
 11
225.15857753167799
 21
-14.523424878837201
 31
0.0
  0
LINE
  8
DETAIL
  6
CONTINUOUS
 62
     5
 10
230.16665507610449
 20
-14.523424878837201
 30
0.0
 11
230.16665507610449
 21
-18.082583469612359
 31
0.0
  0
LINE
  8
DETAIL
  6
CONTINUOUS
 62
     5
 10
230.16665507610449
 20
-18.529886914378149
 30
0.0
 11
230.16665507610449
 21
-200.32310177705961
 31
0.0
  0
LINE
  8
DETAIL
  6
CONTINUOUS
 62
     5
 10
235.1747326205309
 20
-14.523424878837201
 30
0.0
 11
235.1747326205309
 21
-18.529886914378149
 31
0.0
  0
LINE
  8
DETAIL
  6
CONTINUOUS
 62
     5
 10
235.6592803335966
 20
-84.886914378029019
 30
0.0
 11
235.6592803335966
 21
-88.392568659127733
 31
0.0
  0
LINE
  8
DETAIL
  6
CONTINUOUS
 62
     5
 10
242.9151392085262
 20
-3.0048465266557969
 30
0.0
 11
242.9151392085262
 21
-6.4103392568661093
 31
0.0
  0
LINE
  8
DETAIL
  6
CONTINUOUS
 62
     5
 10
244.8949919224558
 20
-20.032310177706108
 30
0.0
 11
244.8949919224558
 21
-15.024232633279439
 31
0.0
  0
LINE
  8
DETAIL
  6
CONTINUOUS
 62
     5
 10
247.89983844911171
 20
-20.032310177706108
 30
0.0
 11
247.89983844911171
 21
-15.024232633279439
 31
0.0
  0
LINE
  8
DETAIL
  6
CONTINUOUS
 62
     5
 10
252.83062686776651
 20
-14.523424878837201
 30
0.0
 11
252.83062686776651
 21
-84.886914378029019
 31
0.0
  0
LINE
  8
DETAIL
  6
CONTINUOUS
 62
     5
 10
252.83062686776651
 20
-88.392568659127733
 30
0.0
 11
252.83062686776651
 21
-200.32310177705961
 31
0.0
  0
LINE
  8
DETAIL
  6
CONTINUOUS
 62
     5
 10
254.24712510435711
 20
-5.1082390953151844
 30
0.0
 11
254.24712510435711
 21
-3.0048465266557969
 31
0.0
  0
LINE
  8
DETAIL
  6
CONTINUOUS
 62
     5
 10
257.0801215783149
 20
-200.32310177705961
 30
0.0
 11
257.0801215783149
 21
-88.392568659127733
 31
0.0
  0
LINE
  8
DETAIL
  6
CONTINUOUS
 62
     5
 10
257.0801215783149
 20
-84.886914378029019
 30
0.0
 11
257.0801215783149
 21
-14.523424878837201
 31
0.0
  0
LINE
  8
DETAIL
  6
CONTINUOUS
 62
     5
 10
261.65756223238299
 20
-84.886914378029019
 30
0.0
 11
261.65756223238299
 21
-88.392568659127733
 31
0.0
  0
LINE
  8
DETAIL
  6
CONTINUOUS
 62
     5
 10
296.97899838449121
 20
-16.42649434571922
 30
0.0
 11
296.97899838449121
 21
-13.890040625439839
 31
0.0
  0
LINE
  8
DETAIL
  6
CONTINUOUS
 62
     5
 10
303.82456339745318
 20
-3.0048465266557969
 30
0.0
 11
303.82456339745318
 21
-5.1082390953151844
 31
0.0
  0
LINE
  8
DETAIL
  6
CONTINUOUS
 62
     5
 10
306.99515347334432
 20
-6.4103392568661093
 30
0.0
 11
306.99515347334432
 21
-3.0048465266557969
 31
0.0
  0
ARC
  8
DETAIL
  6
CONTINUOUS
 62
     5
 10
-20.231494066849219
 20
-154.22268700036321
 30
0.0
 40
5.0080775444263974
 50
94.999999935999284
 51
174.99999998889751
  0
ARC
  8
DETAIL
  6
CONTINUOUS
 62
     5
 10
-232.87560581583179
 20
-130.7108239095318
 30
0.0
 40
3.906300484652693
 50
352.63242613150629
 51
0.0
  0
ARC
  8
DETAIL
  6
CONTINUOUS
 62
     5
 10
-239.30932337653849
 20
-6.4103392568661093
 30
0.0
 40
3.605815831987115
 50
180.0
 51
270.0
  0
ARC
  8
DETAIL
  6
CONTINUOUS
 62
     5
 10
-293.37318255250369
 20
-16.42649434571922
 30
0.0
 40
3.6058158319871718
 50
180.0
 51
270.0
  0
ARC
  8
DETAIL
  6
CONTINUOUS
 62
     5
 10
-197.52262538663251
 20
-16.42649434571922
 30
0.0
 40
3.605815831987059
 50
180.0
 51
270.0
  0
ARC
  8
DETAIL
  6
CONTINUOUS
 62
     5
 10
-303.3893376413568
 20
-6.4103392568661093
 30
0.0
 40
3.605815831987059
 50
180.0
 51
270.0
  0
ARC
  8
DETAIL
  6
CONTINUOUS
 62
     5
 10
-204.1332877452754
 20
-13.021001615508791
 30
0.0
 40
3.0048465266558528
 50
0.0
 51
90.0
  0
ARC
  8
DETAIL
  6
CONTINUOUS
 62
     5
 10
-308.49757673667187
 20
-1.5024232633279551
 30
0.0
 40
1.5024232633279551
 50
90.0
 51
270.0
  0
ARC
  8
DETAIL
  6
CONTINUOUS
 62
     5
 10
-57.893376413569968
 20
-175.88368336025829
 30
0.0
 40
7.4119547657512621
 50
90.0
 51
180.0
  0
ARC
  8
DETAIL
  6
CONTINUOUS
 62
     5
 10
-68.109854604200109
 20
-259.41841680129238
 30
0.0
 40
2.0032310177707591
 50
270.0
 51
0.0
  0
ARC
  8
DETAIL
  6
CONTINUOUS
 62
     5
 10
-13.021001615508681
 20
-171.5767366720514
 30
0.0
 40
3.6058158319870022
 50
90.0
 51
120.5064405231019
  0
ARC
  8
DETAIL
  6
CONTINUOUS
 62
     5
 10
-38.260578852913227
 20
-295.85093885534292
 30
0.0
 40
7.8864802713304867
 50
89.998723097002198
 51
115.7744111253964
  0
ARC
  8
DETAIL
  6
CONTINUOUS
 62
     5
 10
-35.056542810985093
 20
-333.13731825525031
 30
0.0
 40
1.702746365104999
 50
208.07248693589889
 51
331.92751306410099
  0
ARC
  8
DETAIL
  6
CONTINUOUS
 62
     5
 10
-4.0064620355409488
 20
-335.04038772213261
 30
0.0
 40
0.50080775444269
 50
180.0
 51
270.0
  0
ARC
  8
DETAIL
  6
CONTINUOUS
 62
     5
 10
-36.659127625201677
 20
-333.93861066235888
 30
0.0
 40
0.100161550888572
 50
0.0
 51
90.0
  0
ARC
  8
DETAIL
  6
CONTINUOUS
 62
     5
 10
-33.45395799676885
 20
-333.93861066235888
 30
0.0
 40
0.100161550888515
 50
90.0
 51
180.0
  0
ARC
  8
DETAIL
  6
CONTINUOUS
 62
     5
 10
20.231494066849791
 20
-154.22268700036321
 30
0.0
 40
5.008077544426496
 50
5.000000011102494
 51
85.00000006400073
  0
ARC
  8
DETAIL
  6
CONTINUOUS
 62
     5
 10
232.87560581583239
 20
-130.7108239095318
 30
0.0
 40
3.906300484652681
 50
180.0
 51
187.36757386849359
  0
ARC
  8
DETAIL
  6
CONTINUOUS
 62
     5
 10
303.38933764135732
 20
-6.4103392568661093
 30
0.0
 40
3.6058158319870022
 50
270.0
 51
0.0
  0
ARC
  8
DETAIL
  6
CONTINUOUS
 62
     5
 10
197.52262538663291
 20
-16.42649434571922
 30
0.0
 40
3.6058158319870022
 50
270.0
 51
0.0
  0
ARC
  8
DETAIL
  6
CONTINUOUS
 62
     5
 10
293.37318255250432
 20
-16.42649434571922
 30
0.0
 40
3.6058158319870022
 50
270.0
 51
0.0
  0
ARC
  8
DETAIL
  6
CONTINUOUS
 62
     5
 10
239.3093233765392
 20
-6.4103392568661093
 30
0.0
 40
3.6058158319870022
 50
270.0
 51
0.0
  0
ARC
  8
DETAIL
  6
CONTINUOUS
 62
     5
 10
204.13328774527579
 20
-13.021001615508791
 30
0.0
 40
3.004846526655911
 50
90.0
 51
180.0
  0
ARC
  8
DETAIL
  6
CONTINUOUS
 62
     5
 10
308.49757673667239
 20
-1.5024232633279551
 30
0.0
 40
1.5024232633277279
 50
270.0
 51
90.0
  0
ARC
  8
DETAIL
  6
CONTINUOUS
 62
     5
 10
57.893376413570543
 20
-175.88368336025829
 30
0.0
 40
7.4119547657512017
 50
0.0
 51
90.0
  0
ARC
  8
DETAIL
  6
CONTINUOUS
 62
     5
 10
13.021001615509141
 20
-171.5767366720514
 30
0.0
 40
3.6058158319870128
 50
59.493559476898099
 51
90.0
  0
ARC
  8
DETAIL
  6
CONTINUOUS
 62
     5
 10
38.260578463137897
 20
-295.85093870160682
 30
0.0
 40
7.8864802092146196
 50
64.22558584039291
 51
90.001274074097466
  0
CIRCLE
  8
DETAIL
  6
CONTINUOUS
 62
     5
 10
0.0000000000002274
 20
-297.4798061389339
 30
0.0
 40
4.7075928917608962
  0
CIRCLE
  8
DETAIL
  6
CONTINUOUS
 62
     5
 10
0.0000000000002274
 20
-277.44749596122739
 30
0.0
 40
4.5072697899838374
  0
ARC
  8
DETAIL
  6
CONTINUOUS
 62
     5
 10
68.109854604200564
 20
-259.41841680129238
 30
0.0
 40
2.003231017770617
 50
180.0
 51
270.0
  0
ARC
  8
DETAIL
  6
CONTINUOUS
 62
     5
 10
35.056542810985661
 20
-333.13731825525031
 30
0.0
 40
1.702746365104999
 50
208.07248693589889
 51
331.92751306410099
  0
CIRCLE
  8
DETAIL
  6
CONTINUOUS
 62
     5
 10
0.0000000000002274
 20
-277.44749596122739
 30
0.0
 40
1.5024232633279551
  0
ARC
  8
DETAIL
  6
CONTINUOUS
 62
     5
 10
4.0064620355415173
 20
-335.04038772213261
 30
0.0
 40
0.500807754442576
 50
270.0
 51
0.0
  0
ARC
  8
DETAIL
  6
CONTINUOUS
 62
     5
 10
33.453957996769191
 20
-333.93861066235888
 30
0.0
 40
0.100161550888572
 50
0.0
 51
90.0
  0
ARC
  8
DETAIL
  6
CONTINUOUS
 62
     5
 10
36.659127625202132
 20
-333.93861066235888
 30
0.0
 40
0.100161550888515
 50
90.0
 51
180.0
  0
LINE
  8
DETAIL
  6
CONTINUOUS
 62
     5
 10
83.268278270754536
 20
-301.98707592891748
 30
0.0
 11
83.28531644243526
 21
-301.98734248091029
 31
0.0
  0
LINE
  8
DETAIL
  6
CONTINUOUS
 62
     5
 10
83.28531644243526
 20
-301.98734248091029
 30
0.0
 11
83.302352591658178
 21
-301.98785512176738
 31
0.0
  0
LINE
  8
DETAIL
  6
CONTINUOUS
 62
     5
 10
83.302352591658178
 20
-301.98785512176738
 30
0.0
 11
83.302352591658178
 21
-301.98785512176738
 31
0.0
  0
LINE
  8
DETAIL
  6
CONTINUOUS
 62
     5
 10
83.302352591658178
 20
-301.98785512176738
 30
0.0
 11
83.319382629271217
 21
-301.98880747940092
 31
0.0
  0
LINE
  8
DETAIL
  6
CONTINUOUS
 62
     5
 10
83.319382629271217
 20
-301.98880747940092
 30
0.0
 11
83.336394199347069
 21
-301.9901833379073
 31
0.0
  0
LINE
  8
DETAIL
  6
CONTINUOUS
 62
     5
 10
83.336394199347069
 20
-301.9901833379073
 30
0.0
 11
83.336394199347069
 21
-301.9901833379073
 31
0.0
  0
LINE
  8
DETAIL
  6
CONTINUOUS
 62
     5
 10
83.336394199347069
 20
-301.9901833379073
 30
0.0
 11
83.353375005790099
 21
-301.99192848088239
 31
0.0
  0
LINE
  8
DETAIL
  6
CONTINUOUS
 62
     5
 10
83.353375005790099
 20
-301.99192848088239
 30
0.0
 11
83.370321258606737
 21
-301.99404653372119
 31
0.0
  0
LINE
  8
DETAIL
  6
CONTINUOUS
 62
     5
 10
83.370321258606737
 20
-301.99404653372119
 30
0.0
 11
83.370321258606737
 21
-301.99404653372119
 31
0.0
  0
LINE
  8
DETAIL
  6
CONTINUOUS
 62
     5
 10
83.370321258606737
 20
-301.99404653372119
 30
0.0
 11
83.387224854920532
 21
-301.99655020142279
 31
0.0
  0
LINE
  8
DETAIL
  6
CONTINUOUS
 62
     5
 10
83.387224854920532
 20
-301.99655020142279
 30
0.0
 11
83.404051934221798
 21
-301.99943066559428
 31
0.0
  0
LINE
  8
DETAIL
  6
CONTINUOUS
 62
     5
 10
83.404051934221798
 20
-301.99943066559428
 30
0.0
 11
83.404051934221798
 21
-301.99943066559428
 31
0.0
  0
LINE
  8
DETAIL
  6
CONTINUOUS
 62
     5
 10
83.404051934221798
 20
-301.99943066559428
 30
0.0
 11
83.42078582770057
 21
-302.00268078993469
 31
0.0
  0
LINE
  8
DETAIL
  6
CONTINUOUS
 62
     5
 10
83.42078582770057
 20
-302.00268078993469
 30
0.0
 11
83.437504390977551
 21
-302.00632168990973
 31
0.0
  0
LINE
  8
DETAIL
  6
CONTINUOUS
 62
     5
 10
83.437504390977551
 20
-302.00632168990973
 30
0.0
 11
83.437504390977551
 21
-302.00632168990973
 31
0.0
  0
LINE
  8
DETAIL
  6
CONTINUOUS
 62
     5
 10
83.437504390977551
 20
-302.00632168990973
 30
0.0
 11
83.454272316428046
 21
-302.01037225665431
 31
0.0
  0
LINE
  8
DETAIL
  6
CONTINUOUS
 62
     5
 10
83.454272316428046
 20
-302.01037225665431
 30
0.0
 11
83.471007119016576
 21
-302.01481423222492
 31
0.0
  0
LINE
  8
DETAIL
  6
CONTINUOUS
 62
     5
 10
83.471007119016576
 20
-302.01481423222492
 30
0.0
 11
83.471007119016576
 21
-302.01481423222492
 31
0.0
  0
LINE
  8
DETAIL
  6
CONTINUOUS
 62
     5
 10
83.471007119016576
 20
-302.01481423222492
 30
0.0
 11
83.487612716464241
 21
-302.01962460072718
 31
0.0
  0
LINE
  8
DETAIL
  6
CONTINUOUS
 62
     5
 10
83.487612716464241
 20
-302.01962460072718
 30
0.0
 11
83.504085814935252
 21
-302.02479846354078
 31
0.0
  0
LINE
  8
DETAIL
  6
CONTINUOUS
 62
     5
 10
83.504085814935252
 20
-302.02479846354078
 30
0.0
 11
83.504085814935252
 21
-302.02479846354078
 31
0.0
  0
LINE
  8
DETAIL
  6
CONTINUOUS
 62
     5
 10
83.504085814935252
 20
-302.02479846354078
 30
0.0
 11
83.520442730744662
 21
-302.03033557596189
 31
0.0
  0
LINE
  8
DETAIL
  6
CONTINUOUS
 62
     5
 10
83.520442730744662
 20
-302.03033557596189
 30
0.0
 11
83.536685432370177
 21
-302.03623619167149
 31
0.0
  0
LINE
  8
DETAIL
  6
CONTINUOUS
 62
     5
 10
83.536685432370177
 20
-302.03623619167149
 30
0.0
 11
83.536685432370177
 21
-302.03623619167149
 31
0.0
  0
LINE
  8
DETAIL
  6
CONTINUOUS
 62
     5
 10
83.536685432370177
 20
-302.03623619167149
 30
0.0
 11
83.552803452056992
 21
-302.04249566124412
 31
0.0
  0
LINE
  8
DETAIL
  6
CONTINUOUS
 62
     5
 10
83.552803452056992
 20
-302.04249566124412
 30
0.0
 11
83.568750924957726
 21
-302.04908922443082
 31
0.0
  0
LINE
  8
DETAIL
  6
CONTINUOUS
 62
     5
 10
83.568750924957726
 20
-302.04908922443082
 30
0.0
 11
83.568750924957726
 21
-302.04908922443082
 31
0.0
  0
LINE
  8
DETAIL
  6
CONTINUOUS
 62
     5
 10
83.568750924957726
 20
-302.04908922443082
 30
0.0
 11
83.584512121003854
 21
-302.0560070795035
 31
0.0
  0
LINE
  8
DETAIL
  6
CONTINUOUS
 62
     5
 10
83.584512121003854
 20
-302.0560070795035
 30
0.0
 11
83.600227246334953
 21
-302.0633193696309
 31
0.0
  0
LINE
  8
DETAIL
  6
CONTINUOUS
 62
     5
 10
83.600227246334953
 20
-302.0633193696309
 30
0.0
 11
83.600227246334953
 21
-302.0633193696309
 31
0.0
  0
LINE
  8
DETAIL
  6
CONTINUOUS
 62
     5
 10
83.600227246334953
 20
-302.0633193696309
 30
0.0
 11
83.616013028097086
 21
-302.07108595416082
 31
0.0
  0
LINE
  8
DETAIL
  6
CONTINUOUS
 62
     5
 10
83.616013028097086
 20
-302.07108595416082
 30
0.0
 11
83.63173634125269
 21
-302.07924561225462
 31
0.0
  0
LINE
  8
DETAIL
  6
CONTINUOUS
 62
     5
 10
83.63173634125269
 20
-302.07924561225462
 30
0.0
 11
83.63173634125269
 21
-302.07924561225462
 31
0.0
  0
LINE
  8
DETAIL
  6
CONTINUOUS
 62
     5
 10
83.63173634125269
 20
-302.07924561225462
 30
0.0
 11
83.647241191398734
 21
-302.08772428704378
 31
0.0
  0
LINE
  8
DETAIL
  6
CONTINUOUS
 62
     5
 10
83.647241191398734
 20
-302.08772428704378
 30
0.0
 11
83.662529958853384
 21
-302.0965176577082
 31
0.0
  0
LINE
  8
DETAIL
  6
CONTINUOUS
 62
     5
 10
83.662529958853384
 20
-302.0965176577082
 30
0.0
 11
83.662529958853384
 21
-302.0965176577082
 31
0.0
  0
LINE
  8
DETAIL
  6
CONTINUOUS
 62
     5
 10
83.662529958853384
 20
-302.0965176577082
 30
0.0
 11
83.677636931562461
 21
-302.10563653285959
 31
0.0
  0
LINE
  8
DETAIL
  6
CONTINUOUS
 62
     5
 10
83.677636931562461
 20
-302.10563653285959
 30
0.0
 11
83.692565653262932
 21
-302.11508250278371
 31
0.0
  0
LINE
  8
DETAIL
  6
CONTINUOUS
 62
     5
 10
83.692565653262932
 20
-302.11508250278371
 30
0.0
 11
83.692565653262932
 21
-302.11508250278371
 31
0.0
  0
LINE
  8
DETAIL
  6
CONTINUOUS
 62
     5
 10
83.692565653262932
 20
-302.11508250278371
 30
0.0
 11
83.707303132168363
 21
-302.12484663749677
 31
0.0
  0
LINE
  8
DETAIL
  6
CONTINUOUS
 62
     5
 10
83.707303132168363
 20
-302.12484663749677
 30
0.0
 11
83.721800978607803
 21
-302.13488714427251
 31
0.0
  0
LINE
  8
DETAIL
  6
CONTINUOUS
 62
     5
 10
83.721800978607803
 20
-302.13488714427251
 30
0.0
 11
83.721800978607803
 21
-302.13488714427251
 31
0.0
  0
LINE
  8
DETAIL
  6
CONTINUOUS
 62
     5
 10
83.721800978607803
 20
-302.13488714427251
 30
0.0
 11
83.736045037375902
 21
-302.14518918202288
 31
0.0
  0
LINE
  8
DETAIL
  6
CONTINUOUS
 62
     5
 10
83.736045037375902
 20
-302.14518918202288
 30
0.0
 11
83.750193489014464
 21
-302.15587857896628
 31
0.0
  0
LINE
  8
DETAIL
  6
CONTINUOUS
 62
     5
 10
83.750193489014464
 20
-302.15587857896628
 30
0.0
 11
83.750193489014464
 21
-302.15587857896628
 31
0.0
  0
LINE
  8
DETAIL
  6
CONTINUOUS
 62
     5
 10
83.750193489014464
 20
-302.15587857896628
 30
0.0
 11
83.764377800056877
 21
-302.16706210667547
 31
0.0
  0
LINE
  8
DETAIL
  6
CONTINUOUS
 62
     5
 10
83.764377800056877
 20
-302.16706210667547
 30
0.0
 11
83.778450245255726
 21
-302.17862964083889
 31
0.0
  0
LINE
  8
DETAIL
  6
CONTINUOUS
 62
     5
 10
83.778450245255726
 20
-302.17862964083889
 30
0.0
 11
83.778450245255726
 21
-302.17862964083889
 31
0.0
  0
LINE
  8
DETAIL
  6
CONTINUOUS
 62
     5
 10
83.778450245255726
 20
-302.17862964083889
 30
0.0
 11
83.792238089287821
 21
-302.19044938243673
 31
0.0
  0
LINE
  8
DETAIL
  6
CONTINUOUS
 62
     5
 10
83.792238089287821
 20
-302.19044938243673
 30
0.0
 11
83.805747748308249
 21
-302.2025197294887
 31
0.0
  0
LINE
  8
DETAIL
  6
CONTINUOUS
 62
     5
 10
83.805747748308249
 20
-302.2025197294887
 30
0.0
 11
83.805747748308249
 21
-302.2025197294887
 31
0.0
  0
LINE
  8
DETAIL
  6
CONTINUOUS
 62
     5
 10
83.805747748308249
 20
-302.2025197294887
 30
0.0
 11
83.819020950956656
 21
-302.21486595829828
 31
0.0
  0
LINE
  8
DETAIL
  6
CONTINUOUS
 62
     5
 10
83.819020950956656
 20
-302.21486595829828
 30
0.0
 11
83.832061524333426
 21
-302.22749066126278
 31
0.0
  0
LINE
  8
DETAIL
  6
CONTINUOUS
 62
     5
 10
83.832061524333426
 20
-302.22749066126278
 30
0.0
 11
83.832061524333426
 21
-302.22749066126278
 31
0.0
  0
LINE
  8
DETAIL
  6
CONTINUOUS
 62
     5
 10
83.832061524333426
 20
-302.22749066126278
 30
0.0
 11
83.844856933823849
 21
-302.24038089444878
 31
0.0
  0
LINE
  8
DETAIL
  6
CONTINUOUS
 62
     5
 10
83.844856933823849
 20
-302.24038089444878
 30
0.0
 11
83.857367099492308
 21
-302.25348425250962
 31
0.0
  0
LINE
  8
DETAIL
  6
CONTINUOUS
 62
     5
 10
83.857367099492308
 20
-302.25348425250962
 30
0.0
 11
83.857367099492308
 21
-302.25348425250962
 31
0.0
  0
LINE
  8
DETAIL
  6
CONTINUOUS
 62
     5
 10
83.857367099492308
 20
-302.25348425250962
 30
0.0
 11
83.869582075778908
 21
-302.26678359713372
 31
0.0
  0
LINE
  8
DETAIL
  6
CONTINUOUS
 62
     5
 10
83.869582075778908
 20
-302.26678359713372
 30
0.0
 11
83.881639999946628
 21
-302.28044231957648
 31
0.0
  0
LINE
  8
DETAIL
  6
CONTINUOUS
 62
     5
 10
83.881639999946628
 20
-302.28044231957648
 30
0.0
 11
83.881639999946628
 21
-302.28044231957648
 31
0.0
  0
LINE
  8
DETAIL
  6
CONTINUOUS
 62
     5
 10
83.881639999946628
 20
-302.28044231957648
 30
0.0
 11
83.893655222875736
 21
-302.29459845879438
 31
0.0
  0
LINE
  8
DETAIL
  6
CONTINUOUS
 62
     5
 10
83.893655222875736
 20
-302.29459845879438
 30
0.0
 11
83.905498867096185
 21
-302.30910811499882
 31
0.0
  0
LINE
  8
DETAIL
  6
CONTINUOUS
 62
     5
 10
83.905498867096185
 20
-302.30910811499882
 30
0.0
 11
83.905498867096185
 21
-302.30910811499882
 31
0.0
  0
LINE
  8
DETAIL
  6
CONTINUOUS
 62
     5
 10
83.905498867096185
 20
-302.30910811499882
 30
0.0
 11
83.917020650890208
 21
-302.32380005590801
 31
0.0
  0
LINE
  8
DETAIL
  6
CONTINUOUS
 62
     5
 10
83.917020650890208
 20
-302.32380005590801
 30
0.0
 11
83.928227903899597
 21
-302.33867565801683
 31
0.0
  0
LINE
  8
DETAIL
  6
CONTINUOUS
 62
     5
 10
83.928227903899597
 20
-302.33867565801683
 30
0.0
 11
83.928227903899597
 21
-302.33867565801683
 31
0.0
  0
LINE
  8
DETAIL
  6
CONTINUOUS
 62
     5
 10
83.928227903899597
 20
-302.33867565801683
 30
0.0
 11
83.939158520600813
 21
-302.3537710098143
 31
0.0
  0
LINE
  8
DETAIL
  6
CONTINUOUS
 62
     5
 10
83.939158520600813
 20
-302.3537710098143
 30
0.0
 11
83.949815043449121
 21
-302.36908843898237
 31
0.0
  0
LINE
  8
DETAIL
  6
CONTINUOUS
 62
     5
 10
83.949815043449121
 20
-302.36908843898237
 30
0.0
 11
83.949815043449121
 21
-302.36908843898237
 31
0.0
  0
LINE
  8
DETAIL
  6
CONTINUOUS
 62
     5
 10
83.949815043449121
 20
-302.36908843898237
 30
0.0
 11
83.960187126075311
 21
-302.38461244161311
 31
0.0
  0
LINE
  8
DETAIL
  6
CONTINUOUS
 62
     5
 10
83.960187126075311
 20
-302.38461244161311
 30
0.0
 11
83.970248218837696
 21
-302.40028994824581
 31
0.0
  0
LINE
  8
DETAIL
  6
CONTINUOUS
 62
     5
 10
83.970248218837696
 20
-302.40028994824581
 30
0.0
 11
83.970248218837696
 21
-302.40028994824581
 31
0.0
  0
LINE
  8
DETAIL
  6
CONTINUOUS
 62
     5
 10
83.970248218837696
 20
-302.40028994824581
 30
0.0
 11
83.979992762554502
 21
-302.41610450378568
 31
0.0
  0
LINE
  8
DETAIL
  6
CONTINUOUS
 62
     5
 10
83.979992762554502
 20
-302.41610450378568
 30
0.0
 11
83.989515363157921
 21
-302.43222367615908
 31
0.0
  0
LINE
  8
DETAIL
  6
CONTINUOUS
 62
     5
 10
83.989515363157921
 20
-302.43222367615908
 30
0.0
 11
83.989515363157921
 21
-302.43222367615908
 31
0.0
  0
LINE
  8
DETAIL
  6
CONTINUOUS
 62
     5
 10
83.989515363157921
 20
-302.43222367615908
 30
0.0
 11
83.998893805164471
 21
-302.44878844448709
 31
0.0
  0
LINE
  8
DETAIL
  6
CONTINUOUS
 62
     5
 10
83.998893805164471
 20
-302.44878844448709
 30
0.0
 11
84.008038422311074
 21
-302.46564940965948
 31
0.0
  0
LINE
  8
DETAIL
  6
CONTINUOUS
 62
     5
 10
84.008038422311074
 20
-302.46564940965948
 30
0.0
 11
84.008038422311074
 21
-302.46564940965948
 31
0.0
  0
LINE
  8
DETAIL
  6
CONTINUOUS
 62
     5
 10
84.008038422311074
 20
-302.46564940965948
 30
0.0
 11
84.016845188265279
 21
-302.4826295580375
 31
0.0
  0
LINE
  8
DETAIL
  6
CONTINUOUS
 62
     5
 10
84.016845188265279
 20
-302.4826295580375
 30
0.0
 11
84.025320087193336
 21
-302.49973179611209
 31
0.0
  0
LINE
  8
DETAIL
  6
CONTINUOUS
 62
     5
 10
84.025320087193336
 20
-302.49973179611209
 30
0.0
 11
84.025320087193336
 21
-302.49973179611209
 31
0.0
  0
LINE
  8
DETAIL
  6
CONTINUOUS
 62
     5
 10
84.025320087193336
 20
-302.49973179611209
 30
0.0
 11
84.033490087642917
 21
-302.51699449021282
 31
0.0
  0
LINE
  8
DETAIL
  6
CONTINUOUS
 62
     5
 10
84.033490087642917
 20
-302.51699449021282
 30
0.0
 11
84.041356085182997
 21
-302.53441792589422
 31
0.0
  0
LINE
  8
DETAIL
  6
CONTINUOUS
 62
     5
 10
84.041356085182997
 20
-302.53441792589422
 30
0.0
 11
84.041356085182997
 21
-302.53441792589422
 31
0.0
  0
LINE
  8
DETAIL
  6
CONTINUOUS
 62
     5
 10
84.041356085182997
 20
-302.53441792589422
 30
0.0
 11
84.048911027491613
 21
-302.55198596926027
 31
0.0
  0
LINE
  8
DETAIL
  6
CONTINUOUS
 62
     5
 10
84.048911027491613
 20
-302.55198596926027
 30
0.0
 11
84.056142143658121
 21
-302.56965488938312
 31
0.0
  0
LINE
  8
DETAIL
  6
CONTINUOUS
 62
     5
 10
84.056142143658121
 20
-302.56965488938312
 30
0.0
 11
84.056142143658121
 21
-302.56965488938312
 31
0.0
  0
LINE
  8
DETAIL
  6
CONTINUOUS
 62
     5
 10
84.056142143658121
 20
-302.56965488938312
 30
0.0
 11
84.06304746995761
 21
-302.58741117330158
 31
0.0
  0
LINE
  8
DETAIL
  6
CONTINUOUS
 62
     5
 10
84.06304746995761
 20
-302.58741117330158
 30
0.0
 11
84.069673989996545
 21
-302.60538977695597
 31
0.0
  0
LINE
  8
DETAIL
  6
CONTINUOUS
 62
     5
 10
84.069673989996545
 20
-302.60538977695597
 30
0.0
 11
84.069673989996545
 21
-302.60538977695597
 31
0.0
  0
LINE
  8
DETAIL
  6
CONTINUOUS
 62
     5
 10
84.069673989996545
 20
-302.60538977695597
 30
0.0
 11
84.076059790909312
 21
-302.62370371513919
 31
0.0
  0
LINE
  8
DETAIL
  6
CONTINUOUS
 62
     5
 10
84.076059790909312
 20
-302.62370371513919
 30
0.0
 11
84.082158426610931
 21
-302.64222976915278
 31
0.0
  0
LINE
  8
DETAIL
  6
CONTINUOUS
 62
     5
 10
84.082158426610931
 20
-302.64222976915278
 30
0.0
 11
84.082158426610931
 21
-302.64222976915278
 31
0.0
  0
LINE
  8
DETAIL
  6
CONTINUOUS
 62
     5
 10
84.082158426610931
 20
-302.64222976915278
 30
0.0
 11
84.087916532882673
 21
-302.66082267288482
 31
0.0
  0
LINE
  8
DETAIL
  6
CONTINUOUS
 62
     5
 10
84.087916532882673
 20
-302.66082267288482
 30
0.0
 11
84.093337606186196
 21
-302.67948520405997
 31
0.0
  0
LINE
  8
DETAIL
  6
CONTINUOUS
 62
     5
 10
84.093337606186196
 20
-302.67948520405997
 30
0.0
 11
84.093337606186196
 21
-302.67948520405997
 31
0.0
  0
LINE
  8
DETAIL
  6
CONTINUOUS
 62
     5
 10
84.093337606186196
 20
-302.67948520405997
 30
0.0
 11
84.098435759513904
 21
-302.69824864589862
 31
0.0
  0
LINE
  8
DETAIL
  6
CONTINUOUS
 62
     5
 10
84.098435759513904
 20
-302.69824864589862
 30
0.0
 11
84.103210711301017
 21
-302.71711025976691
 31
0.0
  0
LINE
  8
DETAIL
  6
CONTINUOUS
 62
     5
 10
84.103210711301017
 20
-302.71711025976691
 30
0.0
 11
84.103210711301017
 21
-302.71711025976691
 31
0.0
  0
LINE
  8
DETAIL
  6
CONTINUOUS
 62
     5
 10
84.103210711301017
 20
-302.71711025976691
 30
0.0
 11
84.107658760730715
 21
-302.73605581246142
 31
0.0
  0
LINE
  8
DETAIL
  6
CONTINUOUS
 62
     5
 10
84.107658760730715
 20
-302.73605581246142
 30
0.0
 11
84.11177692453407
 21
-302.75505911436352
 31
0.0
  0
LINE
  8
DETAIL
  6
CONTINUOUS
 62
     5
 10
84.11177692453407
 20
-302.75505911436352
 30
0.0
 11
84.11177692453407
 21
-302.75505911436352
 31
0.0
  0
LINE
  8
DETAIL
  6
CONTINUOUS
 62
     5
 10
84.11177692453407
 20
-302.75505911436352
 30
0.0
 11
84.115565279920702
 21
-302.77411144863112
 31
0.0
  0
LINE
  8
DETAIL
  6
CONTINUOUS
 62
     5
 10
84.115565279920702
 20
-302.77411144863112
 30
0.0
 11
84.119035428463349
 21
-302.79328594594023
 31
0.0
  0
LINE
  8
DETAIL
  6
CONTINUOUS
 62
     5
 10
84.119035428463349
 20
-302.79328594594023
 30
0.0
 11
84.119035428463349
 21
-302.79328594594023
 31
0.0
  0
LINE
  8
DETAIL
  6
CONTINUOUS
 62
     5
 10
84.119035428463349
 20
-302.79328594594023
 30
0.0
 11
84.122196440211496
 21
-302.81264293179441
 31
0.0
  0
LINE
  8
DETAIL
  6
CONTINUOUS
 62
     5
 10
84.122196440211496
 20
-302.81264293179441
 30
0.0
 11
84.125035734755215
 21
-302.83210966347917
 31
0.0
  0
LINE
  8
DETAIL
  6
CONTINUOUS
 62
     5
 10
84.125035734755215
 20
-302.83210966347917
 30
0.0
 11
84.125035734755215
 21
-302.83210966347917
 31
0.0
  0
LINE
  8
DETAIL
  6
CONTINUOUS
 62
     5
 10
84.125035734755215
 20
-302.83210966347917
 30
0.0
 11
84.12753849314754
 21
-302.85160109268219
 31
0.0
  0
LINE
  8
DETAIL
  6
CONTINUOUS
 62
     5
 10
84.12753849314754
 20
-302.85160109268219
 30
0.0
 11
84.129702592748686
 21
-302.87111601690827
 31
0.0
  0
LINE
  8
DETAIL
  6
CONTINUOUS
 62
     5
 10
84.129702592748686
 20
-302.87111601690827
 30
0.0
 11
84.129702592748686
 21
-302.87111601690827
 31
0.0
  0
LINE
  8
DETAIL
  6
CONTINUOUS
 62
     5
 10
84.129702592748686
 20
-302.87111601690827
 30
0.0
 11
84.131531211003676
 21
-302.89066865442771
 31
0.0
  0
LINE
  8
DETAIL
  6
CONTINUOUS
 62
     5
 10
84.131531211003676
 20
-302.89066865442771
 30
0.0
 11
84.133036029386403
 21
-302.9102510607546
 31
0.0
  0
LINE
  8
DETAIL
  6
CONTINUOUS
 62
     5
 10
84.133036029386403
 20
-302.9102510607546
 30
0.0
 11
84.133036029386403
 21
-302.9102510607546
 31
0.0
  0
LINE
  8
DETAIL
  6
CONTINUOUS
 62
     5
 10
84.133036029386403
 20
-302.9102510607546
 30
0.0
 11
84.134219177272371
 21
-302.92985095201732
 31
0.0
  0
LINE
  8
DETAIL
  6
CONTINUOUS
 62
     5
 10
84.134219177272371
 20
-302.92985095201732
 30
0.0
 11
84.135036071611125
 21
-302.94946084954393
 31
0.0
  0
LINE
  8
DETAIL
  6
CONTINUOUS
 62
     5
 10
84.135036071611125
 20
-302.94946084954393
 30
0.0
 11
84.135036071611125
 21
-302.94946084954393
 31
0.0
  0
LINE
  8
DETAIL
  6
CONTINUOUS
 62
     5
 10
84.135036071611125
 20
-302.94946084954393
 30
0.0
 11
84.13547503766415
 21
-302.96907521145022
 31
0.0
  0
LINE
  8
DETAIL
  6
CONTINUOUS
 62
     5
 10
84.13547503766415
 20
-302.96907521145022
 30
0.0
 11
84.135702746365382
 21
-302.98869143780291
 31
0.0
  0
LINE
  8
DETAIL
  6
CONTINUOUS
 62
     5
 10
-84.135702746364814
 20
-302.98869143780291
 30
0.0
 11
-84.135475037663468
 21
-302.96907521145062
 31
0.0
  0
LINE
  8
DETAIL
  6
CONTINUOUS
 62
     5
 10
-84.135475037663468
 20
-302.96907521145062
 30
0.0
 11
-84.13503607160942
 21
-302.94946084954393
 31
0.0
  0
LINE
  8
DETAIL
  6
CONTINUOUS
 62
     5
 10
-84.13503607160942
 20
-302.94946084954393
 30
0.0
 11
-84.13503607160942
 21
-302.94946084954393
 31
0.0
  0
LINE
  8
DETAIL
  6
CONTINUOUS
 62
     5
 10
-84.13503607160942
 20
-302.94946084954393
 30
0.0
 11
-84.134219177268278
 21
-302.92985095201732
 31
0.0
  0
LINE
  8
DETAIL
  6
CONTINUOUS
 62
     5
 10
-84.134219177268278
 20
-302.92985095201732
 30
0.0
 11
-84.133036029377536
 21
-302.9102510607546
 31
0.0
  0
LINE
  8
DETAIL
  6
CONTINUOUS
 62
     5
 10
-84.133036029377536
 20
-302.9102510607546
 30
0.0
 11
-84.133036029377536
 21
-302.9102510607546
 31
0.0
  0
LINE
  8
DETAIL
  6
CONTINUOUS
 62
     5
 10
-84.133036029377536
 20
-302.9102510607546
 30
0.0
 11
-84.131531210986623
 21
-302.89066865442771
 31
0.0
  0
LINE
  8
DETAIL
  6
CONTINUOUS
 62
     5
 10
-84.131531210986623
 20
-302.89066865442771
 30
0.0
 11
-84.129702592719696
 21
-302.87111601690827
 31
0.0
  0
LINE
  8
DETAIL
  6
CONTINUOUS
 62
     5
 10
-84.129702592719696
 20
-302.87111601690827
 30
0.0
 11
-84.129702592719696
 21
-302.87111601690827
 31
0.0
  0
LINE
  8
DETAIL
  6
CONTINUOUS
 62
     5
 10
-84.129702592719696
 20
-302.87111601690827
 30
0.0
 11
-84.127538493101838
 21
-302.85160109268219
 31
0.0
  0
LINE
  8
DETAIL
  6
CONTINUOUS
 62
     5
 10
-84.127538493101838
 20
-302.85160109268219
 30
0.0
 11
-84.125035734687231
 21
-302.83210966347917
 31
0.0
  0
LINE
  8
DETAIL
  6
CONTINUOUS
 62
     5
 10
-84.125035734687231
 20
-302.83210966347917
 30
0.0
 11
-84.125035734687231
 21
-302.83210966347917
 31
0.0
  0
LINE
  8
DETAIL
  6
CONTINUOUS
 62
     5
 10
-84.125035734687231
 20
-302.83210966347917
 30
0.0
 11
-84.122196440114863
 21
-302.81264293179441
 31
0.0
  0
LINE
  8
DETAIL
  6
CONTINUOUS
 62
     5
 10
-84.122196440114863
 20
-302.81264293179441
 30
0.0
 11
-84.119035428331244
 21
-302.79328594594023
 31
0.0
  0
LINE
  8
DETAIL
  6
CONTINUOUS
 62
     5
 10
-84.119035428331244
 20
-302.79328594594023
 30
0.0
 11
-84.119035428331244
 21
-302.79328594594023
 31
0.0
  0
LINE
  8
DETAIL
  6
CONTINUOUS
 62
     5
 10
-84.119035428331244
 20
-302.79328594594023
 30
0.0
 11
-84.115565279745852
 21
-302.77411144863112
 31
0.0
  0
LINE
  8
DETAIL
  6
CONTINUOUS
 62
     5
 10
-84.115565279745852
 20
-302.77411144863112
 30
0.0
 11
-84.111776924311243
 21
-302.75505911436352
 31
0.0
  0
LINE
  8
DETAIL
  6
CONTINUOUS
 62
     5
 10
-84.111776924311243
 20
-302.75505911436352
 30
0.0
 11
-84.111776924311243
 21
-302.75505911436352
 31
0.0
  0
LINE
  8
DETAIL
  6
CONTINUOUS
 62
     5
 10
-84.111776924311243
 20
-302.75505911436352
 30
0.0
 11
-84.107658760456843
 21
-302.73605581246142
 31
0.0
  0
LINE
  8
DETAIL
  6
CONTINUOUS
 62
     5
 10
-84.107658760456843
 20
-302.73605581246142
 30
0.0
 11
-84.103210710975645
 21
-302.71711025976691
 31
0.0
  0
LINE
  8
DETAIL
  6
CONTINUOUS
 62
     5
 10
-84.103210710975645
 20
-302.71711025976691
 30
0.0
 11
-84.103210710975645
 21
-302.71711025976691
 31
0.0
  0
LINE
  8
DETAIL
  6
CONTINUOUS
 62
     5
 10
-84.103210710975645
 20
-302.71711025976691
 30
0.0
 11
-84.098435759138511
 21
-302.69824864589862
 31
0.0
  0
LINE
  8
DETAIL
  6
CONTINUOUS
 62
     5
 10
-84.098435759138511
 20
-302.69824864589862
 30
0.0
 11
-84.093337605764759
 21
-302.67948520405952
 31
0.0
  0
LINE
  8
DETAIL
  6
CONTINUOUS
 62
     5
 10
-84.093337605764759
 20
-302.67948520405952
 30
0.0
 11
-84.093337605764759
 21
-302.67948520405952
 31
0.0
  0
LINE
  8
DETAIL
  6
CONTINUOUS
 62
     5
 10
-84.093337605764759
 20
-302.67948520405952
 30
0.0
 11
-84.087916532421673
 21
-302.66082267288482
 31
0.0
  0
LINE
  8
DETAIL
  6
CONTINUOUS
 62
     5
 10
-84.087916532421673
 20
-302.66082267288482
 30
0.0
 11
-84.082158426119122
 21
-302.64222976915278
 31
0.0
  0
LINE
  8
DETAIL
  6
CONTINUOUS
 62
     5
 10
-84.082158426119122
 20
-302.64222976915278
 30
0.0
 11
-84.082158426119122
 21
-302.64222976915278
 31
0.0
  0
LINE
  8
DETAIL
  6
CONTINUOUS
 62
     5
 10
-84.082158426119122
 20
-302.64222976915278
 30
0.0
 11
-84.076059790397835
 21
-302.62370371513919
 31
0.0
  0
LINE
  8
DETAIL
  6
CONTINUOUS
 62
     5
 10
-84.076059790397835
 20
-302.62370371513919
 30
0.0
 11
-84.069673989479156
 21
-302.60538977695558
 31
0.0
  0
LINE
  8
DETAIL
  6
CONTINUOUS
 62
     5
 10
-84.069673989479156
 20
-302.60538977695558
 30
0.0
 11
-84.069673989479156
 21
-302.60538977695558
 31
0.0
  0
LINE
  8
DETAIL
  6
CONTINUOUS
 62
     5
 10
-84.069673989479156
 20
-302.60538977695558
 30
0.0
 11
-84.063047469448634
 21
-302.58741117330118
 31
0.0
  0
LINE
  8
DETAIL
  6
CONTINUOUS
 62
     5
 10
-84.063047469448634
 20
-302.58741117330118
 30
0.0
 11
-84.056142143169723
 21
-302.56965488938312
 31
0.0
  0
LINE
  8
DETAIL
  6
CONTINUOUS
 62
     5
 10
-84.056142143169723
 20
-302.56965488938312
 30
0.0
 11
-84.056142143169723
 21
-302.56965488938312
 31
0.0
  0
LINE
  8
DETAIL
  6
CONTINUOUS
 62
     5
 10
-84.056142143169723
 20
-302.56965488938312
 30
0.0
 11
-84.048911027033
 21
-302.55198596926027
 31
0.0
  0
LINE
  8
DETAIL
  6
CONTINUOUS
 62
     5
 10
-84.048911027033
 20
-302.55198596926027
 30
0.0
 11
-84.041356084759968
 21
-302.53441792589422
 31
0.0
  0
LINE
  8
DETAIL
  6
CONTINUOUS
 62
     5
 10
-84.041356084759968
 20
-302.53441792589422
 30
0.0
 11
-84.041356084759968
 21
-302.53441792589422
 31
0.0
  0
LINE
  8
DETAIL
  6
CONTINUOUS
 62
     5
 10
-84.041356084759968
 20
-302.53441792589422
 30
0.0
 11
-84.033490087258315
 21
-302.51699449021282
 31
0.0
  0
LINE
  8
DETAIL
  6
CONTINUOUS
 62
     5
 10
-84.033490087258315
 20
-302.51699449021282
 30
0.0
 11
-84.025320086846818
 21
-302.49973179611209
 31
0.0
  0
LINE
  8
DETAIL
  6
CONTINUOUS
 62
     5
 10
-84.025320086846818
 20
-302.49973179611209
 30
0.0
 11
-84.025320086846818
 21
-302.49973179611209
 31
0.0
  0
LINE
  8
DETAIL
  6
CONTINUOUS
 62
     5
 10
-84.025320086846818
 20
-302.49973179611209
 30
0.0
 11
-84.016845187953209
 21
-302.4826295580375
 31
0.0
  0
LINE
  8
DETAIL
  6
CONTINUOUS
 62
     5
 10
-84.016845187953209
 20
-302.4826295580375
 30
0.0
 11
-84.008038422027312
 21
-302.46564940965948
 31
0.0
  0
LINE
  8
DETAIL
  6
CONTINUOUS
 62
     5
 10
-84.008038422027312
 20
-302.46564940965948
 30
0.0
 11
-84.008038422027312
 21
-302.46564940965948
 31
0.0
  0
LINE
  8
DETAIL
  6
CONTINUOUS
 62
     5
 10
-84.008038422027312
 20
-302.46564940965948
 30
0.0
 11
-83.998893804898898
 21
-302.44878844448709
 31
0.0
  0
LINE
  8
DETAIL
  6
CONTINUOUS
 62
     5
 10
-83.998893804898898
 20
-302.44878844448709
 30
0.0
 11
-83.989515362898146
 21
-302.43222367615908
 31
0.0
  0
LINE
  8
DETAIL
  6
CONTINUOUS
 62
     5
 10
-83.989515362898146
 20
-302.43222367615908
 30
0.0
 11
-83.989515362898146
 21
-302.43222367615908
 31
0.0
  0
LINE
  8
DETAIL
  6
CONTINUOUS
 62
     5
 10
-83.989515362898146
 20
-302.43222367615908
 30
0.0
 11
-83.979992762285633
 21
-302.41610450378619
 31
0.0
  0
LINE
  8
DETAIL
  6
CONTINUOUS
 62
     5
 10
-83.979992762285633
 20
-302.41610450378619
 30
0.0
 11
-83.970248218548022
 21
-302.40028994824581
 31
0.0
  0
LINE
  8
DETAIL
  6
CONTINUOUS
 62
     5
 10
-83.970248218548022
 20
-302.40028994824581
 30
0.0
 11
-83.970248218548022
 21
-302.40028994824581
 31
0.0
  0
LINE
  8
DETAIL
  6
CONTINUOUS
 62
     5
 10
-83.970248218548022
 20
-302.40028994824581
 30
0.0
 11
-83.960187125755624
 21
-302.38461244161311
 31
0.0
  0
LINE
  8
DETAIL
  6
CONTINUOUS
 62
     5
 10
-83.960187125755624
 20
-302.38461244161311
 30
0.0
 11
-83.949815043093736
 21
-302.36908843898237
 31
0.0
  0
LINE
  8
DETAIL
  6
CONTINUOUS
 62
     5
 10
-83.949815043093736
 20
-302.36908843898237
 30
0.0
 11
-83.949815043093736
 21
-302.36908843898237
 31
0.0
  0
LINE
  8
DETAIL
  6
CONTINUOUS
 62
     5
 10
-83.949815043093736
 20
-302.36908843898237
 30
0.0
 11
-83.939158520207002
 21
-302.3537710098143
 31
0.0
  0
LINE
  8
DETAIL
  6
CONTINUOUS
 62
     5
 10
-83.939158520207002
 20
-302.3537710098143
 30
0.0
 11
-83.928227903467587
 21
-302.33867565801683
 31
0.0
  0
LINE
  8
DETAIL
  6
CONTINUOUS
 62
     5
 10
-83.928227903467587
 20
-302.33867565801683
 30
0.0
 11
-83.928227903467587
 21
-302.33867565801683
 31
0.0
  0
LINE
  8
DETAIL
  6
CONTINUOUS
 62
     5
 10
-83.928227903467587
 20
-302.33867565801683
 30
0.0
 11
-83.917020650423524
 21
-302.32380005590801
 31
0.0
  0
LINE
  8
DETAIL
  6
CONTINUOUS
 62
     5
 10
-83.917020650423524
 20
-302.32380005590801
 30
0.0
 11
-83.905498866601761
 21
-302.30910811499882
 31
0.0
  0
LINE
  8
DETAIL
  6
CONTINUOUS
 62
     5
 10
-83.905498866601761
 20
-302.30910811499882
 30
0.0
 11
-83.905498866601761
 21
-302.30910811499882
 31
0.0
  0
LINE
  8
DETAIL
  6
CONTINUOUS
 62
     5
 10
-83.905498866601761
 20
-302.30910811499882
 30
0.0
 11
-83.893655222363122
 21
-302.29459845879438
 31
0.0
  0
LINE
  8
DETAIL
  6
CONTINUOUS
 62
     5
 10
-83.893655222363122
 20
-302.29459845879438
 30
0.0
 11
-83.881639999428444
 21
-302.28044231957648
 31
0.0
  0
LINE
  8
DETAIL
  6
CONTINUOUS
 62
     5
 10
-83.881639999428444
 20
-302.28044231957648
 30
0.0
 11
-83.881639999428444
 21
-302.28044231957648
 31
0.0
  0
LINE
  8
DETAIL
  6
CONTINUOUS
 62
     5
 10
-83.881639999428444
 20
-302.28044231957648
 30
0.0
 11
-83.869582075270159
 21
-302.26678359713372
 31
0.0
  0
LINE
  8
DETAIL
  6
CONTINUOUS
 62
     5
 10
-83.869582075270159
 20
-302.26678359713372
 30
0.0
 11
-83.857367099005614
 21
-302.25348425250962
 31
0.0
  0
LINE
  8
DETAIL
  6
CONTINUOUS
 62
     5
 10
-83.857367099005614
 20
-302.25348425250962
 30
0.0
 11
-83.857367099005614
 21
-302.25348425250962
 31
0.0
  0
LINE
  8
DETAIL
  6
CONTINUOUS
 62
     5
 10
-83.857367099005614
 20
-302.25348425250962
 30
0.0
 11
-83.844856933369783
 21
-302.24038089444878
 31
0.0
  0
LINE
  8
DETAIL
  6
CONTINUOUS
 62
     5
 10
-83.844856933369783
 20
-302.24038089444878
 30
0.0
 11
-83.832061523920061
 21
-302.22749066126278
 31
0.0
  0
LINE
  8
DETAIL
  6
CONTINUOUS
 62
     5
 10
-83.832061523920061
 20
-302.22749066126278
 30
0.0
 11
-83.832061523920061
 21
-302.22749066126278
 31
0.0
  0
LINE
  8
DETAIL
  6
CONTINUOUS
 62
     5
 10
-83.832061523920061
 20
-302.22749066126278
 30
0.0
 11
-83.819020950590016
 21
-302.21486595829828
 31
0.0
  0
LINE
  8
DETAIL
  6
CONTINUOUS
 62
     5
 10
-83.819020950590016
 20
-302.21486595829828
 30
0.0
 11
-83.805747747991973
 21
-302.2025197294887
 31
0.0
  0
LINE
  8
DETAIL
  6
CONTINUOUS
 62
     5
 10
-83.805747747991973
 20
-302.2025197294887
 30
0.0
 11
-83.805747747991973
 21
-302.2025197294887
 31
0.0
  0
LINE
  8
DETAIL
  6
CONTINUOUS
 62
     5
 10
-83.805747747991973
 20
-302.2025197294887
 30
0.0
 11
-83.792238089023158
 21
-302.19044938243673
 31
0.0
  0
LINE
  8
DETAIL
  6
CONTINUOUS
 62
     5
 10
-83.792238089023158
 20
-302.19044938243673
 30
0.0
 11
-83.778450245041768
 21
-302.17862964083889
 31
0.0
  0
LINE
  8
DETAIL
  6
CONTINUOUS
 62
     5
 10
-83.778450245041768
 20
-302.17862964083889
 30
0.0
 11
-83.778450245041768
 21
-302.17862964083889
 31
0.0
  0
LINE
  8
DETAIL
  6
CONTINUOUS
 62
     5
 10
-83.778450245041768
 20
-302.17862964083889
 30
0.0
 11
-83.76437779989044
 21
-302.16706210667547
 31
0.0
  0
LINE
  8
DETAIL
  6
CONTINUOUS
 62
     5
 10
-83.76437779989044
 20
-302.16706210667547
 30
0.0
 11
-83.750193488889749
 21
-302.15587857896628
 31
0.0
  0
LINE
  8
DETAIL
  6
CONTINUOUS
 62
     5
 10
-83.750193488889749
 20
-302.15587857896628
 30
0.0
 11
-83.750193488889749
 21
-302.15587857896628
 31
0.0
  0
LINE
  8
DETAIL
  6
CONTINUOUS
 62
     5
 10
-83.750193488889749
 20
-302.15587857896628
 30
0.0
 11
-83.736045037285066
 21
-302.14518918202288
 31
0.0
  0
LINE
  8
DETAIL
  6
CONTINUOUS
 62
     5
 10
-83.736045037285066
 20
-302.14518918202288
 30
0.0
 11
-83.721800978543683
 21
-302.13488714427251
 31
0.0
  0
LINE
  8
DETAIL
  6
CONTINUOUS
 62
     5
 10
-83.721800978543683
 20
-302.13488714427251
 30
0.0
 11
-83.721800978543683
 21
-302.13488714427251
 31
0.0
  0
LINE
  8
DETAIL
  6
CONTINUOUS
 62
     5
 10
-83.721800978543683
 20
-302.13488714427251
 30
0.0
 11
-83.707303132125162
 21
-302.12484663749677
 31
0.0
  0
LINE
  8
DETAIL
  6
CONTINUOUS
 62
     5
 10
-83.707303132125162
 20
-302.12484663749677
 30
0.0
 11
-83.692565653235647
 21
-302.11508250278371
 31
0.0
  0
LINE
  8
DETAIL
  6
CONTINUOUS
 62
     5
 10
-83.692565653235647
 20
-302.11508250278371
 30
0.0
 11
-83.692565653235647
 21
-302.11508250278371
 31
0.0
  0
LINE
  8
DETAIL
  6
CONTINUOUS
 62
     5
 10
-83.692565653235647
 20
-302.11508250278371
 30
0.0
 11
-83.677636931546431
 21
-302.10563653285959
 31
0.0
  0
LINE
  8
DETAIL
  6
CONTINUOUS
 62
     5
 10
-83.677636931546431
 20
-302.10563653285959
 30
0.0
 11
-83.662529958844857
 21
-302.0965176577082
 31
0.0
  0
LINE
  8
DETAIL
  6
CONTINUOUS
 62
     5
 10
-83.662529958844857
 20
-302.0965176577082
 30
0.0
 11
-83.662529958844857
 21
-302.0965176577082
 31
0.0
  0
LINE
  8
DETAIL
  6
CONTINUOUS
 62
     5
 10
-83.662529958844857
 20
-302.0965176577082
 30
0.0
 11
-83.647241191394869
 21
-302.08772428704378
 31
0.0
  0
LINE
  8
DETAIL
  6
CONTINUOUS
 62
     5
 10
-83.647241191394869
 20
-302.08772428704378
 30
0.0
 11
-83.631736341251326
 21
-302.07924561225491
 31
0.0
  0
LINE
  8
DETAIL
  6
CONTINUOUS
 62
     5
 10
-83.631736341251326
 20
-302.07924561225491
 30
0.0
 11
-83.631736341251326
 21
-302.07924561225491
 31
0.0
  0
LINE
  8
DETAIL
  6
CONTINUOUS
 62
     5
 10
-83.631736341251326
 20
-302.07924561225491
 30
0.0
 11
-83.616013028096404
 21
-302.07108595416082
 31
0.0
  0
LINE
  8
DETAIL
  6
CONTINUOUS
 62
     5
 10
-83.616013028096404
 20
-302.07108595416082
 30
0.0
 11
-83.600227246334384
 21
-302.06331936963142
 31
0.0
  0
LINE
  8
DETAIL
  6
CONTINUOUS
 62
     5
 10
-83.600227246334384
 20
-302.06331936963142
 30
0.0
 11
-83.600227246334384
 21
-302.06331936963142
 31
0.0
  0
LINE
  8
DETAIL
  6
CONTINUOUS
 62
     5
 10
-83.600227246334384
 20
-302.06331936963142
 30
0.0
 11
-83.584512121003286
 21
-302.0560070795035
 31
0.0
  0
LINE
  8
DETAIL
  6
CONTINUOUS
 62
     5
 10
-83.584512121003286
 20
-302.0560070795035
 30
0.0
 11
-83.568750924957158
 21
-302.04908922443082
 31
0.0
  0
LINE
  8
DETAIL
  6
CONTINUOUS
 62
     5
 10
-83.568750924957158
 20
-302.04908922443082
 30
0.0
 11
-83.568750924957158
 21
-302.04908922443082
 31
0.0
  0
LINE
  8
DETAIL
  6
CONTINUOUS
 62
     5
 10
-83.568750924957158
 20
-302.04908922443082
 30
0.0
 11
-83.552803452056423
 21
-302.04249566124412
 31
0.0
  0
LINE
  8
DETAIL
  6
CONTINUOUS
 62
     5
 10
-83.552803452056423
 20
-302.04249566124412
 30
0.0
 11
-83.536685432369495
 21
-302.03623619167149
 31
0.0
  0
LINE
  8
DETAIL
  6
CONTINUOUS
 62
     5
 10
-83.536685432369495
 20
-302.03623619167149
 30
0.0
 11
-83.536685432369495
 21
-302.03623619167149
 31
0.0
  0
LINE
  8
DETAIL
  6
CONTINUOUS
 62
     5
 10
-83.536685432369495
 20
-302.03623619167149
 30
0.0
 11
-83.52044273074398
 21
-302.03033557596189
 31
0.0
  0
LINE
  8
DETAIL
  6
CONTINUOUS
 62
     5
 10
-83.52044273074398
 20
-302.03033557596189
 30
0.0
 11
-83.504085814934569
 21
-302.02479846354078
 31
0.0
  0
LINE
  8
DETAIL
  6
CONTINUOUS
 62
     5
 10
-83.504085814934569
 20
-302.02479846354078
 30
0.0
 11
-83.504085814934569
 21
-302.02479846354078
 31
0.0
  0
LINE
  8
DETAIL
  6
CONTINUOUS
 62
     5
 10
-83.504085814934569
 20
-302.02479846354078
 30
0.0
 11
-83.487612716463673
 21
-302.01962460072679
 31
0.0
  0
LINE
  8
DETAIL
  6
CONTINUOUS
 62
     5
 10
-83.487612716463673
 20
-302.01962460072679
 30
0.0
 11
-83.471007119016122
 21
-302.01481423222492
 31
0.0
  0
LINE
  8
DETAIL
  6
CONTINUOUS
 62
     5
 10
-83.471007119016122
 20
-302.01481423222492
 30
0.0
 11
-83.471007119016122
 21
-302.01481423222492
 31
0.0
  0
LINE
  8
DETAIL
  6
CONTINUOUS
 62
     5
 10
-83.471007119016122
 20
-302.01481423222492
 30
0.0
 11
-83.454272316427705
 21
-302.01037225665431
 31
0.0
  0
LINE
  8
DETAIL
  6
CONTINUOUS
 62
     5
 10
-83.454272316427705
 20
-302.01037225665431
 30
0.0
 11
-83.437504390976983
 21
-302.00632168990973
 31
0.0
  0
LINE
  8
DETAIL
  6
CONTINUOUS
 62
     5
 10
-83.437504390976983
 20
-302.00632168990973
 30
0.0
 11
-83.437504390976983
 21
-302.00632168990973
 31
0.0
  0
LINE
  8
DETAIL
  6
CONTINUOUS
 62
     5
 10
-83.437504390976983
 20
-302.00632168990973
 30
0.0
 11
-83.420785827700001
 21
-302.00268078993469
 31
0.0
  0
LINE
  8
DETAIL
  6
CONTINUOUS
 62
     5
 10
-83.420785827700001
 20
-302.00268078993469
 30
0.0
 11
-83.404051934221343
 21
-301.99943066559388
 31
0.0
  0
LINE
  8
DETAIL
  6
CONTINUOUS
 62
     5
 10
-83.404051934221343
 20
-301.99943066559388
 30
0.0
 11
-83.404051934221343
 21
-301.99943066559388
 31
0.0
  0
LINE
  8
DETAIL
  6
CONTINUOUS
 62
     5
 10
-83.404051934221343
 20
-301.99943066559388
 30
0.0
 11
-83.387224854919964
 21
-301.99655020142279
 31
0.0
  0
LINE
  8
DETAIL
  6
CONTINUOUS
 62
     5
 10
-83.387224854919964
 20
-301.99655020142279
 30
0.0
 11
-83.370321258606168
 21
-301.99404653372119
 31
0.0
  0
LINE
  8
DETAIL
  6
CONTINUOUS
 62
     5
 10
-83.370321258606168
 20
-301.99404653372119
 30
0.0
 11
-83.370321258606168
 21
-301.99404653372119
 31
0.0
  0
LINE
  8
DETAIL
  6
CONTINUOUS
 62
     5
 10
-83.370321258606168
 20
-301.99404653372119
 30
0.0
 11
-83.353375005789644
 21
-301.99192848088239
 31
0.0
  0
LINE
  8
DETAIL
  6
CONTINUOUS
 62
     5
 10
-83.353375005789644
 20
-301.99192848088239
 30
0.0
 11
-83.3363941993465
 21
-301.9901833379073
 31
0.0
  0
LINE
  8
DETAIL
  6
CONTINUOUS
 62
     5
 10
-83.3363941993465
 20
-301.9901833379073
 30
0.0
 11
-83.3363941993465
 21
-301.9901833379073
 31
0.0
  0
LINE
  8
DETAIL
  6
CONTINUOUS
 62
     5
 10
-83.3363941993465
 20
-301.9901833379073
 30
0.0
 11
-83.319382629270649
 21
-301.98880747940092
 31
0.0
  0
LINE
  8
DETAIL
  6
CONTINUOUS
 62
     5
 10
-83.319382629270649
 20
-301.98880747940092
 30
0.0
 11
-83.302352591657609
 21
-301.98785512176738
 31
0.0
  0
LINE
  8
DETAIL
  6
CONTINUOUS
 62
     5
 10
-83.302352591657609
 20
-301.98785512176738
 30
0.0
 11
-83.302352591657609
 21
-301.98785512176738
 31
0.0
  0
LINE
  8
DETAIL
  6
CONTINUOUS
 62
     5
 10
-83.302352591657609
 20
-301.98785512176738
 30
0.0
 11
-83.285316442434805
 21
-301.98734248091029
 31
0.0
  0
LINE
  8
DETAIL
  6
CONTINUOUS
 62
     5
 10
-83.285316442434805
 20
-301.98734248091029
 30
0.0
 11
-83.268278270753967
 21
-301.98707592891748
 31
0.0
  0
LINE
  8
DETAIL
  6
CONTINUOUS
 62
     5
 10
-69.409403428986252
 20
-301.98707592891748
 30
0.0
 11
-69.38958967494284
 21
-301.98686014658341
 31
0.0
  0
LINE
  8
DETAIL
  6
CONTINUOUS
 62
     5
 10
-69.38958967494284
 20
-301.98686014658341
 30
0.0
 11
-69.369776511863961
 21
-301.98644498581342
 31
0.0
  0
LINE
  8
DETAIL
  6
CONTINUOUS
 62
     5
 10
-69.369776511863961
 20
-301.98644498581342
 30
0.0
 11
-69.369776511863961
 21
-301.98644498581342
 31
0.0
  0
LINE
  8
DETAIL
  6
CONTINUOUS
 62
     5
 10
-69.369776511863961
 20
-301.98644498581342
 30
0.0
 11
-69.349966217730753
 21
-301.98567358040981
 31
0.0
  0
LINE
  8
DETAIL
  6
CONTINUOUS
 62
     5
 10
-69.349966217730753
 20
-301.98567358040981
 30
0.0
 11
-69.330167818591235
 21
-301.98455911312942
 31
0.0
  0
LINE
  8
DETAIL
  6
CONTINUOUS
 62
     5
 10
-69.330167818591235
 20
-301.98455911312942
 30
0.0
 11
-69.330167818591235
 21
-301.98455911312942
 31
0.0
  0
LINE
  8
DETAIL
  6
CONTINUOUS
 62
     5
 10
-69.330167818591235
 20
-301.98455911312942
 30
0.0
 11
-69.310388811809503
 21
-301.98314540058021
 31
0.0
  0
LINE
  8
DETAIL
  6
CONTINUOUS
 62
     5
 10
-69.310388811809503
 20
-301.98314540058021
 30
0.0
 11
-69.29062383195037
 21
-301.98142874581117
 31
0.0
  0
LINE
  8
DETAIL
  6
CONTINUOUS
 62
     5
 10
-69.29062383195037
 20
-301.98142874581117
 30
0.0
 11
-69.29062383195037
 21
-301.98142874581117
 31
0.0
  0
LINE
  8
DETAIL
  6
CONTINUOUS
 62
     5
 10
-69.29062383195037
 20
-301.98142874581117
 30
0.0
 11
-69.27087547366159
 21
-301.97939857480412
 31
0.0
  0
LINE
  8
DETAIL
  6
CONTINUOUS
 62
     5
 10
-69.27087547366159
 20
-301.97939857480412
 30
0.0
 11
-69.251191034724116
 21
-301.97706431880431
 31
0.0
  0
LINE
  8
DETAIL
  6
CONTINUOUS
 62
     5
 10
-69.251191034724116
 20
-301.97706431880431
 30
0.0
 11
-69.251191034724116
 21
-301.97706431880431
 31
0.0
  0
LINE
  8
DETAIL
  6
CONTINUOUS
 62
     5
 10
-69.251191034724116
 20
-301.97706431880431
 30
0.0
 11
-69.231587501269246
 21
-301.97443228349852
 31
0.0
  0
LINE
  8
DETAIL
  6
CONTINUOUS
 62
     5
 10
-69.231587501269246
 20
-301.97443228349852
 30
0.0
 11
-69.211915909695676
 21
-301.97147626705231
 31
0.0
  0
LINE
  8
DETAIL
  6
CONTINUOUS
 62
     5
 10
-69.211915909695676
 20
-301.97147626705231
 30
0.0
 11
-69.211915909695676
 21
-301.97147626705231
 31
0.0
  0
LINE
  8
DETAIL
  6
CONTINUOUS
 62
     5
 10
-69.211915909695676
 20
-301.97147626705231
 30
0.0
 11
-69.192050823733211
 21
-301.96817278579363
 31
0.0
  0
LINE
  8
DETAIL
  6
CONTINUOUS
 62
     5
 10
-69.192050823733211
 20
-301.96817278579363
 30
0.0
 11
-69.172126866168014
 21
-301.96454173619662
 31
0.0
  0
LINE
  8
DETAIL
  6
CONTINUOUS
 62
     5
 10
-69.172126866168014
 20
-301.96454173619662
 30
0.0
 11
-69.172126866168014
 21
-301.96454173619662
 31
0.0
  0
LINE
  8
DETAIL
  6
CONTINUOUS
 62
     5
 10
-69.172126866168014
 20
-301.96454173619662
 30
0.0
 11
-69.152303323806336
 21
-301.96060845877372
 31
0.0
  0
LINE
  8
DETAIL
  6
CONTINUOUS
 62
     5
 10
-69.152303323806336
 20
-301.96060845877372
 30
0.0
 11
-69.132578080480926
 21
-301.95637669003042
 31
0.0
  0
LINE
  8
DETAIL
  6
CONTINUOUS
 62
     5
 10
-69.132578080480926
 20
-301.95637669003042
 30
0.0
 11
-69.132578080480926
 21
-301.95637669003042
 31
0.0
  0
LINE
  8
DETAIL
  6
CONTINUOUS
 62
     5
 10
-69.132578080480926
 20
-301.95637669003042
 30
0.0
 11
-69.112914353290307
 21
-301.95184447902727
 31
0.0
  0
LINE
  8
DETAIL
  6
CONTINUOUS
 62
     5
 10
-69.112914353290307
 20
-301.95184447902727
 30
0.0
 11
-69.093298095367913
 21
-301.94700872905571
 31
0.0
  0
LINE
  8
DETAIL
  6
CONTINUOUS
 62
     5
 10
-69.093298095367913
 20
-301.94700872905571
 30
0.0
 11
-69.093298095367913
 21
-301.94700872905571
 31
0.0
  0
LINE
  8
DETAIL
  6
CONTINUOUS
 62
     5
 10
-69.093298095367913
 20
-301.94700872905571
 30
0.0
 11
-69.073738558564173
 21
-301.94187260373741
 31
0.0
  0
LINE
  8
DETAIL
  6
CONTINUOUS
 62
     5
 10
-69.073738558564173
 20
-301.94187260373741
 30
0.0
 11
-69.05431545356214
 21
-301.93646545377447
 31
0.0
  0
LINE
  8
DETAIL
  6
CONTINUOUS
 62
     5
 10
-69.05431545356214
 20
-301.93646545377447
 30
0.0
 11
-69.05431545356214
 21
-301.93646545377447
 31
0.0
  0
LINE
  8
DETAIL
  6
CONTINUOUS
 62
     5
 10
-69.05431545356214
 20
-301.93646545377447
 30
0.0
 11
-69.035049962911899
 21
-301.93079727600048
 31
0.0
  0
LINE
  8
DETAIL
  6
CONTINUOUS
 62
     5
 10
-69.035049962911899
 20
-301.93079727600048
 30
0.0
 11
-69.015658697797221
 21
-301.92477446468757
 31
0.0
  0
LINE
  8
DETAIL
  6
CONTINUOUS
 62
     5
 10
-69.015658697797221
 20
-301.92477446468757
 30
0.0
 11
-69.015658697797221
 21
-301.92477446468757
 31
0.0
  0
LINE
  8
DETAIL
  6
CONTINUOUS
 62
     5
 10
-69.015658697797221
 20
-301.92477446468757
 30
0.0
 11
-68.995903843230508
 21
-301.91831683136257
 31
0.0
  0
LINE
  8
DETAIL
  6
CONTINUOUS
 62
     5
 10
-68.995903843230508
 20
-301.91831683136257
 30
0.0
 11
-68.976034450904876
 21
-301.91150145912701
 31
0.0
  0
LINE
  8
DETAIL
  6
CONTINUOUS
 62
     5
 10
-68.976034450904876
 20
-301.91150145912701
 30
0.0
 11
-68.976034450904876
 21
-301.91150145912701
 31
0.0
  0
LINE
  8
DETAIL
  6
CONTINUOUS
 62
     5
 10
-68.976034450904876
 20
-301.91150145912701
 30
0.0
 11
-68.9563438691182
 21
-301.90442079846002
 31
0.0
  0
LINE
  8
DETAIL
  6
CONTINUOUS
 62
     5
 10
-68.9563438691182
 20
-301.90442079846002
 30
0.0
 11
-68.936815765908477
 21
-301.89707149778638
 31
0.0
  0
LINE
  8
DETAIL
  6
CONTINUOUS
 62
     5
 10
-68.936815765908477
 20
-301.89707149778638
 30
0.0
 11
-68.936815765908477
 21
-301.89707149778638
 31
0.0
  0
LINE
  8
DETAIL
  6
CONTINUOUS
 62
     5
 10
-68.936815765908477
 20
-301.89707149778638
 30
0.0
 11
-68.917375988141316
 21
-301.88943487640847
 31
0.0
  0
LINE
  8
DETAIL
  6
CONTINUOUS
 62
     5
 10
-68.917375988141316
 20
-301.88943487640847
 30
0.0
 11
-68.898028778254911
 21
-301.88152673919268
 31
0.0
  0
LINE
  8
DETAIL
  6
CONTINUOUS
 62
     5
 10
-68.898028778254911
 20
-301.88152673919268
 30
0.0
 11
-68.898028778254911
 21
-301.88152673919268
 31
0.0
  0
LINE
  8
DETAIL
  6
CONTINUOUS
 62
     5
 10
-68.898028778254911
 20
-301.88152673919268
 30
0.0
 11
-68.878797002073384
 21
-301.87336097734749
 31
0.0
  0
LINE
  8
DETAIL
  6
CONTINUOUS
 62
     5
 10
-68.878797002073384
 20
-301.87336097734749
 30
0.0
 11
-68.859699623390838
 21
-301.86490934187287
 31
0.0
  0
LINE
  8
DETAIL
  6
CONTINUOUS
 62
     5
 10
-68.859699623390838
 20
-301.86490934187287
 30
0.0
 11
-68.859699623390838
 21
-301.86490934187287
 31
0.0
  0
LINE
  8
DETAIL
  6
CONTINUOUS
 62
     5
 10
-68.859699623390838
 20
-301.86490934187287
 30
0.0
 11
-68.840738933630632
 21
-301.85616656753263
 31
0.0
  0
LINE
  8
DETAIL
  6
CONTINUOUS
 62
     5
 10
-68.840738933630632
 20
-301.85616656753263
 30
0.0
 11
-68.82185443676326
 21
-301.84726146435253
 31
0.0
  0
LINE
  8
DETAIL
  6
CONTINUOUS
 62
     5
 10
-85.00312722197566
 20
-304.79159935379641
 30
0.0
 11
-84.986089050294822
 21
-304.79133280180412
 31
0.0
  0
LINE
  8
DETAIL
  6
CONTINUOUS
 62
     5
 10
-84.986089050294822
 20
-304.79133280180412
 30
0.0
 11
-84.969052901072018
 21
-304.79082016094651
 31
0.0
  0
LINE
  8
DETAIL
  6
CONTINUOUS
 62
     5
 10
-84.969052901072018
 20
-304.79082016094651
 30
0.0
 11
-84.969052901072018
 21
-304.79082016094651
 31
0.0
  0
LINE
  8
DETAIL
  6
CONTINUOUS
 62
     5
 10
-84.969052901072018
 20
-304.79082016094651
 30
0.0
 11
-84.952022863458978
 21
-304.78986780331292
 31
0.0
  0
LINE
  8
DETAIL
  6
CONTINUOUS
 62
     5
 10
-84.952022863458978
 20
-304.78986780331292
 30
0.0
 11
-84.935011293383013
 21
-304.78849194480711
 31
0.0
  0
LINE
  8
DETAIL
  6
CONTINUOUS
 62
     5
 10
-84.935011293383013
 20
-304.78849194480711
 30
0.0
 11
-84.935011293383013
 21
-304.78849194480711
 31
0.0
  0
LINE
  8
DETAIL
  6
CONTINUOUS
 62
     5
 10
-84.935011293383013
 20
-304.78849194480711
 30
0.0
 11
-84.918030486939983
 21
-304.78674680183201
 31
0.0
  0
LINE
  8
DETAIL
  6
CONTINUOUS
 62
     5
 10
-84.918030486939983
 20
-304.78674680183201
 30
0.0
 11
-84.901084234123459
 21
-304.78462874899287
 31
0.0
  0
LINE
  8
DETAIL
  6
CONTINUOUS
 62
     5
 10
-84.901084234123459
 20
-304.78462874899287
 30
0.0
 11
-84.901084234123459
 21
-304.78462874899287
 31
0.0
  0
LINE
  8
DETAIL
  6
CONTINUOUS
 62
     5
 10
-84.901084234123459
 20
-304.78462874899287
 30
0.0
 11
-84.88418063780955
 21
-304.78212508129138
 31
0.0
  0
LINE
  8
DETAIL
  6
CONTINUOUS
 62
     5
 10
-84.88418063780955
 20
-304.78212508129138
 30
0.0
 11
-84.867353558508398
 21
-304.77924461712053
 31
0.0
  0
LINE
  8
DETAIL
  6
CONTINUOUS
 62
     5
 10
-84.867353558508398
 20
-304.77924461712053
 30
0.0
 11
-84.867353558508398
 21
-304.77924461712053
 31
0.0
  0
LINE
  8
DETAIL
  6
CONTINUOUS
 62
     5
 10
-84.867353558508398
 20
-304.77924461712053
 30
0.0
 11
-84.850619665029626
 21
-304.77599449277892
 31
0.0
  0
LINE
  8
DETAIL
  6
CONTINUOUS
 62
     5
 10
-84.850619665029626
 20
-304.77599449277892
 30
0.0
 11
-84.833901101752758
 21
-304.77235359280411
 31
0.0
  0
LINE
  8
DETAIL
  6
CONTINUOUS
 62
     5
 10
-84.833901101752758
 20
-304.77235359280411
 30
0.0
 11
-84.833901101752758
 21
-304.77235359280411
 31
0.0
  0
LINE
  8
DETAIL
  6
CONTINUOUS
 62
     5
 10
-84.833901101752758
 20
-304.77235359280411
 30
0.0
 11
-84.81713317630215
 21
-304.76830302606021
 31
0.0
  0
LINE
  8
DETAIL
  6
CONTINUOUS
 62
     5
 10
-84.81713317630215
 20
-304.76830302606021
 30
0.0
 11
-84.80039837371362
 21
-304.76386105048903
 31
0.0
  0
LINE
  8
DETAIL
  6
CONTINUOUS
 62
     5
 10
-84.80039837371362
 20
-304.76386105048903
 30
0.0
 11
-84.80039837371362
 21
-304.76386105048903
 31
0.0
  0
LINE
  8
DETAIL
  6
CONTINUOUS
 62
     5
 10
-84.80039837371362
 20
-304.76386105048903
 30
0.0
 11
-84.783792776265955
 21
-304.75905068198711
 31
0.0
  0
LINE
  8
DETAIL
  6
CONTINUOUS
 62
     5
 10
-84.783792776265955
 20
-304.75905068198711
 30
0.0
 11
-84.767319677794944
 21
-304.75387681917317
 31
0.0
  0
LINE
  8
DETAIL
  6
CONTINUOUS
 62
     5
 10
-84.767319677794944
 20
-304.75387681917317
 30
0.0
 11
-84.767319677794944
 21
-304.75387681917317
 31
0.0
  0
LINE
  8
DETAIL
  6
CONTINUOUS
 62
     5
 10
-84.767319677794944
 20
-304.75387681917317
 30
0.0
 11
-84.750962761985647
 21
-304.74833970675218
 31
0.0
  0
LINE
  8
DETAIL
  6
CONTINUOUS
 62
     5
 10
-84.750962761985647
 20
-304.74833970675218
 30
0.0
 11
-84.734720060360019
 21
-304.74243909104217
 31
0.0
  0
LINE
  8
DETAIL
  6
CONTINUOUS
 62
     5
 10
-84.734720060360019
 20
-304.74243909104217
 30
0.0
 11
-84.734720060360019
 21
-304.74243909104217
 31
0.0
  0
LINE
  8
DETAIL
  6
CONTINUOUS
 62
     5
 10
-84.734720060360019
 20
-304.74243909104217
 30
0.0
 11
-84.718602040673204
 21
-304.73617962146989
 31
0.0
  0
LINE
  8
DETAIL
  6
CONTINUOUS
 62
     5
 10
-84.718602040673204
 20
-304.73617962146989
 30
0.0
 11
-84.70265456777247
 21
-304.72958605828342
 31
0.0
  0
LINE
  8
DETAIL
  6
CONTINUOUS
 62
     5
 10
-84.70265456777247
 20
-304.72958605828342
 30
0.0
 11
-84.70265456777247
 21
-304.72958605828342
 31
0.0
  0
LINE
  8
DETAIL
  6
CONTINUOUS
 62
     5
 10
-84.70265456777247
 20
-304.72958605828342
 30
0.0
 11
-84.686893371726455
 21
-304.72266820321067
 31
0.0
  0
LINE
  8
DETAIL
  6
CONTINUOUS
 62
     5
 10
-84.686893371726455
 20
-304.72266820321067
 30
0.0
 11
-84.671178246395243
 21
-304.71535591308259
 31
0.0
  0
LINE
  8
DETAIL
  6
CONTINUOUS
 62
     5
 10
-84.671178246395243
 20
-304.71535591308259
 30
0.0
 11
-84.671178246395243
 21
-304.71535591308259
 31
0.0
  0
LINE
  8
DETAIL
  6
CONTINUOUS
 62
     5
 10
-84.671178246395243
 20
-304.71535591308259
 30
0.0
 11
-84.65539246463311
 21
-304.70758932855358
 31
0.0
  0
LINE
  8
DETAIL
  6
CONTINUOUS
 62
     5
 10
-84.65539246463311
 20
-304.70758932855358
 30
0.0
 11
-84.639669151477619
 21
-304.69942967046018
 31
0.0
  0
LINE
  8
DETAIL
  6
CONTINUOUS
 62
     5
 10
-84.639669151477619
 20
-304.69942967046018
 30
0.0
 11
-84.639669151477619
 21
-304.69942967046018
 31
0.0
  0
LINE
  8
DETAIL
  6
CONTINUOUS
 62
     5
 10
-84.639669151477619
 20
-304.69942967046018
 30
0.0
 11
-84.624164301331348
 21
-304.69095099567369
 31
0.0
  0
LINE
  8
DETAIL
  6
CONTINUOUS
 62
     5
 10
-84.624164301331348
 20
-304.69095099567369
 30
0.0
 11
-84.608875533876699
 21
-304.68215762501387
 31
0.0
  0
LINE
  8
DETAIL
  6
CONTINUOUS
 62
     5
 10
-84.608875533876699
 20
-304.68215762501387
 30
0.0
 11
-84.608875533876699
 21
-304.68215762501387
 31
0.0
  0
LINE
  8
DETAIL
  6
CONTINUOUS
 62
     5
 10
-84.608875533876699
 20
-304.68215762501387
 30
0.0
 11
-84.593768561167735
 21
-304.67303874986982
 31
0.0
  0
LINE
  8
DETAIL
  6
CONTINUOUS
 62
     5
 10
-84.593768561167735
 20
-304.67303874986982
 30
0.0
 11
-84.578839839467264
 21
-304.66359277995758
 31
0.0
  0
LINE
  8
DETAIL
  6
CONTINUOUS
 62
     5
 10
-84.578839839467264
 20
-304.66359277995758
 30
0.0
 11
-84.578839839467264
 21
-304.66359277995758
 31
0.0
  0
LINE
  8
DETAIL
  6
CONTINUOUS
 62
     5
 10
-84.578839839467264
 20
-304.66359277995758
 30
0.0
 11
-84.564102360561719
 21
-304.65382864526021
 31
0.0
  0
LINE
  8
DETAIL
  6
CONTINUOUS
 62
     5
 10
-84.564102360561719
 20
-304.65382864526021
 30
0.0
 11
-84.549604514122393
 21
-304.64378813850561
 31
0.0
  0
LINE
  8
DETAIL
  6
CONTINUOUS
 62
     5
 10
-84.549604514122393
 20
-304.64378813850561
 30
0.0
 11
-84.549604514122393
 21
-304.64378813850561
 31
0.0
  0
LINE
  8
DETAIL
  6
CONTINUOUS
 62
     5
 10
-84.549604514122393
 20
-304.64378813850561
 30
0.0
 11
-84.53536045535418
 21
-304.63348610078123
 31
0.0
  0
LINE
  8
DETAIL
  6
CONTINUOUS
 62
     5
 10
-84.53536045535418
 20
-304.63348610078123
 30
0.0
 11
-84.521212003715618
 21
-304.62279670387181
 31
0.0
  0
LINE
  8
DETAIL
  6
CONTINUOUS
 62
     5
 10
-84.521212003715618
 20
-304.62279670387181
 30
0.0
 11
-84.521212003715618
 21
-304.62279670387181
 31
0.0
  0
LINE
  8
DETAIL
  6
CONTINUOUS
 62
     5
 10
-84.521212003715618
 20
-304.62279670387181
 30
0.0
 11
-84.507027692673205
 21
-304.61161317620429
 31
0.0
  0
LINE
  8
DETAIL
  6
CONTINUOUS
 62
     5
 10
-84.507027692673205
 20
-304.61161317620429
 30
0.0
 11
-84.49295524747447
 21
-304.6000456420885
 31
0.0
  0
LINE
  8
DETAIL
  6
CONTINUOUS
 62
     5
 10
-84.49295524747447
 20
-304.6000456420885
 30
0.0
 11
-84.49295524747447
 21
-304.6000456420885
 31
0.0
  0
LINE
  8
DETAIL
  6
CONTINUOUS
 62
     5
 10
-84.49295524747447
 20
-304.6000456420885
 30
0.0
 11
-84.479167403442375
 21
-304.58822590054132
 31
0.0
  0
LINE
  8
DETAIL
  6
CONTINUOUS
 62
     5
 10
-84.479167403442375
 20
-304.58822590054132
 30
0.0
 11
-84.465657744421947
 21
-304.5761555535413
 31
0.0
  0
LINE
  8
DETAIL
  6
CONTINUOUS
 62
     5
 10
-84.465657744421947
 20
-304.5761555535413
 30
0.0
 11
-84.465657744421947
 21
-304.5761555535413
 31
0.0
  0
LINE
  8
DETAIL
  6
CONTINUOUS
 62
     5
 10
-84.465657744421947
 20
-304.5761555535413
 30
0.0
 11
-84.45238454177354
 21
-304.56380932478157
 31
0.0
  0
LINE
  8
DETAIL
  6
CONTINUOUS
 62
     5
 10
-84.45238454177354
 20
-304.56380932478157
 30
0.0
 11
-84.43934396839677
 21
-304.55118462186402
 31
0.0
  0
LINE
  8
DETAIL
  6
CONTINUOUS
 62
     5
 10
-84.43934396839677
 20
-304.55118462186402
 30
0.0
 11
-84.43934396839677
 21
-304.55118462186402
 31
0.0
  0
LINE
  8
DETAIL
  6
CONTINUOUS
 62
     5
 10
-84.43934396839677
 20
-304.55118462186402
 30
0.0
 11
-84.426548558906461
 21
-304.53829438871838
 31
0.0
  0
LINE
  8
DETAIL
  6
CONTINUOUS
 62
     5
 10
-84.426548558906461
 20
-304.53829438871838
 30
0.0
 11
-84.414038393237774
 21
-304.52519103069051
 31
0.0
  0
LINE
  8
DETAIL
  6
CONTINUOUS
 62
     5
 10
-84.414038393237774
 20
-304.52519103069051
 30
0.0
 11
-84.414038393237774
 21
-304.52519103069051
 31
0.0
  0
LINE
  8
DETAIL
  6
CONTINUOUS
 62
     5
 10
-84.414038393237774
 20
-304.52519103069051
 30
0.0
 11
-84.401823416951061
 21
-304.51189168608852
 31
0.0
  0
LINE
  8
DETAIL
  6
CONTINUOUS
 62
     5
 10
-84.401823416951061
 20
-304.51189168608852
 30
0.0
 11
-84.389765492783681
 21
-304.49823296365503
 31
0.0
  0
LINE
  8
DETAIL
  6
CONTINUOUS
 62
     5
 10
-84.389765492783681
 20
-304.49823296365503
 30
0.0
 11
-84.389765492783681
 21
-304.49823296365503
 31
0.0
  0
LINE
  8
DETAIL
  6
CONTINUOUS
 62
     5
 10
-84.389765492783681
 20
-304.49823296365503
 30
0.0
 11
-84.377750269854459
 21
-304.48407682443161
 31
0.0
  0
LINE
  8
DETAIL
  6
CONTINUOUS
 62
     5
 10
-84.377750269854459
 20
-304.48407682443161
 30
0.0
 11
-84.365906625634125
 21
-304.46956716820807
 31
0.0
  0
LINE
  8
DETAIL
  6
CONTINUOUS
 62
     5
 10
-84.365906625634125
 20
-304.46956716820807
 30
0.0
 11
-84.365906625634125
 21
-304.46956716820807
 31
0.0
  0
LINE
  8
DETAIL
  6
CONTINUOUS
 62
     5
 10
-84.365906625634125
 20
-304.46956716820807
 30
0.0
 11
-84.354384841839988
 21
-304.45487522726859
 31
0.0
  0
LINE
  8
DETAIL
  6
CONTINUOUS
 62
     5
 10
-84.354384841839988
 20
-304.45487522726859
 30
0.0
 11
-84.343177588830713
 21
-304.43999962512049
 31
0.0
  0
LINE
  8
DETAIL
  6
CONTINUOUS
 62
     5
 10
-84.343177588830713
 20
-304.43999962512049
 30
0.0
 11
-84.343177588830713
 21
-304.43999962512049
 31
0.0
  0
LINE
  8
DETAIL
  6
CONTINUOUS
 62
     5
 10
-84.343177588830713
 20
-304.43999962512049
 30
0.0
 11
-84.332246972129269
 21
-304.42490427327732
 31
0.0
  0
LINE
  8
DETAIL
  6
CONTINUOUS
 62
     5
 10
-84.332246972129269
 20
-304.42490427327732
 30
0.0
 11
-84.321590449281075
 21
-304.40958684405962
 31
0.0
  0
LINE
  8
DETAIL
  6
CONTINUOUS
 62
     5
 10
-84.321590449281075
 20
-304.40958684405962
 30
0.0
 11
-84.321590449281075
 21
-304.40958684405962
 31
0.0
  0
LINE
  8
DETAIL
  6
CONTINUOUS
 62
     5
 10
-84.321590449281075
 20
-304.40958684405962
 30
0.0
 11
-84.311218366654771
 21
-304.39406284137709
 31
0.0
  0
LINE
  8
DETAIL
  6
CONTINUOUS
 62
     5
 10
-84.311218366654771
 20
-304.39406284137709
 30
0.0
 11
-84.3011572738925
 21
-304.37838533469397
 31
0.0
  0
LINE
  8
DETAIL
  6
CONTINUOUS
 62
     5
 10
-84.3011572738925
 20
-304.37838533469397
 30
0.0
 11
-84.3011572738925
 21
-304.37838533469397
 31
0.0
  0
LINE
  8
DETAIL
  6
CONTINUOUS
 62
     5
 10
-84.3011572738925
 20
-304.37838533469397
 30
0.0
 11
-84.291412730175693
 21
-304.36257077910562
 31
0.0
  0
LINE
  8
DETAIL
  6
CONTINUOUS
 62
     5
 10
-84.291412730175693
 20
-304.36257077910562
 30
0.0
 11
-84.281890129572162
 21
-304.34645160668958
 31
0.0
  0
LINE
  8
DETAIL
  6
CONTINUOUS
 62
     5
 10
-84.281890129572162
 20
-304.34645160668958
 30
0.0
 11
-84.281890129572162
 21
-304.34645160668958
 31
0.0
  0
LINE
  8
DETAIL
  6
CONTINUOUS
 62
     5
 10
-84.281890129572162
 20
-304.34645160668958
 30
0.0
 11
-84.272511687565611
 21
-304.32988683832531
 31
0.0
  0
LINE
  8
DETAIL
  6
CONTINUOUS
 62
     5
 10
-84.272511687565611
 20
-304.32988683832531
 30
0.0
 11
-84.263367070419008
 21
-304.31302587312399
 31
0.0
  0
LINE
  8
DETAIL
  6
CONTINUOUS
 62
     5
 10
-84.263367070419008
 20
-304.31302587312399
 30
0.0
 11
-84.263367070419008
 21
-304.31302587312399
 31
0.0
  0
LINE
  8
DETAIL
  6
CONTINUOUS
 62
     5
 10
-84.263367070419008
 20
-304.31302587312399
 30
0.0
 11
-84.254560304464917
 21
-304.29604572472579
 31
0.0
  0
LINE
  8
DETAIL
  6
CONTINUOUS
 62
     5
 10
-84.254560304464917
 20
-304.29604572472579
 30
0.0
 11
-84.246085405536746
 21
-304.27894348663921
 31
0.0
  0
LINE
  8
DETAIL
  6
CONTINUOUS
 62
     5
 10
-84.246085405536746
 20
-304.27894348663921
 30
0.0
 11
-84.246085405536746
 21
-304.27894348663921
 31
0.0
  0
LINE
  8
DETAIL
  6
CONTINUOUS
 62
     5
 10
-84.246085405536746
 20
-304.27894348663921
 30
0.0
 11
-84.237915405087278
 21
-304.26168079253392
 31
0.0
  0
LINE
  8
DETAIL
  6
CONTINUOUS
 62
     5
 10
-84.237915405087278
 20
-304.26168079253392
 30
0.0
 11
-84.230049407547199
 21
-304.24425735685588
 31
0.0
  0
LINE
  8
DETAIL
  6
CONTINUOUS
 62
     5
 10
-84.230049407547199
 20
-304.24425735685588
 30
0.0
 11
-84.230049407547199
 21
-304.24425735685588
 31
0.0
  0
LINE
  8
DETAIL
  6
CONTINUOUS
 62
     5
 10
-84.230049407547199
 20
-304.24425735685588
 30
0.0
 11
-84.222494465238697
 21
-304.22668931350069
 31
0.0
  0
LINE
  8
DETAIL
  6
CONTINUOUS
 62
     5
 10
-84.222494465238697
 20
-304.22668931350069
 30
0.0
 11
-84.215263349072075
 21
-304.20902039339683
 31
0.0
  0
LINE
  8
DETAIL
  6
CONTINUOUS
 62
     5
 10
-84.215263349072075
 20
-304.20902039339683
 30
0.0
 11
-84.215263349072075
 21
-304.20902039339683
 31
0.0
  0
LINE
  8
DETAIL
  6
CONTINUOUS
 62
     5
 10
-84.215263349072075
 20
-304.20902039339683
 30
0.0
 11
-84.208358022772586
 21
-304.19126410950491
 31
0.0
  0
LINE
  8
DETAIL
  6
CONTINUOUS
 62
     5
 10
-84.208358022772586
 20
-304.19126410950491
 30
0.0
 11
-84.201731502733537
 21
-304.17328550588462
 31
0.0
  0
LINE
  8
DETAIL
  6
CONTINUOUS
 62
     5
 10
-84.201731502733537
 20
-304.17328550588462
 30
0.0
 11
-84.201731502733537
 21
-304.17328550588462
 31
0.0
  0
LINE
  8
DETAIL
  6
CONTINUOUS
 62
     5
 10
-84.201731502733537
 20
-304.17328550588462
 30
0.0
 11
-84.195345701820997
 21
-304.15497156774319
 31
0.0
  0
LINE
  8
DETAIL
  6
CONTINUOUS
 62
     5
 10
-84.195345701820997
 20
-304.15497156774319
 30
0.0
 11
-84.189247066119378
 21
-304.13644551377848
 31
0.0
  0
LINE
  8
DETAIL
  6
CONTINUOUS
 62
     5
 10
-84.189247066119378
 20
-304.13644551377848
 30
0.0
 11
-84.189247066119378
 21
-304.13644551377848
 31
0.0
  0
LINE
  8
DETAIL
  6
CONTINUOUS
 62
     5
 10
-84.189247066119378
 20
-304.13644551377848
 30
0.0
 11
-84.183488959847637
 21
-304.11785261010021
 31
0.0
  0
LINE
  8
DETAIL
  6
CONTINUOUS
 62
     5
 10
-84.183488959847637
 20
-304.11785261010021
 30
0.0
 11
-84.178067886544
 21
-304.09919007898122
 31
0.0
  0
LINE
  8
DETAIL
  6
CONTINUOUS
 62
     5
 10
-84.178067886544
 20
-304.09919007898122
 30
0.0
 11
-84.178067886544
 21
-304.09919007898122
 31
0.0
  0
LINE
  8
DETAIL
  6
CONTINUOUS
 62
     5
 10
-84.178067886544
 20
-304.09919007898122
 30
0.0
 11
-84.172969733216405
 21
-304.0804266372005
 31
0.0
  0
LINE
  8
DETAIL
  6
CONTINUOUS
 62
     5
 10
-84.172969733216405
 20
-304.0804266372005
 30
0.0
 11
-84.168194781429065
 21
-304.06156502339019
 31
0.0
  0
LINE
  8
DETAIL
  6
CONTINUOUS
 62
     5
 10
-84.168194781429065
 20
-304.06156502339019
 30
0.0
 11
-84.168194781429065
 21
-304.06156502339019
 31
0.0
  0
LINE
  8
DETAIL
  6
CONTINUOUS
 62
     5
 10
-84.168194781429065
 20
-304.06156502339019
 30
0.0
 11
-84.163746731999595
 21
-304.04261947075258
 31
0.0
  0
LINE
  8
DETAIL
  6
CONTINUOUS
 62
     5
 10
-84.163746731999595
 20
-304.04261947075258
 30
0.0
 11
-84.15962856819624
 21
-304.02361616890369
 31
0.0
  0
LINE
  8
DETAIL
  6
CONTINUOUS
 62
     5
 10
-84.15962856819624
 20
-304.02361616890369
 30
0.0
 11
-84.15962856819624
 21
-304.02361616890369
 31
0.0
  0
LINE
  8
DETAIL
  6
CONTINUOUS
 62
     5
 10
-84.15962856819624
 20
-304.02361616890369
 30
0.0
 11
-84.155840212809608
 21
-304.00456383468543
 31
0.0
  0
LINE
  8
DETAIL
  6
CONTINUOUS
 62
     5
 10
-84.155840212809608
 20
-304.00456383468543
 30
0.0
 11
-84.152370064266961
 21
-303.98538933741838
 31
0.0
  0
LINE
  8
DETAIL
  6
CONTINUOUS
 62
     5
 10
-84.152370064266961
 20
-303.98538933741838
 30
0.0
 11
-84.152370064266961
 21
-303.98538933741838
 31
0.0
  0
LINE
  8
DETAIL
  6
CONTINUOUS
 62
     5
 10
-84.152370064266961
 20
-303.98538933741838
 30
0.0
 11
-84.149209052518813
 21
-303.96603235159938
 31
0.0
  0
LINE
  8
DETAIL
  6
CONTINUOUS
 62
     5
 10
-84.149209052518813
 20
-303.96603235159938
 30
0.0
 11
-84.146369757974981
 21
-303.94656561993759
 31
0.0
  0
LINE
  8
DETAIL
  6
CONTINUOUS
 62
     5
 10
-84.146369757974981
 20
-303.94656561993759
 30
0.0
 11
-84.146369757974981
 21
-303.94656561993759
 31
0.0
  0
LINE
  8
DETAIL
  6
CONTINUOUS
 62
     5
 10
-84.146369757974981
 20
-303.94656561993759
 30
0.0
 11
-84.143866999582656
 21
-303.92707419074219
 31
0.0
  0
LINE
  8
DETAIL
  6
CONTINUOUS
 62
     5
 10
-84.143866999582656
 20
-303.92707419074219
 30
0.0
 11
-84.141702899981624
 21
-303.90755926650411
 31
0.0
  0
LINE
  8
DETAIL
  6
CONTINUOUS
 62
     5
 10
-84.141702899981624
 20
-303.90755926650411
 30
0.0
 11
-84.141702899981624
 21
-303.90755926650411
 31
0.0
  0
LINE
  8
DETAIL
  6
CONTINUOUS
 62
     5
 10
-84.141702899981624
 20
-303.90755926650411
 30
0.0
 11
-84.139874281726634
 21
-303.88800662894948
 31
0.0
  0
LINE
  8
DETAIL
  6
CONTINUOUS
 62
     5
 10
-84.139874281726634
 20
-303.88800662894948
 30
0.0
 11
-84.138369463343793
 21
-303.86842422255961
 31
0.0
  0
LINE
  8
DETAIL
  6
CONTINUOUS
 62
     5
 10
-84.138369463343793
 20
-303.86842422255961
 30
0.0
 11
-84.138369463343793
 21
-303.86842422255961
 31
0.0
  0
LINE
  8
DETAIL
  6
CONTINUOUS
 62
     5
 10
-84.138369463343793
 20
-303.86842422255961
 30
0.0
 11
-84.137186315457939
 21
-303.84882433120532
 31
0.0
  0
LINE
  8
DETAIL
  6
CONTINUOUS
 62
     5
 10
-84.137186315457939
 20
-303.84882433120532
 30
0.0
 11
-84.136369421119184
 21
-303.82921443354797
 31
0.0
  0
LINE
  8
DETAIL
  6
CONTINUOUS
 62
     5
 10
-84.136369421119184
 20
-303.82921443354797
 30
0.0
 11
-84.136369421119184
 21
-303.82921443354797
 31
0.0
  0
LINE
  8
DETAIL
  6
CONTINUOUS
 62
     5
 10
-84.136369421119184
 20
-303.82921443354797
 30
0.0
 11
-84.135930455066045
 21
-303.80960007146552
 31
0.0
  0
LINE
  8
DETAIL
  6
CONTINUOUS
 62
     5
 10
-84.135930455066045
 20
-303.80960007146552
 30
0.0
 11
-84.135702746364814
 21
-303.78998384491092
 31
0.0
  0
LINE
  8
DETAIL
  6
CONTINUOUS
 62
     5
 10
84.135702746365382
 20
-303.78998384491092
 30
0.0
 11
84.135930455066841
 21
-303.80960007146552
 31
0.0
  0
LINE
  8
DETAIL
  6
CONTINUOUS
 62
     5
 10
84.135930455066841
 20
-303.80960007146552
 30
0.0
 11
84.136369421120776
 21
-303.82921443354797
 31
0.0
  0
LINE
  8
DETAIL
  6
CONTINUOUS
 62
     5
 10
84.136369421120776
 20
-303.82921443354797
 30
0.0
 11
84.136369421120776
 21
-303.82921443354797
 31
0.0
  0
LINE
  8
DETAIL
  6
CONTINUOUS
 62
     5
 10
84.136369421120776
 20
-303.82921443354797
 30
0.0
 11
84.137186315462031
 21
-303.84882433120532
 31
0.0
  0
LINE
  8
DETAIL
  6
CONTINUOUS
 62
     5
 10
84.137186315462031
 20
-303.84882433120532
 30
0.0
 11
84.138369463352774
 21
-303.86842422255961
 31
0.0
  0
LINE
  8
DETAIL
  6
CONTINUOUS
 62
     5
 10
84.138369463352774
 20
-303.86842422255961
 30
0.0
 11
84.138369463352774
 21
-303.86842422255961
 31
0.0
  0
LINE
  8
DETAIL
  6
CONTINUOUS
 62
     5
 10
84.138369463352774
 20
-303.86842422255961
 30
0.0
 11
84.139874281743573
 21
-303.88800662894948
 31
0.0
  0
LINE
  8
DETAIL
  6
CONTINUOUS
 62
     5
 10
84.139874281743573
 20
-303.88800662894948
 30
0.0
 11
84.1417029000105
 21
-303.90755926650411
 31
0.0
  0
LINE
  8
DETAIL
  6
CONTINUOUS
 62
     5
 10
84.1417029000105
 20
-303.90755926650411
 30
0.0
 11
84.1417029000105
 21
-303.90755926650411
 31
0.0
  0
LINE
  8
DETAIL
  6
CONTINUOUS
 62
     5
 10
84.1417029000105
 20
-303.90755926650411
 30
0.0
 11
84.143866999628358
 21
-303.92707419074219
 31
0.0
  0
LINE
  8
DETAIL
  6
CONTINUOUS
 62
     5
 10
84.143866999628358
 20
-303.92707419074219
 30
0.0
 11
84.146369758042965
 21
-303.94656561993759
 31
0.0
  0
LINE
  8
DETAIL
  6
CONTINUOUS
 62
     5
 10
84.146369758042965
 20
-303.94656561993759
 30
0.0
 11
84.146369758042965
 21
-303.94656561993759
 31
0.0
  0
LINE
  8
DETAIL
  6
CONTINUOUS
 62
     5
 10
84.146369758042965
 20
-303.94656561993759
 30
0.0
 11
84.149209052615447
 21
-303.96603235159893
 31
0.0
  0
LINE
  8
DETAIL
  6
CONTINUOUS
 62
     5
 10
84.149209052615447
 20
-303.96603235159893
 30
0.0
 11
84.152370064399065
 21
-303.98538933741838
 31
0.0
  0
LINE
  8
DETAIL
  6
CONTINUOUS
 62
     5
 10
84.152370064399065
 20
-303.98538933741838
 30
0.0
 11
84.152370064399065
 21
-303.98538933741838
 31
0.0
  0
LINE
  8
DETAIL
  6
CONTINUOUS
 62
     5
 10
84.152370064399065
 20
-303.98538933741838
 30
0.0
 11
84.155840212984458
 21
-304.00456383468543
 31
0.0
  0
LINE
  8
DETAIL
  6
CONTINUOUS
 62
     5
 10
84.155840212984458
 20
-304.00456383468543
 30
0.0
 11
84.159628568418952
 21
-304.02361616890408
 31
0.0
  0
LINE
  8
DETAIL
  6
CONTINUOUS
 62
     5
 10
84.159628568418952
 20
-304.02361616890408
 30
0.0
 11
84.159628568418952
 21
-304.02361616890408
 31
0.0
  0
LINE
  8
DETAIL
  6
CONTINUOUS
 62
     5
 10
84.159628568418952
 20
-304.02361616890408
 30
0.0
 11
84.163746732273239
 21
-304.04261947075258
 31
0.0
  0
LINE
  8
DETAIL
  6
CONTINUOUS
 62
     5
 10
84.163746732273239
 20
-304.04261947075258
 30
0.0
 11
84.168194781754551
 21
-304.06156502339019
 31
0.0
  0
LINE
  8
DETAIL
  6
CONTINUOUS
 62
     5
 10
84.168194781754551
 20
-304.06156502339019
 30
0.0
 11
84.168194781754551
 21
-304.06156502339019
 31
0.0
  0
LINE
  8
DETAIL
  6
CONTINUOUS
 62
     5
 10
84.168194781754551
 20
-304.06156502339019
 30
0.0
 11
84.172969733591685
 21
-304.0804266372005
 31
0.0
  0
LINE
  8
DETAIL
  6
CONTINUOUS
 62
     5
 10
84.172969733591685
 20
-304.0804266372005
 30
0.0
 11
84.178067886965437
 21
-304.09919007898122
 31
0.0
  0
LINE
  8
DETAIL
  6
CONTINUOUS
 62
     5
 10
84.178067886965437
 20
-304.09919007898122
 30
0.0
 11
84.178067886965437
 21
-304.09919007898122
 31
0.0
  0
LINE
  8
DETAIL
  6
CONTINUOUS
 62
     5
 10
84.178067886965437
 20
-304.09919007898122
 30
0.0
 11
84.183488960308523
 21
-304.11785261010021
 31
0.0
  0
LINE
  8
DETAIL
  6
CONTINUOUS
 62
     5
 10
84.183488960308523
 20
-304.11785261010021
 30
0.0
 11
84.189247066611188
 21
-304.13644551377848
 31
0.0
  0
LINE
  8
DETAIL
  6
CONTINUOUS
 62
     5
 10
84.189247066611188
 20
-304.13644551377848
 30
0.0
 11
84.189247066611188
 21
-304.13644551377848
 31
0.0
  0
LINE
  8
DETAIL
  6
CONTINUOUS
 62
     5
 10
84.189247066611188
 20
-304.13644551377848
 30
0.0
 11
84.195345702332361
 21
-304.15497156774319
 31
0.0
  0
LINE
  8
DETAIL
  6
CONTINUOUS
 62
     5
 10
84.195345702332361
 20
-304.15497156774319
 30
0.0
 11
84.201731503251153
 21
-304.17328550588462
 31
0.0
  0
LINE
  8
DETAIL
  6
CONTINUOUS
 62
     5
 10
84.201731503251153
 20
-304.17328550588462
 30
0.0
 11
84.201731503251153
 21
-304.17328550588462
 31
0.0
  0
LINE
  8
DETAIL
  6
CONTINUOUS
 62
     5
 10
84.201731503251153
 20
-304.17328550588462
 30
0.0
 11
84.208358023281676
 21
-304.19126410950491
 31
0.0
  0
LINE
  8
DETAIL
  6
CONTINUOUS
 62
     5
 10
84.208358023281676
 20
-304.19126410950491
 30
0.0
 11
84.215263349560587
 21
-304.20902039339683
 31
0.0
  0
LINE
  8
DETAIL
  6
CONTINUOUS
 62
     5
 10
84.215263349560587
 20
-304.20902039339683
 30
0.0
 11
84.215263349560587
 21
-304.20902039339683
 31
0.0
  0
LINE
  8
DETAIL
  6
CONTINUOUS
 62
     5
 10
84.215263349560587
 20
-304.20902039339683
 30
0.0
 11
84.222494465697309
 21
-304.22668931350069
 31
0.0
  0
LINE
  8
DETAIL
  6
CONTINUOUS
 62
     5
 10
84.222494465697309
 20
-304.22668931350069
 30
0.0
 11
84.230049407970228
 21
-304.24425735685588
 31
0.0
  0
LINE
  8
DETAIL
  6
CONTINUOUS
 62
     5
 10
84.230049407970228
 20
-304.24425735685588
 30
0.0
 11
84.230049407970228
 21
-304.24425735685588
 31
0.0
  0
LINE
  8
DETAIL
  6
CONTINUOUS
 62
     5
 10
84.230049407970228
 20
-304.24425735685588
 30
0.0
 11
84.237915405471995
 21
-304.26168079253392
 31
0.0
  0
LINE
  8
DETAIL
  6
CONTINUOUS
 62
     5
 10
84.237915405471995
 20
-304.26168079253392
 30
0.0
 11
84.246085405883377
 21
-304.27894348663921
 31
0.0
  0
LINE
  8
DETAIL
  6
CONTINUOUS
 62
     5
 10
84.246085405883377
 20
-304.27894348663921
 30
0.0
 11
84.246085405883377
 21
-304.27894348663921
 31
0.0
  0
LINE
  8
DETAIL
  6
CONTINUOUS
 62
     5
 10
84.246085405883377
 20
-304.27894348663921
 30
0.0
 11
84.254560304776874
 21
-304.29604572472579
 31
0.0
  0
LINE
  8
DETAIL
  6
CONTINUOUS
 62
     5
 10
84.254560304776874
 20
-304.29604572472579
 30
0.0
 11
84.263367070702998
 21
-304.31302587312399
 31
0.0
  0
LINE
  8
DETAIL
  6
CONTINUOUS
 62
     5
 10
84.263367070702998
 20
-304.31302587312399
 30
0.0
 11
84.263367070702998
 21
-304.31302587312399
 31
0.0
  0
LINE
  8
DETAIL
  6
CONTINUOUS
 62
     5
 10
84.263367070702998
 20
-304.31302587312399
 30
0.0
 11
84.272511687831411
 21
-304.32988683832531
 31
0.0
  0
LINE
  8
DETAIL
  6
CONTINUOUS
 62
     5
 10
84.272511687831411
 20
-304.32988683832531
 30
0.0
 11
84.281890129832163
 21
-304.34645160668958
 31
0.0
  0
LINE
  8
DETAIL
  6
CONTINUOUS
 62
     5
 10
84.281890129832163
 20
-304.34645160668958
 30
0.0
 11
84.281890129832163
 21
-304.34645160668958
 31
0.0
  0
LINE
  8
DETAIL
  6
CONTINUOUS
 62
     5
 10
84.281890129832163
 20
-304.34645160668958
 30
0.0
 11
84.291412730444563
 21
-304.36257077910528
 31
0.0
  0
LINE
  8
DETAIL
  6
CONTINUOUS
 62
     5
 10
84.291412730444563
 20
-304.36257077910528
 30
0.0
 11
84.301157274182174
 21
-304.37838533469397
 31
0.0
  0
LINE
  8
DETAIL
  6
CONTINUOUS
 62
     5
 10
84.301157274182174
 20
-304.37838533469397
 30
0.0
 11
84.301157274182174
 21
-304.37838533469397
 31
0.0
  0
LINE
  8
DETAIL
  6
CONTINUOUS
 62
     5
 10
84.301157274182174
 20
-304.37838533469397
 30
0.0
 11
84.311218366974572
 21
-304.39406284137709
 31
0.0
  0
LINE
  8
DETAIL
  6
CONTINUOUS
 62
     5
 10
84.311218366974572
 20
-304.39406284137709
 30
0.0
 11
84.32159044963646
 21
-304.40958684405962
 31
0.0
  0
LINE
  8
DETAIL
  6
CONTINUOUS
 62
     5
 10
84.32159044963646
 20
-304.40958684405962
 30
0.0
 11
84.32159044963646
 21
-304.40958684405962
 31
0.0
  0
LINE
  8
DETAIL
  6
CONTINUOUS
 62
     5
 10
84.32159044963646
 20
-304.40958684405962
 30
0.0
 11
84.332246972523308
 21
-304.42490427327732
 31
0.0
  0
LINE
  8
DETAIL
  6
CONTINUOUS
 62
     5
 10
84.332246972523308
 20
-304.42490427327732
 30
0.0
 11
84.343177589262723
 21
-304.43999962512049
 31
0.0
  0
LINE
  8
DETAIL
  6
CONTINUOUS
 62
     5
 10
84.343177589262723
 20
-304.43999962512049
 30
0.0
 11
84.343177589262723
 21
-304.43999962512049
 31
0.0
  0
LINE
  8
DETAIL
  6
CONTINUOUS
 62
     5
 10
84.343177589262723
 20
-304.43999962512049
 30
0.0
 11
84.354384842306672
 21
-304.45487522726859
 31
0.0
  0
LINE
  8
DETAIL
  6
CONTINUOUS
 62
     5
 10
84.354384842306672
 20
-304.45487522726859
 30
0.0
 11
84.365906626128435
 21
-304.46956716820853
 31
0.0
  0
LINE
  8
DETAIL
  6
CONTINUOUS
 62
     5
 10
84.365906626128435
 20
-304.46956716820853
 30
0.0
 11
84.365906626128435
 21
-304.46956716820853
 31
0.0
  0
LINE
  8
DETAIL
  6
CONTINUOUS
 62
     5
 10
84.365906626128435
 20
-304.46956716820853
 30
0.0
 11
84.377750270367073
 21
-304.48407682443161
 31
0.0
  0
LINE
  8
DETAIL
  6
CONTINUOUS
 62
     5
 10
84.377750270367073
 20
-304.48407682443161
 30
0.0
 11
84.389765493301638
 21
-304.49823296365503
 31
0.0
  0
LINE
  8
DETAIL
  6
CONTINUOUS
 62
     5
 10
84.389765493301638
 20
-304.49823296365503
 30
0.0
 11
84.389765493301638
 21
-304.49823296365503
 31
0.0
  0
LINE
  8
DETAIL
  6
CONTINUOUS
 62
     5
 10
84.389765493301638
 20
-304.49823296365503
 30
0.0
 11
84.401823417460037
 21
-304.51189168608852
 31
0.0
  0
LINE
  8
DETAIL
  6
CONTINUOUS
 62
     5
 10
84.401823417460037
 20
-304.51189168608852
 30
0.0
 11
84.414038393724468
 21
-304.52519103069051
 31
0.0
  0
LINE
  8
DETAIL
  6
CONTINUOUS
 62
     5
 10
84.414038393724468
 20
-304.52519103069051
 30
0.0
 11
84.414038393724468
 21
-304.52519103069051
 31
0.0
  0
LINE
  8
DETAIL
  6
CONTINUOUS
 62
     5
 10
84.414038393724468
 20
-304.52519103069051
 30
0.0
 11
84.426548559360526
 21
-304.53829438871838
 31
0.0
  0
LINE
  8
DETAIL
  6
CONTINUOUS
 62
     5
 10
84.426548559360526
 20
-304.53829438871838
 30
0.0
 11
84.439343968810135
 21
-304.55118462186402
 31
0.0
  0
LINE
  8
DETAIL
  6
CONTINUOUS
 62
     5
 10
84.439343968810135
 20
-304.55118462186402
 30
0.0
 11
84.439343968810135
 21
-304.55118462186402
 31
0.0
  0
LINE
  8
DETAIL
  6
CONTINUOUS
 62
     5
 10
84.439343968810135
 20
-304.55118462186402
 30
0.0
 11
84.45238454214018
 21
-304.56380932478157
 31
0.0
  0
LINE
  8
DETAIL
  6
CONTINUOUS
 62
     5
 10
84.45238454214018
 20
-304.56380932478157
 30
0.0
 11
84.465657744738223
 21
-304.5761555535413
 31
0.0
  0
LINE
  8
DETAIL
  6
CONTINUOUS
 62
     5
 10
84.465657744738223
 20
-304.5761555535413
 30
0.0
 11
84.465657744738223
 21
-304.5761555535413
 31
0.0
  0
LINE
  8
DETAIL
  6
CONTINUOUS
 62
     5
 10
84.465657744738223
 20
-304.5761555535413
 30
0.0
 11
84.479167403707152
 21
-304.58822590054132
 31
0.0
  0
LINE
  8
DETAIL
  6
CONTINUOUS
 62
     5
 10
84.479167403707152
 20
-304.58822590054132
 30
0.0
 11
84.492955247688428
 21
-304.6000456420885
 31
0.0
  0
LINE
  8
DETAIL
  6
CONTINUOUS
 62
     5
 10
84.492955247688428
 20
-304.6000456420885
 30
0.0
 11
84.492955247688428
 21
-304.6000456420885
 31
0.0
  0
LINE
  8
DETAIL
  6
CONTINUOUS
 62
     5
 10
84.492955247688428
 20
-304.6000456420885
 30
0.0
 11
84.507027692839756
 21
-304.61161317620429
 31
0.0
  0
LINE
  8
DETAIL
  6
CONTINUOUS
 62
     5
 10
84.507027692839756
 20
-304.61161317620429
 30
0.0
 11
84.521212003840446
 21
-304.62279670387181
 31
0.0
  0
LINE
  8
DETAIL
  6
CONTINUOUS
 62
     5
 10
84.521212003840446
 20
-304.62279670387181
 30
0.0
 11
84.521212003840446
 21
-304.62279670387181
 31
0.0
  0
LINE
  8
DETAIL
  6
CONTINUOUS
 62
     5
 10
84.521212003840446
 20
-304.62279670387181
 30
0.0
 11
84.535360455445129
 21
-304.63348610078123
 31
0.0
  0
LINE
  8
DETAIL
  6
CONTINUOUS
 62
     5
 10
84.535360455445129
 20
-304.63348610078123
 30
0.0
 11
84.549604514186399
 21
-304.64378813850561
 31
0.0
  0
LINE
  8
DETAIL
  6
CONTINUOUS
 62
     5
 10
84.549604514186399
 20
-304.64378813850561
 30
0.0
 11
84.549604514186399
 21
-304.64378813850561
 31
0.0
  0
LINE
  8
DETAIL
  6
CONTINUOUS
 62
     5
 10
84.549604514186399
 20
-304.64378813850561
 30
0.0
 11
84.56410236060492
 21
-304.65382864526021
 31
0.0
  0
LINE
  8
DETAIL
  6
CONTINUOUS
 62
     5
 10
84.56410236060492
 20
-304.65382864526021
 30
0.0
 11
84.578839839494549
 21
-304.66359277995758
 31
0.0
  0
LINE
  8
DETAIL
  6
CONTINUOUS
 62
     5
 10
84.578839839494549
 20
-304.66359277995758
 30
0.0
 11
84.578839839494549
 21
-304.66359277995758
 31
0.0
  0
LINE
  8
DETAIL
  6
CONTINUOUS
 62
     5
 10
84.578839839494549
 20
-304.66359277995758
 30
0.0
 11
84.593768561183879
 21
-304.67303874986982
 31
0.0
  0
LINE
  8
DETAIL
  6
CONTINUOUS
 62
     5
 10
84.593768561183879
 20
-304.67303874986982
 30
0.0
 11
84.608875533885339
 21
-304.68215762501387
 31
0.0
  0
LINE
  8
DETAIL
  6
CONTINUOUS
 62
     5
 10
84.608875533885339
 20
-304.68215762501387
 30
0.0
 11
84.608875533885339
 21
-304.68215762501387
 31
0.0
  0
LINE
  8
DETAIL
  6
CONTINUOUS
 62
     5
 10
84.608875533885339
 20
-304.68215762501387
 30
0.0
 11
84.624164301335213
 21
-304.69095099567369
 31
0.0
  0
LINE
  8
DETAIL
  6
CONTINUOUS
 62
     5
 10
84.624164301335213
 20
-304.69095099567369
 30
0.0
 11
84.63966915147887
 21
-304.69942967046018
 31
0.0
  0
LINE
  8
DETAIL
  6
CONTINUOUS
 62
     5
 10
84.63966915147887
 20
-304.69942967046018
 30
0.0
 11
84.63966915147887
 21
-304.69942967046018
 31
0.0
  0
LINE
  8
DETAIL
  6
CONTINUOUS
 62
     5
 10
84.63966915147887
 20
-304.69942967046018
 30
0.0
 11
84.655392464633792
 21
-304.70758932855358
 31
0.0
  0
LINE
  8
DETAIL
  6
CONTINUOUS
 62
     5
 10
84.655392464633792
 20
-304.70758932855358
 30
0.0
 11
84.671178246395812
 21
-304.71535591308259
 31
0.0
  0
LINE
  8
DETAIL
  6
CONTINUOUS
 62
     5
 10
84.671178246395812
 20
-304.71535591308259
 30
0.0
 11
84.671178246395812
 21
-304.71535591308259
 31
0.0
  0
LINE
  8
DETAIL
  6
CONTINUOUS
 62
     5
 10
84.671178246395812
 20
-304.71535591308259
 30
0.0
 11
84.68689337172691
 21
-304.72266820321067
 31
0.0
  0
LINE
  8
DETAIL
  6
CONTINUOUS
 62
     5
 10
84.68689337172691
 20
-304.72266820321067
 30
0.0
 11
84.702654567772925
 21
-304.72958605828342
 31
0.0
  0
LINE
  8
DETAIL
  6
CONTINUOUS
 62
     5
 10
84.702654567772925
 20
-304.72958605828342
 30
0.0
 11
84.702654567772925
 21
-304.72958605828342
 31
0.0
  0
LINE
  8
DETAIL
  6
CONTINUOUS
 62
     5
 10
84.702654567772925
 20
-304.72958605828342
 30
0.0
 11
84.718602040673773
 21
-304.73617962146989
 31
0.0
  0
LINE
  8
DETAIL
  6
CONTINUOUS
 62
     5
 10
84.718602040673773
 20
-304.73617962146989
 30
0.0
 11
84.734720060360701
 21
-304.74243909104217
 31
0.0
  0
LINE
  8
DETAIL
  6
CONTINUOUS
 62
     5
 10
84.734720060360701
 20
-304.74243909104217
 30
0.0
 11
84.734720060360701
 21
-304.74243909104217
 31
0.0
  0
LINE
  8
DETAIL
  6
CONTINUOUS
 62
     5
 10
84.734720060360701
 20
-304.74243909104217
 30
0.0
 11
84.750962761986216
 21
-304.74833970675218
 31
0.0
  0
LINE
  8
DETAIL
  6
CONTINUOUS
 62
     5
 10
84.750962761986216
 20
-304.74833970675218
 30
0.0
 11
84.767319677795513
 21
-304.75387681917317
 31
0.0
  0
LINE
  8
DETAIL
  6
CONTINUOUS
 62
     5
 10
84.767319677795513
 20
-304.75387681917317
 30
0.0
 11
84.767319677795513
 21
-304.75387681917317
 31
0.0
  0
LINE
  8
DETAIL
  6
CONTINUOUS
 62
     5
 10
84.767319677795513
 20
-304.75387681917317
 30
0.0
 11
84.783792776266409
 21
-304.75905068198711
 31
0.0
  0
LINE
  8
DETAIL
  6
CONTINUOUS
 62
     5
 10
84.783792776266409
 20
-304.75905068198711
 30
0.0
 11
84.800398373714074
 21
-304.76386105048903
 31
0.0
  0
LINE
  8
DETAIL
  6
CONTINUOUS
 62
     5
 10
84.800398373714074
 20
-304.76386105048903
 30
0.0
 11
84.800398373714074
 21
-304.76386105048903
 31
0.0
  0
LINE
  8
DETAIL
  6
CONTINUOUS
 62
     5
 10
84.800398373714074
 20
-304.76386105048903
 30
0.0
 11
84.817133176302605
 21
-304.76830302606021
 31
0.0
  0
LINE
  8
DETAIL
  6
CONTINUOUS
 62
     5
 10
84.817133176302605
 20
-304.76830302606021
 30
0.0
 11
84.833901101753327
 21
-304.77235359280411
 31
0.0
  0
LINE
  8
DETAIL
  6
CONTINUOUS
 62
     5
 10
84.833901101753327
 20
-304.77235359280411
 30
0.0
 11
84.833901101753327
 21
-304.77235359280411
 31
0.0
  0
LINE
  8
DETAIL
  6
CONTINUOUS
 62
     5
 10
84.833901101753327
 20
-304.77235359280411
 30
0.0
 11
84.850619665030194
 21
-304.77599449277892
 31
0.0
  0
LINE
  8
DETAIL
  6
CONTINUOUS
 62
     5
 10
84.850619665030194
 20
-304.77599449277892
 30
0.0
 11
84.867353558508853
 21
-304.77924461712053
 31
0.0
  0
LINE
  8
DETAIL
  6
CONTINUOUS
 62
     5
 10
84.867353558508853
 20
-304.77924461712053
 30
0.0
 11
84.867353558508853
 21
-304.77924461712053
 31
0.0
  0
LINE
  8
DETAIL
  6
CONTINUOUS
 62
     5
 10
84.867353558508853
 20
-304.77924461712053
 30
0.0
 11
84.884180637810346
 21
-304.78212508129138
 31
0.0
  0
LINE
  8
DETAIL
  6
CONTINUOUS
 62
     5
 10
84.884180637810346
 20
-304.78212508129138
 30
0.0
 11
84.901084234124028
 21
-304.78462874899287
 31
0.0
  0
LINE
  8
DETAIL
  6
CONTINUOUS
 62
     5
 10
84.901084234124028
 20
-304.78462874899287
 30
0.0
 11
84.901084234124028
 21
-304.78462874899287
 31
0.0
  0
LINE
  8
DETAIL
  6
CONTINUOUS
 62
     5
 10
84.901084234124028
 20
-304.78462874899287
 30
0.0
 11
84.918030486940665
 21
-304.78674680183173
 31
0.0
  0
LINE
  8
DETAIL
  6
CONTINUOUS
 62
     5
 10
84.918030486940665
 20
-304.78674680183173
 30
0.0
 11
84.935011293383582
 21
-304.78849194480682
 31
0.0
  0
LINE
  8
DETAIL
  6
CONTINUOUS
 62
     5
 10
84.935011293383582
 20
-304.78849194480682
 30
0.0
 11
84.935011293383582
 21
-304.78849194480682
 31
0.0
  0
LINE
  8
DETAIL
  6
CONTINUOUS
 62
     5
 10
84.935011293383582
 20
-304.78849194480682
 30
0.0
 11
84.952022863459547
 21
-304.78986780331292
 31
0.0
  0
LINE
  8
DETAIL
  6
CONTINUOUS
 62
     5
 10
84.952022863459547
 20
-304.78986780331292
 30
0.0
 11
84.969052901072587
 21
-304.79082016094651
 31
0.0
  0
LINE
  8
DETAIL
  6
CONTINUOUS
 62
     5
 10
84.969052901072587
 20
-304.79082016094651
 30
0.0
 11
84.969052901072587
 21
-304.79082016094651
 31
0.0
  0
LINE
  8
DETAIL
  6
CONTINUOUS
 62
     5
 10
84.969052901072587
 20
-304.79082016094651
 30
0.0
 11
84.986089050295504
 21
-304.79133280180412
 31
0.0
  0
LINE
  8
DETAIL
  6
CONTINUOUS
 62
     5
 10
84.986089050295504
 20
-304.79133280180412
 30
0.0
 11
85.003127221976229
 21
-304.79159935379641
 31
0.0
  0
LINE
  8
DETAIL
  6
CONTINUOUS
 62
     5
 10
-228.96930533117899
 20
-79.528271405492774
 30
0.0
 11
-228.96930533117899
 21
-130.7108239095318
 31
0.0
  0
LINE
  8
DETAIL
  6
CONTINUOUS
 62
     5
 10
-96.756058158319547
 20
-302.48788368336062
 30
0.0
 11
-96.756058158319547
 21
-311.50242326332813
 31
0.0
  0
LINE
  8
DETAIL
  6
CONTINUOUS
 62
     5
 10
-89.644588045233945
 20
-302.48788368336062
 30
0.0
 11
-89.644588045233945
 21
-304.79159935379641
 31
0.0
  0
LINE
  8
DETAIL
  6
CONTINUOUS
 62
     5
 10
-86.138933764135345
 20
-265.42810985460432
 30
0.0
 11
-86.138933764135345
 21
-261.42164781906303
 31
0.0
  0
LINE
  8
DETAIL
  6
CONTINUOUS
 62
     5
 10
-63.549721702295301
 20
-265.42810985460432
 30
0.0
 11
-63.549721702295301
 21
-261.42164781906303
 31
0.0
  0
LINE
  8
DETAIL
  6
CONTINUOUS
 62
     5
 10
-88.09053977235078
 20
-315.0291375439507
 30
0.0
 11
-80.261516784911578
 21
-331.23521512760021
 31
0.0
  0
LINE
  8
DETAIL
  6
CONTINUOUS
 62
     5
 10
-2.504038772212994
 20
-253.40872374798059
 30
0.0
 11
2.504038772213562
 21
-253.40872374798059
 31
0.0
  0
LINE
  8
DETAIL
  6
CONTINUOUS
 62
     5
 10
83.634894991922692
 20
-265.42810985460432
 30
0.0
 11
-83.634894991922238
 21
-265.42810985460432
 31
0.0
  0
LINE
  8
DETAIL
  6
CONTINUOUS
 62
     5
 10
-2.504038772212994
 20
-253.40872374798059
 30
0.0
 11
-2.504038772212994
 21
-261.42164781906303
 31
0.0
  0
LINE
  8
DETAIL
  6
CONTINUOUS
 62
     5
 10
2.504038772213562
 20
-253.40872374798059
 30
0.0
 11
2.504038772213562
 21
-261.42164781906303
 31
0.0
  0
LINE
  8
DETAIL
  6
CONTINUOUS
 62
     5
 10
-95.153473344103077
 20
-313.10500807754448
 30
0.0
 11
95.153473344103645
 21
-313.10500807754448
 31
0.0
  0
LINE
  8
DETAIL
  6
CONTINUOUS
 62
     5
 10
-76.112828254899455
 20
-333.83844911147042
 30
0.0
 11
76.112828255676504
 21
-333.83844911147042
 31
0.0
  0
LINE
  8
DETAIL
  6
CONTINUOUS
 62
     5
 10
63.549721702295763
 20
-265.42810985460432
 30
0.0
 11
63.549721702295763
 21
-261.42164781906303
 31
0.0
  0
LINE
  8
DETAIL
  6
CONTINUOUS
 62
     5
 10
89.644588045234514
 20
-304.79159935379641
 30
0.0
 11
89.644588045234514
 21
-302.48788368336062
 31
0.0
  0
LINE
  8
DETAIL
  6
CONTINUOUS
 62
     5
 10
96.756058158320116
 20
-311.50242326332813
 30
0.0
 11
96.756058158320116
 21
-302.48788368336062
 31
0.0
  0
LINE
  8
DETAIL
  6
CONTINUOUS
 62
     5
 10
88.090539772351235
 20
-315.0291375439507
 30
0.0
 11
80.261516784912146
 21
-331.23521512760021
 31
0.0
  0
LINE
  8
DETAIL
  6
CONTINUOUS
 62
     5
 10
228.96930533117961
 20
-79.528271405492774
 30
0.0
 11
228.96930533117961
 21
-130.7108239095318
 31
0.0
  0
ARC
  8
DETAIL
  6
CONTINUOUS
 62
     5
 10
-258.41767872933309
 20
-34.510142750021828
 30
0.0
 40
14.477832598715059
 50
84.699054042903782
 51
89.996527556298702
  0
ARC
  8
DETAIL
  6
CONTINUOUS
 62
     5
 10
-83.634894991922238
 20
-271.43780290791608
 30
0.0
 40
6.0096930533115938
 50
90.0
 51
180.0
  0
ARC
  8
DETAIL
  6
CONTINUOUS
 62
     5
 10
-76.112828254899455
 20
-329.23101777059782
 30
0.0
 40
4.6074313408723633
 50
205.7848066944957
 51
270.0
  0
ARC
  8
DETAIL
  6
CONTINUOUS
 62
     5
 10
-91.156960325906766
 20
-316.51050080775423
 30
0.0
 40
3.4054923388811358
 50
25.78481696210071
 51
90.0
  0
ARC
  8
DETAIL
  6
CONTINUOUS
 62
     5
 10
-95.153473344103077
 20
-311.50242326332813
 30
0.0
 40
1.6025848142164709
 50
180.0
 51
270.0
  0
ARC
  8
DETAIL
  6
CONTINUOUS
 62
     5
 10
258.41767873011008
 20
-34.510142750021828
 30
0.0
 40
14.47783259871489
 50
90.003472443603599
 51
95.300945957096218
  0
ARC
  8
DETAIL
  6
CONTINUOUS
 62
     5
 10
76.112828255676504
 20
-329.23101777059782
 30
0.0
 40
4.607431340872381
 50
270.0
 51
334.21519330550427
  0
ARC
  8
DETAIL
  6
CONTINUOUS
 62
     5
 10
83.634894991922692
 20
-271.43780290791608
 30
0.0
 40
6.0096930533117927
 50
0.0
 51
90.0
  0
ARC
  8
DETAIL
  6
CONTINUOUS
 62
     5
 10
91.156960533218353
 20
-316.51050080775423
 30
0.0
 40
3.4054923947853522
 50
90.0
 51
154.2151845554998
  0
ARC
  8
DETAIL
  6
CONTINUOUS
 62
     5
 10
95.153473344103645
 20
-311.50242326332813
 30
0.0
 40
1.6025848142166981
 50
270.0
 51
0.0
  0
LINE
  8
DETAIL
  6
CONTINUOUS
 62
     5
 10
228.96930533117961
 20
-79.528271405492774
 30
0.0
 11
228.98357609541611
 21
-77.961598541129092
 31
0.0
  0
LINE
  8
DETAIL
  6
CONTINUOUS
 62
     5
 10
228.98357609541611
 20
-77.961598541129092
 30
0.0
 11
229.0104348185624
 21
-76.398858214038796
 31
0.0
  0
LINE
  8
DETAIL
  6
CONTINUOUS
 62
     5
 10
229.0104348185624
 20
-76.398858214038796
 30
0.0
 11
229.0104348185624
 21
-76.398858214038796
 31
0.0
  0
LINE
  8
DETAIL
  6
CONTINUOUS
 62
     5
 10
229.0104348185624
 20
-76.398858214038796
 30
0.0
 11
229.06011546007059
 21
-74.841129407963876
 31
0.0
  0
LINE
  8
DETAIL
  6
CONTINUOUS
 62
     5
 10
229.06011546007059
 20
-74.841129407963876
 30
0.0
 11
229.13343598155851
 21
-73.278076892522108
 31
0.0
  0
LINE
  8
DETAIL
  6
CONTINUOUS
 62
     5
 10
229.13343598155851
 20
-73.278076892522108
 30
0.0
 11
229.13343598155851
 21
-73.278076892522108
 31
0.0
  0
LINE
  8
DETAIL
  6
CONTINUOUS
 62
     5
 10
229.13343598155851
 20
-73.278076892522108
 30
0.0
 11
229.227969764976
 21
-71.707926097950917
 31
0.0
  0
LINE
  8
DETAIL
  6
CONTINUOUS
 62
     5
 10
229.227969764976
 20
-71.707926097950917
 30
0.0
 11
229.33772787143769
 21
-70.174559311083271
 31
0.0
  0
LINE
  8
DETAIL
  6
CONTINUOUS
 62
     5
 10
229.33772787143769
 20
-70.174559311083271
 30
0.0
 11
229.33772787143769
 21
-70.174559311083271
 31
0.0
  0
LINE
  8
DETAIL
  6
CONTINUOUS
 62
     5
 10
229.33772787143769
 20
-70.174559311083271
 30
0.0
 11
229.46174710214271
 21
-68.690469729836536
 31
0.0
  0
LINE
  8
DETAIL
  6
CONTINUOUS
 62
     5
 10
229.46174710214271
 20
-68.690469729836536
 30
0.0
 11
229.62272953947081
 21
-67.09693733986262
 31
0.0
  0
LINE
  8
DETAIL
  6
CONTINUOUS
 62
     5
 10
229.62272953947081
 20
-67.09693733986262
 30
0.0
 11
229.62272953947081
 21
-67.09693733986262
 31
0.0
  0
LINE
  8
DETAIL
  6
CONTINUOUS
 62
     5
 10
229.62272953947081
 20
-67.09693733986262
 30
0.0
 11
229.82651888512601
 21
-65.352237821862104
 31
0.0
  0
LINE
  8
DETAIL
  6
CONTINUOUS
 62
     5
 10
229.82651888512601
 20
-65.352237821862104
 30
0.0
 11
229.98786003692851
 21
-64.053842849000944
 31
0.0
  0
LINE
  8
DETAIL
  6
CONTINUOUS
 62
     5
 10
229.98786003692851
 20
-64.053842849000944
 30
0.0
 11
229.98786003692851
 21
-64.053842849000944
 31
0.0
  0
LINE
  8
DETAIL
  6
CONTINUOUS
 62
     5
 10
229.98786003692851
 20
-64.053842849000944
 30
0.0
 11
230.03264293346601
 21
-63.705647533403983
 31
0.0
  0
LINE
  8
DETAIL
  6
CONTINUOUS
 62
     5
 10
230.03264293346601
 20
-63.705647533403983
 30
0.0
 11
230.0224364802809
 21
-63.798044750571187
 31
0.0
  0
LINE
  8
DETAIL
  6
CONTINUOUS
 62
     5
 10
230.0224364802809
 20
-63.798044750571187
 30
0.0
 11
230.0224364802809
 21
-63.798044750571187
 31
0.0
  0
LINE
  8
DETAIL
  6
CONTINUOUS
 62
     5
 10
230.0224364802809
 20
-63.798044750571187
 30
0.0
 11
230.03255083066779
 21
-63.729286180115082
 31
0.0
  0
LINE
  8
DETAIL
  6
CONTINUOUS
 62
     5
 10
230.03255083066779
 20
-63.729286180115082
 30
0.0
 11
230.0575821619768
 21
-63.54256095471726
 31
0.0
  0
LINE
  8
DETAIL
  6
CONTINUOUS
 62
     5
 10
230.0575821619768
 20
-63.54256095471726
 30
0.0
 11
230.0575821619768
 21
-63.54256095471726
 31
0.0
  0
LINE
  8
DETAIL
  6
CONTINUOUS
 62
     5
 10
230.0575821619768
 20
-63.54256095471726
 30
0.0
 11
230.07735184999839
 21
-63.399104049200901
 31
0.0
  0
LINE
  8
DETAIL
  6
CONTINUOUS
 62
     5
 10
230.07735184999839
 20
-63.399104049200901
 30
0.0
 11
230.0932960402298
 21
-63.287396353884901
 31
0.0
  0
LINE
  8
DETAIL
  6
CONTINUOUS
 62
     5
 10
230.0932960402298
 20
-63.287396353884901
 30
0.0
 11
230.0932960402298
 21
-63.287396353884901
 31
0.0
  0
LINE
  8
DETAIL
  6
CONTINUOUS
 62
     5
 10
230.0932960402298
 20
-63.287396353884901
 30
0.0
 11
230.11081829487401
 21
-63.164249959199537
 31
0.0
  0
LINE
  8
DETAIL
  6
CONTINUOUS
 62
     5
 10
230.11081829487401
 20
-63.164249959199537
 30
0.0
 11
230.12957707325259
 21
-63.032555840521013
 31
0.0
  0
LINE
  8
DETAIL
  6
CONTINUOUS
 62
     5
 10
230.12957707325259
 20
-63.032555840521013
 30
0.0
 11
230.12957707325259
 21
-63.032555840521013
 31
0.0
  0
LINE
  8
DETAIL
  6
CONTINUOUS
 62
     5
 10
230.12957707325259
 20
-63.032555840521013
 30
0.0
 11
230.14813596942179
 21
-62.903834330641637
 31
0.0
  0
LINE
  8
DETAIL
  6
CONTINUOUS
 62
     5
 10
230.14813596942179
 20
-62.903834330641637
 30
0.0
 11
230.16642421925869
 21
-62.778044307072491
 31
0.0
  0
LINE
  8
DETAIL
  6
CONTINUOUS
 62
     5
 10
-228.96930533117899
 20
-79.528271405492774
 30
0.0
 11
-228.98357609538741
 21
-77.961598541129092
 31
0.0
  0
LINE
  8
DETAIL
  6
CONTINUOUS
 62
     5
 10
-228.98357609538741
 20
-77.961598541129092
 30
0.0
 11
-229.0104348184872
 21
-76.398858214038796
 31
0.0
  0
LINE
  8
DETAIL
  6
CONTINUOUS
 62
     5
 10
-229.0104348184872
 20
-76.398858214038796
 30
0.0
 11
-229.0104348184872
 21
-76.398858214038796
 31
0.0
  0
LINE
  8
DETAIL
  6
CONTINUOUS
 62
     5
 10
-229.0104348184872
 20
-76.398858214038796
 30
0.0
 11
-229.06011545991601
 21
-74.841129407963876
 31
0.0
  0
LINE
  8
DETAIL
  6
CONTINUOUS
 62
     5
 10
-229.06011545991601
 20
-74.841129407963876
 30
0.0
 11
-229.13343598130231
 21
-73.278076892522108
 31
0.0
  0
LINE
  8
DETAIL
  6
CONTINUOUS
 62
     5
 10
-229.13343598130231
 20
-73.278076892522108
 30
0.0
 11
-229.13343598130231
 21
-73.278076892522108
 31
0.0
  0
LINE
  8
DETAIL
  6
CONTINUOUS
 62
     5
 10
-229.13343598130231
 20
-73.278076892522108
 30
0.0
 11
-229.22796976461009
 21
-71.707926097950917
 31
0.0
  0
LINE
  8
DETAIL
  6
CONTINUOUS
 62
     5
 10
-229.22796976461009
 20
-71.707926097950917
 30
0.0
 11
-229.337727870961
 21
-70.174559311083271
 31
0.0
  0
LINE
  8
DETAIL
  6
CONTINUOUS
 62
     5
 10
-229.337727870961
 20
-70.174559311083271
 30
0.0
 11
-229.337727870961
 21
-70.174559311083271
 31
0.0
  0
LINE
  8
DETAIL
  6
CONTINUOUS
 62
     5
 10
-229.337727870961
 20
-70.174559311083271
 30
0.0
 11
-229.4617471015614
 21
-68.690469729836536
 31
0.0
  0
LINE
  8
DETAIL
  6
CONTINUOUS
 62
     5
 10
-229.4617471015614
 20
-68.690469729836536
 30
0.0
 11
-229.6227295388002
 21
-67.09693733986262
 31
0.0
  0
LINE
  8
DETAIL
  6
CONTINUOUS
 62
     5
 10
-229.6227295388002
 20
-67.09693733986262
 30
0.0
 11
-229.6227295388002
 21
-67.09693733986262
 31
0.0
  0
LINE
  8
DETAIL
  6
CONTINUOUS
 62
     5
 10
-229.6227295388002
 20
-67.09693733986262
 30
0.0
 11
-229.8265188843902
 21
-65.352237821862104
 31
0.0
  0
LINE
  8
DETAIL
  6
CONTINUOUS
 62
     5
 10
-229.8265188843902
 20
-65.352237821862104
 30
0.0
 11
-229.98786003615621
 21
-64.053842849000944
 31
0.0
  0
LINE
  8
DETAIL
  6
CONTINUOUS
 62
     5
 10
-229.98786003615621
 20
-64.053842849000944
 30
0.0
 11
-229.98786003615621
 21
-64.053842849000944
 31
0.0
  0
LINE
  8
DETAIL
  6
CONTINUOUS
 62
     5
 10
-229.98786003615621
 20
-64.053842849000944
 30
0.0
 11
-230.03264293268739
 21
-63.705647533403983
 31
0.0
  0
LINE
  8
DETAIL
  6
CONTINUOUS
 62
     5
 10
-230.03264293268739
 20
-63.705647533403983
 30
0.0
 11
-230.02243647951261
 21
-63.798044750571187
 31
0.0
  0
LINE
  8
DETAIL
  6
CONTINUOUS
 62
     5
 10
-230.02243647951261
 20
-63.798044750571187
 30
0.0
 11
-230.02243647951261
 21
-63.798044750571187
 31
0.0
  0
LINE
  8
DETAIL
  6
CONTINUOUS
 62
     5
 10
-230.02243647951261
 20
-63.798044750571187
 30
0.0
 11
-230.0325508299151
 21
-63.729286180115082
 31
0.0
  0
LINE
  8
DETAIL
  6
CONTINUOUS
 62
     5
 10
-230.0325508299151
 20
-63.729286180115082
 30
0.0
 11
-230.05758216125079
 21
-63.54256095471726
 31
0.0
  0
LINE
  8
DETAIL
  6
CONTINUOUS
 62
     5
 10
-230.05758216125079
 20
-63.54256095471726
 30
0.0
 11
-230.05758216125079
 21
-63.54256095471726
 31
0.0
  0
LINE
  8
DETAIL
  6
CONTINUOUS
 62
     5
 10
-230.05758216125079
 20
-63.54256095471726
 30
0.0
 11
-230.07735184931931
 21
-63.399104049200901
 31
0.0
  0
LINE
  8
DETAIL
  6
CONTINUOUS
 62
     5
 10
-230.07735184931931
 20
-63.399104049200901
 30
0.0
 11
-230.0932960396207
 21
-63.287396353884901
 31
0.0
  0
LINE
  8
DETAIL
  6
CONTINUOUS
 62
     5
 10
-230.0932960396207
 20
-63.287396353884901
 30
0.0
 11
-230.0932960396207
 21
-63.287396353884901
 31
0.0
  0
LINE
  8
DETAIL
  6
CONTINUOUS
 62
     5
 10
-230.0932960396207
 20
-63.287396353884901
 30
0.0
 11
-230.11081829436139
 21
-63.164249959199537
 31
0.0
  0
LINE
  8
DETAIL
  6
CONTINUOUS
 62
     5
 10
-230.11081829436139
 20
-63.164249959199537
 30
0.0
 11
-230.1295770728731
 21
-63.032555840521013
 31
0.0
  0
LINE
  8
DETAIL
  6
CONTINUOUS
 62
     5
 10
-230.1295770728731
 20
-63.032555840521013
 30
0.0
 11
-230.1295770728731
 21
-63.032555840521013
 31
0.0
  0
LINE
  8
DETAIL
  6
CONTINUOUS
 62
     5
 10
-230.1295770728731
 20
-63.032555840521013
 30
0.0
 11
-230.1481359692194
 21
-62.903834330641637
 31
0.0
  0
LINE
  8
DETAIL
  6
CONTINUOUS
 62
     5
 10
-230.1481359692194
 20
-62.903834330641637
 30
0.0
 11
-230.166424219258
 21
-62.778044307072491
 31
0.0
  0
LINE
  8
BASIS
  6
DASHDOT
 62
     6
 10
0.0
 20
-354.79681942199778
 30
0.0
 11
0.0
 21
67.550836764507949
 31
0.0
  0
ARC
  8
DETAIL
  6
CONTINUOUS
 62
     5
 10
-148.46219429825581
 20
-203.14005970295881
 30
0.0
 40
104.41329275229511
 50
178.45403413828609
 51
252.0798702056745
  0
ARC
  8
DETAIL
  6
CONTINUOUS
 62
     5
 10
-159.5680659751705
 20
-202.98717489809931
 30
0.0
 40
70.6488362865
 50
177.8389404325427
 51
252.68983893284371
  0
ARC
  8
DETAIL
  6
CONTINUOUS
 62
     5
 10
-243.73429196530921
 20
-6.2766739413104924
 30
0.0
 40
3.925367398809831
 50
187.72578848804929
 51
252.29687138193091
  0
ARC
  8
DETAIL
  6
CONTINUOUS
 62
     5
 10
-257.19650745306348
 20
-8.7613788817661771
 30
0.0
 40
9.7704783813302853
 50
11.554396913555919
 51
36.114613530430773
  0
ARC
  8
DETAIL
  6
CONTINUOUS
 62
     5
 10
-244.5155540864944
 20
-8.1431624491212915
 30
0.0
 40
6.3935755923847131
 50
193.47100386315671
 51
266.30187372724311
  0
ARC
  8
DETAIL
  6
CONTINUOUS
 62
     5
 10
-255.78636746278431
 20
-9.7752588317398477
 30
0.0
 40
5.0551525301127214
 50
1.6175079109635251
 51
67.401512215018101
  0
ARC
  8
DETAIL
  6
CONTINUOUS
 62
     5
 10
-305.57095920365828
 20
-9.9832076833920382
 30
0.0
 40
5.3693893257050949
 50
0.2075226331526996
 51
65.147224156714131
  0
ARC
  8
DETAIL
  6
CONTINUOUS
 62
     5
 10
158.80515355727479
 20
-202.44771435395299
 30
0.0
 40
71.393122061050477
 50
287.76588396731211
 51
1.7053366673070911
  0
ARC
  8
DETAIL
  6
CONTINUOUS
 62
     5
 10
243.73429196530921
 20
-6.2766739413104924
 30
0.0
 40
3.925367398809831
 50
287.70312861806912
 51
352.27421151195068
  0
ARC
  8
DETAIL
  6
CONTINUOUS
 62
     5
 10
257.19650745306348
 20
-8.7613788817661771
 30
0.0
 40
9.7704783813302853
 50
143.88538646956931
 51
168.44560308644409
  0
ARC
  8
DETAIL
  6
CONTINUOUS
 62
     5
 10
255.78636746278431
 20
-9.7752588317398477
 30
0.0
 40
5.0551525301127214
 50
112.5984877849819
 51
178.3824920890365
  0
ARC
  8
DETAIL
  6
CONTINUOUS
 62
     5
 10
305.57095920365828
 20
-9.9832076833920382
 30
0.0
 40
5.3693893257050949
 50
114.8527758432859
 51
179.79247736684729
  0
ARC
  8
DETAIL
  6
CONTINUOUS
 62
     5
 10
148.4621942982576
 20
-203.14005970295881
 30
0.0
 40
104.41329275229511
 50
287.92012979432548
 51
1.5459658617139109
  0
ARC
  8
DETAIL
  6
CONTINUOUS
 62
     5
 10
-83.621238267007357
 20
-179.88893736717071
 30
0.0
 40
139.8536694581943
 50
161.37185176508311
 51
167.62888918327431
  0
ARC
  8
DETAIL
  6
CONTINUOUS
 62
     5
 10
-167.0351219864697
 20
-100.1151555096192
 30
0.0
 40
72.852527798934517
 50
223.11247674209531
 51
266.52549112310243
  0
ARC
  8
DETAIL
  6
CONTINUOUS
 62
     5
 10
-121.87820147056659
 20
628.30245420066512
 30
0.0
 40
802.66845208977702
 50
266.4592089568776
 51
273.30231231947698
  0
ARC
  8
DETAIL
  6
CONTINUOUS
 62
     5
 10
-75.976456051865171
 20
-168.51970692380519
 30
0.0
 40
4.5169518283931849
 50
274.61367172477532
 51
29.07260259433847
  0
ARC
  8
DETAIL
  6
CONTINUOUS
 62
     5
 10
28.853520025648319
 20
-124.61434221106011
 30
0.0
 40
109.1648830211207
 50
195.28370601802121
 51
202.46302541999569
  0
ARC
  8
DETAIL
  6
CONTINUOUS
 62
     5
 10
-144.85180777907951
 20
-1068.6786663008249
 30
0.0
 40
917.84092475319505
 50
85.563753698634329
 51
85.726116674317751
  0
ARC
  8
DETAIL
  6
CONTINUOUS
 62
     5
 10
-209.07771330139801
 20
-27.704994879188689
 30
0.0
 40
184.7459282650554
 50
317.04825501429252
 51
324.41203123227348
  0
ARC
  8
DETAIL
  6
CONTINUOUS
 62
     5
 10
-373.77897592625737
 20
-426.72844922003941
 30
0.0
 40
482.94471882197428
 50
35.045494903549603
 51
37.039551407919561
  0
ARC
  8
DETAIL
  6
CONTINUOUS
 62
     5
 10
91.292033987088473
 20
-232.8038801316313
 30
0.0
 40
105.2781026756781
 50
138.6584359521066
 51
141.8394255847964
  0
ARC
  8
DETAIL
  6
CONTINUOUS
 62
     5
 10
-46.686516992898532
 20
915.33359428781614
 30
0.0
 40
1094.328254619335
 50
275.84931495375139
 51
276.03957831178758
  0
ARC
  8
DETAIL
  6
CONTINUOUS
 62
     5
 10
92.318415013874983
 20
64.511817288056591
 30
0.0
 40
238.7631526538822
 50
264.5875452382777
 51
272.33977267984091
  0
ARC
  8
DETAIL
  6
CONTINUOUS
 62
     5
 10
101.9101097873972
 20
-172.94543963290681
 30
0.0
 40
1.111069789468023
 50
280.48131238478561
 51
27.658485692629618
  0
ARC
  8
DETAIL
  6
CONTINUOUS
 62
     5
 10
-265.60483376053952
 20
-540.31009273653967
 30
0.0
 40
520.69118479532369
 50
44.94910976168817
 51
51.076814476249687
  0
ARC
  8
DETAIL
  6
CONTINUOUS
 62
     5
 10
-649.01040222248218
 20
584.0935831224383
 30
0.0
 40
1080.4668957560141
 50
317.15307332049122
 51
318.26066854234818
  0
ARC
  8
DETAIL
  6
CONTINUOUS
 62
     5
 10
-155.04004283875659
 20
-203.6423731999694
 30
0.0
 40
102.0940509136246
 50
178.1368771049689
 51
255.50761379440499
  0
ARC
  8
DETAIL
  6
CONTINUOUS
 62
     5
 10
-294.08563831569518
 20
-8.1611794570253551
 30
0.0
 40
6.3760761023435499
 50
196.4220138705376
 51
266.22548466020612
  0
ARC
  8
DETAIL
  6
CONTINUOUS
 62
     5
 10
294.085638315697
 20
-8.1611794570253551
 30
0.0
 40
6.3760761023435499
 50
273.77451533979388
 51
343.57798612946232
  0
ARC
  8
DETAIL
  6
CONTINUOUS
 62
     5
 10
155.04004283875841
 20
-203.6423731999694
 30
0.0
 40
102.0940509136246
 50
284.49238620559493
 51
1.8631228950311269
  0
ARC
  8
DETAIL
  6
CONTINUOUS
 62
     5
 10
145.5683581914916
 20
-1167.901228288016
 30
0.0
 40
883.29556345584683
 50
88.734797509336516
 51
92.873091442804082
  0
ARC
  8
DETAIL
  6
CONTINUOUS
 62
     5
 10
174.15648843644351
 20
-1422.491413196638
 30
0.0
 40
1130.0537655017861
 50
90.247180135567788
 51
93.618833069520448
  0
ARC
  8
DETAIL
  6
CONTINUOUS
 62
     5
 10
160.40058763514841
 20
-211.18915837381499
 30
-35.211267973180412
 40
73.779864183372737
 50
273.62987783661129
 51
0.649056628225096
  0
ARC
  8
DETAIL
  6
CONTINUOUS
 62
     5
 10
161.18287831884831
 20
-211.67091462519929
 30
0.0
 40
81.182195666770838
 50
275.72514915372221
 51
0.4651664745487446
  0
ARC
  8
DETAIL
  6
CONTINUOUS
 62
     5
 10
-1148.5035666695751
 20
-16.169647571289261
 30
0.0
 40
1390.8151458385689
 50
357.16271043032248
 51
359.90871696649032
  0
ARC
  8
DETAIL
  6
CONTINUOUS
 62
     5
 10
-1096.5893254704231
 20
-18.169976624216361
 30
0.0
 40
1347.078210568116
 50
357.155756298288
 51
359.97508792381609
  0
ARC
  8
DETAIL
  6
CONTINUOUS
 62
     5
 10
246.3862664981198
 20
-18.652293668729499
 30
0.0
 40
4.1009629367367211
 50
111.3059807304527
 51
49.965162232639038
  0
ARC
  8
DETAIL
  6
CONTINUOUS
 62
     5
 10
375.28166023417361
 20
-1286.064695057574
 30
0.0
 40
1037.191760760506
 50
105.3172141697388
 51
107.2319071648075
  0
ARC
  8
DETAIL
  6
CONTINUOUS
 62
     5
 10
4835.1909649799827
 20
-377.09758992395899
 30
0.0
 40
4604.0357224902309
 50
176.40478248030419
 51
177.92446680141009
  0
ARC
  8
DETAIL
  6
CONTINUOUS
 62
     5
 10
3958.524506595541
 20
-340.31723484136609
 30
0.0
 40
3718.4110452565801
 50
176.11519938080869
 51
178.00717352033001
  0
CIRCLE
  8
DETAIL
  6
CONTINUOUS
 62
     5
 10
246.40673039957261
 20
-15.01566415866046
 30
0.0
 40
1.5019551727974541
  0
CIRCLE
  8
DETAIL
  6
CONTINUOUS
 62
     5
 10
248.5165894983038
 20
-12.94845141174574
 30
0.0
 40
1.5019551727974541
  0
ARC
  8
DETAIL
  6
CONTINUOUS
 62
     5
 10
246.3949919224558
 20
-20.17327307205915
 30
0.0
 40
1.5066089650217871
 50
174.6313762389893
 51
5.3686237610107144
  0
ARC
  8
DETAIL
  6
CONTINUOUS
 62
     5
 10
41.100373810592153
 20
-388.08254432653138
 30
0.0
 40
235.17920673015499
 50
90.332644577935937
 51
93.883253422199999
  0
ARC
  8
DETAIL
  6
CONTINUOUS
 62
     5
 10
32.343492332844903
 20
-108.2477518314809
 30
0.0
 40
45.267091832019752
 50
279.39770063855798
 51
289.8911632073428
  0
ARC
  8
DETAIL
  6
CONTINUOUS
 62
     5
 10
-403.21428760592403
 20
-440.17084206249751
 30
0.0
 40
535.8091561379922
 50
32.33446570447807
 51
32.686136807615583
  0
ARC
  8
DETAIL
  6
CONTINUOUS
 62
     5
 10
71.200570710033162
 20
-322.59570027169212
 30
0.0
 40
170.39401851878611
 50
95.580160457168432
 51
97.312573389347762
  0
ARC
  8
DETAIL
  6
CONTINUOUS
 62
     5
 10
-34.920273053496203
 20
-208.7756855678708
 30
0.0
 40
105.5038532353806
 50
23.20007753883975
 51
31.91123164129597
  0
ARC
  8
DETAIL
  6
CONTINUOUS
 62
     5
 10
70.993613402894084
 20
-163.62768867220711
 30
0.0
 40
9.6337042534304196
 50
201.8501534150044
 51
262.86567730951441
  0
ARC
  8
DETAIL
  6
CONTINUOUS
 62
     5
 10
69.776638468692113
 20
-24.646860822154508
 30
0.0
 40
145.83077056568669
 50
281.16604775909968
 51
300.21203761960459
  0
ARC
  8
DETAIL
  6
CONTINUOUS
 62
     5
 10
62.910952963267619
 20
-295.22039042387479
 30
0.0
 40
11.3505612319756
 50
8.4473001508450416
 51
13.47600493972149
  0
ARC
  8
DETAIL
  6
CONTINUOUS
 62
     5
 10
65.663163742651307
 20
-294.50765998361612
 30
0.0
 40
8.5081893617082152
 50
13.12759436003244
 51
25.171320963673171
  0
ARC
  8
DETAIL
  6
CONTINUOUS
 62
     5
 10
69.09774616226332
 20
-292.86126408713977
 30
0.0
 40
4.6995900911437136
 50
24.814884717812671
 51
42.713507787132173
  0
ARC
  8
DETAIL
  6
CONTINUOUS
 62
     5
 10
71.04936906522272
 20
-290.96802907768648
 30
0.0
 40
1.98252207534938
 50
40.77064184026797
 51
87.02505750766646
  0
ARC
  8
DETAIL
  6
CONTINUOUS
 62
     5
 10
71.254584263562208
 20
-290.96805848759521
 30
0.0
 40
1.9825220753490449
 50
92.958520086408001
 51
139.21293575381969
  0
ARC
  8
DETAIL
  6
CONTINUOUS
 62
     5
 10
73.205664437774374
 20
-292.86185280329278
 30
0.0
 40
4.6995900911428832
 50
137.2700698069502
 51
155.1686928762748
  0
ARC
  8
DETAIL
  6
CONTINUOUS
 62
     5
 10
76.639774817994862
 20
-294.5092330694992
 30
0.0
 40
8.5081893617051048
 50
154.81225663040891
 51
166.8559832340506
  0
ARC
  8
DETAIL
  6
CONTINUOUS
 62
     5
 10
80.352430683447267
 20
-295.40999374750839
 30
0.0
 40
12.328455857084419
 50
166.7030537862027
 51
180.08741134601439
  0
ARC
  8
DETAIL
  6
CONTINUOUS
 62
     5
 10
113.6058730257103
 20
-383.5164897441453
 30
0.0
 40
89.476911555445724
 50
96.917599596848177
 51
114.3313147665455
  0
ARC
  8
DETAIL
  6
CONTINUOUS
 62
     5
 10
244.5155540864944
 20
-8.1431624491212915
 30
0.0
 40
6.3935755923847131
 50
323.16542038651937
 51
346.52899613684332
  0
ARC
  8
DETAIL
  6
CONTINUOUS
 62
     5
 10
240.58456146738149
 20
-10.53663711788283
 30
0.0
 40
9.7960327110915397
 50
318.35354928995758
 51
343.50892699825908
  0
ARC
  8
OUTLINE
  6
CONTINUOUS
 62
     3
 10
-155.04004283875531
 20
-203.64237320000831
 30
0.0
 40
102.0940509136246
 50
178.1368771049689
 51
255.50761379440499
  0
ARC
  8
OUTLINE
  6
CONTINUOUS
 62
     3
 10
-294.08563831569393
 20
-8.161179457064236
 30
0.0
 40
6.3760761023435499
 50
196.4220138705376
 51
266.22548466020612
  0
ARC
  8
OUTLINE
  6
CONTINUOUS
 62
     3
 10
294.08563831569808
 20
-8.161179457064236
 30
0.0
 40
6.3760761023435499
 50
273.77451533979388
 51
343.57798612946232
  0
ARC
  8
OUTLINE
  6
CONTINUOUS
 62
     3
 10
155.04004283875969
 20
-203.64237320000831
 30
0.0
 40
102.0940509136246
 50
284.49238620559493
 51
1.8631228950311269
  0
LINE
  8
DETAIL
  6
CONTINUOUS
 62
     5
 10
68.023989173622397
 20
-295.42880222715257
 30
0.0
 11
68.023989173622397
 21
-301.46208513056558
 31
0.0
  0
ENDSEC
  0
EOF
