  0
SECTION
  2
HEADER
  9
$ACADVER
  1
AC1009
  9
$DWGCODEPAGE
  3
dos932
  9
$INSBASE
 10
0.0
 20
0.0
 30
0.0
  9
$EXTMIN
 10
-634.46043266968445
 20
-407.27232711770739
 30
-0.0015258207003583
  9
$EXTMAX
 10
976.16273123556857
 20
558.83789860973775
 30
0.0000000349246037
  9
$LIMMIN
 10
-2970.0
 20
-2100.0
  9
$LIMMAX
 10
2970.0
 20
2100.0
  9
$ORTHOMODE
 70
     1
  9
$REGENMODE
 70
     1
  9
$FILLMODE
 70
     1
  9
$QTEXTMODE
 70
     0
  9
$MIRRTEXT
 70
     0
  9
$LTSCALE
 40
20.0
  9
$ATTMODE
 70
     1
  9
$TEXTSIZE
 40
64.0
  9
$TRACEWID
 40
0.05
  9
$TEXTSTYLE
  7
STANDARD
  9
$CLAYER
  8
SIZE
  9
$CELTYPE
  6
CONTINUOUS
  9
$CECOLOR
 62
     7
  9
$DIMSCALE
 40
1.0
  9
$DIMASZ
 40
12.0
  9
$DIMEXO
 40
20.0
  9
$DIMDLI
 40
200.0
  9
$DIMRND
 40
0.0
  9
$DIMDLE
 40
0.0
  9
$DIMEXE
 40
20.0
  9
$DIMTP
 40
0.0
  9
$DIMTM
 40
0.0
  9
$DIMTXT
 40
64.0
  9
$DIMCEN
 40
0.09
  9
$DIMTSZ
 40
0.0
  9
$DIMTOL
 70
     0
  9
$DIMLIM
 70
     0
  9
$DIMTIH
 70
     0
  9
$DIMTOH
 70
     0
  9
$DIMSE1
 70
     0
  9
$DIMSE2
 70
     0
  9
$DIMTAD
 70
     1
  9
$DIMZIN
 70
     8
  9
$DIMBLK
  1

  9
$DIMASO
 70
     1
  9
$DIMSHO
 70
     0
  9
$DIMPOST
  1

  9
$DIMAPOST
  1

  9
$DIMALT
 70
     0
  9
$DIMALTD
 70
     2
  9
$DIMALTF
 40
25.399999999999999
  9
$DIMLFAC
 40
1.0
  9
$DIMTOFL
 70
     1
  9
$DIMTVP
 40
0.0
  9
$DIMTIX
 70
     1
  9
$DIMSOXD
 70
     0
  9
$DIMSAH
 70
     0
  9
$DIMBLK1
  1

  9
$DIMBLK2
  1

  9
$DIMSTYLE
  2
STANDARD
  9
$DIMCLRD
 70
     7
  9
$DIMCLRE
 70
     7
  9
$DIMCLRT
 70
     7
  9
$DIMTFAC
 40
1.0
  9
$DIMGAP
 40
25.0
  9
$LUNITS
 70
     2
  9
$LUPREC
 70
     4
  9
$SKETCHINC
 40
0.1
  9
$FILLETRAD
 40
3.0
  9
$AUNITS
 70
     1
  9
$AUPREC
 70
     3
  9
$MENU
  1
ACAD
  9
$ELEVATION
 40
0.0
  9
$PELEVATION
 40
0.0
  9
$THICKNESS
 40
0.0
  9
$LIMCHECK
 70
     0
  9
$CHAMFERA
 40
0.0
  9
$CHAMFERB
 40
0.0
  9
$SKPOLY
 70
     0
  9
$TDCREATE
 40
2453019.62301037
  9
$TDUPDATE
 40
2458949.453576169
  9
$TDINDWG
 40
1.7145877431
  9
$TDUSRTIMER
 40
1.7145877431
  9
$USRTIMER
 70
     1
  9
$ANGBASE
 50
0.0
  9
$ANGDIR
 70
     0
  9
$PDMODE
 70
     3
  9
$PDSIZE
 40
-2.0
  9
$PLINEWID
 40
0.0
  9
$SPLFRAME
 70
     0
  9
$SPLINETYPE
 70
     6
  9
$SPLINESEGS
 70
     8
  9
$SURFTAB1
 70
     6
  9
$SURFTAB2
 70
     6
  9
$SURFTYPE
 70
     6
  9
$SURFU
 70
     6
  9
$SURFV
 70
     6
  9
$UCSNAME
  2

  9
$UCSORG
 10
0.0
 20
0.0
 30
0.0
  9
$UCSXDIR
 10
1.0
 20
0.0
 30
0.0
  9
$UCSYDIR
 10
0.0
 20
1.0
 30
0.0
  9
$PUCSNAME
  2

  9
$PUCSORG
 10
0.0
 20
0.0
 30
0.0
  9
$PUCSXDIR
 10
1.0
 20
0.0
 30
0.0
  9
$PUCSYDIR
 10
0.0
 20
1.0
 30
0.0
  9
$USERI1
 70
     0
  9
$USERI2
 70
     0
  9
$USERI3
 70
     0
  9
$USERI4
 70
     0
  9
$USERI5
 70
     0
  9
$USERR1
 40
20.0
  9
$USERR2
 40
0.0
  9
$USERR3
 40
0.0
  9
$USERR4
 40
0.0
  9
$USERR5
 40
0.0
  9
$WORLDVIEW
 70
     1
  9
$SHADEDGE
 70
     3
  9
$SHADEDIF
 70
    70
  9
$TILEMODE
 70
     1
  9
$MAXACTVP
 70
    48
  9
$PINSBASE
 10
0.0
 20
0.0
 30
0.0
  9
$PLIMCHECK
 70
     0
  9
$PEXTMIN
 10
-100000000000000000000.0
 20
-100000000000000000000.0
 30
-100000000000000000000.0
  9
$PEXTMAX
 10
100000000000000000000.0
 20
100000000000000000000.0
 30
100000000000000000000.0
  9
$PLIMMIN
 10
0.0
 20
0.0
  9
$PLIMMAX
 10
12.0
 20
9.0
  9
$UNITMODE
 70
     0
  9
$VISRETAIN
 70
     0
  9
$PLINEGEN
 70
     0
  9
$PSLTSCALE
 70
     0
  9
$TREEDEPTH
 70
  3020
  9
$ATTDIA
 70
     0
  9
$ATTREQ
 70
     1
  9
$BLIPMODE
 70
     1
  9
$COORDS
 70
     1
  9
$DRAGMODE
 70
     2
  9
$OSMODE
 70
     0
  9
$HANDLING
 70
     0
  9
$HANDSEED
  5
125FF
  0
ENDSEC
  0
SECTION
  2
TABLES
  0
TABLE
  2
LTYPE
 70
     2
  0
LTYPE
  2
CONTINUOUS
 70
     0
  3
実線
 72
    65
 73
     0
 40
0.0
  0
LTYPE
  2
DASHDOT
 70
     0
  3
____ _ ____ _ ____ _ ____ _ ____ _ ____ _ ____
 72
    65
 73
     4
 40
5.5
 49
4.0
 49
-0.6
 49
0.3
 49
-0.6
  0
ENDTAB
  0
TABLE
  2
LAYER
 70
    12
  0
LAYER
  2
0
 70
     0
 62
     7
  6
CONTINUOUS
  0
LAYER
  2
BASIS
 70
     0
 62
     6
  6
DASHDOT
  0
LAYER
  2
OUTLINE
 70
     0
 62
     3
  6
CONTINUOUS
  0
LAYER
  2
DETAIL
 70
     0
 62
     5
  6
CONTINUOUS
  0
LAYER
  2
SIZE
 70
     0
 62
    30
  6
CONTINUOUS
  0
LAYER
  2
ARRANGE
 70
     0
 62
     1
  6
CONTINUOUS
  0
LAYER
  2
DEFPOINTS
 70
     0
 62
     7
  6
CONTINUOUS
  0
LAYER
  2
ETC
 70
     0
 62
    61
  6
CONTINUOUS
  0
LAYER
  2
FIX
 70
     0
 62
    11
  6
CONTINUOUS
  0
LAYER
  2
NOTE
 70
     0
 62
     4
  6
CONTINUOUS
  0
LAYER
  2
SERVICESPACE
 70
    64
 62
     2
  6
DASHDOT
  0
LAYER
  2
SYMBOLLINE
 70
    64
 62
    15
  6
CONTINUOUS
  0
ENDTAB
  0
TABLE
  2
STYLE
 70
     1
  0
STYLE
  2
STANDARD
 70
     0
 40
64.0
 41
0.9
 50
0.0
 71
     0
 42
64.0
  3
SIMPLEX.shx
  4
BIGFONT.shx
  0
ENDTAB
  0
TABLE
  2
APPID
 70
    19
  0
APPID
  2
ACAD
 70
     0
  0
APPID
  2
AUTOCAD_POSTSCRIPT_FIGURE
 70
     0
  0
APPID
  2
ACAD_EXEMPT_FROM_CAD_STANDARDS
 70
     0
  0
APPID
  2
ACAD_PSEXT
 70
     0
  0
APPID
  2
ACAUTHENVIRON
 70
     0
  0
APPID
  2
GENIUS_GENOENT_13
 70
     0
  0
APPID
  2
GENIUS_GENCFG_13
 70
     0
  0
APPID
  2
GENIUS_GENCFG0_13
 70
     0
  0
APPID
  2
GENIUS_GENCFG1_13
 70
     0
  0
APPID
  2
GENIUS_GENCFG2_13
 70
     0
  0
APPID
  2
GENIUS_GENCFG3_13
 70
     0
  0
APPID
  2
GENIUS_GENCFG4_13
 70
     0
  0
APPID
  2
GENIUS_GEVCFG0_13
 70
     0
  0
APPID
  2
CONTENTBLOCKICON
 70
     0
  0
APPID
  2
CONTENTBLOCKDESCRIPTION
 70
     0
  0
APPID
  2
ACAD_NAV_VCDISPLAY
 70
     0
  0
APPID
  2
ACAD_MLEADERVER
 70
     0
  0
APPID
  2
ACDBDYNAMICBLOCKTRUENAME
 70
     0
  0
APPID
  2
ACDBDYNAMICBLOCKGUID
 70
     0
  0
ENDTAB
  0
TABLE
  2
DIMSTYLE
 70
     1
  0
DIMSTYLE
  2
STANDARD
 70
     0
  3

  4

  5
_ORIGIN
  6

  7

 40
1.0
 41
12.0
 42
20.0
 43
200.0
 44
20.0
 45
0.0
 46
0.0
 47
0.0
 48
0.0
140
64.0
141
0.09
142
0.0
143
25.399999999999999
144
1.0
145
0.0
146
1.0
147
25.0
 71
     0
 72
     0
 73
     0
 74
     0
 75
     0
 76
     0
 77
     1
 78
     8
170
     0
171
     2
172
     1
173
     0
174
     1
175
     0
176
     7
177
     7
178
     7
  0
ENDTAB
  0
TABLE
  2
VIEW
 70
     1
  0
VIEW
  2
ALL
 70
     0
 40
4282.6198079999986
 10
0.0
 20
41.309904000000003
 41
5940.0
 11
0.0
 21
0.0
 31
1.0
 12
0.0
 22
0.0
 32
0.0
 42
50.0
 43
0.0
 44
0.0
 50
0.0
 71
     0
  0
ENDTAB
  0
TABLE
  2
UCS
 70
     0
  0
ENDTAB
  0
TABLE
  2
VPORT
 70
     1
  0
VPORT
  2
*ACTIVE
 70
     0
 10
0.0
 20
0.0
 11
1.0
 21
1.0
 12
170.85114928294209
 22
75.782785746015179
 13
0.0
 23
0.0
 14
1.0
 24
1.0
 15
0.0
 25
0.0
 16
0.0
 26
0.0
 36
1.0
 17
0.0
 27
0.0
 37
0.0
 40
972.51537639525145
 41
1.747787610619469
 42
50.0
 43
0.0
 44
0.0
 50
0.0
 51
0.0
 71
     0
 72
  1000
 73
     1
 74
     3
 75
     0
 76
     0
 77
     0
 78
     0
  0
ENDTAB
  0
ENDSEC
  0
SECTION
  2
BLOCKS
  0
BLOCK
  8
0
  2
_ORIGIN
 70
     0
 10
0.0
 20
0.0
 30
0.0
  3
_ORIGIN
  1
_ORIGIN
  0
CIRCLE
  8
0
  6
CONTINUOUS
 62
     7
 10
0.0
 20
0.0
 30
0.0
 40
0.5
  0
LINE
  8
0
  6
CONTINUOUS
 62
     7
 10
0.0
 20
0.0
 30
0.0
 11
-1.0
 21
0.0
 31
0.0
  0
ENDBLK
  8
0
  0
ENDSEC
  0
SECTION
  2
ENTITIES
  0
CIRCLE
  8
ARRANGE
  6
CONTINUOUS
 62
     1
 10
0.0
 20
0.0
 30
0.0
 40
39.999999999999993
  0
TEXT
  8
ETC
  6
CONTINUOUS
 62
    61
 10
344.87539504366401
 20
494.56101113953292
 30
0.0
 40
64.0
  1
EWG-45DSA2_6
 41
0.9
  0
TEXT
  8
ETC
  6
CONTINUOUS
 62
    61
 10
340.68940104366362
 20
376.60570112470168
 30
0.0
 40
64.0
  1
産業扇
 41
0.9
  0
TEXT
  8
ETC
  6
CONTINUOUS
 62
    61
 10
391.39079929221953
 20
268.45692823847639
 30
0.0
 40
40.0
  1
EWG-45DSA2
 41
0.9
  0
LINE
  8
SIZE
  6
CONTINUOUS
 62
    30
 10
-309.99999804575413
 20
18.5
 30
0.0
 11
-309.99999804575413
 21
264.96668498765212
 31
0.0
  0
LINE
  8
SIZE
  6
CONTINUOUS
 62
    30
 10
309.9912903893736
 20
18.659116781001391
 30
0.0
 11
309.9912903893736
 21
264.96668498765212
 31
0.0
  0
LINE
  8
SIZE
  6
CONTINUOUS
 62
    30
 10
-297.99999804575413
 20
244.96668498765209
 30
0.0
 11
297.9912903893736
 21
244.96668498765209
 31
0.0
  0
CIRCLE
  8
SIZE
  6
CONTINUOUS
 62
    30
 10
-309.99999804575413
 20
244.96668498765209
 30
0.0
 40
6.0
  0
LINE
  8
SIZE
  6
CONTINUOUS
 62
    30
 10
-309.99999804575413
 20
244.96668498765209
 30
0.0
 11
-297.99999804575413
 21
244.96668498765209
 31
0.0
  0
CIRCLE
  8
SIZE
  6
CONTINUOUS
 62
    30
 10
309.9912903893736
 20
244.96668498765209
 30
0.0
 40
6.0
  0
LINE
  8
SIZE
  6
CONTINUOUS
 62
    30
 10
309.9912903893736
 20
244.96668498765209
 30
0.0
 11
297.9912903893736
 21
244.96668498765209
 31
0.0
  0
TEXT
  8
SIZE
  6
CONTINUOUS
 62
    30
 10
-74.057142857371474
 20
269.96668498765212
 30
0.0
 40
64.0
  1
620
 41
0.9
 72
     1
 11
-0.0000000002286242
 21
269.96668498765212
 31
0.0
  0
POINT
  8
DEFPOINTS
  6
CONTINUOUS
 62
    30
 10
-309.99999804575413
 20
-1.5
 30
0.0
  0
POINT
  8
DEFPOINTS
  6
CONTINUOUS
 62
    30
 10
309.9912903893736
 20
-1.3408832189986131
 30
0.0
  0
POINT
  8
DEFPOINTS
  6
CONTINUOUS
 62
    30
 10
309.9912903893736
 20
244.96668498765209
 30
0.0
  0
LINE
  8
SIZE
  6
CONTINUOUS
 62
    30
 10
-280.45234248788398
 20
42.799048810987642
 30
0.0
 11
-280.45234248788398
 21
151.39419561661629
 31
0.0
  0
LINE
  8
SIZE
  6
CONTINUOUS
 62
    30
 10
280.4523424878837
 20
42.799048810987642
 30
0.0
 11
280.4523424878837
 21
151.39419561661629
 31
0.0
  0
LINE
  8
SIZE
  6
CONTINUOUS
 62
    30
 10
-268.45234248788398
 20
131.39419561661629
 30
0.0
 11
268.4523424878837
 21
131.39419561661629
 31
0.0
  0
CIRCLE
  8
SIZE
  6
CONTINUOUS
 62
    30
 10
-280.45234248788398
 20
131.39419561661629
 30
0.0
 40
6.0
  0
LINE
  8
SIZE
  6
CONTINUOUS
 62
    30
 10
-280.45234248788398
 20
131.39419561661629
 30
0.0
 11
-268.45234248788398
 21
131.39419561661629
 31
0.0
  0
CIRCLE
  8
SIZE
  6
CONTINUOUS
 62
    30
 10
280.4523424878837
 20
131.39419561661629
 30
0.0
 40
6.0
  0
LINE
  8
SIZE
  6
CONTINUOUS
 62
    30
 10
280.4523424878837
 20
131.39419561661629
 30
0.0
 11
268.4523424878837
 21
131.39419561661629
 31
0.0
  0
TEXT
  8
SIZE
  6
CONTINUOUS
 62
    30
 10
-74.057142857142964
 20
156.39419561661629
 30
0.0
 40
64.0
  1
560
 41
0.9
 72
     1
 11
-0.0000000000001137
 21
156.39419561661629
 31
0.0
  0
POINT
  8
DEFPOINTS
  6
CONTINUOUS
 62
    30
 10
-280.45234248788398
 20
22.799048810987639
 30
0.0
  0
POINT
  8
DEFPOINTS
  6
CONTINUOUS
 62
    30
 10
280.4523424878837
 20
22.799048810987639
 30
0.0
  0
POINT
  8
DEFPOINTS
  6
CONTINUOUS
 62
    30
 10
280.4523424878837
 20
131.39419561661629
 30
0.0
  0
CIRCLE
  8
FIX
  6
CONTINUOUS
 62
    11
 10
-280.45234248788398
 20
0.0
 30
0.0
 40
7.0
  0
CIRCLE
  8
FIX
  6
CONTINUOUS
 62
    11
 10
280.4523424878837
 20
0.0
 30
0.0
 40
7.0
  0
LINE
  8
SIZE
  6
CONTINUOUS
 62
    30
 10
328.49757673667199
 20
0.0
 30
0.0
 11
464.68468251126211
 21
-0.0000000000000568
 31
0.0
  0
LINE
  8
SIZE
  6
CONTINUOUS
 62
    30
 10
323.38933764135709
 20
-10.016155088853109
 30
0.0
 11
464.68468251126211
 21
-10.01615508885317
 31
0.0
  0
LINE
  8
SIZE
  6
CONTINUOUS
 62
    30
 10
444.68468251126211
 20
-22.016155088853171
 30
0.0
 11
444.68468251126211
 21
-34.016155088853168
 31
0.0
  0
LINE
  8
SIZE
  6
CONTINUOUS
 62
    30
 10
444.68468251126211
 20
11.99999999999994
 30
0.0
 11
444.68468251126211
 21
156.28571428571419
 31
0.0
  0
LINE
  8
SIZE
  6
CONTINUOUS
 62
    30
 10
444.68468251126211
 20
-10.01615508885317
 30
0.0
 11
444.68468251126211
 21
-0.0000000000000568
 31
0.0
  0
CIRCLE
  8
SIZE
  6
CONTINUOUS
 62
    30
 10
444.68468251126211
 20
-10.01615508885317
 30
0.0
 40
6.0
  0
LINE
  8
SIZE
  6
CONTINUOUS
 62
    30
 10
444.68468251126211
 20
-10.01615508885317
 30
0.0
 11
444.68468251126211
 21
-22.016155088853171
 31
0.0
  0
CIRCLE
  8
SIZE
  6
CONTINUOUS
 62
    30
 10
444.68468251126211
 20
-0.0000000000000568
 30
0.0
 40
6.0
  0
LINE
  8
SIZE
  6
CONTINUOUS
 62
    30
 10
444.68468251126211
 20
-0.0000000000000568
 30
0.0
 11
444.68468251126211
 21
11.99999999999994
 31
0.0
  0
TEXT
  8
SIZE
  6
CONTINUOUS
 62
    30
 10
419.68468251126211
 20
49.000000000000028
 30
0.0
 40
64.0
  1
10
 50
90.0
 41
0.9
 72
     1
 11
419.68468251126211
 21
90.142857142857167
 31
0.0
  0
POINT
  8
DEFPOINTS
  6
CONTINUOUS
 62
    30
 10
308.49757673667199
 20
0.0
 30
0.0
  0
POINT
  8
DEFPOINTS
  6
CONTINUOUS
 62
    30
 10
303.38933764135709
 20
-10.016155088853109
 30
0.0
  0
POINT
  8
DEFPOINTS
  6
CONTINUOUS
 62
    30
 10
444.68468251126211
 20
-10.01615508885317
 30
0.0
  0
LINE
  8
SIZE
  6
CONTINUOUS
 62
    30
 10
323.38933764135709
 20
-10.016155088853109
 30
0.0
 11
464.68468251126211
 21
-10.01615508885317
 31
0.0
  0
LINE
  8
SIZE
  6
CONTINUOUS
 62
    30
 10
313.37318255250398
 20
-20.032310177705991
 30
0.0
 11
464.68468251126211
 21
-20.032310177706041
 31
0.0
  0
LINE
  8
SIZE
  6
CONTINUOUS
 62
    30
 10
444.68468251126211
 20
1.9838449111468319
 30
0.0
 11
444.68468251126211
 21
13.98384491114683
 31
0.0
  0
LINE
  8
SIZE
  6
CONTINUOUS
 62
    30
 10
444.68468251126211
 20
-32.032310177706051
 30
0.0
 11
444.68468251126211
 21
-257.26694449511137
 31
0.0
  0
LINE
  8
SIZE
  6
CONTINUOUS
 62
    30
 10
444.68468251126211
 20
-10.01615508885317
 30
0.0
 11
444.68468251126211
 21
-20.032310177706041
 31
0.0
  0
CIRCLE
  8
SIZE
  6
CONTINUOUS
 62
    30
 10
444.68468251126211
 20
-10.01615508885317
 30
0.0
 40
6.0
  0
LINE
  8
SIZE
  6
CONTINUOUS
 62
    30
 10
444.68468251126211
 20
-10.01615508885317
 30
0.0
 11
444.68468251126211
 21
1.9838449111468319
 31
0.0
  0
CIRCLE
  8
SIZE
  6
CONTINUOUS
 62
    30
 10
444.68468251126211
 20
-20.032310177706041
 30
0.0
 40
6.0
  0
LINE
  8
SIZE
  6
CONTINUOUS
 62
    30
 10
444.68468251126211
 20
-20.032310177706041
 30
0.0
 11
444.68468251126211
 21
-32.032310177706051
 31
0.0
  0
TEXT
  8
SIZE
  6
CONTINUOUS
 62
    30
 10
419.68468251126211
 20
-232.2669444951112
 30
0.0
 40
64.0
  1
10
 50
90.0
 41
0.9
 72
     1
 11
419.68468251126211
 21
-191.12408735225409
 31
0.0
  0
POINT
  8
DEFPOINTS
  6
CONTINUOUS
 62
    30
 10
303.38933764135709
 20
-10.016155088853109
 30
0.0
  0
POINT
  8
DEFPOINTS
  6
CONTINUOUS
 62
    30
 10
293.37318255250398
 20
-20.032310177705991
 30
0.0
  0
POINT
  8
DEFPOINTS
  6
CONTINUOUS
 62
    30
 10
444.68468251126211
 20
-20.032310177706041
 30
0.0
  0
LINE
  8
SIZE
  6
CONTINUOUS
 62
    30
 10
328.49757673667199
 20
0.0
 30
0.0
 11
580.2573663708813
 21
-0.0000000000000568
 31
0.0
  0
LINE
  8
SIZE
  6
CONTINUOUS
 62
    30
 10
288.43295638126011
 20
-111.5799676898222
 30
0.0
 11
580.2573663708813
 21
-111.5799676898223
 31
0.0
  0
LINE
  8
SIZE
  6
CONTINUOUS
 62
    30
 10
560.2573663708813
 20
-12.00000000000006
 30
0.0
 11
560.2573663708813
 21
-99.579967689822269
 31
0.0
  0
LINE
  8
SIZE
  6
CONTINUOUS
 62
    30
 10
560.2573663708813
 20
-111.5799676898223
 30
0.0
 11
560.2573663708813
 21
-280.9058078722818
 31
0.0
  0
CIRCLE
  8
SIZE
  6
CONTINUOUS
 62
    30
 10
560.2573663708813
 20
-0.0000000000000568
 30
0.0
 40
6.0
  0
LINE
  8
SIZE
  6
CONTINUOUS
 62
    30
 10
560.2573663708813
 20
-0.0000000000000568
 30
0.0
 11
560.2573663708813
 21
-12.00000000000006
 31
0.0
  0
CIRCLE
  8
SIZE
  6
CONTINUOUS
 62
    30
 10
560.2573663708813
 20
-111.5799676898223
 30
0.0
 40
6.0
  0
LINE
  8
SIZE
  6
CONTINUOUS
 62
    30
 10
560.2573663708813
 20
-111.5799676898223
 30
0.0
 11
560.2573663708813
 21
-99.579967689822269
 31
0.0
  0
TEXT
  8
SIZE
  6
CONTINUOUS
 62
    30
 10
535.2573663708813
 20
-255.90580787228171
 30
0.0
 40
64.0
  1
111
 50
90.0
 41
0.9
 72
     1
 11
535.2573663708813
 21
-205.16295072942461
 31
0.0
  0
POINT
  8
DEFPOINTS
  6
CONTINUOUS
 62
    30
 10
308.49757673667199
 20
0.0
 30
0.0
  0
POINT
  8
DEFPOINTS
  6
CONTINUOUS
 62
    30
 10
268.43295638126011
 20
-111.5799676898222
 30
0.0
  0
POINT
  8
DEFPOINTS
  6
CONTINUOUS
 62
    30
 10
560.2573663708813
 20
-111.5799676898223
 30
0.0
  0
TEXT
  8
NOTE
  6
CONTINUOUS
 62
     4
 10
-627.3010470085336
 20
89.632665428528526
 30
0.0
 40
64.0
  1
4-φ14
 41
0.9
  0
LINE
  8
SIZE
  6
CONTINUOUS
 62
    30
 10
-328.49757673667199
 20
0.0
 30
0.0
 11
-383.81931770129682
 21
0.0
 31
0.0
  0
LINE
  8
SIZE
  6
CONTINUOUS
 62
    30
 10
-24.00646203554129
 20
-307.49596122778678
 30
0.0
 11
-383.81931770129682
 21
-307.49596122778661
 31
0.0
  0
LINE
  8
SIZE
  6
CONTINUOUS
 62
    30
 10
-363.81931770129682
 20
-12.0
 30
0.0
 11
-363.81931770129682
 21
-295.49596122778661
 31
0.0
  0
CIRCLE
  8
SIZE
  6
CONTINUOUS
 62
    30
 10
-363.81931770129682
 20
0.0
 30
0.0
 40
6.0
  0
LINE
  8
SIZE
  6
CONTINUOUS
 62
    30
 10
-363.81931770129682
 20
0.0
 30
0.0
 11
-363.81931770129682
 21
-12.0
 31
0.0
  0
CIRCLE
  8
SIZE
  6
CONTINUOUS
 62
    30
 10
-363.81931770129682
 20
-307.49596122778661
 30
0.0
 40
6.0
  0
LINE
  8
SIZE
  6
CONTINUOUS
 62
    30
 10
-363.81931770129682
 20
-307.49596122778661
 30
0.0
 11
-363.81931770129682
 21
-295.49596122778661
 31
0.0
  0
TEXT
  8
SIZE
  6
CONTINUOUS
 62
    30
 10
-388.81931770129682
 20
-227.80512347103621
 30
0.0
 40
64.0
  1
307
 50
90.0
 41
0.9
 72
     1
 11
-388.81931770129682
 21
-153.7479806138933
 31
0.0
  0
POINT
  8
DEFPOINTS
  6
CONTINUOUS
 62
    30
 10
-308.49757673667199
 20
0.0
 30
0.0
  0
POINT
  8
DEFPOINTS
  6
CONTINUOUS
 62
    30
 10
-4.0064620355412899
 20
-307.49596122778678
 30
0.0
  0
POINT
  8
DEFPOINTS
  6
CONTINUOUS
 62
    30
 10
-363.81931770129682
 20
-307.49596122778661
 30
0.0
  0
LINE
  8
DETAIL
  6
CONTINUOUS
 62
     4
 10
-283.21574112751608
 20
5.5631220774380381
 30
0.0
 11
-280.45234248788398
 21
0.0
 31
0.0
  0
LINE
  8
DETAIL
  6
CONTINUOUS
 62
     4
 10
-280.45234248788398
 20
0.0
 30
0.0
 11
-285.62708212732002
 21
3.436097925561739
 31
0.0
  0
LINE
  8
DETAIL
  6
CONTINUOUS
 62
     4
 10
-280.45234248788398
 20
0.0
 30
0.0
 11
-288.39048076695218
 21
8.9992200029997775
 31
0.0
  0
LINE
  8
NOTE
  6
CONTINUOUS
 62
     4
 10
-288.39048076695218
 20
8.9992200029997775
 30
0.0
 11
-336.55593536738547
 21
63.602894977615513
 31
0.0
  0
LINE
  8
NOTE
  6
CONTINUOUS
 62
     4
 10
-336.55593536738547
 20
63.602894977615513
 30
0.0
 11
-634.42449761241937
 21
63.764349826795858
 31
0.0
  0
ARC
  8
OUTLINE
  6
CONTINUOUS
 62
     3
 10
308.49757673667199
 20
-1.5024232633279551
 30
0.0
 40
1.5024232633279551
 50
270.0
 51
90.0
  0
ARC
  8
OUTLINE
  6
CONTINUOUS
 62
     3
 10
303.38933764135709
 20
-6.4103392568656554
 30
0.0
 40
3.6058158319872282
 50
270.0
 51
0.0
  0
ARC
  8
OUTLINE
  6
CONTINUOUS
 62
     3
 10
268.43295638126011
 20
-109.57673667205169
 30
0.0
 40
2.0032310177705308
 50
270.0
 51
90.0
  0
ARC
  8
OUTLINE
  6
CONTINUOUS
 62
     3
 10
293.37318255250398
 20
-16.42649434571922
 30
0.0
 40
3.605815831987115
 50
270.0
 51
0.0
  0
ARC
  8
OUTLINE
  6
CONTINUOUS
 62
     3
 10
4.0064620355410634
 20
-306.99515347334409
 30
0.0
 40
0.500807754442803
 50
270.0
 51
0.0
  0
ARC
  8
OUTLINE
  6
CONTINUOUS
 62
     3
 10
-308.49757673667199
 20
-1.5024232633279551
 30
0.0
 40
1.5024232633279551
 50
90.0
 51
270.0
  0
ARC
  8
OUTLINE
  6
CONTINUOUS
 62
     3
 10
-303.38933764135709
 20
-6.4103392568656554
 30
0.0
 40
3.605815831987115
 50
180.0
 51
270.0
  0
ARC
  8
OUTLINE
  6
CONTINUOUS
 62
     3
 10
-4.0064620355412899
 20
-306.99515347334409
 30
0.0
 40
0.5008077544427471
 50
180.0
 51
270.0
  0
ARC
  8
OUTLINE
  6
CONTINUOUS
 62
     3
 10
-268.43295638126028
 20
-109.57673667205169
 30
0.0
 40
2.0032310177707591
 50
90.0
 51
270.0
  0
ARC
  8
OUTLINE
  6
CONTINUOUS
 62
     3
 10
-293.3731825525042
 20
-16.42649434571922
 30
0.0
 40
3.605815831987115
 50
180.0
 51
270.0
  0
LINE
  8
OUTLINE
  6
CONTINUOUS
 62
     3
 10
306.99515347334409
 20
-3.0048465266560238
 30
0.0
 11
306.99515347334409
 21
-6.4103392568656554
 31
0.0
  0
LINE
  8
OUTLINE
  6
CONTINUOUS
 62
     3
 10
296.97899838449092
 20
-13.890040625439839
 30
0.0
 11
296.97899838449092
 21
-16.42649434571922
 31
0.0
  0
LINE
  8
OUTLINE
  6
CONTINUOUS
 62
     3
 10
261.65756223160628
 20
-84.886914378029132
 30
0.0
 11
261.65756223160628
 21
-88.392568659127619
 31
0.0
  0
LINE
  8
OUTLINE
  6
CONTINUOUS
 62
     3
 10
261.32961628886278
 20
-20.032310177705991
 30
0.0
 11
261.32961628886278
 21
-166.2681744749593
 31
0.0
  0
LINE
  8
OUTLINE
  6
CONTINUOUS
 62
     3
 10
96.756058158319775
 20
-283.45718901453972
 30
0.0
 11
96.756058158319775
 21
-274.44264943457159
 31
0.0
  0
LINE
  8
OUTLINE
  6
CONTINUOUS
 62
     3
 10
40.064620355411989
 20
-306.79483037156712
 30
0.0
 11
40.064620355411989
 21
-305.79321486268168
 31
0.0
  0
LINE
  8
OUTLINE
  6
CONTINUOUS
 62
     3
 10
4.5072697899838658
 20
-306.79483037156712
 30
0.0
 11
4.5072697899838658
 21
-306.99515347334409
 31
0.0
  0
LINE
  8
OUTLINE
  6
CONTINUOUS
 62
     3
 10
-4.5072697899838658
 20
-306.79483037156712
 30
0.0
 11
-4.5072697899838658
 21
-306.99515347334409
 31
0.0
  0
LINE
  8
OUTLINE
  6
CONTINUOUS
 62
     3
 10
-40.064620355411989
 20
-306.79483037156712
 30
0.0
 11
-40.064620355411989
 21
-305.79321486268168
 31
0.0
  0
LINE
  8
OUTLINE
  6
CONTINUOUS
 62
     3
 10
308.49757673667199
 20
0.0
 30
0.0
 11
-308.49757673667199
 21
0.0
 31
0.0
  0
LINE
  8
OUTLINE
  6
CONTINUOUS
 62
     3
 10
308.49757673667199
 20
-3.0048465266560238
 30
0.0
 11
306.99515347334409
 21
-3.0048465266561379
 31
0.0
  0
LINE
  8
OUTLINE
  6
CONTINUOUS
 62
     3
 10
-300.17892012300439
 20
-10.016155088853109
 30
0.0
 11
-303.38933764135709
 21
-10.016155088853109
 31
0.0
  0
LINE
  8
OUTLINE
  6
CONTINUOUS
 62
     3
 10
303.38933764135709
 20
-10.016155088853109
 30
0.0
 11
300.17892012222768
 21
-10.016155088853109
 31
0.0
  0
LINE
  8
OUTLINE
  6
CONTINUOUS
 62
     3
 10
-261.32961628886301
 20
-20.032310177705991
 30
0.0
 11
-293.3731825525042
 21
-20.032310177705991
 31
0.0
  0
LINE
  8
OUTLINE
  6
CONTINUOUS
 62
     3
 10
293.37318255250398
 20
-20.032310177705991
 30
0.0
 11
261.32961628886278
 21
-20.032310177705991
 31
0.0
  0
LINE
  8
OUTLINE
  6
CONTINUOUS
 62
     3
 10
-96.75605815831976
 20
-283.45718901453972
 30
0.0
 11
-96.75605815831976
 21
-274.44264943457159
 31
0.0
  0
LINE
  8
OUTLINE
  6
CONTINUOUS
 62
     3
 10
261.65755023396059
 20
-84.886914378029132
 30
0.0
 11
261.32961628886278
 21
-84.886914378029132
 31
0.0
  0
LINE
  8
OUTLINE
  6
CONTINUOUS
 62
     3
 10
261.65755023396059
 20
-88.392568659127619
 30
0.0
 11
261.32961628886278
 21
-88.392568659127619
 31
0.0
  0
LINE
  8
OUTLINE
  6
CONTINUOUS
 62
     3
 10
261.32961628886278
 20
-107.57350565428101
 30
0.0
 11
268.43295638126011
 21
-107.57350565428101
 31
0.0
  0
LINE
  8
OUTLINE
  6
CONTINUOUS
 62
     3
 10
-268.43295638126028
 20
-107.57350565428101
 30
0.0
 11
-261.32961628886301
 21
-107.57350565428101
 31
0.0
  0
LINE
  8
OUTLINE
  6
CONTINUOUS
 62
     3
 10
261.32961628886278
 20
-111.5799676898221
 30
0.0
 11
268.43295638126011
 21
-111.5799676898221
 31
0.0
  0
LINE
  8
OUTLINE
  6
CONTINUOUS
 62
     3
 10
-268.43295638126028
 20
-111.5799676898221
 30
0.0
 11
-261.32961628886301
 21
-111.5799676898221
 31
0.0
  0
LINE
  8
OUTLINE
  6
CONTINUOUS
 62
     3
 10
-261.32961628886301
 20
-166.2681744749593
 30
0.0
 11
-261.32961628886301
 21
-20.032310177705991
 31
0.0
  0
LINE
  8
OUTLINE
  6
CONTINUOUS
 62
     3
 10
-296.97899838449121
 20
-16.42649434571922
 30
0.0
 11
-296.97899838449121
 21
-13.890040625439839
 31
0.0
  0
LINE
  8
OUTLINE
  6
CONTINUOUS
 62
     3
 10
-306.99515347334409
 20
-6.4103392568656554
 30
0.0
 11
-306.99515347334409
 21
-3.0048465266560238
 31
0.0
  0
LINE
  8
OUTLINE
  6
CONTINUOUS
 62
     3
 10
96.756058158319775
 20
-274.44264943457159
 30
0.0
 11
184.8387114935567
 21
-274.44264943457159
 31
0.0
  0
LINE
  8
OUTLINE
  6
CONTINUOUS
 62
     3
 10
-184.83871149433321
 20
-274.44264943457159
 30
0.0
 11
-96.75605815831976
 21
-274.44264943457159
 31
0.0
  0
LINE
  8
OUTLINE
  6
CONTINUOUS
 62
     3
 10
40.064620355411989
 20
-306.79483037156712
 30
0.0
 11
-40.064620355411989
 21
-306.79483037156712
 31
0.0
  0
LINE
  8
OUTLINE
  6
CONTINUOUS
 62
     3
 10
4.0064620355410634
 20
-307.49596122778678
 30
0.0
 11
-4.0064620355412899
 21
-307.49596122778678
 31
0.0
  0
ARC
  8
OUTLINE
  6
CONTINUOUS
 62
     3
 10
95.153473344103503
 20
-283.45718901453972
 30
0.0
 40
1.6025848142164709
 50
270.0
 51
0.0
  0
ARC
  8
OUTLINE
  6
CONTINUOUS
 62
     3
 10
91.15696053321787
 20
-288.46526655896582
 30
0.0
 40
3.405492394785238
 50
90.0
 51
154.21518455549941
  0
ARC
  8
OUTLINE
  6
CONTINUOUS
 62
     3
 10
76.112828254899568
 20
-301.18578352180919
 30
0.0
 40
4.607431340872381
 50
270.0
 51
334.215193305497
  0
ARC
  8
OUTLINE
  6
CONTINUOUS
 62
     3
 10
-95.153473344103503
 20
-283.45718901453972
 30
0.0
 40
1.6025848142165839
 50
180.0
 51
270.0
  0
ARC
  8
OUTLINE
  6
CONTINUOUS
 62
     3
 10
-91.156960325907207
 20
-288.46526655896582
 30
0.0
 40
3.405492338881186
 50
25.784816962101061
 51
90.0
  0
ARC
  8
OUTLINE
  6
CONTINUOUS
 62
     3
 10
-76.112828255676263
 20
-301.18578352180919
 30
0.0
 40
4.6074313408724157
 50
205.784806694503
 51
270.0
  0
LINE
  8
OUTLINE
  6
CONTINUOUS
 62
     3
 10
88.090539772350894
 20
-286.98390329516218
 30
0.0
 11
80.261516784135438
 21
-303.18998087881192
 31
0.0
  0
LINE
  8
OUTLINE
  6
CONTINUOUS
 62
     3
 10
-261.32961628886301
 20
-111.5799676898221
 30
0.0
 11
-268.43295638126028
 21
-111.5799676898221
 31
0.0
  0
LINE
  8
OUTLINE
  6
CONTINUOUS
 62
     3
 10
268.43295638126011
 20
-111.5799676898221
 30
0.0
 11
261.32961628886278
 21
-111.5799676898221
 31
0.0
  0
LINE
  8
OUTLINE
  6
CONTINUOUS
 62
     3
 10
-88.090539772350908
 20
-286.98390329516218
 30
0.0
 11
-80.261516784911919
 21
-303.18998087881192
 31
0.0
  0
LINE
  8
OUTLINE
  6
CONTINUOUS
 62
     3
 10
95.153473344103503
 20
-285.05977382875602
 30
0.0
 11
91.156960533218125
 21
-285.05977382875602
 31
0.0
  0
LINE
  8
OUTLINE
  6
CONTINUOUS
 62
     3
 10
76.112828254899568
 20
-305.79321486268168
 30
0.0
 11
40.064620355411989
 21
-305.79321486268168
 31
0.0
  0
LINE
  8
OUTLINE
  6
CONTINUOUS
 62
     3
 10
-306.99515347334409
 20
-3.0048465266560238
 30
0.0
 11
-308.49757673667199
 21
-3.0048465266560238
 31
0.0
  0
LINE
  8
OUTLINE
  6
CONTINUOUS
 62
     3
 10
-91.156960325907207
 20
-285.05977382875602
 30
0.0
 11
-95.153473344103503
 21
-285.05977382875602
 31
0.0
  0
LINE
  8
OUTLINE
  6
CONTINUOUS
 62
     3
 10
-40.064620355411989
 20
-305.79321486268168
 30
0.0
 11
-76.112828255676263
 21
-305.79321486268168
 31
0.0
  0
LINE
  8
DETAIL
  6
CONTINUOUS
 62
     5
 10
96.245595620017184
 20
-276.73836763609728
 30
0.0
 11
96.250158486921464
 21
-276.73668286439693
 31
0.0
  0
LINE
  8
DETAIL
  6
CONTINUOUS
 62
     5
 10
96.250158486921464
 20
-276.73668286439693
 30
0.0
 11
96.25470394541307
 21
-276.7349038190066
 31
0.0
  0
LINE
  8
DETAIL
  6
CONTINUOUS
 62
     5
 10
96.25470394541307
 20
-276.7349038190066
 30
0.0
 11
96.25470394541307
 21
-276.7349038190066
 31
0.0
  0
LINE
  8
DETAIL
  6
CONTINUOUS
 62
     5
 10
96.25470394541307
 20
-276.7349038190066
 30
0.0
 11
96.259207931030687
 21
-276.73296448407308
 31
0.0
  0
LINE
  8
DETAIL
  6
CONTINUOUS
 62
     5
 10
96.259207931030687
 20
-276.73296448407308
 30
0.0
 11
96.263619755114632
 21
-276.73091187509073
 31
0.0
  0
LINE
  8
DETAIL
  6
CONTINUOUS
 62
     5
 10
96.263619755114632
 20
-276.73091187509073
 30
0.0
 11
96.263619755114632
 21
-276.73091187509073
 31
0.0
  0
LINE
  8
DETAIL
  6
CONTINUOUS
 62
     5
 10
96.263619755114632
 20
-276.73091187509073
 30
0.0
 11
96.267928410553623
 21
-276.72877931052739
 31
0.0
  0
LINE
  8
DETAIL
  6
CONTINUOUS
 62
     5
 10
96.267928410553623
 20
-276.72877931052739
 30
0.0
 11
96.272308240626671
 21
-276.72643228939978
 31
0.0
  0
LINE
  8
DETAIL
  6
CONTINUOUS
 62
     5
 10
96.272308240626671
 20
-276.72643228939978
 30
0.0
 11
96.272308240626671
 21
-276.72643228939978
 31
0.0
  0
LINE
  8
DETAIL
  6
CONTINUOUS
 62
     5
 10
96.272308240626671
 20
-276.72643228939978
 30
0.0
 11
96.276801231868603
 21
-276.72383391747599
 31
0.0
  0
LINE
  8
DETAIL
  6
CONTINUOUS
 62
     5
 10
96.276801231868603
 20
-276.72383391747599
 30
0.0
 11
96.280734593452507
 21
-276.72150554698368
 31
0.0
  0
LINE
  8
DETAIL
  6
CONTINUOUS
 62
     5
 10
96.280734593452507
 20
-276.72150554698368
 30
0.0
 11
96.280734593452507
 21
-276.72150554698368
 31
0.0
  0
LINE
  8
DETAIL
  6
CONTINUOUS
 62
     5
 10
96.280734593452507
 20
-276.72150554698368
 30
0.0
 11
96.283925279975506
 21
-276.71959180016961
 31
0.0
  0
LINE
  8
DETAIL
  6
CONTINUOUS
 62
     5
 10
96.283925279975506
 20
-276.71959180016961
 30
0.0
 11
96.288864005096912
 21
-276.71617213289198
 31
0.0
  0
LINE
  8
DETAIL
  6
CONTINUOUS
 62
     5
 10
96.288864005096912
 20
-276.71617213289198
 30
0.0
 11
96.288864005096912
 21
-276.71617213289198
 31
0.0
  0
LINE
  8
DETAIL
  6
CONTINUOUS
 62
     5
 10
96.288864005096912
 20
-276.71617213289198
 30
0.0
 11
96.297615258750966
 21
-276.70957808977892
 31
0.0
  0
LINE
  8
DETAIL
  6
CONTINUOUS
 62
     5
 10
96.297615258750966
 20
-276.70957808977892
 30
0.0
 11
96.307864876913527
 21
-276.70121473692802
 31
0.0
  0
LINE
  8
DETAIL
  6
CONTINUOUS
 62
     5
 10
96.307864876913527
 20
-276.70121473692802
 30
0.0
 11
96.307864876913527
 21
-276.70121473692802
 31
0.0
  0
LINE
  8
DETAIL
  6
CONTINUOUS
 62
     5
 10
96.307864876913527
 20
-276.70121473692802
 30
0.0
 11
96.316927270875567
 21
-276.6928120706184
 31
0.0
  0
LINE
  8
DETAIL
  6
CONTINUOUS
 62
     5
 10
96.316927270875567
 20
-276.6928120706184
 30
0.0
 11
96.325009807146671
 21
-276.68432628638789
 31
0.0
  0
LINE
  8
DETAIL
  6
CONTINUOUS
 62
     5
 10
96.325009807146671
 20
-276.68432628638789
 30
0.0
 11
96.325009807146671
 21
-276.68432628638789
 31
0.0
  0
LINE
  8
DETAIL
  6
CONTINUOUS
 62
     5
 10
96.325009807146671
 20
-276.68432628638789
 30
0.0
 11
96.332865096733485
 21
-276.6753610478554
 31
0.0
  0
LINE
  8
DETAIL
  6
CONTINUOUS
 62
     5
 10
96.332865096733485
 20
-276.6753610478554
 30
0.0
 11
96.340533773410243
 21
-276.66588369170108
 31
0.0
  0
LINE
  8
DETAIL
  6
CONTINUOUS
 62
     5
 10
96.340533773410243
 20
-276.66588369170108
 30
0.0
 11
96.340533773410243
 21
-276.66588369170108
 31
0.0
  0
LINE
  8
DETAIL
  6
CONTINUOUS
 62
     5
 10
96.340533773410243
 20
-276.66588369170108
 30
0.0
 11
96.347867215069982
 21
-276.65603224999438
 31
0.0
  0
LINE
  8
DETAIL
  6
CONTINUOUS
 62
     5
 10
96.347867215069982
 20
-276.65603224999438
 30
0.0
 11
96.354671753318229
 21
-276.64626386329701
 31
0.0
  0
LINE
  8
DETAIL
  6
CONTINUOUS
 62
     5
 10
96.354671753318229
 20
-276.64626386329701
 30
0.0
 11
96.354671753318229
 21
-276.64626386329701
 31
0.0
  0
LINE
  8
DETAIL
  6
CONTINUOUS
 62
     5
 10
96.354671753318229
 20
-276.64626386329701
 30
0.0
 11
96.360965498784026
 21
-276.63670542253612
 31
0.0
  0
LINE
  8
DETAIL
  6
CONTINUOUS
 62
     5
 10
96.360965498784026
 20
-276.63670542253612
 30
0.0
 11
96.367658724485409
 21
-276.62584371160477
 31
0.0
  0
LINE
  8
DETAIL
  6
CONTINUOUS
 62
     5
 10
96.367658724485409
 20
-276.62584371160477
 30
0.0
 11
96.367658724485409
 21
-276.62584371160477
 31
0.0
  0
LINE
  8
DETAIL
  6
CONTINUOUS
 62
     5
 10
96.367658724485409
 20
-276.62584371160477
 30
0.0
 11
96.3754942845203
 21
-276.61239729868163
 31
0.0
  0
LINE
  8
DETAIL
  6
CONTINUOUS
 62
     5
 10
96.3754942845203
 20
-276.61239729868163
 30
0.0
 11
96.383653194919361
 21
-276.59765199612087
 31
0.0
  0
LINE
  8
DETAIL
  6
CONTINUOUS
 62
     5
 10
96.383653194919361
 20
-276.59765199612087
 30
0.0
 11
96.383653194919361
 21
-276.59765199612087
 31
0.0
  0
LINE
  8
DETAIL
  6
CONTINUOUS
 62
     5
 10
96.383653194919361
 20
-276.59765199612087
 30
0.0
 11
96.391183844433158
 21
-276.58313778249891
 31
0.0
  0
LINE
  8
DETAIL
  6
CONTINUOUS
 62
     5
 10
96.391183844433158
 20
-276.58313778249891
 30
0.0
 11
96.398165950761154
 21
-276.56879405710288
 31
0.0
  0
LINE
  8
DETAIL
  6
CONTINUOUS
 62
     5
 10
96.398165950761154
 20
-276.56879405710288
 30
0.0
 11
96.398165950761154
 21
-276.56879405710288
 31
0.0
  0
LINE
  8
DETAIL
  6
CONTINUOUS
 62
     5
 10
96.398165950761154
 20
-276.56879405710288
 30
0.0
 11
96.404879140942285
 21
-276.55423558204637
 31
0.0
  0
LINE
  8
DETAIL
  6
CONTINUOUS
 62
     5
 10
96.404879140942285
 20
-276.55423558204637
 30
0.0
 11
96.411371350429931
 21
-276.53936915003561
 31
0.0
  0
LINE
  8
DETAIL
  6
CONTINUOUS
 62
     5
 10
96.411371350429931
 20
-276.53936915003561
 30
0.0
 11
96.411371350429931
 21
-276.53936915003561
 31
0.0
  0
LINE
  8
DETAIL
  6
CONTINUOUS
 62
     5
 10
96.411371350429931
 20
-276.53936915003561
 30
0.0
 11
96.417606451129359
 21
-276.5242801756558
 31
0.0
  0
LINE
  8
DETAIL
  6
CONTINUOUS
 62
     5
 10
96.417606451129359
 20
-276.5242801756558
 30
0.0
 11
96.423443752345065
 21
-276.50947653040481
 31
0.0
  0
LINE
  8
DETAIL
  6
CONTINUOUS
 62
     5
 10
96.423443752345065
 20
-276.50947653040481
 30
0.0
 11
96.423443752345065
 21
-276.50947653040481
 31
0.0
  0
LINE
  8
DETAIL
  6
CONTINUOUS
 62
     5
 10
96.423443752345065
 20
-276.50947653040481
 30
0.0
 11
96.428878908229763
 21
-276.49507623544719
 31
0.0
  0
LINE
  8
DETAIL
  6
CONTINUOUS
 62
     5
 10
96.428878908229763
 20
-276.49507623544719
 30
0.0
 11
96.434557514926269
 21
-276.47921545369428
 31
0.0
  0
LINE
  8
DETAIL
  6
CONTINUOUS
 62
     5
 10
96.434557514926269
 20
-276.47921545369428
 30
0.0
 11
96.434557514926269
 21
-276.47921545369428
 31
0.0
  0
LINE
  8
DETAIL
  6
CONTINUOUS
 62
     5
 10
96.434557514926269
 20
-276.47921545369428
 30
0.0
 11
96.44101072508829
 21
-276.46031979440858
 31
0.0
  0
LINE
  8
DETAIL
  6
CONTINUOUS
 62
     5
 10
96.44101072508829
 20
-276.46031979440858
 30
0.0
 11
96.447661975417077
 21
-276.43995451052228
 31
0.0
  0
LINE
  8
DETAIL
  6
CONTINUOUS
 62
     5
 10
96.447661975417077
 20
-276.43995451052228
 30
0.0
 11
96.447661975417077
 21
-276.43995451052228
 31
0.0
  0
LINE
  8
DETAIL
  6
CONTINUOUS
 62
     5
 10
96.447661975417077
 20
-276.43995451052228
 30
0.0
 11
96.453840035717576
 21
-276.41998209155389
 31
0.0
  0
LINE
  8
DETAIL
  6
CONTINUOUS
 62
     5
 10
96.453840035717576
 20
-276.41998209155389
 30
0.0
 11
96.459602724161869
 21
-276.40031432970449
 31
0.0
  0
LINE
  8
DETAIL
  6
CONTINUOUS
 62
     5
 10
96.459602724161869
 20
-276.40031432970449
 30
0.0
 11
96.459602724161869
 21
-276.40031432970449
 31
0.0
  0
LINE
  8
DETAIL
  6
CONTINUOUS
 62
     5
 10
96.459602724161869
 20
-276.40031432970449
 30
0.0
 11
96.465148469210362
 21
-276.38047162496832
 31
0.0
  0
LINE
  8
DETAIL
  6
CONTINUOUS
 62
     5
 10
96.465148469210362
 20
-276.38047162496832
 30
0.0
 11
96.470509092110206
 21
-276.36035950583442
 31
0.0
  0
LINE
  8
DETAIL
  6
CONTINUOUS
 62
     5
 10
96.470509092110206
 20
-276.36035950583442
 30
0.0
 11
96.470509092110206
 21
-276.36035950583442
 31
0.0
  0
LINE
  8
DETAIL
  6
CONTINUOUS
 62
     5
 10
96.470509092110206
 20
-276.36035950583442
 30
0.0
 11
96.475659107427418
 21
-276.34008232874908
 31
0.0
  0
LINE
  8
DETAIL
  6
CONTINUOUS
 62
     5
 10
96.475659107427418
 20
-276.34008232874908
 30
0.0
 11
96.480510410211878
 21
-276.32015463350581
 31
0.0
  0
LINE
  8
DETAIL
  6
CONTINUOUS
 62
     5
 10
96.480510410211878
 20
-276.32015463350581
 30
0.0
 11
96.480510410211878
 21
-276.32015463350581
 31
0.0
  0
LINE
  8
DETAIL
  6
CONTINUOUS
 62
     5
 10
96.480510410211878
 20
-276.32015463350581
 30
0.0
 11
96.48506351195374
 21
-276.3006870402628
 31
0.0
  0
LINE
  8
DETAIL
  6
CONTINUOUS
 62
     5
 10
96.48506351195374
 20
-276.3006870402628
 30
0.0
 11
96.48973600941622
 21
-276.27976430731309
 31
0.0
  0
LINE
  8
DETAIL
  6
CONTINUOUS
 62
     5
 10
96.48973600941622
 20
-276.27976430731309
 30
0.0
 11
96.48973600941622
 21
-276.27976430731309
 31
0.0
  0
LINE
  8
DETAIL
  6
CONTINUOUS
 62
     5
 10
96.48973600941622
 20
-276.27976430731309
 30
0.0
 11
96.49487151819028
 21
-276.25577246421062
 31
0.0
  0
LINE
  8
DETAIL
  6
CONTINUOUS
 62
     5
 10
96.49487151819028
 20
-276.25577246421062
 30
0.0
 11
96.500100643898122
 21
-276.23032848742798
 31
0.0
  0
LINE
  8
DETAIL
  6
CONTINUOUS
 62
     5
 10
96.500100643898122
 20
-276.23032848742798
 30
0.0
 11
96.500100643898122
 21
-276.23032848742798
 31
0.0
  0
LINE
  8
DETAIL
  6
CONTINUOUS
 62
     5
 10
96.500100643898122
 20
-276.23032848742798
 30
0.0
 11
96.504992889259825
 21
-276.2053509293255
 31
0.0
  0
LINE
  8
DETAIL
  6
CONTINUOUS
 62
     5
 10
96.504992889259825
 20
-276.2053509293255
 30
0.0
 11
96.50958635534937
 21
-276.18073369890038
 31
0.0
  0
LINE
  8
DETAIL
  6
CONTINUOUS
 62
     5
 10
96.50958635534937
 20
-276.18073369890038
 30
0.0
 11
96.50958635534937
 21
-276.18073369890038
 31
0.0
  0
LINE
  8
DETAIL
  6
CONTINUOUS
 62
     5
 10
96.50958635534937
 20
-276.18073369890038
 30
0.0
 11
96.514008520303832
 21
-276.15597323765411
 31
0.0
  0
LINE
  8
DETAIL
  6
CONTINUOUS
 62
     5
 10
96.514008520303832
 20
-276.15597323765411
 30
0.0
 11
96.518275772154198
 21
-276.13100076047772
 31
0.0
  0
LINE
  8
DETAIL
  6
CONTINUOUS
 62
     5
 10
96.518275772154198
 20
-276.13100076047772
 30
0.0
 11
96.518275772154198
 21
-276.13100076047772
 31
0.0
  0
LINE
  8
DETAIL
  6
CONTINUOUS
 62
     5
 10
96.518275772154198
 20
-276.13100076047772
 30
0.0
 11
96.522370666922598
 21
-276.10592756306158
 31
0.0
  0
LINE
  8
DETAIL
  6
CONTINUOUS
 62
     5
 10
96.522370666922598
 20
-276.10592756306158
 30
0.0
 11
96.526251522697066
 21
-276.08115049090748
 31
0.0
  0
LINE
  8
DETAIL
  6
CONTINUOUS
 62
     5
 10
96.526251522697066
 20
-276.08115049090748
 30
0.0
 11
96.526251522697066
 21
-276.08115049090748
 31
0.0
  0
LINE
  8
DETAIL
  6
CONTINUOUS
 62
     5
 10
96.526251522697066
 20
-276.08115049090748
 30
0.0
 11
96.52992260854262
 21
-276.05674353381141
 31
0.0
  0
LINE
  8
DETAIL
  6
CONTINUOUS
 62
     5
 10
96.52992260854262
 20
-276.05674353381141
 30
0.0
 11
96.533596235361756
 21
-276.03120370893731
 31
0.0
  0
LINE
  8
DETAIL
  6
CONTINUOUS
 62
     5
 10
96.533596235361756
 20
-276.03120370893731
 30
0.0
 11
96.533596235361756
 21
-276.03120370893731
 31
0.0
  0
LINE
  8
DETAIL
  6
CONTINUOUS
 62
     5
 10
96.533596235361756
 20
-276.03120370893731
 30
0.0
 11
96.537446859985153
 21
-276.00326682535177
 31
0.0
  0
LINE
  8
DETAIL
  6
CONTINUOUS
 62
     5
 10
96.537446859985153
 20
-276.00326682535177
 30
0.0
 11
96.541289481122703
 21
-275.97420083237103
 31
0.0
  0
LINE
  8
DETAIL
  6
CONTINUOUS
 62
     5
 10
96.541289481122703
 20
-275.97420083237103
 30
0.0
 11
96.541289481122703
 21
-275.97420083237103
 31
0.0
  0
LINE
  8
DETAIL
  6
CONTINUOUS
 62
     5
 10
96.541289481122703
 20
-275.97420083237103
 30
0.0
 11
96.544908321897765
 21
-275.94551003806151
 31
0.0
  0
LINE
  8
DETAIL
  6
CONTINUOUS
 62
     5
 10
96.544908321897765
 20
-275.94551003806151
 30
0.0
 11
96.548323961209917
 21
-275.91711204523989
 31
0.0
  0
LINE
  8
DETAIL
  6
CONTINUOUS
 62
     5
 10
96.548323961209917
 20
-275.91711204523989
 30
0.0
 11
96.548323961209917
 21
-275.91711204523989
 31
0.0
  0
LINE
  8
DETAIL
  6
CONTINUOUS
 62
     5
 10
96.548323961209917
 20
-275.91711204523989
 30
0.0
 11
96.551602135672965
 21
-275.88861172199381
 31
0.0
  0
LINE
  8
DETAIL
  6
CONTINUOUS
 62
     5
 10
96.551602135672965
 20
-275.88861172199381
 30
0.0
 11
96.554752856984805
 21
-275.85994970273413
 31
0.0
  0
LINE
  8
DETAIL
  6
CONTINUOUS
 62
     5
 10
96.554752856984805
 20
-275.85994970273413
 30
0.0
 11
96.554752856984805
 21
-275.85994970273413
 31
0.0
  0
LINE
  8
DETAIL
  6
CONTINUOUS
 62
     5
 10
96.554752856984805
 20
-275.85994970273413
 30
0.0
 11
96.557768841586267
 21
-275.83121147344099
 31
0.0
  0
LINE
  8
DETAIL
  6
CONTINUOUS
 62
     5
 10
96.557768841586267
 20
-275.83121147344099
 30
0.0
 11
96.560629349808551
 21
-275.80272616003981
 31
0.0
  0
LINE
  8
DETAIL
  6
CONTINUOUS
 62
     5
 10
96.560629349808551
 20
-275.80272616003981
 30
0.0
 11
96.560629349808551
 21
-275.80272616003981
 31
0.0
  0
LINE
  8
DETAIL
  6
CONTINUOUS
 62
     5
 10
96.560629349808551
 20
-275.80272616003981
 30
0.0
 11
96.563337665294512
 21
-275.77455621691479
 31
0.0
  0
LINE
  8
DETAIL
  6
CONTINUOUS
 62
     5
 10
96.563337665294512
 20
-275.77455621691479
 30
0.0
 11
96.566006621042561
 21
-275.74545377234563
 31
0.0
  0
LINE
  8
DETAIL
  6
CONTINUOUS
 62
     5
 10
96.566006621042561
 20
-275.74545377234563
 30
0.0
 11
96.566006621042561
 21
-275.74545377234563
 31
0.0
  0
LINE
  8
DETAIL
  6
CONTINUOUS
 62
     5
 10
96.566006621042561
 20
-275.74545377234563
 30
0.0
 11
96.568728848928686
 21
-275.71436909731813
 31
0.0
  0
LINE
  8
DETAIL
  6
CONTINUOUS
 62
     5
 10
96.568728848928686
 20
-275.71436909731813
 30
0.0
 11
96.571406626982252
 21
-275.68235535975202
 31
0.0
  0
LINE
  8
DETAIL
  6
CONTINUOUS
 62
     5
 10
96.571406626982252
 20
-275.68235535975202
 30
0.0
 11
96.571406626982252
 21
-275.68235535975202
 31
0.0
  0
LINE
  8
DETAIL
  6
CONTINUOUS
 62
     5
 10
96.571406626982252
 20
-275.68235535975202
 30
0.0
 11
96.573926032197051
 21
-275.6506616317032
 31
0.0
  0
LINE
  8
DETAIL
  6
CONTINUOUS
 62
     5
 10
96.573926032197051
 20
-275.6506616317032
 30
0.0
 11
96.576298691268221
 21
-275.61921770483588
 31
0.0
  0
LINE
  8
DETAIL
  6
CONTINUOUS
 62
     5
 10
96.576298691268221
 20
-275.61921770483588
 30
0.0
 11
96.576298691268221
 21
-275.61921770483588
 31
0.0
  0
LINE
  8
DETAIL
  6
CONTINUOUS
 62
     5
 10
96.576298691268221
 20
-275.61921770483588
 30
0.0
 11
96.578560080663237
 21
-275.58769438251409
 31
0.0
  0
LINE
  8
DETAIL
  6
CONTINUOUS
 62
     5
 10
96.578560080663237
 20
-275.58769438251409
 30
0.0
 11
96.580715526233007
 21
-275.55604579528148
 31
0.0
  0
LINE
  8
DETAIL
  6
CONTINUOUS
 62
     5
 10
96.580715526233007
 20
-275.55604579528148
 30
0.0
 11
96.580715526233007
 21
-275.55604579528148
 31
0.0
  0
LINE
  8
DETAIL
  6
CONTINUOUS
 62
     5
 10
96.580715526233007
 20
-275.55604579528148
 30
0.0
 11
96.582761579365524
 21
-275.52434339839431
 31
0.0
  0
LINE
  8
DETAIL
  6
CONTINUOUS
 62
     5
 10
96.582761579365524
 20
-275.52434339839431
 30
0.0
 11
96.584689844208697
 21
-275.49284461877198
 31
0.0
  0
LINE
  8
DETAIL
  6
CONTINUOUS
 62
     5
 10
96.584689844208697
 20
-275.49284461877198
 30
0.0
 11
96.584689844208697
 21
-275.49284461877198
 31
0.0
  0
LINE
  8
DETAIL
  6
CONTINUOUS
 62
     5
 10
96.584689844208697
 20
-275.49284461877198
 30
0.0
 11
96.586503172994526
 21
-275.46159657279071
 31
0.0
  0
LINE
  8
DETAIL
  6
CONTINUOUS
 62
     5
 10
96.586503172994526
 20
-275.46159657279071
 30
0.0
 11
96.588254357527347
 21
-275.42961916299191
 31
0.0
  0
LINE
  8
DETAIL
  6
CONTINUOUS
 62
     5
 10
96.588254357527347
 20
-275.42961916299191
 30
0.0
 11
96.588254357527347
 21
-275.42961916299191
 31
0.0
  0
LINE
  8
DETAIL
  6
CONTINUOUS
 62
     5
 10
96.588254357527347
 20
-275.42961916299191
 30
0.0
 11
96.589986411130866
 21
-275.39608859318838
 31
0.0
  0
LINE
  8
DETAIL
  6
CONTINUOUS
 62
     5
 10
96.589986411130866
 20
-275.39608859318838
 30
0.0
 11
96.591653293631225
 21
-275.36183348611911
 31
0.0
  0
LINE
  8
DETAIL
  6
CONTINUOUS
 62
     5
 10
96.591653293631225
 20
-275.36183348611911
 30
0.0
 11
96.591653293631225
 21
-275.36183348611911
 31
0.0
  0
LINE
  8
DETAIL
  6
CONTINUOUS
 62
     5
 10
96.591653293631225
 20
-275.36183348611911
 30
0.0
 11
96.593201593500908
 21
-275.32783455413693
 31
0.0
  0
LINE
  8
DETAIL
  6
CONTINUOUS
 62
     5
 10
96.593201593500908
 20
-275.32783455413693
 30
0.0
 11
96.594637467291477
 21
-275.29402844913602
 31
0.0
  0
LINE
  8
DETAIL
  6
CONTINUOUS
 62
     5
 10
96.594637467291477
 20
-275.29402844913602
 30
0.0
 11
96.594637467291477
 21
-275.29402844913602
 31
0.0
  0
LINE
  8
DETAIL
  6
CONTINUOUS
 62
     5
 10
96.594637467291477
 20
-275.29402844913602
 30
0.0
 11
96.595978108133636
 21
-275.26015450605291
 31
0.0
  0
LINE
  8
DETAIL
  6
CONTINUOUS
 62
     5
 10
96.595978108133636
 20
-275.26015450605291
 30
0.0
 11
96.597225287387005
 21
-275.22620685245357
 31
0.0
  0
LINE
  8
DETAIL
  6
CONTINUOUS
 62
     5
 10
96.597225287387005
 20
-275.22620685245357
 30
0.0
 11
96.597225287387005
 21
-275.22620685245357
 31
0.0
  0
LINE
  8
DETAIL
  6
CONTINUOUS
 62
     5
 10
96.597225287387005
 20
-275.22620685245357
 30
0.0
 11
96.598377450719227
 21
-275.19224953654742
 31
0.0
  0
LINE
  8
DETAIL
  6
CONTINUOUS
 62
     5
 10
96.598377450719227
 20
-275.19224953654742
 30
0.0
 11
96.599435162797135
 21
-275.15837149648252
 31
0.0
  0
LINE
  8
DETAIL
  6
CONTINUOUS
 62
     5
 10
96.599435162797135
 20
-275.15837149648252
 30
0.0
 11
96.599435162797135
 21
-275.15837149648252
 31
0.0
  0
LINE
  8
DETAIL
  6
CONTINUOUS
 62
     5
 10
96.599435162797135
 20
-275.15837149648252
 30
0.0
 11
96.600401254480971
 21
-275.12457930479468
 31
0.0
  0
LINE
  8
DETAIL
  6
CONTINUOUS
 62
     5
 10
96.600401254480971
 20
-275.12457930479468
 30
0.0
 11
96.601285502401424
 21
-275.09052518163332
 31
0.0
  0
LINE
  8
DETAIL
  6
CONTINUOUS
 62
     5
 10
96.601285502401424
 20
-275.09052518163332
 30
0.0
 11
96.601285502401424
 21
-275.09052518163332
 31
0.0
  0
LINE
  8
DETAIL
  6
CONTINUOUS
 62
     5
 10
96.601285502401424
 20
-275.09052518163332
 30
0.0
 11
96.602095638605306
 21
-275.0559190852257
 31
0.0
  0
LINE
  8
DETAIL
  6
CONTINUOUS
 62
     5
 10
96.602095638605306
 20
-275.0559190852257
 30
0.0
 11
96.602824271025383
 21
-275.02105627850091
 31
0.0
  0
LINE
  8
DETAIL
  6
CONTINUOUS
 62
     5
 10
96.602824271025383
 20
-275.02105627850091
 30
0.0
 11
96.602824271025383
 21
-275.02105627850091
 31
0.0
  0
LINE
  8
DETAIL
  6
CONTINUOUS
 62
     5
 10
96.602824271025383
 20
-275.02105627850091
 30
0.0
 11
96.603462582808987
 21
-274.98628508559909
 31
0.0
  0
LINE
  8
DETAIL
  6
CONTINUOUS
 62
     5
 10
96.603462582808987
 20
-274.98628508559909
 30
0.0
 11
96.604011182071417
 21
-274.95158077080907
 31
0.0
  0
LINE
  8
DETAIL
  6
CONTINUOUS
 62
     5
 10
96.604011182071417
 20
-274.95158077080907
 30
0.0
 11
96.604011182071417
 21
-274.95158077080907
 31
0.0
  0
LINE
  8
DETAIL
  6
CONTINUOUS
 62
     5
 10
96.604011182071417
 20
-274.95158077080907
 30
0.0
 11
96.604473136604383
 21
-274.91685031250279
 31
0.0
  0
LINE
  8
DETAIL
  6
CONTINUOUS
 62
     5
 10
96.604473136604383
 20
-274.91685031250279
 30
0.0
 11
96.604851927940672
 21
-274.88210060524437
 31
0.0
  0
LINE
  8
DETAIL
  6
CONTINUOUS
 62
     5
 10
96.604851927940672
 20
-274.88210060524437
 30
0.0
 11
96.604851927940672
 21
-274.88210060524437
 31
0.0
  0
LINE
  8
DETAIL
  6
CONTINUOUS
 62
     5
 10
96.604851927940672
 20
-274.88210060524437
 30
0.0
 11
96.605148371065752
 21
-274.84735687141671
 31
0.0
  0
LINE
  8
DETAIL
  6
CONTINUOUS
 62
     5
 10
96.605148371065752
 20
-274.84735687141671
 30
0.0
 11
96.60535220103452
 21
-274.812617728492
 31
0.0
  0
LINE
  8
DETAIL
  6
CONTINUOUS
 62
     5
 10
96.60535220103452
 20
-274.812617728492
 30
0.0
 11
96.60535220103452
 21
-274.812617728492
 31
0.0
  0
LINE
  8
DETAIL
  6
CONTINUOUS
 62
     5
 10
96.60535220103452
 20
-274.812617728492
 30
0.0
 11
96.605461359415358
 21
-274.77787676857798
 31
0.0
  0
LINE
  8
DETAIL
  6
CONTINUOUS
 62
     5
 10
96.605461359415358
 20
-274.77787676857798
 30
0.0
 11
96.605517693754564
 21
-274.74313408723748
 31
0.0
  0
LINE
  8
DETAIL
  6
CONTINUOUS
 62
     5
 10
96.200412643473328
 20
-276.74636510500801
 30
0.0
 11
96.204985076240291
 21
-276.74624632710697
 31
0.0
  0
LINE
  8
DETAIL
  6
CONTINUOUS
 62
     5
 10
96.204985076240291
 20
-276.74624632710697
 30
0.0
 11
96.209555075048684
 21
-276.74602151192312
 31
0.0
  0
LINE
  8
DETAIL
  6
CONTINUOUS
 62
     5
 10
96.209555075048684
 20
-276.74602151192312
 30
0.0
 11
96.209555075048684
 21
-276.74602151192312
 31
0.0
  0
LINE
  8
DETAIL
  6
CONTINUOUS
 62
     5
 10
96.209555075048684
 20
-276.74602151192312
 30
0.0
 11
96.214119844887819
 21
-276.74560772297792
 31
0.0
  0
LINE
  8
DETAIL
  6
CONTINUOUS
 62
     5
 10
96.214119844887819
 20
-276.74560772297792
 30
0.0
 11
96.218675146540591
 21
-276.74501442699761
 31
0.0
  0
LINE
  8
DETAIL
  6
CONTINUOUS
 62
     5
 10
96.218675146540591
 20
-276.74501442699761
 30
0.0
 11
96.218675146540591
 21
-276.74501442699761
 31
0.0
  0
LINE
  8
DETAIL
  6
CONTINUOUS
 62
     5
 10
96.218675146540591
 20
-276.74501442699761
 30
0.0
 11
96.223216799199236
 21
-276.74426916747137
 31
0.0
  0
LINE
  8
DETAIL
  6
CONTINUOUS
 62
     5
 10
96.223216799199236
 20
-276.74426916747137
 30
0.0
 11
96.227742299899347
 21
-276.74337939172318
 31
0.0
  0
LINE
  8
DETAIL
  6
CONTINUOUS
 62
     5
 10
96.227742299899347
 20
-276.74337939172318
 30
0.0
 11
96.227742299899347
 21
-276.74337939172318
 31
0.0
  0
LINE
  8
DETAIL
  6
CONTINUOUS
 62
     5
 10
96.227742299899347
 20
-276.74337939172318
 30
0.0
 11
96.232248248345513
 21
-276.7423445183988
 31
0.0
  0
LINE
  8
DETAIL
  6
CONTINUOUS
 62
     5
 10
96.232248248345513
 20
-276.7423445183988
 30
0.0
 11
96.236725977074911
 21
-276.74115194759202
 31
0.0
  0
LINE
  8
DETAIL
  6
CONTINUOUS
 62
     5
 10
96.236725977074911
 20
-276.74115194759202
 30
0.0
 11
96.236725977074911
 21
-276.74115194759202
 31
0.0
  0
LINE
  8
DETAIL
  6
CONTINUOUS
 62
     5
 10
96.236725977074911
 20
-276.74115194759202
 30
0.0
 11
96.241170349539061
 21
-276.73980311735158
 31
0.0
  0
LINE
  8
DETAIL
  6
CONTINUOUS
 62
     5
 10
96.241170349539061
 20
-276.73980311735158
 30
0.0
 11
96.245595620017184
 21
-276.73836763609728
 31
0.0
  0
LINE
  8
DETAIL
  6
CONTINUOUS
 62
     5
 10
-96.605517694531045
 20
-274.74313408723748
 30
0.0
 11
-96.605461361524007
 21
-274.77787631894802
 31
0.0
  0
LINE
  8
DETAIL
  6
CONTINUOUS
 62
     5
 10
-96.605461361524007
 20
-274.77787631894802
 30
0.0
 11
-96.605352207000124
 21
-274.8126167950777
 31
0.0
  0
LINE
  8
DETAIL
  6
CONTINUOUS
 62
     5
 10
-96.605352207000124
 20
-274.8126167950777
 30
0.0
 11
-96.605352207000124
 21
-274.8126167950777
 31
0.0
  0
LINE
  8
DETAIL
  6
CONTINUOUS
 62
     5
 10
-96.605352207000124
 20
-274.8126167950777
 30
0.0
 11
-96.605148384634987
 21
-274.84735542008718
 31
0.0
  0
LINE
  8
DETAIL
  6
CONTINUOUS
 62
     5
 10
-96.605148384634987
 20
-274.84735542008718
 30
0.0
 11
-96.604851948871314
 21
-274.88209873860012
 31
0.0
  0
LINE
  8
DETAIL
  6
CONTINUOUS
 62
     5
 10
-96.604851948871314
 20
-274.88209873860012
 30
0.0
 11
-96.604851948871314
 21
-274.88209873860012
 31
0.0
  0
LINE
  8
DETAIL
  6
CONTINUOUS
 62
     5
 10
-96.604851948871314
 20
-274.88209873860012
 30
0.0
 11
-96.604473163238353
 21
-274.91684816728781
 31
0.0
  0
LINE
  8
DETAIL
  6
CONTINUOUS
 62
     5
 10
-96.604473163238353
 20
-274.91684816728781
 30
0.0
 11
-96.604011226839688
 21
-274.9515779708438
 31
0.0
  0
LINE
  8
DETAIL
  6
CONTINUOUS
 62
     5
 10
-96.604011226839688
 20
-274.9515779708438
 30
0.0
 11
-96.604011226839688
 21
-274.9515779708438
 31
0.0
  0
LINE
  8
DETAIL
  6
CONTINUOUS
 62
     5
 10
-96.604011226839688
 20
-274.9515779708438
 30
0.0
 11
-96.603462661905951
 21
-274.98628111790532
 31
0.0
  0
LINE
  8
DETAIL
  6
CONTINUOUS
 62
     5
 10
-96.603462661905951
 20
-274.98628111790532
 30
0.0
 11
-96.602824347600148
 21
-275.02105254484712
 31
0.0
  0
LINE
  8
DETAIL
  6
CONTINUOUS
 62
     5
 10
-96.602824347600148
 20
-275.02105254484712
 30
0.0
 11
-96.602824347600148
 21
-275.02105254484712
 31
0.0
  0
LINE
  8
DETAIL
  6
CONTINUOUS
 62
     5
 10
-96.602824347600148
 20
-275.02105254484712
 30
0.0
 11
-96.60209566149264
 21
-275.05591750023291
 31
0.0
  0
LINE
  8
DETAIL
  6
CONTINUOUS
 62
     5
 10
-96.60209566149264
 20
-275.05591750023291
 30
0.0
 11
-96.601285617848589
 21
-275.09052051364779
 31
0.0
  0
LINE
  8
DETAIL
  6
CONTINUOUS
 62
     5
 10
-96.601285617848589
 20
-275.09052051364779
 30
0.0
 11
-96.601285617848589
 21
-275.09052051364779
 31
0.0
  0
LINE
  8
DETAIL
  6
CONTINUOUS
 62
     5
 10
-96.601285617848589
 20
-275.09052051364779
 30
0.0
 11
-96.600401784726941
 21
-275.12456028676581
 31
0.0
  0
LINE
  8
DETAIL
  6
CONTINUOUS
 62
     5
 10
-96.600401784726941
 20
-275.12456028676581
 30
0.0
 11
-96.599436308670107
 21
-275.15833292859702
 31
0.0
  0
LINE
  8
DETAIL
  6
CONTINUOUS
 62
     5
 10
-96.599436308670107
 20
-275.15833292859702
 30
0.0
 11
-96.599436308670107
 21
-275.15833292859702
 31
0.0
  0
LINE
  8
DETAIL
  6
CONTINUOUS
 62
     5
 10
-96.599436308670107
 20
-275.15833292859702
 30
0.0
 11
-96.598379260899165
 21
-275.19219336682158
 31
0.0
  0
LINE
  8
DETAIL
  6
CONTINUOUS
 62
     5
 10
-96.598379260899165
 20
-275.19219336682158
 30
0.0
 11
-96.597227832877593
 21
-275.22613439646437
 31
0.0
  0
LINE
  8
DETAIL
  6
CONTINUOUS
 62
     5
 10
-96.597227832877593
 20
-275.22613439646437
 30
0.0
 11
-96.597227832877593
 21
-275.22613439646437
 31
0.0
  0
LINE
  8
DETAIL
  6
CONTINUOUS
 62
     5
 10
-96.597227832877593
 20
-275.22613439646437
 30
0.0
 11
-96.595981507513088
 21
-275.26006513490279
 31
0.0
  0
LINE
  8
DETAIL
  6
CONTINUOUS
 62
     5
 10
-96.595981507513088
 20
-275.26006513490279
 30
0.0
 11
-96.594641813254057
 21
-275.29392212158012
 31
0.0
  0
LINE
  8
DETAIL
  6
CONTINUOUS
 62
     5
 10
-96.594641813254057
 20
-275.29392212158012
 30
0.0
 11
-96.594641813254057
 21
-275.29392212158012
 31
0.0
  0
LINE
  8
DETAIL
  6
CONTINUOUS
 62
     5
 10
-96.594641813254057
 20
-275.29392212158012
 30
0.0
 11
-96.593206964332794
 21
-275.32771186255349
 31
0.0
  0
LINE
  8
DETAIL
  6
CONTINUOUS
 62
     5
 10
-96.593206964332794
 20
-275.32771186255349
 30
0.0
 11
-96.591659872581445
 21
-275.36169330827278
 31
0.0
  0
LINE
  8
DETAIL
  6
CONTINUOUS
 62
     5
 10
-96.591659872581445
 20
-275.36169330827278
 30
0.0
 11
-96.591659872581445
 21
-275.36169330827278
 31
0.0
  0
LINE
  8
DETAIL
  6
CONTINUOUS
 62
     5
 10
-96.591659872581445
 20
-275.36169330827278
 30
0.0
 11
-96.589994415247475
 21
-275.39592922037718
 31
0.0
  0
LINE
  8
DETAIL
  6
CONTINUOUS
 62
     5
 10
-96.589994415247475
 20
-275.39592922037718
 30
0.0
 11
-96.588263633643137
 21
-275.42944516087363
 31
0.0
  0
LINE
  8
DETAIL
  6
CONTINUOUS
 62
     5
 10
-96.588263633643137
 20
-275.42944516087363
 30
0.0
 11
-96.588263633643137
 21
-275.42944516087363
 31
0.0
  0
LINE
  8
DETAIL
  6
CONTINUOUS
 62
     5
 10
-96.588263633643137
 20
-275.42944516087363
 30
0.0
 11
-96.586513244383923
 21
-275.4614178420569
 31
0.0
  0
LINE
  8
DETAIL
  6
CONTINUOUS
 62
     5
 10
-96.586513244383923
 20
-275.4614178420569
 30
0.0
 11
-96.584700501237435
 21
-275.49266577700791
 31
0.0
  0
LINE
  8
DETAIL
  6
CONTINUOUS
 62
     5
 10
-96.584700501237435
 20
-275.49266577700791
 30
0.0
 11
-96.584700501237435
 21
-275.49266577700791
 31
0.0
  0
LINE
  8
DETAIL
  6
CONTINUOUS
 62
     5
 10
-96.584700501237435
 20
-275.49266577700791
 30
0.0
 11
-96.582772941739222
 21
-275.5241627875688
 31
0.0
  0
LINE
  8
DETAIL
  6
CONTINUOUS
 62
     5
 10
-96.582772941739222
 20
-275.5241627875688
 30
0.0
 11
-96.58072770134936
 21
-275.55586212984451
 31
0.0
  0
LINE
  8
DETAIL
  6
CONTINUOUS
 62
     5
 10
-96.58072770134936
 20
-275.55586212984451
 30
0.0
 11
-96.58072770134936
 21
-275.55586212984451
 31
0.0
  0
LINE
  8
DETAIL
  6
CONTINUOUS
 62
     5
 10
-96.58072770134936
 20
-275.55586212984451
 30
0.0
 11
-96.57857309348536
 21
-275.58750803962403
 31
0.0
  0
LINE
  8
DETAIL
  6
CONTINUOUS
 62
     5
 10
-96.57857309348536
 20
-275.58750803962403
 30
0.0
 11
-96.576312545467076
 21
-275.61902923717611
 31
0.0
  0
LINE
  8
DETAIL
  6
CONTINUOUS
 62
     5
 10
-96.576312545467076
 20
-275.61902923717611
 30
0.0
 11
-96.576312545467076
 21
-275.61902923717611
 31
0.0
  0
LINE
  8
DETAIL
  6
CONTINUOUS
 62
     5
 10
-96.576312545467076
 20
-275.61902923717611
 30
0.0
 11
-96.573940749706921
 21
-275.65047122084519
 31
0.0
  0
LINE
  8
DETAIL
  6
CONTINUOUS
 62
     5
 10
-96.573940749706921
 20
-275.65047122084519
 30
0.0
 11
-96.571422345078986
 21
-275.68216211679658
 31
0.0
  0
LINE
  8
DETAIL
  6
CONTINUOUS
 62
     5
 10
-96.571422345078986
 20
-275.68216211679658
 30
0.0
 11
-96.571422345078986
 21
-275.68216211679658
 31
0.0
  0
LINE
  8
DETAIL
  6
CONTINUOUS
 62
     5
 10
-96.571422345078986
 20
-275.68216211679658
 30
0.0
 11
-96.568745732133962
 21
-275.71417195920827
 31
0.0
  0
LINE
  8
DETAIL
  6
CONTINUOUS
 62
     5
 10
-96.568745732133962
 20
-275.71417195920827
 30
0.0
 11
-96.566024411673069
 21
-275.74525578649758
 31
0.0
  0
LINE
  8
DETAIL
  6
CONTINUOUS
 62
     5
 10
-96.566024411673069
 20
-275.74525578649758
 30
0.0
 11
-96.566024411673069
 21
-275.74525578649758
 31
0.0
  0
LINE
  8
DETAIL
  6
CONTINUOUS
 62
     5
 10
-96.566024411673069
 20
-275.74525578649758
 30
0.0
 11
-96.563355741284795
 21
-275.77436387749998
 31
0.0
  0
LINE
  8
DETAIL
  6
CONTINUOUS
 62
     5
 10
-96.563355741284795
 20
-275.77436387749998
 30
0.0
 11
-96.560647405461964
 21
-275.80254246850222
 31
0.0
  0
LINE
  8
DETAIL
  6
CONTINUOUS
 62
     5
 10
-96.560647405461964
 20
-275.80254246850222
 30
0.0
 11
-96.560647405461964
 21
-275.80254246850222
 31
0.0
  0
LINE
  8
DETAIL
  6
CONTINUOUS
 62
     5
 10
-96.560647405461964
 20
-275.80254246850222
 30
0.0
 11
-96.557786953432696
 21
-275.83103531714659
 31
0.0
  0
LINE
  8
DETAIL
  6
CONTINUOUS
 62
     5
 10
-96.557786953432696
 20
-275.83103531714659
 30
0.0
 11
-96.554771066458684
 21
-275.85978030905221
 31
0.0
  0
LINE
  8
DETAIL
  6
CONTINUOUS
 62
     5
 10
-96.554771066458684
 20
-275.85978030905221
 30
0.0
 11
-96.554771066458684
 21
-275.85978030905221
 31
0.0
  0
LINE
  8
DETAIL
  6
CONTINUOUS
 62
     5
 10
-96.554771066458684
 20
-275.85978030905221
 30
0.0
 11
-96.551620378167399
 21
-275.88844943130829
 31
0.0
  0
LINE
  8
DETAIL
  6
CONTINUOUS
 62
     5
 10
-96.551620378167399
 20
-275.88844943130829
 30
0.0
 11
-96.548342199610502
 21
-275.91695694891013
 31
0.0
  0
LINE
  8
DETAIL
  6
CONTINUOUS
 62
     5
 10
-96.548342199610502
 20
-275.91695694891013
 30
0.0
 11
-96.548342199610502
 21
-275.91695694891013
 31
0.0
  0
LINE
  8
DETAIL
  6
CONTINUOUS
 62
     5
 10
-96.548342199610502
 20
-275.91695694891013
 30
0.0
 11
-96.54492655076227
 21
-275.94536188642718
 31
0.0
  0
LINE
  8
DETAIL
  6
CONTINUOUS
 62
     5
 10
-96.54492655076227
 20
-275.94536188642718
 30
0.0
 11
-96.541307609865157
 21
-275.9740600288369
 31
0.0
  0
LINE
  8
DETAIL
  6
CONTINUOUS
 62
     5
 10
-96.541307609865157
 20
-275.9740600288369
 30
0.0
 11
-96.541307609865157
 21
-275.9740600288369
 31
0.0
  0
LINE
  8
DETAIL
  6
CONTINUOUS
 62
     5
 10
-96.541307609865157
 20
-275.9740600288369
 30
0.0
 11
-96.537464767104666
 21
-276.00313402133588
 31
0.0
  0
LINE
  8
DETAIL
  6
CONTINUOUS
 62
     5
 10
-96.537464767104666
 20
-276.00313402133588
 30
0.0
 11
-96.533614102170645
 21
-276.03107718959541
 31
0.0
  0
LINE
  8
DETAIL
  6
CONTINUOUS
 62
     5
 10
-96.533614102170645
 20
-276.03107718959541
 30
0.0
 11
-96.533614102170645
 21
-276.03107718959541
 31
0.0
  0
LINE
  8
DETAIL
  6
CONTINUOUS
 62
     5
 10
-96.533614102170645
 20
-276.03107718959541
 30
0.0
 11
-96.529940880629525
 21
-276.05661956778198
 31
0.0
  0
LINE
  8
DETAIL
  6
CONTINUOUS
 62
     5
 10
-96.529940880629525
 20
-276.05661956778198
 30
0.0
 11
-96.526270422049478
 21
-276.08102734356498
 31
0.0
  0
LINE
  8
DETAIL
  6
CONTINUOUS
 62
     5
 10
-96.526270422049478
 20
-276.08102734356498
 30
0.0
 11
-96.526270422049478
 21
-276.08102734356498
 31
0.0
  0
LINE
  8
DETAIL
  6
CONTINUOUS
 62
     5
 10
-96.526270422049478
 20
-276.08102734356498
 30
0.0
 11
-96.522390142533823
 21
-276.1058058712606
 31
0.0
  0
LINE
  8
DETAIL
  6
CONTINUOUS
 62
     5
 10
-96.522390142533823
 20
-276.1058058712606
 30
0.0
 11
-96.518295790325624
 21
-276.13088101826497
 31
0.0
  0
LINE
  8
DETAIL
  6
CONTINUOUS
 62
     5
 10
-96.518295790325624
 20
-276.13088101826497
 30
0.0
 11
-96.518295790325624
 21
-276.13088101826497
 31
0.0
  0
LINE
  8
DETAIL
  6
CONTINUOUS
 62
     5
 10
-96.518295790325624
 20
-276.13088101826497
 30
0.0
 11
-96.514029121524786
 21
-276.15585531239441
 31
0.0
  0
LINE
  8
DETAIL
  6
CONTINUOUS
 62
     5
 10
-96.514029121524786
 20
-276.15585531239441
 30
0.0
 11
-96.50960759152143
 21
-276.1806174100559
 31
0.0
  0
LINE
  8
DETAIL
  6
CONTINUOUS
 62
     5
 10
-96.50960759152143
 20
-276.1806174100559
 30
0.0
 11
-96.50960759152143
 21
-276.1806174100559
 31
0.0
  0
LINE
  8
DETAIL
  6
CONTINUOUS
 62
     5
 10
-96.50960759152143
 20
-276.1806174100559
 30
0.0
 11
-96.505014798203092
 21
-276.20523624294208
 31
0.0
  0
LINE
  8
DETAIL
  6
CONTINUOUS
 62
     5
 10
-96.505014798203092
 20
-276.20523624294208
 30
0.0
 11
-96.500123210160041
 21
-276.23021571529989
 31
0.0
  0
LINE
  8
DETAIL
  6
CONTINUOUS
 62
     5
 10
-96.500123210160041
 20
-276.23021571529989
 30
0.0
 11
-96.500123210160041
 21
-276.23021571529989
 31
0.0
  0
LINE
  8
DETAIL
  6
CONTINUOUS
 62
     5
 10
-96.500123210160041
 20
-276.23021571529989
 30
0.0
 11
-96.494894718133438
 21
-276.25566196981299
 31
0.0
  0
LINE
  8
DETAIL
  6
CONTINUOUS
 62
     5
 10
-96.494894718133438
 20
-276.25566196981299
 30
0.0
 11
-96.489760030764273
 21
-276.27965513035753
 31
0.0
  0
LINE
  8
DETAIL
  6
CONTINUOUS
 62
     5
 10
-96.489760030764273
 20
-276.27965513035753
 30
0.0
 11
-96.489760030764273
 21
-276.27965513035753
 31
0.0
  0
LINE
  8
DETAIL
  6
CONTINUOUS
 62
     5
 10
-96.489760030764273
 20
-276.27965513035753
 30
0.0
 11
-96.485088724842626
 21
-276.30057711383012
 31
0.0
  0
LINE
  8
DETAIL
  6
CONTINUOUS
 62
     5
 10
-96.485088724842626
 20
-276.30057711383012
 30
0.0
 11
-96.480537031855874
 21
-276.32004302802221
 31
0.0
  0
LINE
  8
DETAIL
  6
CONTINUOUS
 62
     5
 10
-96.480537031855874
 20
-276.32004302802221
 30
0.0
 11
-96.480537031855874
 21
-276.32004302802221
 31
0.0
  0
LINE
  8
DETAIL
  6
CONTINUOUS
 62
     5
 10
-96.480537031855874
 20
-276.32004302802221
 30
0.0
 11
-96.475687175887742
 21
-276.33996944535721
 31
0.0
  0
LINE
  8
DETAIL
  6
CONTINUOUS
 62
     5
 10
-96.475687175887742
 20
-276.33996944535721
 30
0.0
 11
-96.470538696711614
 21
-276.36024560589323
 31
0.0
  0
LINE
  8
DETAIL
  6
CONTINUOUS
 62
     5
 10
-96.470538696711614
 20
-276.36024560589323
 30
0.0
 11
-96.470538696711614
 21
-276.36024560589323
 31
0.0
  0
LINE
  8
DETAIL
  6
CONTINUOUS
 62
     5
 10
-96.470538696711614
 20
-276.36024560589323
 30
0.0
 11
-96.46517977129885
 21
-276.38035660703213
 31
0.0
  0
LINE
  8
DETAIL
  6
CONTINUOUS
 62
     5
 10
-96.46517977129885
 20
-276.38035660703213
 30
0.0
 11
-96.45963580972365
 21
-276.40019830791198
 31
0.0
  0
LINE
  8
DETAIL
  6
CONTINUOUS
 62
     5
 10
-96.45963580972365
 20
-276.40019830791198
 30
0.0
 11
-96.45963580972365
 21
-276.40019830791198
 31
0.0
  0
LINE
  8
DETAIL
  6
CONTINUOUS
 62
     5
 10
-96.45963580972365
 20
-276.40019830791198
 30
0.0
 11
-96.453874968310643
 21
-276.41986532946072
 31
0.0
  0
LINE
  8
DETAIL
  6
CONTINUOUS
 62
     5
 10
-96.453874968310643
 20
-276.41986532946072
 30
0.0
 11
-96.447699155285136
 21
-276.43983657801999
 31
0.0
  0
LINE
  8
DETAIL
  6
CONTINUOUS
 62
     5
 10
-96.447699155285136
 20
-276.43983657801999
 30
0.0
 11
-96.447699155285136
 21
-276.43983657801999
 31
0.0
  0
LINE
  8
DETAIL
  6
CONTINUOUS
 62
     5
 10
-96.447699155285136
 20
-276.43983657801999
 30
0.0
 11
-96.441050656671791
 21
-276.46020005543693
 31
0.0
  0
LINE
  8
DETAIL
  6
CONTINUOUS
 62
     5
 10
-96.441050656671791
 20
-276.46020005543693
 30
0.0
 11
-96.434599517788797
 21
-276.47909586015982
 31
0.0
  0
LINE
  8
DETAIL
  6
CONTINUOUS
 62
     5
 10
-96.434599517788797
 20
-276.47909586015982
 30
0.0
 11
-96.434599517788797
 21
-276.47909586015982
 31
0.0
  0
LINE
  8
DETAIL
  6
CONTINUOUS
 62
     5
 10
-96.434599517788797
 20
-276.47909586015982
 30
0.0
 11
-96.428921275184635
 21
-276.4949609253058
 31
0.0
  0
LINE
  8
DETAIL
  6
CONTINUOUS
 62
     5
 10
-96.428921275184635
 20
-276.4949609253058
 30
0.0
 11
-96.423485671034868
 21
-276.50936742606308
 31
0.0
  0
LINE
  8
DETAIL
  6
CONTINUOUS
 62
     5
 10
-96.423485671034868
 20
-276.50936742606308
 30
0.0
 11
-96.423485671034868
 21
-276.50936742606308
 31
0.0
  0
LINE
  8
DETAIL
  6
CONTINUOUS
 62
     5
 10
-96.423485671034868
 20
-276.50936742606308
 30
0.0
 11
-96.417648186937981
 21
-276.52417659019437
 31
0.0
  0
LINE
  8
DETAIL
  6
CONTINUOUS
 62
     5
 10
-96.417648186937981
 20
-276.52417659019437
 30
0.0
 11
-96.411413056556142
 21
-276.53927061369308
 31
0.0
  0
LINE
  8
DETAIL
  6
CONTINUOUS
 62
     5
 10
-96.411413056556142
 20
-276.53927061369308
 30
0.0
 11
-96.411413056556142
 21
-276.53927061369308
 31
0.0
  0
LINE
  8
DETAIL
  6
CONTINUOUS
 62
     5
 10
-96.411413056556142
 20
-276.53927061369308
 30
0.0
 11
-96.404920668287318
 21
-276.55414234550148
 31
0.0
  0
LINE
  8
DETAIL
  6
CONTINUOUS
 62
     5
 10
-96.404920668287318
 20
-276.55414234550148
 30
0.0
 11
-96.398207277407778
 21
-276.56870627812458
 31
0.0
  0
LINE
  8
DETAIL
  6
CONTINUOUS
 62
     5
 10
-96.398207277407778
 20
-276.56870627812458
 30
0.0
 11
-96.398207277407778
 21
-276.56870627812458
 31
0.0
  0
LINE
  8
DETAIL
  6
CONTINUOUS
 62
     5
 10
-96.398207277407778
 20
-276.56870627812458
 30
0.0
 11
-96.391225051019077
 21
-276.58305542933698
 31
0.0
  0
LINE
  8
DETAIL
  6
CONTINUOUS
 62
     5
 10
-96.391225051019077
 20
-276.58305542933698
 30
0.0
 11
-96.383693936644917
 21
-276.59757527443281
 31
0.0
  0
LINE
  8
DETAIL
  6
CONTINUOUS
 62
     5
 10
-96.383693936644917
 20
-276.59757527443281
 30
0.0
 11
-96.383693936644917
 21
-276.59757527443281
 31
0.0
  0
LINE
  8
DETAIL
  6
CONTINUOUS
 62
     5
 10
-96.383693936644917
 20
-276.59757527443281
 30
0.0
 11
-96.375534079772493
 21
-276.6123265346755
 31
0.0
  0
LINE
  8
DETAIL
  6
CONTINUOUS
 62
     5
 10
-96.375534079772493
 20
-276.6123265346755
 30
0.0
 11
-96.367698637322405
 21
-276.62577845769368
 31
0.0
  0
LINE
  8
DETAIL
  6
CONTINUOUS
 62
     5
 10
-96.367698637322405
 20
-276.62577845769368
 30
0.0
 11
-96.367698637322405
 21
-276.62577845769368
 31
0.0
  0
LINE
  8
DETAIL
  6
CONTINUOUS
 62
     5
 10
-96.367698637322405
 20
-276.62577845769368
 30
0.0
 11
-96.361006523324122
 21
-276.63664540193082
 31
0.0
  0
LINE
  8
DETAIL
  6
CONTINUOUS
 62
     5
 10
-96.361006523324122
 20
-276.63664540193082
 30
0.0
 11
-96.354706668805633
 21
-276.64621364272853
 31
0.0
  0
LINE
  8
DETAIL
  6
CONTINUOUS
 62
     5
 10
-96.354706668805633
 20
-276.64621364272853
 30
0.0
 11
-96.354706668805633
 21
-276.64621364272853
 31
0.0
  0
LINE
  8
DETAIL
  6
CONTINUOUS
 62
     5
 10
-96.354706668805633
 20
-276.64621364272853
 30
0.0
 11
-96.347887151947802
 21
-276.65599705490331
 31
0.0
  0
LINE
  8
DETAIL
  6
CONTINUOUS
 62
     5
 10
-96.347887151947802
 20
-276.65599705490331
 30
0.0
 11
-96.340562622541356
 21
-276.66584799427028
 31
0.0
  0
LINE
  8
DETAIL
  6
CONTINUOUS
 62
     5
 10
-96.340562622541356
 20
-276.66584799427028
 30
0.0
 11
-96.340562622541356
 21
-276.66584799427028
 31
0.0
  0
LINE
  8
DETAIL
  6
CONTINUOUS
 62
     5
 10
-96.340562622541356
 20
-276.66584799427028
 30
0.0
 11
-96.332935308014854
 21
-276.67530390018152
 31
0.0
  0
LINE
  8
DETAIL
  6
CONTINUOUS
 62
     5
 10
-96.332935308014854
 20
-276.67530390018152
 30
0.0
 11
-96.325031174739706
 21
-276.68430406513772
 31
0.0
  0
LINE
  8
DETAIL
  6
CONTINUOUS
 62
     5
 10
-96.325031174739706
 20
-276.68430406513772
 30
0.0
 11
-96.325031174739706
 21
-276.68430406513772
 31
0.0
  0
LINE
  8
DETAIL
  6
CONTINUOUS
 62
     5
 10
-96.325031174739706
 20
-276.68430406513772
 30
0.0
 11
-96.316776741977364
 21
-276.69290177153061
 31
0.0
  0
LINE
  8
DETAIL
  6
CONTINUOUS
 62
     5
 10
-96.316776741977364
 20
-276.69290177153061
 30
0.0
 11
-96.307877001610564
 21
-276.70120440815208
 31
0.0
  0
LINE
  8
DETAIL
  6
CONTINUOUS
 62
     5
 10
-96.307877001610564
 20
-276.70120440815208
 30
0.0
 11
-96.307877001610564
 21
-276.70120440815208
 31
0.0
  0
LINE
  8
DETAIL
  6
CONTINUOUS
 62
     5
 10
-96.307877001610564
 20
-276.70120440815208
 30
0.0
 11
-96.298247156321622
 21
-276.70917832070472
 31
0.0
  0
LINE
  8
DETAIL
  6
CONTINUOUS
 62
     5
 10
-96.298247156321622
 20
-276.70917832070472
 30
0.0
 11
-96.288864779364872
 21
-276.71617157613048
 31
0.0
  0
LINE
  8
DETAIL
  6
CONTINUOUS
 62
     5
 10
-96.288864779364872
 20
-276.71617157613048
 30
0.0
 11
-96.288864779364872
 21
-276.71617157613048
 31
0.0
  0
LINE
  8
DETAIL
  6
CONTINUOUS
 62
     5
 10
-96.288864779364872
 20
-276.71617157613048
 30
0.0
 11
-96.280580196471192
 21
-276.72165782418512
 31
0.0
  0
LINE
  8
DETAIL
  6
CONTINUOUS
 62
     5
 10
-96.280580196471192
 20
-276.72165782418512
 30
0.0
 11
-96.272672372698821
 21
-276.72623132464508
 31
0.0
  0
LINE
  8
DETAIL
  6
CONTINUOUS
 62
     5
 10
-96.272672372698821
 20
-276.72623132464508
 30
0.0
 11
-96.272672372698821
 21
-276.72623132464508
 31
0.0
  0
LINE
  8
DETAIL
  6
CONTINUOUS
 62
     5
 10
-96.272672372698821
 20
-276.72623132464508
 30
0.0
 11
-96.264269730317764
 21
-276.73057230736657
 31
0.0
  0
LINE
  8
DETAIL
  6
CONTINUOUS
 62
     5
 10
-96.264269730317764
 20
-276.73057230736657
 30
0.0
 11
-96.255469881113754
 21
-276.73458427249602
 31
0.0
  0
LINE
  8
DETAIL
  6
CONTINUOUS
 62
     5
 10
-96.255469881113754
 20
-276.73458427249602
 30
0.0
 11
-96.255469881113754
 21
-276.73458427249602
 31
0.0
  0
LINE
  8
DETAIL
  6
CONTINUOUS
 62
     5
 10
-96.255469881113754
 20
-276.73458427249602
 30
0.0
 11
-96.246547756799245
 21
-276.73803507251768
 31
0.0
  0
LINE
  8
DETAIL
  6
CONTINUOUS
 62
     5
 10
-96.246547756799245
 20
-276.73803507251768
 30
0.0
 11
-96.237518379271933
 21
-276.74092669897692
 31
0.0
  0
LINE
  8
DETAIL
  6
CONTINUOUS
 62
     5
 10
-96.237518379271933
 20
-276.74092669897692
 30
0.0
 11
-96.237518379271933
 21
-276.74092669897692
 31
0.0
  0
LINE
  8
DETAIL
  6
CONTINUOUS
 62
     5
 10
-96.237518379271933
 20
-276.74092669897692
 30
0.0
 11
-96.228349405411123
 21
-276.74327972155038
 31
0.0
  0
LINE
  8
DETAIL
  6
CONTINUOUS
 62
     5
 10
-96.228349405411123
 20
-276.74327972155038
 30
0.0
 11
-96.219078941837438
 21
-276.74495488338272
 31
0.0
  0
LINE
  8
DETAIL
  6
CONTINUOUS
 62
     5
 10
-96.219078941837438
 20
-276.74495488338272
 30
0.0
 11
-96.219078941837438
 21
-276.74495488338272
 31
0.0
  0
LINE
  8
DETAIL
  6
CONTINUOUS
 62
     5
 10
-96.219078941837438
 20
-276.74495488338272
 30
0.0
 11
-96.209757235319444
 21
-276.74587426275269
 31
0.0
  0
LINE
  8
DETAIL
  6
CONTINUOUS
 62
     5
 10
-96.209757235319444
 20
-276.74587426275269
 30
0.0
 11
-96.200412643473427
 21
-276.74636510500801
 31
0.0
  0
LINE
  8
DETAIL
  6
CONTINUOUS
 62
     5
 10
84.135702746365041
 20
-275.74474959612292
 30
0.0
 11
84.135930455066273
 21
-275.76436582247533
 31
0.0
  0
LINE
  8
DETAIL
  6
CONTINUOUS
 62
     5
 10
84.135930455066273
 20
-275.76436582247533
 30
0.0
 11
84.136369421119298
 21
-275.78398018438168
 31
0.0
  0
LINE
  8
DETAIL
  6
CONTINUOUS
 62
     5
 10
84.136369421119298
 20
-275.78398018438168
 30
0.0
 11
84.136369421119298
 21
-275.78398018438168
 31
0.0
  0
LINE
  8
DETAIL
  6
CONTINUOUS
 62
     5
 10
84.136369421119298
 20
-275.78398018438168
 30
0.0
 11
84.137186315457939
 21
-275.80359008190862
 31
0.0
  0
LINE
  8
DETAIL
  6
CONTINUOUS
 62
     5
 10
84.137186315457939
 20
-275.80359008190862
 30
0.0
 11
84.138369463344134
 21
-275.82318997317128
 31
0.0
  0
LINE
  8
DETAIL
  6
CONTINUOUS
 62
     5
 10
84.138369463344134
 20
-275.82318997317128
 30
0.0
 11
84.138369463344134
 21
-275.82318997317128
 31
0.0
  0
LINE
  8
DETAIL
  6
CONTINUOUS
 62
     5
 10
84.138369463344134
 20
-275.82318997317128
 30
0.0
 11
84.139874281726861
 21
-275.84277237949851
 31
0.0
  0
LINE
  8
DETAIL
  6
CONTINUOUS
 62
     5
 10
84.139874281726861
 20
-275.84277237949851
 30
0.0
 11
84.141702899981738
 21
-275.86232501701761
 31
0.0
  0
LINE
  8
DETAIL
  6
CONTINUOUS
 62
     5
 10
84.141702899981738
 20
-275.86232501701761
 30
0.0
 11
84.141702899981738
 21
-275.86232501701761
 31
0.0
  0
LINE
  8
DETAIL
  6
CONTINUOUS
 62
     5
 10
84.141702899981738
 20
-275.86232501701761
 30
0.0
 11
84.143866999582997
 21
-275.88183994124353
 31
0.0
  0
LINE
  8
DETAIL
  6
CONTINUOUS
 62
     5
 10
84.143866999582997
 20
-275.88183994124353
 30
0.0
 11
84.146369757975322
 21
-275.90133137044683
 31
0.0
  0
LINE
  8
DETAIL
  6
CONTINUOUS
 62
     5
 10
84.146369757975322
 20
-275.90133137044683
 30
0.0
 11
84.146369757975322
 21
-275.90133137044683
 31
0.0
  0
LINE
  8
DETAIL
  6
CONTINUOUS
 62
     5
 10
84.146369757975322
 20
-275.90133137044683
 30
0.0
 11
84.149209052519041
 21
-275.92079810213158
 31
0.0
  0
LINE
  8
DETAIL
  6
CONTINUOUS
 62
     5
 10
84.149209052519041
 20
-275.92079810213158
 30
0.0
 11
84.152370064267075
 21
-275.94015508798572
 31
0.0
  0
LINE
  8
DETAIL
  6
CONTINUOUS
 62
     5
 10
84.152370064267075
 20
-275.94015508798572
 30
0.0
 11
84.152370064267075
 21
-275.94015508798572
 31
0.0
  0
LINE
  8
DETAIL
  6
CONTINUOUS
 62
     5
 10
84.152370064267075
 20
-275.94015508798572
 30
0.0
 11
84.155840212809949
 21
-275.95932958529488
 31
0.0
  0
LINE
  8
DETAIL
  6
CONTINUOUS
 62
     5
 10
84.155840212809949
 20
-275.95932958529488
 30
0.0
 11
84.159628568196467
 21
-275.97838191956231
 31
0.0
  0
LINE
  8
DETAIL
  6
CONTINUOUS
 62
     5
 10
84.159628568196467
 20
-275.97838191956231
 30
0.0
 11
84.159628568196467
 21
-275.97838191956231
 31
0.0
  0
LINE
  8
DETAIL
  6
CONTINUOUS
 62
     5
 10
84.159628568196467
 20
-275.97838191956231
 30
0.0
 11
84.163746731999709
 21
-275.99738522146481
 31
0.0
  0
LINE
  8
DETAIL
  6
CONTINUOUS
 62
     5
 10
84.163746731999709
 20
-275.99738522146481
 30
0.0
 11
84.168194781429293
 21
-276.01633077415931
 31
0.0
  0
LINE
  8
DETAIL
  6
CONTINUOUS
 62
     5
 10
84.168194781429293
 20
-276.01633077415931
 30
0.0
 11
84.168194781429293
 21
-276.01633077415931
 31
0.0
  0
LINE
  8
DETAIL
  6
CONTINUOUS
 62
     5
 10
84.168194781429293
 20
-276.01633077415931
 30
0.0
 11
84.172969733216519
 21
-276.0351923880271
 31
0.0
  0
LINE
  8
DETAIL
  6
CONTINUOUS
 62
     5
 10
84.172969733216519
 20
-276.0351923880271
 30
0.0
 11
84.178067886544227
 21
-276.05395582986603
 31
0.0
  0
LINE
  8
DETAIL
  6
CONTINUOUS
 62
     5
 10
84.178067886544227
 20
-276.05395582986603
 30
0.0
 11
84.178067886544227
 21
-276.05395582986603
 31
0.0
  0
LINE
  8
DETAIL
  6
CONTINUOUS
 62
     5
 10
84.178067886544227
 20
-276.05395582986603
 30
0.0
 11
84.183488959847864
 21
-276.07261836104129
 31
0.0
  0
LINE
  8
DETAIL
  6
CONTINUOUS
 62
     5
 10
84.183488959847864
 20
-276.07261836104129
 30
0.0
 11
84.189247066119606
 21
-276.09121126477288
 31
0.0
  0
LINE
  8
DETAIL
  6
CONTINUOUS
 62
     5
 10
84.189247066119606
 20
-276.09121126477288
 30
0.0
 11
84.189247066119606
 21
-276.09121126477288
 31
0.0
  0
LINE
  8
DETAIL
  6
CONTINUOUS
 62
     5
 10
84.189247066119606
 20
-276.09121126477288
 30
0.0
 11
84.195345701821225
 21
-276.10973731878698
 31
0.0
  0
LINE
  8
DETAIL
  6
CONTINUOUS
 62
     5
 10
84.195345701821225
 20
-276.10973731878698
 30
0.0
 11
84.201731502733992
 21
-276.12805125697008
 31
0.0
  0
LINE
  8
DETAIL
  6
CONTINUOUS
 62
     5
 10
84.201731502733992
 20
-276.12805125697008
 30
0.0
 11
84.201731502733992
 21
-276.12805125697008
 31
0.0
  0
LINE
  8
DETAIL
  6
CONTINUOUS
 62
     5
 10
84.201731502733992
 20
-276.12805125697008
 30
0.0
 11
84.208358022772927
 21
-276.14602986062442
 31
0.0
  0
LINE
  8
DETAIL
  6
CONTINUOUS
 62
     5
 10
84.208358022772927
 20
-276.14602986062442
 30
0.0
 11
84.215263349072302
 21
-276.16378614454271
 31
0.0
  0
LINE
  8
DETAIL
  6
CONTINUOUS
 62
     5
 10
84.215263349072302
 20
-276.16378614454271
 30
0.0
 11
84.215263349072302
 21
-276.16378614454271
 31
0.0
  0
LINE
  8
DETAIL
  6
CONTINUOUS
 62
     5
 10
84.215263349072302
 20
-276.16378614454271
 30
0.0
 11
84.222494465238697
 21
-276.18145506466539
 31
0.0
  0
LINE
  8
DETAIL
  6
CONTINUOUS
 62
     5
 10
84.222494465238697
 20
-276.18145506466539
 30
0.0
 11
84.230049407547426
 21
-276.19902310803172
 31
0.0
  0
LINE
  8
DETAIL
  6
CONTINUOUS
 62
     5
 10
84.230049407547426
 20
-276.19902310803172
 30
0.0
 11
84.230049407547426
 21
-276.19902310803172
 31
0.0
  0
LINE
  8
DETAIL
  6
CONTINUOUS
 62
     5
 10
84.230049407547426
 20
-276.19902310803172
 30
0.0
 11
84.237915405087506
 21
-276.21644654371329
 31
0.0
  0
LINE
  8
DETAIL
  6
CONTINUOUS
 62
     5
 10
84.237915405087506
 20
-276.21644654371329
 30
0.0
 11
84.246085405537087
 21
-276.23370923781363
 31
0.0
  0
LINE
  8
DETAIL
  6
CONTINUOUS
 62
     5
 10
84.246085405537087
 20
-276.23370923781363
 30
0.0
 11
84.246085405537087
 21
-276.23370923781363
 31
0.0
  0
LINE
  8
DETAIL
  6
CONTINUOUS
 62
     5
 10
84.246085405537087
 20
-276.23370923781363
 30
0.0
 11
84.254560304465258
 21
-276.25081147588838
 31
0.0
  0
LINE
  8
DETAIL
  6
CONTINUOUS
 62
     5
 10
84.254560304465258
 20
-276.25081147588838
 30
0.0
 11
84.263367070419463
 21
-276.26779162426652
 31
0.0
  0
LINE
  8
DETAIL
  6
CONTINUOUS
 62
     5
 10
84.263367070419463
 20
-276.26779162426652
 30
0.0
 11
84.263367070419463
 21
-276.26779162426652
 31
0.0
  0
LINE
  8
DETAIL
  6
CONTINUOUS
 62
     5
 10
84.263367070419463
 20
-276.26779162426652
 30
0.0
 11
84.272511687565952
 21
-276.28465258943879
 31
0.0
  0
LINE
  8
DETAIL
  6
CONTINUOUS
 62
     5
 10
84.272511687565952
 20
-276.28465258943879
 30
0.0
 11
84.281890129572503
 21
-276.30121735776669
 31
0.0
  0
LINE
  8
DETAIL
  6
CONTINUOUS
 62
     5
 10
84.281890129572503
 20
-276.30121735776669
 30
0.0
 11
84.281890129572503
 21
-276.30121735776669
 31
0.0
  0
LINE
  8
DETAIL
  6
CONTINUOUS
 62
     5
 10
84.281890129572503
 20
-276.30121735776669
 30
0.0
 11
84.291412730176035
 21
-276.31733653013998
 31
0.0
  0
LINE
  8
DETAIL
  6
CONTINUOUS
 62
     5
 10
84.291412730176035
 20
-276.31733653013998
 30
0.0
 11
84.301157273892613
 21
-276.3331510856799
 31
0.0
  0
LINE
  8
DETAIL
  6
CONTINUOUS
 62
     5
 10
84.301157273892613
 20
-276.3331510856799
 30
0.0
 11
84.301157273892613
 21
-276.3331510856799
 31
0.0
  0
LINE
  8
DETAIL
  6
CONTINUOUS
 62
     5
 10
84.301157273892613
 20
-276.3331510856799
 30
0.0
 11
84.311218366655112
 21
-276.34882859231271
 31
0.0
  0
LINE
  8
DETAIL
  6
CONTINUOUS
 62
     5
 10
84.311218366655112
 20
-276.34882859231271
 30
0.0
 11
84.321590449281302
 21
-276.36435259494368
 31
0.0
  0
LINE
  8
DETAIL
  6
CONTINUOUS
 62
     5
 10
84.321590449281302
 20
-276.36435259494368
 30
0.0
 11
84.321590449281302
 21
-276.36435259494368
 31
0.0
  0
LINE
  8
DETAIL
  6
CONTINUOUS
 62
     5
 10
84.321590449281302
 20
-276.36435259494368
 30
0.0
 11
84.332246972129496
 21
-276.37967002411142
 31
0.0
  0
LINE
  8
DETAIL
  6
CONTINUOUS
 62
     5
 10
84.332246972129496
 20
-276.37967002411142
 30
0.0
 11
84.343177588831054
 21
-276.39476537590872
 31
0.0
  0
LINE
  8
DETAIL
  6
CONTINUOUS
 62
     5
 10
84.343177588831054
 20
-276.39476537590872
 30
0.0
 11
84.343177588831054
 21
-276.39476537590872
 31
0.0
  0
LINE
  8
DETAIL
  6
CONTINUOUS
 62
     5
 10
84.343177588831054
 20
-276.39476537590872
 30
0.0
 11
84.354384841840329
 21
-276.40964097801827
 31
0.0
  0
LINE
  8
DETAIL
  6
CONTINUOUS
 62
     5
 10
84.354384841840329
 20
-276.40964097801827
 30
0.0
 11
84.365906625634238
 21
-276.42433291892729
 31
0.0
  0
LINE
  8
DETAIL
  6
CONTINUOUS
 62
     5
 10
84.365906625634238
 20
-276.42433291892729
 30
0.0
 11
84.365906625634238
 21
-276.42433291892729
 31
0.0
  0
LINE
  8
DETAIL
  6
CONTINUOUS
 62
     5
 10
84.365906625634238
 20
-276.42433291892729
 30
0.0
 11
84.377750269854687
 21
-276.4388425751315
 31
0.0
  0
LINE
  8
DETAIL
  6
CONTINUOUS
 62
     5
 10
84.377750269854687
 20
-276.4388425751315
 30
0.0
 11
84.389765492783908
 21
-276.45299871434958
 31
0.0
  0
LINE
  8
DETAIL
  6
CONTINUOUS
 62
     5
 10
84.389765492783908
 20
-276.45299871434958
 30
0.0
 11
84.389765492783908
 21
-276.45299871434958
 31
0.0
  0
LINE
  8
DETAIL
  6
CONTINUOUS
 62
     5
 10
84.389765492783908
 20
-276.45299871434958
 30
0.0
 11
84.401823416951402
 21
-276.46665743679199
 31
0.0
  0
LINE
  8
DETAIL
  6
CONTINUOUS
 62
     5
 10
84.401823416951402
 20
-276.46665743679199
 30
0.0
 11
84.414038393238229
 21
-276.47995678141638
 31
0.0
  0
LINE
  8
DETAIL
  6
CONTINUOUS
 62
     5
 10
84.414038393238229
 20
-276.47995678141638
 30
0.0
 11
84.414038393238229
 21
-276.47995678141638
 31
0.0
  0
LINE
  8
DETAIL
  6
CONTINUOUS
 62
     5
 10
84.414038393238229
 20
-276.47995678141638
 30
0.0
 11
84.426548558906688
 21
-276.49306013947688
 31
0.0
  0
LINE
  8
DETAIL
  6
CONTINUOUS
 62
     5
 10
84.426548558906688
 20
-276.49306013947688
 30
0.0
 11
84.439343968397111
 21
-276.50595037266339
 31
0.0
  0
LINE
  8
DETAIL
  6
CONTINUOUS
 62
     5
 10
84.439343968397111
 20
-276.50595037266339
 30
0.0
 11
84.439343968397111
 21
-276.50595037266339
 31
0.0
  0
LINE
  8
DETAIL
  6
CONTINUOUS
 62
     5
 10
84.439343968397111
 20
-276.50595037266339
 30
0.0
 11
84.452384541773768
 21
-276.5185750756275
 31
0.0
  0
LINE
  8
DETAIL
  6
CONTINUOUS
 62
     5
 10
84.452384541773768
 20
-276.5185750756275
 30
0.0
 11
84.465657744422259
 21
-276.53092130443702
 31
0.0
  0
LINE
  8
DETAIL
  6
CONTINUOUS
 62
     5
 10
84.465657744422259
 20
-276.53092130443702
 30
0.0
 11
84.465657744422259
 21
-276.53092130443702
 31
0.0
  0
LINE
  8
DETAIL
  6
CONTINUOUS
 62
     5
 10
84.465657744422259
 20
-276.53092130443702
 30
0.0
 11
84.479167403442716
 21
-276.54299165148888
 31
0.0
  0
LINE
  8
DETAIL
  6
CONTINUOUS
 62
     5
 10
84.479167403442716
 20
-276.54299165148888
 30
0.0
 11
84.492955247474811
 21
-276.55481139308682
 31
0.0
  0
LINE
  8
DETAIL
  6
CONTINUOUS
 62
     5
 10
84.492955247474811
 20
-276.55481139308682
 30
0.0
 11
84.492955247474811
 21
-276.55481139308682
 31
0.0
  0
LINE
  8
DETAIL
  6
CONTINUOUS
 62
     5
 10
84.492955247474811
 20
-276.55481139308682
 30
0.0
 11
84.507027692673546
 21
-276.56637892725041
 31
0.0
  0
LINE
  8
DETAIL
  6
CONTINUOUS
 62
     5
 10
84.507027692673546
 20
-276.56637892725041
 30
0.0
 11
84.521212003716073
 21
-276.57756245495938
 31
0.0
  0
LINE
  8
DETAIL
  6
CONTINUOUS
 62
     5
 10
84.521212003716073
 20
-276.57756245495938
 30
0.0
 11
84.521212003716073
 21
-276.57756245495938
 31
0.0
  0
LINE
  8
DETAIL
  6
CONTINUOUS
 62
     5
 10
84.521212003716073
 20
-276.57756245495938
 30
0.0
 11
84.535360455354521
 21
-276.58825185190273
 31
0.0
  0
LINE
  8
DETAIL
  6
CONTINUOUS
 62
     5
 10
84.535360455354521
 20
-276.58825185190273
 30
0.0
 11
84.54960451412262
 21
-276.59855388965372
 31
0.0
  0
LINE
  8
DETAIL
  6
CONTINUOUS
 62
     5
 10
84.54960451412262
 20
-276.59855388965372
 30
0.0
 11
84.54960451412262
 21
-276.59855388965372
 31
0.0
  0
LINE
  8
DETAIL
  6
CONTINUOUS
 62
     5
 10
84.54960451412262
 20
-276.59855388965372
 30
0.0
 11
84.564102360561947
 21
-276.608594396429
 31
0.0
  0
LINE
  8
DETAIL
  6
CONTINUOUS
 62
     5
 10
84.564102360561947
 20
-276.608594396429
 30
0.0
 11
84.578839839467491
 21
-276.61835853114229
 31
0.0
  0
LINE
  8
DETAIL
  6
CONTINUOUS
 62
     5
 10
84.578839839467491
 20
-276.61835853114229
 30
0.0
 11
84.578839839467491
 21
-276.61835853114229
 31
0.0
  0
LINE
  8
DETAIL
  6
CONTINUOUS
 62
     5
 10
84.578839839467491
 20
-276.61835853114229
 30
0.0
 11
84.593768561167963
 21
-276.62780450106652
 31
0.0
  0
LINE
  8
DETAIL
  6
CONTINUOUS
 62
     5
 10
84.593768561167963
 20
-276.62780450106652
 30
0.0
 11
84.608875533877153
 21
-276.63692337621768
 31
0.0
  0
LINE
  8
DETAIL
  6
CONTINUOUS
 62
     5
 10
84.608875533877153
 20
-276.63692337621768
 30
0.0
 11
84.608875533877153
 21
-276.63692337621768
 31
0.0
  0
LINE
  8
DETAIL
  6
CONTINUOUS
 62
     5
 10
84.608875533877153
 20
-276.63692337621768
 30
0.0
 11
84.624164301331575
 21
-276.64571674688227
 31
0.0
  0
LINE
  8
DETAIL
  6
CONTINUOUS
 62
     5
 10
84.624164301331575
 20
-276.64571674688227
 30
0.0
 11
84.639669151477619
 21
-276.65419542167137
 31
0.0
  0
LINE
  8
DETAIL
  6
CONTINUOUS
 62
     5
 10
84.639669151477619
 20
-276.65419542167137
 30
0.0
 11
84.639669151477619
 21
-276.65419542167137
 31
0.0
  0
LINE
  8
DETAIL
  6
CONTINUOUS
 62
     5
 10
84.639669151477619
 20
-276.65419542167137
 30
0.0
 11
84.655392464633451
 21
-276.66235507976512
 31
0.0
  0
LINE
  8
DETAIL
  6
CONTINUOUS
 62
     5
 10
84.655392464633451
 20
-276.66235507976512
 30
0.0
 11
84.671178246395584
 21
-276.67012166429441
 31
0.0
  0
LINE
  8
DETAIL
  6
CONTINUOUS
 62
     5
 10
84.671178246395584
 20
-276.67012166429441
 30
0.0
 11
84.671178246395584
 21
-276.67012166429441
 31
0.0
  0
LINE
  8
DETAIL
  6
CONTINUOUS
 62
     5
 10
84.671178246395584
 20
-276.67012166429441
 30
0.0
 11
84.686893371726683
 21
-276.67743395442221
 31
0.0
  0
LINE
  8
DETAIL
  6
CONTINUOUS
 62
     5
 10
84.686893371726683
 20
-276.67743395442221
 30
0.0
 11
84.702654567772697
 21
-276.68435180949518
 31
0.0
  0
LINE
  8
DETAIL
  6
CONTINUOUS
 62
     5
 10
84.702654567772697
 20
-276.68435180949518
 30
0.0
 11
84.702654567772697
 21
-276.68435180949518
 31
0.0
  0
LINE
  8
DETAIL
  6
CONTINUOUS
 62
     5
 10
84.702654567772697
 20
-276.68435180949518
 30
0.0
 11
84.718602040673545
 21
-276.69094537268211
 31
0.0
  0
LINE
  8
DETAIL
  6
CONTINUOUS
 62
     5
 10
84.718602040673545
 20
-276.69094537268211
 30
0.0
 11
84.73472006036036
 21
-276.69720484225428
 31
0.0
  0
LINE
  8
DETAIL
  6
CONTINUOUS
 62
     5
 10
84.73472006036036
 20
-276.69720484225428
 30
0.0
 11
84.73472006036036
 21
-276.69720484225428
 31
0.0
  0
LINE
  8
DETAIL
  6
CONTINUOUS
 62
     5
 10
84.73472006036036
 20
-276.69720484225428
 30
0.0
 11
84.750962761985875
 21
-276.70310545796377
 31
0.0
  0
LINE
  8
DETAIL
  6
CONTINUOUS
 62
     5
 10
84.750962761985875
 20
-276.70310545796377
 30
0.0
 11
84.767319677795285
 21
-276.70864257038528
 31
0.0
  0
LINE
  8
DETAIL
  6
CONTINUOUS
 62
     5
 10
84.767319677795285
 20
-276.70864257038528
 30
0.0
 11
84.767319677795285
 21
-276.70864257038528
 31
0.0
  0
LINE
  8
DETAIL
  6
CONTINUOUS
 62
     5
 10
84.767319677795285
 20
-276.70864257038528
 30
0.0
 11
84.783792776266182
 21
-276.71381643319847
 31
0.0
  0
LINE
  8
DETAIL
  6
CONTINUOUS
 62
     5
 10
84.783792776266182
 20
-276.71381643319847
 30
0.0
 11
84.800398373713961
 21
-276.71862680170108
 31
0.0
  0
LINE
  8
DETAIL
  6
CONTINUOUS
 62
     5
 10
84.800398373713961
 20
-276.71862680170108
 30
0.0
 11
84.800398373713961
 21
-276.71862680170108
 31
0.0
  0
LINE
  8
DETAIL
  6
CONTINUOUS
 62
     5
 10
84.800398373713961
 20
-276.71862680170108
 30
0.0
 11
84.817133176302264
 21
-276.72306877727169
 31
0.0
  0
LINE
  8
DETAIL
  6
CONTINUOUS
 62
     5
 10
84.817133176302264
 20
-276.72306877727169
 30
0.0
 11
84.833901101753099
 21
-276.72711934401599
 31
0.0
  0
LINE
  8
DETAIL
  6
CONTINUOUS
 62
     5
 10
84.833901101753099
 20
-276.72711934401599
 30
0.0
 11
84.833901101753099
 21
-276.72711934401599
 31
0.0
  0
LINE
  8
DETAIL
  6
CONTINUOUS
 62
     5
 10
84.833901101753099
 20
-276.72711934401599
 30
0.0
 11
84.850619665030081
 21
-276.7307602439912
 31
0.0
  0
LINE
  8
DETAIL
  6
CONTINUOUS
 62
     5
 10
84.850619665030081
 20
-276.7307602439912
 30
0.0
 11
84.867353558508626
 21
-276.73401036833212
 31
0.0
  0
LINE
  8
DETAIL
  6
CONTINUOUS
 62
     5
 10
84.867353558508626
 20
-276.73401036833212
 30
0.0
 11
84.867353558508626
 21
-276.73401036833212
 31
0.0
  0
LINE
  8
DETAIL
  6
CONTINUOUS
 62
     5
 10
84.867353558508626
 20
-276.73401036833212
 30
0.0
 11
84.884180637810005
 21
-276.73689083250309
 31
0.0
  0
LINE
  8
DETAIL
  6
CONTINUOUS
 62
     5
 10
84.884180637810005
 20
-276.73689083250309
 30
0.0
 11
84.901084234123573
 21
-276.73939450020453
 31
0.0
  0
LINE
  8
DETAIL
  6
CONTINUOUS
 62
     5
 10
84.901084234123573
 20
-276.73939450020453
 30
0.0
 11
84.901084234123573
 21
-276.73939450020453
 31
0.0
  0
LINE
  8
DETAIL
  6
CONTINUOUS
 62
     5
 10
84.901084234123573
 20
-276.73939450020453
 30
0.0
 11
84.918030486940324
 21
-276.74151255304349
 31
0.0
  0
LINE
  8
DETAIL
  6
CONTINUOUS
 62
     5
 10
84.918030486940324
 20
-276.74151255304349
 30
0.0
 11
84.935011293383354
 21
-276.74325769601859
 31
0.0
  0
LINE
  8
DETAIL
  6
CONTINUOUS
 62
     5
 10
84.935011293383354
 20
-276.74325769601859
 30
0.0
 11
84.935011293383354
 21
-276.74325769601859
 31
0.0
  0
LINE
  8
DETAIL
  6
CONTINUOUS
 62
     5
 10
84.935011293383354
 20
-276.74325769601859
 30
0.0
 11
84.95202286345932
 21
-276.74463355452508
 31
0.0
  0
LINE
  8
DETAIL
  6
CONTINUOUS
 62
     5
 10
84.95202286345932
 20
-276.74463355452508
 30
0.0
 11
84.969052901072246
 21
-276.74558591215828
 31
0.0
  0
LINE
  8
DETAIL
  6
CONTINUOUS
 62
     5
 10
84.969052901072246
 20
-276.74558591215828
 30
0.0
 11
84.969052901072246
 21
-276.74558591215828
 31
0.0
  0
LINE
  8
DETAIL
  6
CONTINUOUS
 62
     5
 10
84.969052901072246
 20
-276.74558591215828
 30
0.0
 11
84.98608905029505
 21
-276.74609855301588
 31
0.0
  0
LINE
  8
DETAIL
  6
CONTINUOUS
 62
     5
 10
84.98608905029505
 20
-276.74609855301588
 30
0.0
 11
85.003127221975774
 21
-276.74636510500801
 31
0.0
  0
LINE
  8
DETAIL
  6
CONTINUOUS
 62
     5
 10
-85.003127221976001
 20
-276.74636510500801
 30
0.0
 11
-84.98608905029505
 21
-276.74609855301588
 31
0.0
  0
LINE
  8
DETAIL
  6
CONTINUOUS
 62
     5
 10
-84.98608905029505
 20
-276.74609855301588
 30
0.0
 11
-84.969052901072459
 21
-276.74558591215828
 31
0.0
  0
LINE
  8
DETAIL
  6
CONTINUOUS
 62
     5
 10
-84.969052901072459
 20
-276.74558591215828
 30
0.0
 11
-84.969052901072459
 21
-276.74558591215828
 31
0.0
  0
LINE
  8
DETAIL
  6
CONTINUOUS
 62
     5
 10
-84.969052901072459
 20
-276.74558591215828
 30
0.0
 11
-84.952022863459305
 21
-276.74463355452508
 31
0.0
  0
LINE
  8
DETAIL
  6
CONTINUOUS
 62
     5
 10
-84.952022863459305
 20
-276.74463355452508
 30
0.0
 11
-84.93501129338334
 21
-276.74325769601859
 31
0.0
  0
LINE
  8
DETAIL
  6
CONTINUOUS
 62
     5
 10
-84.93501129338334
 20
-276.74325769601859
 30
0.0
 11
-84.93501129338334
 21
-276.74325769601859
 31
0.0
  0
LINE
  8
DETAIL
  6
CONTINUOUS
 62
     5
 10
-84.93501129338334
 20
-276.74325769601859
 30
0.0
 11
-84.91803048694031
 21
-276.74151255304349
 31
0.0
  0
LINE
  8
DETAIL
  6
CONTINUOUS
 62
     5
 10
-84.91803048694031
 20
-276.74151255304349
 30
0.0
 11
-84.901084234123786
 21
-276.73939450020453
 31
0.0
  0
LINE
  8
DETAIL
  6
CONTINUOUS
 62
     5
 10
-84.901084234123786
 20
-276.73939450020453
 30
0.0
 11
-84.901084234123786
 21
-276.73939450020453
 31
0.0
  0
LINE
  8
DETAIL
  6
CONTINUOUS
 62
     5
 10
-84.901084234123786
 20
-276.73939450020453
 30
0.0
 11
-84.884180637810104
 21
-276.73689083250309
 31
0.0
  0
LINE
  8
DETAIL
  6
CONTINUOUS
 62
     5
 10
-84.884180637810104
 20
-276.73689083250309
 30
0.0
 11
-84.867353558508626
 21
-276.73401036833212
 31
0.0
  0
LINE
  8
DETAIL
  6
CONTINUOUS
 62
     5
 10
-84.867353558508626
 20
-276.73401036833212
 30
0.0
 11
-84.867353558508626
 21
-276.73401036833212
 31
0.0
  0
LINE
  8
DETAIL
  6
CONTINUOUS
 62
     5
 10
-84.867353558508626
 20
-276.73401036833212
 30
0.0
 11
-84.850619665030081
 21
-276.7307602439912
 31
0.0
  0
LINE
  8
DETAIL
  6
CONTINUOUS
 62
     5
 10
-84.850619665030081
 20
-276.7307602439912
 30
0.0
 11
-84.833901101753085
 21
-276.72711934401599
 31
0.0
  0
LINE
  8
DETAIL
  6
CONTINUOUS
 62
     5
 10
-84.833901101753085
 20
-276.72711934401599
 30
0.0
 11
-84.833901101753085
 21
-276.72711934401599
 31
0.0
  0
LINE
  8
DETAIL
  6
CONTINUOUS
 62
     5
 10
-84.833901101753085
 20
-276.72711934401599
 30
0.0
 11
-84.817133176302264
 21
-276.72306877727169
 31
0.0
  0
LINE
  8
DETAIL
  6
CONTINUOUS
 62
     5
 10
-84.817133176302264
 20
-276.72306877727169
 30
0.0
 11
-84.800398373713946
 21
-276.71862680170108
 31
0.0
  0
LINE
  8
DETAIL
  6
CONTINUOUS
 62
     5
 10
-84.800398373713946
 20
-276.71862680170108
 30
0.0
 11
-84.800398373713946
 21
-276.71862680170108
 31
0.0
  0
LINE
  8
DETAIL
  6
CONTINUOUS
 62
     5
 10
-84.800398373713946
 20
-276.71862680170108
 30
0.0
 11
-84.783792776266182
 21
-276.71381643319933
 31
0.0
  0
LINE
  8
DETAIL
  6
CONTINUOUS
 62
     5
 10
-84.783792776266182
 20
-276.71381643319933
 30
0.0
 11
-84.767319677795413
 21
-276.70864257038528
 31
0.0
  0
LINE
  8
DETAIL
  6
CONTINUOUS
 62
     5
 10
-84.767319677795413
 20
-276.70864257038528
 30
0.0
 11
-84.767319677795413
 21
-276.70864257038528
 31
0.0
  0
LINE
  8
DETAIL
  6
CONTINUOUS
 62
     5
 10
-84.767319677795413
 20
-276.70864257038528
 30
0.0
 11
-84.750962761986088
 21
-276.70310545796377
 31
0.0
  0
LINE
  8
DETAIL
  6
CONTINUOUS
 62
     5
 10
-84.750962761986088
 20
-276.70310545796377
 30
0.0
 11
-84.734720060360573
 21
-276.69720484225428
 31
0.0
  0
LINE
  8
DETAIL
  6
CONTINUOUS
 62
     5
 10
-84.734720060360573
 20
-276.69720484225428
 30
0.0
 11
-84.734720060360573
 21
-276.69720484225428
 31
0.0
  0
LINE
  8
DETAIL
  6
CONTINUOUS
 62
     5
 10
-84.734720060360573
 20
-276.69720484225428
 30
0.0
 11
-84.718602040673545
 21
-276.69094537268211
 31
0.0
  0
LINE
  8
DETAIL
  6
CONTINUOUS
 62
     5
 10
-84.718602040673545
 20
-276.69094537268211
 30
0.0
 11
-84.702654567772811
 21
-276.68435180949518
 31
0.0
  0
LINE
  8
DETAIL
  6
CONTINUOUS
 62
     5
 10
-84.702654567772811
 20
-276.68435180949518
 30
0.0
 11
-84.702654567772811
 21
-276.68435180949518
 31
0.0
  0
LINE
  8
DETAIL
  6
CONTINUOUS
 62
     5
 10
-84.702654567772811
 20
-276.68435180949518
 30
0.0
 11
-84.686893371726683
 21
-276.67743395442221
 31
0.0
  0
LINE
  8
DETAIL
  6
CONTINUOUS
 62
     5
 10
-84.686893371726683
 20
-276.67743395442221
 30
0.0
 11
-84.671178246395584
 21
-276.67012166429441
 31
0.0
  0
LINE
  8
DETAIL
  6
CONTINUOUS
 62
     5
 10
-84.671178246395584
 20
-276.67012166429441
 30
0.0
 11
-84.671178246395584
 21
-276.67012166429441
 31
0.0
  0
LINE
  8
DETAIL
  6
CONTINUOUS
 62
     5
 10
-84.671178246395584
 20
-276.67012166429441
 30
0.0
 11
-84.655392464633337
 21
-276.66235507976512
 31
0.0
  0
LINE
  8
DETAIL
  6
CONTINUOUS
 62
     5
 10
-84.655392464633337
 20
-276.66235507976512
 30
0.0
 11
-84.639669151478643
 21
-276.65419542167137
 31
0.0
  0
LINE
  8
DETAIL
  6
CONTINUOUS
 62
     5
 10
-84.639669151478643
 20
-276.65419542167137
 30
0.0
 11
-84.639669151478643
 21
-276.65419542167137
 31
0.0
  0
LINE
  8
DETAIL
  6
CONTINUOUS
 62
     5
 10
-84.639669151478643
 20
-276.65419542167137
 30
0.0
 11
-84.624164301335099
 21
-276.64571674688227
 31
0.0
  0
LINE
  8
DETAIL
  6
CONTINUOUS
 62
     5
 10
-84.624164301335099
 20
-276.64571674688227
 30
0.0
 11
-84.608875533884984
 21
-276.63692337621768
 31
0.0
  0
LINE
  8
DETAIL
  6
CONTINUOUS
 62
     5
 10
-84.608875533884984
 20
-276.63692337621768
 30
0.0
 11
-84.608875533884984
 21
-276.63692337621768
 31
0.0
  0
LINE
  8
DETAIL
  6
CONTINUOUS
 62
     5
 10
-84.608875533884984
 20
-276.63692337621768
 30
0.0
 11
-84.593768561183651
 21
-276.62780450106652
 31
0.0
  0
LINE
  8
DETAIL
  6
CONTINUOUS
 62
     5
 10
-84.593768561183651
 20
-276.62780450106652
 30
0.0
 11
-84.578839839494307
 21
-276.61835853114229
 31
0.0
  0
LINE
  8
DETAIL
  6
CONTINUOUS
 62
     5
 10
-84.578839839494307
 20
-276.61835853114229
 30
0.0
 11
-84.578839839494307
 21
-276.61835853114229
 31
0.0
  0
LINE
  8
DETAIL
  6
CONTINUOUS
 62
     5
 10
-84.578839839494307
 20
-276.61835853114229
 30
0.0
 11
-84.564102360604593
 21
-276.608594396429
 31
0.0
  0
LINE
  8
DETAIL
  6
CONTINUOUS
 62
     5
 10
-84.564102360604593
 20
-276.608594396429
 30
0.0
 11
-84.549604514186186
 21
-276.59855388965372
 31
0.0
  0
LINE
  8
DETAIL
  6
CONTINUOUS
 62
     5
 10
-84.549604514186186
 20
-276.59855388965372
 30
0.0
 11
-84.549604514186186
 21
-276.59855388965372
 31
0.0
  0
LINE
  8
DETAIL
  6
CONTINUOUS
 62
     5
 10
-84.549604514186186
 20
-276.59855388965372
 30
0.0
 11
-84.535360455444788
 21
-276.58825185190273
 31
0.0
  0
LINE
  8
DETAIL
  6
CONTINUOUS
 62
     5
 10
-84.535360455444788
 20
-276.58825185190273
 30
0.0
 11
-84.521212003840219
 21
-276.57756245495938
 31
0.0
  0
LINE
  8
DETAIL
  6
CONTINUOUS
 62
     5
 10
-84.521212003840219
 20
-276.57756245495938
 30
0.0
 11
-84.521212003840219
 21
-276.57756245495938
 31
0.0
  0
LINE
  8
DETAIL
  6
CONTINUOUS
 62
     5
 10
-84.521212003840219
 20
-276.57756245495938
 30
0.0
 11
-84.507027692839543
 21
-276.56637892725041
 31
0.0
  0
LINE
  8
DETAIL
  6
CONTINUOUS
 62
     5
 10
-84.507027692839543
 20
-276.56637892725041
 30
0.0
 11
-84.492955247688187
 21
-276.55481139308682
 31
0.0
  0
LINE
  8
DETAIL
  6
CONTINUOUS
 62
     5
 10
-84.492955247688187
 20
-276.55481139308682
 30
0.0
 11
-84.492955247688187
 21
-276.55481139308682
 31
0.0
  0
LINE
  8
DETAIL
  6
CONTINUOUS
 62
     5
 10
-84.492955247688187
 20
-276.55481139308682
 30
0.0
 11
-84.479167403706683
 21
-276.54299165148888
 31
0.0
  0
LINE
  8
DETAIL
  6
CONTINUOUS
 62
     5
 10
-84.479167403706683
 20
-276.54299165148888
 30
0.0
 11
-84.46565774473811
 21
-276.53092130443702
 31
0.0
  0
LINE
  8
DETAIL
  6
CONTINUOUS
 62
     5
 10
-84.46565774473811
 20
-276.53092130443702
 30
0.0
 11
-84.46565774473811
 21
-276.53092130443702
 31
0.0
  0
LINE
  8
DETAIL
  6
CONTINUOUS
 62
     5
 10
-84.46565774473811
 20
-276.53092130443702
 30
0.0
 11
-84.452384542139839
 21
-276.5185750756275
 31
0.0
  0
LINE
  8
DETAIL
  6
CONTINUOUS
 62
     5
 10
-84.452384542139839
 20
-276.5185750756275
 30
0.0
 11
-84.439343968809922
 21
-276.50595037266339
 31
0.0
  0
LINE
  8
DETAIL
  6
CONTINUOUS
 62
     5
 10
-84.439343968809922
 20
-276.50595037266339
 30
0.0
 11
-84.439343968809922
 21
-276.50595037266339
 31
0.0
  0
LINE
  8
DETAIL
  6
CONTINUOUS
 62
     5
 10
-84.439343968809922
 20
-276.50595037266339
 30
0.0
 11
-84.426548559360072
 21
-276.49306013947688
 31
0.0
  0
LINE
  8
DETAIL
  6
CONTINUOUS
 62
     5
 10
-84.426548559360072
 20
-276.49306013947688
 30
0.0
 11
-84.414038393724127
 21
-276.47995678141638
 31
0.0
  0
LINE
  8
DETAIL
  6
CONTINUOUS
 62
     5
 10
-84.414038393724127
 20
-276.47995678141638
 30
0.0
 11
-84.414038393724127
 21
-276.47995678141638
 31
0.0
  0
LINE
  8
DETAIL
  6
CONTINUOUS
 62
     5
 10
-84.414038393724127
 20
-276.47995678141638
 30
0.0
 11
-84.401823417459568
 21
-276.46665743679199
 31
0.0
  0
LINE
  8
DETAIL
  6
CONTINUOUS
 62
     5
 10
-84.401823417459568
 20
-276.46665743679199
 30
0.0
 11
-84.389765493301411
 21
-276.45299871434958
 31
0.0
  0
LINE
  8
DETAIL
  6
CONTINUOUS
 62
     5
 10
-84.389765493301411
 20
-276.45299871434958
 30
0.0
 11
-84.389765493301411
 21
-276.45299871434958
 31
0.0
  0
LINE
  8
DETAIL
  6
CONTINUOUS
 62
     5
 10
-84.389765493301411
 20
-276.45299871434958
 30
0.0
 11
-84.377750270366846
 21
-276.4388425751315
 31
0.0
  0
LINE
  8
DETAIL
  6
CONTINUOUS
 62
     5
 10
-84.377750270366846
 20
-276.4388425751315
 30
0.0
 11
-84.365906626128194
 21
-276.42433291892729
 31
0.0
  0
LINE
  8
DETAIL
  6
CONTINUOUS
 62
     5
 10
-84.365906626128194
 20
-276.42433291892729
 30
0.0
 11
-84.365906626128194
 21
-276.42433291892729
 31
0.0
  0
LINE
  8
DETAIL
  6
CONTINUOUS
 62
     5
 10
-84.365906626128194
 20
-276.42433291892729
 30
0.0
 11
-84.354384842306203
 21
-276.40964097801827
 31
0.0
  0
LINE
  8
DETAIL
  6
CONTINUOUS
 62
     5
 10
-84.354384842306203
 20
-276.40964097801827
 30
0.0
 11
-84.343177589262368
 21
-276.39476537590872
 31
0.0
  0
LINE
  8
DETAIL
  6
CONTINUOUS
 62
     5
 10
-84.343177589262368
 20
-276.39476537590872
 30
0.0
 11
-84.343177589262368
 21
-276.39476537590872
 31
0.0
  0
LINE
  8
DETAIL
  6
CONTINUOUS
 62
     5
 10
-84.343177589262368
 20
-276.39476537590872
 30
0.0
 11
-84.332246972522839
 21
-276.37967002411142
 31
0.0
  0
LINE
  8
DETAIL
  6
CONTINUOUS
 62
     5
 10
-84.332246972522839
 20
-276.37967002411142
 30
0.0
 11
-84.321590449636219
 21
-276.36435259494368
 31
0.0
  0
LINE
  8
DETAIL
  6
CONTINUOUS
 62
     5
 10
-84.321590449636219
 20
-276.36435259494368
 30
0.0
 11
-84.321590449636219
 21
-276.36435259494368
 31
0.0
  0
LINE
  8
DETAIL
  6
CONTINUOUS
 62
     5
 10
-84.321590449636219
 20
-276.36435259494368
 30
0.0
 11
-84.311218366974344
 21
-276.34882859231271
 31
0.0
  0
LINE
  8
DETAIL
  6
CONTINUOUS
 62
     5
 10
-84.311218366974344
 20
-276.34882859231271
 30
0.0
 11
-84.301157274181932
 21
-276.3331510856799
 31
0.0
  0
LINE
  8
DETAIL
  6
CONTINUOUS
 62
     5
 10
-84.301157274181932
 20
-276.3331510856799
 30
0.0
 11
-84.301157274181932
 21
-276.3331510856799
 31
0.0
  0
LINE
  8
DETAIL
  6
CONTINUOUS
 62
     5
 10
-84.301157274181932
 20
-276.3331510856799
 30
0.0
 11
-84.291412730444222
 21
-276.31733653013998
 31
0.0
  0
LINE
  8
DETAIL
  6
CONTINUOUS
 62
     5
 10
-84.291412730444222
 20
-276.31733653013998
 30
0.0
 11
-84.28189012983205
 21
-276.30121735776669
 31
0.0
  0
LINE
  8
DETAIL
  6
CONTINUOUS
 62
     5
 10
-84.28189012983205
 20
-276.30121735776669
 30
0.0
 11
-84.28189012983205
 21
-276.30121735776669
 31
0.0
  0
LINE
  8
DETAIL
  6
CONTINUOUS
 62
     5
 10
-84.28189012983205
 20
-276.30121735776669
 30
0.0
 11
-84.272511687831056
 21
-276.28465258943828
 31
0.0
  0
LINE
  8
DETAIL
  6
CONTINUOUS
 62
     5
 10
-84.272511687831056
 20
-276.28465258943828
 30
0.0
 11
-84.263367070702543
 21
-276.26779162426652
 31
0.0
  0
LINE
  8
DETAIL
  6
CONTINUOUS
 62
     5
 10
-84.263367070702543
 20
-276.26779162426652
 30
0.0
 11
-84.263367070702543
 21
-276.26779162426652
 31
0.0
  0
LINE
  8
DETAIL
  6
CONTINUOUS
 62
     5
 10
-84.263367070702543
 20
-276.26779162426652
 30
0.0
 11
-84.254560304776646
 21
-276.25081147588838
 31
0.0
  0
LINE
  8
DETAIL
  6
CONTINUOUS
 62
     5
 10
-84.254560304776646
 20
-276.25081147588838
 30
0.0
 11
-84.246085405883022
 21
-276.23370923781363
 31
0.0
  0
LINE
  8
DETAIL
  6
CONTINUOUS
 62
     5
 10
-84.246085405883022
 20
-276.23370923781363
 30
0.0
 11
-84.246085405883022
 21
-276.23370923781363
 31
0.0
  0
LINE
  8
DETAIL
  6
CONTINUOUS
 62
     5
 10
-84.246085405883022
 20
-276.23370923781363
 30
0.0
 11
-84.237915405471654
 21
-276.21644654371329
 31
0.0
  0
LINE
  8
DETAIL
  6
CONTINUOUS
 62
     5
 10
-84.237915405471654
 20
-276.21644654371329
 30
0.0
 11
-84.23004940797
 21
-276.19902310803172
 31
0.0
  0
LINE
  8
DETAIL
  6
CONTINUOUS
 62
     5
 10
-84.23004940797
 20
-276.19902310803172
 30
0.0
 11
-84.23004940797
 21
-276.19902310803172
 31
0.0
  0
LINE
  8
DETAIL
  6
CONTINUOUS
 62
     5
 10
-84.23004940797
 20
-276.19902310803172
 30
0.0
 11
-84.22249446569684
 21
-276.18145506466539
 31
0.0
  0
LINE
  8
DETAIL
  6
CONTINUOUS
 62
     5
 10
-84.22249446569684
 20
-276.18145506466539
 30
0.0
 11
-84.215263349560033
 21
-276.16378614454271
 31
0.0
  0
LINE
  8
DETAIL
  6
CONTINUOUS
 62
     5
 10
-84.215263349560033
 20
-276.16378614454271
 30
0.0
 11
-84.215263349560033
 21
-276.16378614454271
 31
0.0
  0
LINE
  8
DETAIL
  6
CONTINUOUS
 62
     5
 10
-84.215263349560033
 20
-276.16378614454271
 30
0.0
 11
-84.20835802328132
 21
-276.14602986062442
 31
0.0
  0
LINE
  8
DETAIL
  6
CONTINUOUS
 62
     5
 10
-84.20835802328132
 20
-276.14602986062442
 30
0.0
 11
-84.201731503250898
 21
-276.12805125697008
 31
0.0
  0
LINE
  8
DETAIL
  6
CONTINUOUS
 62
     5
 10
-84.201731503250898
 20
-276.12805125697008
 30
0.0
 11
-84.201731503250898
 21
-276.12805125697008
 31
0.0
  0
LINE
  8
DETAIL
  6
CONTINUOUS
 62
     5
 10
-84.201731503250898
 20
-276.12805125697008
 30
0.0
 11
-84.195345702332119
 21
-276.1097373187863
 31
0.0
  0
LINE
  8
DETAIL
  6
CONTINUOUS
 62
     5
 10
-84.195345702332119
 20
-276.1097373187863
 30
0.0
 11
-84.189247066610847
 21
-276.09121126477288
 31
0.0
  0
LINE
  8
DETAIL
  6
CONTINUOUS
 62
     5
 10
-84.189247066610847
 20
-276.09121126477288
 30
0.0
 11
-84.189247066610847
 21
-276.09121126477288
 31
0.0
  0
LINE
  8
DETAIL
  6
CONTINUOUS
 62
     5
 10
-84.189247066610847
 20
-276.09121126477288
 30
0.0
 11
-84.183488960308296
 21
-276.07261836104129
 31
0.0
  0
LINE
  8
DETAIL
  6
CONTINUOUS
 62
     5
 10
-84.183488960308296
 20
-276.07261836104129
 30
0.0
 11
-84.178067886965223
 21
-276.05395582986603
 31
0.0
  0
LINE
  8
DETAIL
  6
CONTINUOUS
 62
     5
 10
-84.178067886965223
 20
-276.05395582986603
 30
0.0
 11
-84.178067886965223
 21
-276.05395582986603
 31
0.0
  0
LINE
  8
DETAIL
  6
CONTINUOUS
 62
     5
 10
-84.178067886965223
 20
-276.05395582986603
 30
0.0
 11
-84.172969733591685
 21
-276.0351923880271
 31
0.0
  0
LINE
  8
DETAIL
  6
CONTINUOUS
 62
     5
 10
-84.172969733591685
 20
-276.0351923880271
 30
0.0
 11
-84.168194781754437
 21
-276.01633077415931
 31
0.0
  0
LINE
  8
DETAIL
  6
CONTINUOUS
 62
     5
 10
-84.168194781754437
 20
-276.01633077415931
 30
0.0
 11
-84.168194781754437
 21
-276.01633077415931
 31
0.0
  0
LINE
  8
DETAIL
  6
CONTINUOUS
 62
     5
 10
-84.168194781754437
 20
-276.01633077415931
 30
0.0
 11
-84.163746732273012
 21
-275.99738522146481
 31
0.0
  0
LINE
  8
DETAIL
  6
CONTINUOUS
 62
     5
 10
-84.163746732273012
 20
-275.99738522146481
 30
0.0
 11
-84.159628568418853
 21
-275.97838191956231
 31
0.0
  0
LINE
  8
DETAIL
  6
CONTINUOUS
 62
     5
 10
-84.159628568418853
 20
-275.97838191956231
 30
0.0
 11
-84.159628568418853
 21
-275.97838191956231
 31
0.0
  0
LINE
  8
DETAIL
  6
CONTINUOUS
 62
     5
 10
-84.159628568418853
 20
-275.97838191956231
 30
0.0
 11
-84.155840212984003
 21
-275.95932958529488
 31
0.0
  0
LINE
  8
DETAIL
  6
CONTINUOUS
 62
     5
 10
-84.155840212984003
 20
-275.95932958529488
 30
0.0
 11
-84.152370064398838
 21
-275.94015508798572
 31
0.0
  0
LINE
  8
DETAIL
  6
CONTINUOUS
 62
     5
 10
-84.152370064398838
 20
-275.94015508798572
 30
0.0
 11
-84.152370064398838
 21
-275.94015508798572
 31
0.0
  0
LINE
  8
DETAIL
  6
CONTINUOUS
 62
     5
 10
-84.152370064398838
 20
-275.94015508798572
 30
0.0
 11
-84.149209052615092
 21
-275.92079810213158
 31
0.0
  0
LINE
  8
DETAIL
  6
CONTINUOUS
 62
     5
 10
-84.149209052615092
 20
-275.92079810213158
 30
0.0
 11
-84.146369758042837
 21
-275.90133137044683
 31
0.0
  0
LINE
  8
DETAIL
  6
CONTINUOUS
 62
     5
 10
-84.146369758042837
 20
-275.90133137044683
 30
0.0
 11
-84.146369758042837
 21
-275.90133137044683
 31
0.0
  0
LINE
  8
DETAIL
  6
CONTINUOUS
 62
     5
 10
-84.146369758042837
 20
-275.90133137044683
 30
0.0
 11
-84.143866999628131
 21
-275.88183994124353
 31
0.0
  0
LINE
  8
DETAIL
  6
CONTINUOUS
 62
     5
 10
-84.143866999628131
 20
-275.88183994124353
 30
0.0
 11
-84.141702900010159
 21
-275.86232501701761
 31
0.0
  0
LINE
  8
DETAIL
  6
CONTINUOUS
 62
     5
 10
-84.141702900010159
 20
-275.86232501701761
 30
0.0
 11
-84.141702900010159
 21
-275.86232501701761
 31
0.0
  0
LINE
  8
DETAIL
  6
CONTINUOUS
 62
     5
 10
-84.141702900010159
 20
-275.86232501701761
 30
0.0
 11
-84.139874281743346
 21
-275.84277237949851
 31
0.0
  0
LINE
  8
DETAIL
  6
CONTINUOUS
 62
     5
 10
-84.139874281743346
 20
-275.84277237949851
 30
0.0
 11
-84.138369463352547
 21
-275.82318997317128
 31
0.0
  0
LINE
  8
DETAIL
  6
CONTINUOUS
 62
     5
 10
-84.138369463352547
 20
-275.82318997317128
 30
0.0
 11
-84.138369463352547
 21
-275.82318997317128
 31
0.0
  0
LINE
  8
DETAIL
  6
CONTINUOUS
 62
     5
 10
-84.138369463352547
 20
-275.82318997317128
 30
0.0
 11
-84.13718631546169
 21
-275.80359008190862
 31
0.0
  0
LINE
  8
DETAIL
  6
CONTINUOUS
 62
     5
 10
-84.13718631546169
 20
-275.80359008190862
 30
0.0
 11
-84.136369421120435
 21
-275.78398018438168
 31
0.0
  0
LINE
  8
DETAIL
  6
CONTINUOUS
 62
     5
 10
-84.136369421120435
 20
-275.78398018438168
 30
0.0
 11
-84.136369421120435
 21
-275.78398018438168
 31
0.0
  0
LINE
  8
DETAIL
  6
CONTINUOUS
 62
     5
 10
-84.136369421120435
 20
-275.78398018438168
 30
0.0
 11
-84.1359304550665
 21
-275.76436582247533
 31
0.0
  0
LINE
  8
DETAIL
  6
CONTINUOUS
 62
     5
 10
-84.1359304550665
 20
-275.76436582247533
 30
0.0
 11
-84.135702746365155
 21
-275.74474959612292
 31
0.0
  0
LINE
  8
DETAIL
  6
CONTINUOUS
 62
     5
 10
-69.409403429762847
 20
-273.9418416801293
 30
0.0
 11
-69.389589675517527
 21
-273.94162589779512
 31
0.0
  0
LINE
  8
DETAIL
  6
CONTINUOUS
 62
     5
 10
-69.389589675517527
 20
-273.94162589779512
 30
0.0
 11
-69.369776512261751
 21
-273.9412107370249
 31
0.0
  0
LINE
  8
DETAIL
  6
CONTINUOUS
 62
     5
 10
-69.369776512261751
 20
-273.9412107370249
 30
0.0
 11
-69.369776512261751
 21
-273.9412107370249
 31
0.0
  0
LINE
  8
DETAIL
  6
CONTINUOUS
 62
     5
 10
-69.369776512261751
 20
-273.9412107370249
 30
0.0
 11
-69.349966217995075
 21
-273.94043933162101
 31
0.0
  0
LINE
  8
DETAIL
  6
CONTINUOUS
 62
     5
 10
-69.349966217995075
 20
-273.94043933162101
 30
0.0
 11
-69.330167818759037
 21
-273.93932486434119
 31
0.0
  0
LINE
  8
DETAIL
  6
CONTINUOUS
 62
     5
 10
-69.330167818759037
 20
-273.93932486434119
 30
0.0
 11
-69.330167818759037
 21
-273.93932486434119
 31
0.0
  0
LINE
  8
DETAIL
  6
CONTINUOUS
 62
     5
 10
-69.330167818759037
 20
-273.93932486434119
 30
0.0
 11
-69.310388811907387
 21
-273.93791115179141
 31
0.0
  0
LINE
  8
DETAIL
  6
CONTINUOUS
 62
     5
 10
-69.310388811907387
 20
-273.93791115179141
 30
0.0
 11
-69.290623832000279
 21
-273.93619449702328
 31
0.0
  0
LINE
  8
DETAIL
  6
CONTINUOUS
 62
     5
 10
-69.290623832000279
 20
-273.93619449702328
 30
0.0
 11
-69.290623832000279
 21
-273.93619449702328
 31
0.0
  0
LINE
  8
DETAIL
  6
CONTINUOUS
 62
     5
 10
-69.290623832000279
 20
-273.93619449702328
 30
0.0
 11
-69.27087547368275
 21
-273.93416432601572
 31
0.0
  0
LINE
  8
DETAIL
  6
CONTINUOUS
 62
     5
 10
-69.27087547368275
 20
-273.93416432601572
 30
0.0
 11
-69.251191034730809
 21
-273.93183007001608
 31
0.0
  0
LINE
  8
DETAIL
  6
CONTINUOUS
 62
     5
 10
-69.251191034730809
 20
-273.93183007001608
 30
0.0
 11
-69.251191034730809
 21
-273.93183007001608
 31
0.0
  0
LINE
  8
DETAIL
  6
CONTINUOUS
 62
     5
 10
-69.251191034730809
 20
-273.93183007001608
 30
0.0
 11
-69.231587501270511
 21
-273.92919803470971
 31
0.0
  0
LINE
  8
DETAIL
  6
CONTINUOUS
 62
     5
 10
-69.231587501270511
 20
-273.92919803470971
 30
0.0
 11
-69.211915909696032
 21
-273.92624201826408
 31
0.0
  0
LINE
  8
DETAIL
  6
CONTINUOUS
 62
     5
 10
-69.211915909696032
 20
-273.92624201826408
 30
0.0
 11
-69.211915909696032
 21
-273.92624201826408
 31
0.0
  0
LINE
  8
DETAIL
  6
CONTINUOUS
 62
     5
 10
-69.211915909696032
 20
-273.92624201826408
 30
0.0
 11
-69.192050823733553
 21
-273.92293853700482
 31
0.0
  0
LINE
  8
DETAIL
  6
CONTINUOUS
 62
     5
 10
-69.192050823733553
 20
-273.92293853700482
 30
0.0
 11
-69.172126866168355
 21
-273.91930748740668
 31
0.0
  0
LINE
  8
DETAIL
  6
CONTINUOUS
 62
     5
 10
-69.172126866168355
 20
-273.91930748740668
 30
0.0
 11
-69.172126866168355
 21
-273.91930748740668
 31
0.0
  0
LINE
  8
DETAIL
  6
CONTINUOUS
 62
     5
 10
-69.172126866168355
 20
-273.91930748740668
 30
0.0
 11
-69.152303323806564
 21
-273.91537420998071
 31
0.0
  0
LINE
  8
DETAIL
  6
CONTINUOUS
 62
     5
 10
-69.152303323806564
 20
-273.91537420998071
 30
0.0
 11
-69.132578080481267
 21
-273.91114244123042
 31
0.0
  0
LINE
  8
DETAIL
  6
CONTINUOUS
 62
     5
 10
-69.132578080481267
 20
-273.91114244123042
 30
0.0
 11
-69.132578080481267
 21
-273.91114244123042
 31
0.0
  0
LINE
  8
DETAIL
  6
CONTINUOUS
 62
     5
 10
-69.132578080481267
 20
-273.91114244123042
 30
0.0
 11
-69.112914353290648
 21
-273.90661023021528
 31
0.0
  0
LINE
  8
DETAIL
  6
CONTINUOUS
 62
     5
 10
-69.112914353290648
 20
-273.90661023021528
 30
0.0
 11
-69.093298095368141
 21
-273.90177448022712
 31
0.0
  0
LINE
  8
DETAIL
  6
CONTINUOUS
 62
     5
 10
-69.093298095368141
 20
-273.90177448022712
 30
0.0
 11
-69.093298095368141
 21
-273.90177448022712
 31
0.0
  0
LINE
  8
DETAIL
  6
CONTINUOUS
 62
     5
 10
-69.093298095368141
 20
-273.90177448022712
 30
0.0
 11
-69.073738558564401
 21
-273.89663835488437
 31
0.0
  0
LINE
  8
DETAIL
  6
CONTINUOUS
 62
     5
 10
-69.073738558564401
 20
-273.89663835488437
 30
0.0
 11
-69.054315453562594
 21
-273.89123120489
 31
0.0
  0
LINE
  8
DETAIL
  6
CONTINUOUS
 62
     5
 10
-69.054315453562594
 20
-273.89123120489
 30
0.0
 11
-69.054315453562594
 21
-273.89123120489
 31
0.0
  0
LINE
  8
DETAIL
  6
CONTINUOUS
 62
     5
 10
-69.054315453562594
 20
-273.89123120489
 30
0.0
 11
-69.035049962912353
 21
-273.88556302707542
 31
0.0
  0
LINE
  8
DETAIL
  6
CONTINUOUS
 62
     5
 10
-69.035049962912353
 20
-273.88556302707542
 30
0.0
 11
-69.01565869779779
 21
-273.87954021571198
 31
0.0
  0
LINE
  8
DETAIL
  6
CONTINUOUS
 62
     5
 10
-69.01565869779779
 20
-273.87954021571198
 30
0.0
 11
-69.01565869779779
 21
-273.87954021571198
 31
0.0
  0
LINE
  8
DETAIL
  6
CONTINUOUS
 62
     5
 10
-69.01565869779779
 20
-273.87954021571198
 30
0.0
 11
-68.995903843230849
 21
-273.87308258232491
 31
0.0
  0
LINE
  8
DETAIL
  6
CONTINUOUS
 62
     5
 10
-68.995903843230849
 20
-273.87308258232491
 30
0.0
 11
-68.976034450905104
 21
-273.86626721002159
 31
0.0
  0
LINE
  8
DETAIL
  6
CONTINUOUS
 62
     5
 10
-68.976034450905104
 20
-273.86626721002159
 30
0.0
 11
-68.976034450905104
 21
-273.86626721002159
 31
0.0
  0
LINE
  8
DETAIL
  6
CONTINUOUS
 62
     5
 10
-68.976034450905104
 20
-273.86626721002159
 30
0.0
 11
-68.956343869118655
 21
-273.85918654929202
 31
0.0
  0
LINE
  8
DETAIL
  6
CONTINUOUS
 62
     5
 10
-68.956343869118655
 20
-273.85918654929202
 30
0.0
 11
-68.936815765908818
 21
-273.85183724856921
 31
0.0
  0
LINE
  8
DETAIL
  6
CONTINUOUS
 62
     5
 10
-68.936815765908818
 20
-273.85183724856921
 30
0.0
 11
-68.936815765908818
 21
-273.85183724856921
 31
0.0
  0
LINE
  8
DETAIL
  6
CONTINUOUS
 62
     5
 10
-68.936815765908818
 20
-273.85183724856921
 30
0.0
 11
-68.91737598814143
 21
-273.84420062716339
 31
0.0
  0
LINE
  8
DETAIL
  6
CONTINUOUS
 62
     5
 10
-68.91737598814143
 20
-273.84420062716339
 30
0.0
 11
-68.898028778255252
 21
-273.83629248994731
 31
0.0
  0
LINE
  8
DETAIL
  6
CONTINUOUS
 62
     5
 10
-68.898028778255252
 20
-273.83629248994731
 30
0.0
 11
-68.898028778255252
 21
-273.83629248994731
 31
0.0
  0
LINE
  8
DETAIL
  6
CONTINUOUS
 62
     5
 10
-68.898028778255252
 20
-273.83629248994731
 30
0.0
 11
-68.878797002073725
 21
-273.82812672813611
 31
0.0
  0
LINE
  8
DETAIL
  6
CONTINUOUS
 62
     5
 10
-68.878797002073725
 20
-273.82812672813611
 30
0.0
 11
-68.85969962339118
 21
-273.81967509274801
 31
0.0
  0
LINE
  8
DETAIL
  6
CONTINUOUS
 62
     5
 10
-68.85969962339118
 20
-273.81967509274801
 30
0.0
 11
-68.85969962339118
 21
-273.81967509274801
 31
0.0
  0
LINE
  8
DETAIL
  6
CONTINUOUS
 62
     5
 10
-68.85969962339118
 20
-273.81967509274801
 30
0.0
 11
-68.840738933630973
 21
-273.81093231855817
 31
0.0
  0
LINE
  8
DETAIL
  6
CONTINUOUS
 62
     5
 10
-68.840738933630973
 20
-273.81093231855817
 30
0.0
 11
-68.821854436763715
 21
-273.80202721556401
 31
0.0
  0
LINE
  8
DETAIL
  6
CONTINUOUS
 62
     5
 10
68.821854436763488
 20
-273.80202721556401
 30
0.0
 11
68.840738933630973
 21
-273.81093231855817
 31
0.0
  0
LINE
  8
DETAIL
  6
CONTINUOUS
 62
     5
 10
68.840738933630973
 20
-273.81093231855817
 30
0.0
 11
68.859699623391066
 21
-273.81967509274801
 31
0.0
  0
LINE
  8
DETAIL
  6
CONTINUOUS
 62
     5
 10
68.859699623391066
 20
-273.81967509274801
 30
0.0
 11
68.859699623391066
 21
-273.81967509274801
 31
0.0
  0
LINE
  8
DETAIL
  6
CONTINUOUS
 62
     5
 10
68.859699623391066
 20
-273.81967509274801
 30
0.0
 11
68.878797002073725
 21
-273.82812672813611
 31
0.0
  0
LINE
  8
DETAIL
  6
CONTINUOUS
 62
     5
 10
68.878797002073725
 20
-273.82812672813611
 30
0.0
 11
68.898028778255139
 21
-273.83629248994731
 31
0.0
  0
LINE
  8
DETAIL
  6
CONTINUOUS
 62
     5
 10
68.898028778255139
 20
-273.83629248994731
 30
0.0
 11
68.898028778255139
 21
-273.83629248994731
 31
0.0
  0
LINE
  8
DETAIL
  6
CONTINUOUS
 62
     5
 10
68.898028778255139
 20
-273.83629248994731
 30
0.0
 11
68.91737598814143
 21
-273.84420062716339
 31
0.0
  0
LINE
  8
DETAIL
  6
CONTINUOUS
 62
     5
 10
68.91737598814143
 20
-273.84420062716339
 30
0.0
 11
68.936815765908705
 21
-273.85183724856921
 31
0.0
  0
LINE
  8
DETAIL
  6
CONTINUOUS
 62
     5
 10
68.936815765908705
 20
-273.85183724856921
 30
0.0
 11
68.936815765908705
 21
-273.85183724856921
 31
0.0
  0
LINE
  8
DETAIL
  6
CONTINUOUS
 62
     5
 10
68.936815765908705
 20
-273.85183724856921
 30
0.0
 11
68.956343869118427
 21
-273.85918654929202
 31
0.0
  0
LINE
  8
DETAIL
  6
CONTINUOUS
 62
     5
 10
68.956343869118427
 20
-273.85918654929202
 30
0.0
 11
68.976034450905104
 21
-273.86626721002159
 31
0.0
  0
LINE
  8
DETAIL
  6
CONTINUOUS
 62
     5
 10
68.976034450905104
 20
-273.86626721002159
 30
0.0
 11
68.976034450905104
 21
-273.86626721002159
 31
0.0
  0
LINE
  8
DETAIL
  6
CONTINUOUS
 62
     5
 10
68.976034450905104
 20
-273.86626721002159
 30
0.0
 11
68.995903843230735
 21
-273.87308258232491
 31
0.0
  0
LINE
  8
DETAIL
  6
CONTINUOUS
 62
     5
 10
68.995903843230735
 20
-273.87308258232491
 30
0.0
 11
69.015658697797562
 21
-273.87954021571198
 31
0.0
  0
LINE
  8
DETAIL
  6
CONTINUOUS
 62
     5
 10
69.015658697797562
 20
-273.87954021571198
 30
0.0
 11
69.015658697797562
 21
-273.87954021571198
 31
0.0
  0
LINE
  8
DETAIL
  6
CONTINUOUS
 62
     5
 10
69.015658697797562
 20
-273.87954021571198
 30
0.0
 11
69.035049962912353
 21
-273.88556302707542
 31
0.0
  0
LINE
  8
DETAIL
  6
CONTINUOUS
 62
     5
 10
69.035049962912353
 20
-273.88556302707542
 30
0.0
 11
69.054315453562594
 21
-273.89123120489
 31
0.0
  0
LINE
  8
DETAIL
  6
CONTINUOUS
 62
     5
 10
69.054315453562594
 20
-273.89123120489
 30
0.0
 11
69.054315453562594
 21
-273.89123120489
 31
0.0
  0
LINE
  8
DETAIL
  6
CONTINUOUS
 62
     5
 10
69.054315453562594
 20
-273.89123120489
 30
0.0
 11
69.073738558564401
 21
-273.89663835488437
 31
0.0
  0
LINE
  8
DETAIL
  6
CONTINUOUS
 62
     5
 10
69.073738558564401
 20
-273.89663835488437
 30
0.0
 11
69.093298095368255
 21
-273.90177448022712
 31
0.0
  0
LINE
  8
DETAIL
  6
CONTINUOUS
 62
     5
 10
69.093298095368255
 20
-273.90177448022712
 30
0.0
 11
69.093298095368255
 21
-273.90177448022712
 31
0.0
  0
LINE
  8
DETAIL
  6
CONTINUOUS
 62
     5
 10
69.093298095368255
 20
-273.90177448022712
 30
0.0
 11
69.112914353290648
 21
-273.90661023021528
 31
0.0
  0
LINE
  8
DETAIL
  6
CONTINUOUS
 62
     5
 10
69.112914353290648
 20
-273.90661023021528
 30
0.0
 11
69.132578080481153
 21
-273.91114244123008
 31
0.0
  0
LINE
  8
DETAIL
  6
CONTINUOUS
 62
     5
 10
69.132578080481153
 20
-273.91114244123008
 30
0.0
 11
69.132578080481153
 21
-273.91114244123008
 31
0.0
  0
LINE
  8
DETAIL
  6
CONTINUOUS
 62
     5
 10
69.132578080481153
 20
-273.91114244123008
 30
0.0
 11
69.152303323806564
 21
-273.91537420998043
 31
0.0
  0
LINE
  8
DETAIL
  6
CONTINUOUS
 62
     5
 10
69.152303323806564
 20
-273.91537420998043
 30
0.0
 11
69.172126866168355
 21
-273.91930748740668
 31
0.0
  0
LINE
  8
DETAIL
  6
CONTINUOUS
 62
     5
 10
69.172126866168355
 20
-273.91930748740668
 30
0.0
 11
69.172126866168355
 21
-273.91930748740668
 31
0.0
  0
LINE
  8
DETAIL
  6
CONTINUOUS
 62
     5
 10
69.172126866168355
 20
-273.91930748740668
 30
0.0
 11
69.192050823733439
 21
-273.92293853700482
 31
0.0
  0
LINE
  8
DETAIL
  6
CONTINUOUS
 62
     5
 10
69.192050823733439
 20
-273.92293853700482
 30
0.0
 11
69.211915909695904
 21
-273.92624201826408
 31
0.0
  0
LINE
  8
DETAIL
  6
CONTINUOUS
 62
     5
 10
69.211915909695904
 20
-273.92624201826408
 30
0.0
 11
69.211915909695904
 21
-273.92624201826408
 31
0.0
  0
LINE
  8
DETAIL
  6
CONTINUOUS
 62
     5
 10
69.211915909695904
 20
-273.92624201826408
 30
0.0
 11
69.231587501269473
 21
-273.92919803470971
 31
0.0
  0
LINE
  8
DETAIL
  6
CONTINUOUS
 62
     5
 10
69.231587501269473
 20
-273.92919803470971
 30
0.0
 11
69.251191034724343
 21
-273.93183007001608
 31
0.0
  0
LINE
  8
DETAIL
  6
CONTINUOUS
 62
     5
 10
69.251191034724343
 20
-273.93183007001608
 30
0.0
 11
69.251191034724343
 21
-273.93183007001608
 31
0.0
  0
LINE
  8
DETAIL
  6
CONTINUOUS
 62
     5
 10
69.251191034724343
 20
-273.93183007001608
 30
0.0
 11
69.270875473661818
 21
-273.93416432601572
 31
0.0
  0
LINE
  8
DETAIL
  6
CONTINUOUS
 62
     5
 10
69.270875473661818
 20
-273.93416432601572
 30
0.0
 11
69.290623831950597
 21
-273.93619449702328
 31
0.0
  0
LINE
  8
DETAIL
  6
CONTINUOUS
 62
     5
 10
69.290623831950597
 20
-273.93619449702328
 30
0.0
 11
69.290623831950597
 21
-273.93619449702328
 31
0.0
  0
LINE
  8
DETAIL
  6
CONTINUOUS
 62
     5
 10
69.290623831950597
 20
-273.93619449702328
 30
0.0
 11
69.31038881180973
 21
-273.93791115179141
 31
0.0
  0
LINE
  8
DETAIL
  6
CONTINUOUS
 62
     5
 10
69.31038881180973
 20
-273.93791115179141
 30
0.0
 11
69.330167818591462
 21
-273.93932486434119
 31
0.0
  0
LINE
  8
DETAIL
  6
CONTINUOUS
 62
     5
 10
69.330167818591462
 20
-273.93932486434119
 30
0.0
 11
69.330167818591462
 21
-273.93932486434119
 31
0.0
  0
LINE
  8
DETAIL
  6
CONTINUOUS
 62
     5
 10
69.330167818591462
 20
-273.93932486434119
 30
0.0
 11
69.34996621773098
 21
-273.94043933162101
 31
0.0
  0
LINE
  8
DETAIL
  6
CONTINUOUS
 62
     5
 10
69.34996621773098
 20
-273.94043933162101
 30
0.0
 11
69.369776511864075
 21
-273.9412107370249
 31
0.0
  0
LINE
  8
DETAIL
  6
CONTINUOUS
 62
     5
 10
69.369776511864075
 20
-273.9412107370249
 30
0.0
 11
69.369776511864075
 21
-273.9412107370249
 31
0.0
  0
LINE
  8
DETAIL
  6
CONTINUOUS
 62
     5
 10
69.369776511864075
 20
-273.9412107370249
 30
0.0
 11
69.389589674943181
 21
-273.94162589779512
 31
0.0
  0
LINE
  8
DETAIL
  6
CONTINUOUS
 62
     5
 10
69.389589674943181
 20
-273.94162589779512
 30
0.0
 11
69.409403428986479
 21
-273.9418416801293
 31
0.0
  0
LINE
  8
DETAIL
  6
CONTINUOUS
 62
     5
 10
-84.135702746365155
 20
-274.94345718901462
 30
0.0
 11
-84.135475037663923
 21
-274.92384096246047
 31
0.0
  0
LINE
  8
DETAIL
  6
CONTINUOUS
 62
     5
 10
-84.135475037663923
 20
-274.92384096246047
 30
0.0
 11
-84.135036071610912
 21
-274.90422660037802
 31
0.0
  0
LINE
  8
DETAIL
  6
CONTINUOUS
 62
     5
 10
-84.135036071610912
 20
-274.90422660037802
 30
0.0
 11
-84.135036071610912
 21
-274.90422660037802
 31
0.0
  0
LINE
  8
DETAIL
  6
CONTINUOUS
 62
     5
 10
-84.135036071610912
 20
-274.90422660037802
 30
0.0
 11
-84.134219177272143
 21
-274.88461670272028
 31
0.0
  0
LINE
  8
DETAIL
  6
CONTINUOUS
 62
     5
 10
-84.134219177272143
 20
-274.88461670272028
 30
0.0
 11
-84.133036029386062
 21
-274.8650168113661
 31
0.0
  0
LINE
  8
DETAIL
  6
CONTINUOUS
 62
     5
 10
-84.133036029386062
 20
-274.8650168113661
 30
0.0
 11
-84.133036029386062
 21
-274.8650168113661
 31
0.0
  0
LINE
  8
DETAIL
  6
CONTINUOUS
 62
     5
 10
-84.133036029386062
 20
-274.8650168113661
 30
0.0
 11
-84.131531211003335
 21
-274.8454344049768
 31
0.0
  0
LINE
  8
DETAIL
  6
CONTINUOUS
 62
     5
 10
-84.131531211003335
 20
-274.8454344049768
 30
0.0
 11
-84.129702592748572
 21
-274.82588176742172
 31
0.0
  0
LINE
  8
DETAIL
  6
CONTINUOUS
 62
     5
 10
-84.129702592748572
 20
-274.82588176742172
 30
0.0
 11
-84.129702592748572
 21
-274.82588176742172
 31
0.0
  0
LINE
  8
DETAIL
  6
CONTINUOUS
 62
     5
 10
-84.129702592748572
 20
-274.82588176742172
 30
0.0
 11
-84.127538493147313
 21
-274.80636684318358
 31
0.0
  0
LINE
  8
DETAIL
  6
CONTINUOUS
 62
     5
 10
-84.127538493147313
 20
-274.80636684318358
 30
0.0
 11
-84.125035734754988
 21
-274.78687541398801
 31
0.0
  0
LINE
  8
DETAIL
  6
CONTINUOUS
 62
     5
 10
-84.125035734754988
 20
-274.78687541398801
 30
0.0
 11
-84.125035734754988
 21
-274.78687541398801
 31
0.0
  0
LINE
  8
DETAIL
  6
CONTINUOUS
 62
     5
 10
-84.125035734754988
 20
-274.78687541398801
 30
0.0
 11
-84.122196440211042
 21
-274.76740868232622
 31
0.0
  0
LINE
  8
DETAIL
  6
CONTINUOUS
 62
     5
 10
-84.122196440211042
 20
-274.76740868232622
 30
0.0
 11
-84.119035428463121
 21
-274.74805169650722
 31
0.0
  0
LINE
  8
DETAIL
  6
CONTINUOUS
 62
     5
 10
-84.119035428463121
 20
-274.74805169650722
 30
0.0
 11
-84.119035428463121
 21
-274.74805169650722
 31
0.0
  0
LINE
  8
DETAIL
  6
CONTINUOUS
 62
     5
 10
-84.119035428463121
 20
-274.74805169650722
 30
0.0
 11
-84.115565279920233
 21
-274.72887719924091
 31
0.0
  0
LINE
  8
DETAIL
  6
CONTINUOUS
 62
     5
 10
-84.115565279920233
 20
-274.72887719924091
 30
0.0
 11
-84.111776924533743
 21
-274.70982486502209
 31
0.0
  0
LINE
  8
DETAIL
  6
CONTINUOUS
 62
     5
 10
-84.111776924533743
 20
-274.70982486502209
 30
0.0
 11
-84.111776924533743
 21
-274.70982486502209
 31
0.0
  0
LINE
  8
DETAIL
  6
CONTINUOUS
 62
     5
 10
-84.111776924533743
 20
-274.70982486502209
 30
0.0
 11
-84.107658760730587
 21
-274.69082156317307
 31
0.0
  0
LINE
  8
DETAIL
  6
CONTINUOUS
 62
     5
 10
-84.107658760730587
 20
-274.69082156317307
 30
0.0
 11
-84.103210711300903
 21
-274.67187601053519
 31
0.0
  0
LINE
  8
DETAIL
  6
CONTINUOUS
 62
     5
 10
-84.103210711300903
 20
-274.67187601053519
 30
0.0
 11
-84.103210711300903
 21
-274.67187601053519
 31
0.0
  0
LINE
  8
DETAIL
  6
CONTINUOUS
 62
     5
 10
-84.103210711300903
 20
-274.67187601053519
 30
0.0
 11
-84.098435759513649
 21
-274.65301439672538
 31
0.0
  0
LINE
  8
DETAIL
  6
CONTINUOUS
 62
     5
 10
-84.098435759513649
 20
-274.65301439672538
 30
0.0
 11
-84.093337606186068
 21
-274.6342509549446
 31
0.0
  0
LINE
  8
DETAIL
  6
CONTINUOUS
 62
     5
 10
-84.093337606186068
 20
-274.6342509549446
 30
0.0
 11
-84.093337606186068
 21
-274.6342509549446
 31
0.0
  0
LINE
  8
DETAIL
  6
CONTINUOUS
 62
     5
 10
-84.093337606186068
 20
-274.6342509549446
 30
0.0
 11
-84.087916532882431
 21
-274.61558842382601
 31
0.0
  0
LINE
  8
DETAIL
  6
CONTINUOUS
 62
     5
 10
-84.087916532882431
 20
-274.61558842382601
 30
0.0
 11
-84.08215842661059
 21
-274.59699552014752
 31
0.0
  0
LINE
  8
DETAIL
  6
CONTINUOUS
 62
     5
 10
-84.08215842661059
 20
-274.59699552014752
 30
0.0
 11
-84.08215842661059
 21
-274.59699552014752
 31
0.0
  0
LINE
  8
DETAIL
  6
CONTINUOUS
 62
     5
 10
-84.08215842661059
 20
-274.59699552014752
 30
0.0
 11
-84.076059790908843
 21
-274.5784694661827
 31
0.0
  0
LINE
  8
DETAIL
  6
CONTINUOUS
 62
     5
 10
-84.076059790908843
 20
-274.5784694661827
 30
0.0
 11
-84.069673989996303
 21
-274.56015552804172
 31
0.0
  0
LINE
  8
DETAIL
  6
CONTINUOUS
 62
     5
 10
-84.069673989996303
 20
-274.56015552804172
 30
0.0
 11
-84.069673989996303
 21
-274.56015552804172
 31
0.0
  0
LINE
  8
DETAIL
  6
CONTINUOUS
 62
     5
 10
-84.069673989996303
 20
-274.56015552804172
 30
0.0
 11
-84.063047469957368
 21
-274.54217692442109
 31
0.0
  0
LINE
  8
DETAIL
  6
CONTINUOUS
 62
     5
 10
-84.063047469957368
 20
-274.54217692442109
 30
0.0
 11
-84.05614214365778
 21
-274.524420640529
 31
0.0
  0
LINE
  8
DETAIL
  6
CONTINUOUS
 62
     5
 10
-84.05614214365778
 20
-274.524420640529
 30
0.0
 11
-84.05614214365778
 21
-274.524420640529
 31
0.0
  0
LINE
  8
DETAIL
  6
CONTINUOUS
 62
     5
 10
-84.05614214365778
 20
-274.524420640529
 30
0.0
 11
-84.048911027491386
 21
-274.50675172042492
 31
0.0
  0
LINE
  8
DETAIL
  6
CONTINUOUS
 62
     5
 10
-84.048911027491386
 20
-274.50675172042492
 30
0.0
 11
-84.041356085182883
 21
-274.48918367707017
 31
0.0
  0
LINE
  8
DETAIL
  6
CONTINUOUS
 62
     5
 10
-84.041356085182883
 20
-274.48918367707017
 30
0.0
 11
-84.041356085182883
 21
-274.48918367707017
 31
0.0
  0
LINE
  8
DETAIL
  6
CONTINUOUS
 62
     5
 10
-84.041356085182883
 20
-274.48918367707017
 30
0.0
 11
-84.033490087642903
 21
-274.47176024139168
 31
0.0
  0
LINE
  8
DETAIL
  6
CONTINUOUS
 62
     5
 10
-84.033490087642903
 20
-274.47176024139168
 30
0.0
 11
-84.025320087193123
 21
-274.45449754728668
 31
0.0
  0
LINE
  8
DETAIL
  6
CONTINUOUS
 62
     5
 10
-84.025320087193123
 20
-274.45449754728668
 30
0.0
 11
-84.025320087193123
 21
-274.45449754728668
 31
0.0
  0
LINE
  8
DETAIL
  6
CONTINUOUS
 62
     5
 10
-84.025320087193123
 20
-274.45449754728668
 30
0.0
 11
-84.016845188264938
 21
-274.4373953091997
 31
0.0
  0
LINE
  8
DETAIL
  6
CONTINUOUS
 62
     5
 10
-84.016845188264938
 20
-274.4373953091997
 30
0.0
 11
-84.008038422310946
 21
-274.42041516080161
 31
0.0
  0
LINE
  8
DETAIL
  6
CONTINUOUS
 62
     5
 10
-84.008038422310946
 20
-274.42041516080161
 30
0.0
 11
-84.008038422310946
 21
-274.42041516080161
 31
0.0
  0
LINE
  8
DETAIL
  6
CONTINUOUS
 62
     5
 10
-84.008038422310946
 20
-274.42041516080161
 30
0.0
 11
-83.998893805164016
 21
-274.40355419560092
 31
0.0
  0
LINE
  8
DETAIL
  6
CONTINUOUS
 62
     5
 10
-83.998893805164016
 20
-274.40355419560092
 30
0.0
 11
-83.989515363157707
 21
-274.38698942723607
 31
0.0
  0
LINE
  8
DETAIL
  6
CONTINUOUS
 62
     5
 10
-83.989515363157707
 20
-274.38698942723607
 30
0.0
 11
-83.989515363157707
 21
-274.38698942723607
 31
0.0
  0
LINE
  8
DETAIL
  6
CONTINUOUS
 62
     5
 10
-83.989515363157707
 20
-274.38698942723607
 30
0.0
 11
-83.979992762554048
 21
-274.37087025482009
 31
0.0
  0
LINE
  8
DETAIL
  6
CONTINUOUS
 62
     5
 10
-83.979992762554048
 20
-274.37087025482009
 30
0.0
 11
-83.970248218837582
 21
-274.35505569923242
 31
0.0
  0
LINE
  8
DETAIL
  6
CONTINUOUS
 62
     5
 10
-83.970248218837582
 20
-274.35505569923242
 30
0.0
 11
-83.970248218837582
 21
-274.35505569923242
 31
0.0
  0
LINE
  8
DETAIL
  6
CONTINUOUS
 62
     5
 10
-83.970248218837582
 20
-274.35505569923242
 30
0.0
 11
-83.960187126075198
 21
-274.33937819254868
 31
0.0
  0
LINE
  8
DETAIL
  6
CONTINUOUS
 62
     5
 10
-83.960187126075198
 20
-274.33937819254868
 30
0.0
 11
-83.949815043448979
 21
-274.32385418986598
 31
0.0
  0
LINE
  8
DETAIL
  6
CONTINUOUS
 62
     5
 10
-83.949815043448979
 20
-274.32385418986598
 30
0.0
 11
-83.949815043448979
 21
-274.32385418986598
 31
0.0
  0
LINE
  8
DETAIL
  6
CONTINUOUS
 62
     5
 10
-83.949815043448979
 20
-274.32385418986598
 30
0.0
 11
-83.939158520600571
 21
-274.30853676064839
 31
0.0
  0
LINE
  8
DETAIL
  6
CONTINUOUS
 62
     5
 10
-83.939158520600571
 20
-274.30853676064839
 30
0.0
 11
-83.928227903899057
 21
-274.29344140880511
 31
0.0
  0
LINE
  8
DETAIL
  6
CONTINUOUS
 62
     5
 10
-83.928227903899057
 20
-274.29344140880511
 30
0.0
 11
-83.928227903899057
 21
-274.29344140880511
 31
0.0
  0
LINE
  8
DETAIL
  6
CONTINUOUS
 62
     5
 10
-83.928227903899057
 20
-274.29344140880511
 30
0.0
 11
-83.917020650889867
 21
-274.27856580665679
 31
0.0
  0
LINE
  8
DETAIL
  6
CONTINUOUS
 62
     5
 10
-83.917020650889867
 20
-274.27856580665679
 30
0.0
 11
-83.905498867095957
 21
-274.26387386571758
 31
0.0
  0
LINE
  8
DETAIL
  6
CONTINUOUS
 62
     5
 10
-83.905498867095957
 20
-274.26387386571758
 30
0.0
 11
-83.905498867095957
 21
-274.26387386571758
 31
0.0
  0
LINE
  8
DETAIL
  6
CONTINUOUS
 62
     5
 10
-83.905498867095957
 20
-274.26387386571758
 30
0.0
 11
-83.893655222875395
 21
-274.24936420949427
 31
0.0
  0
LINE
  8
DETAIL
  6
CONTINUOUS
 62
     5
 10
-83.893655222875395
 20
-274.24936420949427
 30
0.0
 11
-83.881639999946273
 21
-274.23520807027069
 31
0.0
  0
LINE
  8
DETAIL
  6
CONTINUOUS
 62
     5
 10
-83.881639999946273
 20
-274.23520807027069
 30
0.0
 11
-83.881639999946273
 21
-274.23520807027069
 31
0.0
  0
LINE
  8
DETAIL
  6
CONTINUOUS
 62
     5
 10
-83.881639999946273
 20
-274.23520807027069
 30
0.0
 11
-83.869582075778681
 21
-274.22154934783771
 31
0.0
  0
LINE
  8
DETAIL
  6
CONTINUOUS
 62
     5
 10
-83.869582075778681
 20
-274.22154934783771
 30
0.0
 11
-83.85736709949208
 21
-274.20825000323532
 31
0.0
  0
LINE
  8
DETAIL
  6
CONTINUOUS
 62
     5
 10
-83.85736709949208
 20
-274.20825000323532
 30
0.0
 11
-83.85736709949208
 21
-274.20825000323532
 31
0.0
  0
LINE
  8
DETAIL
  6
CONTINUOUS
 62
     5
 10
-83.85736709949208
 20
-274.20825000323532
 30
0.0
 11
-83.844856933823735
 21
-274.19514664520727
 31
0.0
  0
LINE
  8
DETAIL
  6
CONTINUOUS
 62
     5
 10
-83.844856933823735
 20
-274.19514664520727
 30
0.0
 11
-83.832061524333099
 21
-274.18225641206169
 31
0.0
  0
LINE
  8
DETAIL
  6
CONTINUOUS
 62
     5
 10
-83.832061524333099
 20
-274.18225641206169
 30
0.0
 11
-83.832061524333099
 21
-274.18225641206169
 31
0.0
  0
LINE
  8
DETAIL
  6
CONTINUOUS
 62
     5
 10
-83.832061524333099
 20
-274.18225641206169
 30
0.0
 11
-83.819020950956414
 21
-274.16963170914403
 31
0.0
  0
LINE
  8
DETAIL
  6
CONTINUOUS
 62
     5
 10
-83.819020950956414
 20
-274.16963170914403
 30
0.0
 11
-83.805747748308022
 21
-274.15728548038493
 31
0.0
  0
LINE
  8
DETAIL
  6
CONTINUOUS
 62
     5
 10
-83.805747748308022
 20
-274.15728548038493
 30
0.0
 11
-83.805747748308022
 21
-274.15728548038493
 31
0.0
  0
LINE
  8
DETAIL
  6
CONTINUOUS
 62
     5
 10
-83.805747748308022
 20
-274.15728548038493
 30
0.0
 11
-83.792238089287579
 21
-274.14521513338462
 31
0.0
  0
LINE
  8
DETAIL
  6
CONTINUOUS
 62
     5
 10
-83.792238089287579
 20
-274.14521513338462
 30
0.0
 11
-83.778450245255371
 21
-274.13339539183738
 31
0.0
  0
LINE
  8
DETAIL
  6
CONTINUOUS
 62
     5
 10
-83.778450245255371
 20
-274.13339539183738
 30
0.0
 11
-83.778450245255371
 21
-274.13339539183738
 31
0.0
  0
LINE
  8
DETAIL
  6
CONTINUOUS
 62
     5
 10
-83.778450245255371
 20
-274.13339539183738
 30
0.0
 11
-83.764377800056536
 21
-274.12182785772131
 31
0.0
  0
LINE
  8
DETAIL
  6
CONTINUOUS
 62
     5
 10
-83.764377800056536
 20
-274.12182785772131
 30
0.0
 11
-83.750193489014222
 21
-274.11064433005407
 31
0.0
  0
LINE
  8
DETAIL
  6
CONTINUOUS
 62
     5
 10
-83.750193489014222
 20
-274.11064433005407
 30
0.0
 11
-83.750193489014222
 21
-274.11064433005407
 31
0.0
  0
LINE
  8
DETAIL
  6
CONTINUOUS
 62
     5
 10
-83.750193489014222
 20
-274.11064433005407
 30
0.0
 11
-83.736045037375661
 21
-274.09995493314437
 31
0.0
  0
LINE
  8
DETAIL
  6
CONTINUOUS
 62
     5
 10
-83.736045037375661
 20
-274.09995493314437
 30
0.0
 11
-83.721800978607817
 21
-274.0896528954205
 31
0.0
  0
LINE
  8
DETAIL
  6
CONTINUOUS
 62
     5
 10
-83.721800978607817
 20
-274.0896528954205
 30
0.0
 11
-83.721800978607817
 21
-274.0896528954205
 31
0.0
  0
LINE
  8
DETAIL
  6
CONTINUOUS
 62
     5
 10
-83.721800978607817
 20
-274.0896528954205
 30
0.0
 11
-83.707303132168121
 21
-274.07961238866562
 31
0.0
  0
LINE
  8
DETAIL
  6
CONTINUOUS
 62
     5
 10
-83.707303132168121
 20
-274.07961238866562
 30
0.0
 11
-83.692565653262818
 21
-274.06984825396842
 31
0.0
  0
LINE
  8
DETAIL
  6
CONTINUOUS
 62
     5
 10
-83.692565653262818
 20
-274.06984825396842
 30
0.0
 11
-83.692565653262818
 21
-274.06984825396842
 31
0.0
  0
LINE
  8
DETAIL
  6
CONTINUOUS
 62
     5
 10
-83.692565653262818
 20
-274.06984825396842
 30
0.0
 11
-83.677636931562219
 21
-274.06040228405601
 31
0.0
  0
LINE
  8
DETAIL
  6
CONTINUOUS
 62
     5
 10
-83.677636931562219
 20
-274.06040228405601
 30
0.0
 11
-83.662529958853384
 21
-274.05128340891201
 31
0.0
  0
LINE
  8
DETAIL
  6
CONTINUOUS
 62
     5
 10
-83.662529958853384
 20
-274.05128340891201
 30
0.0
 11
-83.662529958853384
 21
-274.05128340891201
 31
0.0
  0
LINE
  8
DETAIL
  6
CONTINUOUS
 62
     5
 10
-83.662529958853384
 20
-274.05128340891201
 30
0.0
 11
-83.647241191398621
 21
-274.04249003825191
 31
0.0
  0
LINE
  8
DETAIL
  6
CONTINUOUS
 62
     5
 10
-83.647241191398621
 20
-274.04249003825191
 30
0.0
 11
-83.63173634125269
 21
-274.03401136346542
 31
0.0
  0
LINE
  8
DETAIL
  6
CONTINUOUS
 62
     5
 10
-83.63173634125269
 20
-274.03401136346542
 30
0.0
 11
-83.63173634125269
 21
-274.03401136346542
 31
0.0
  0
LINE
  8
DETAIL
  6
CONTINUOUS
 62
     5
 10
-83.63173634125269
 20
-274.03401136346542
 30
0.0
 11
-83.616013028096859
 21
-274.02585170537202
 31
0.0
  0
LINE
  8
DETAIL
  6
CONTINUOUS
 62
     5
 10
-83.616013028096859
 20
-274.02585170537202
 30
0.0
 11
-83.600227246334612
 21
-274.0180851208429
 31
0.0
  0
LINE
  8
DETAIL
  6
CONTINUOUS
 62
     5
 10
-83.600227246334612
 20
-274.0180851208429
 30
0.0
 11
-83.600227246334612
 21
-274.0180851208429
 31
0.0
  0
LINE
  8
DETAIL
  6
CONTINUOUS
 62
     5
 10
-83.600227246334612
 20
-274.0180851208429
 30
0.0
 11
-83.584512121003627
 21
-274.01077283071521
 31
0.0
  0
LINE
  8
DETAIL
  6
CONTINUOUS
 62
     5
 10
-83.584512121003627
 20
-274.01077283071521
 30
0.0
 11
-83.568750924957499
 21
-274.00385497564241
 31
0.0
  0
LINE
  8
DETAIL
  6
CONTINUOUS
 62
     5
 10
-83.568750924957499
 20
-274.00385497564241
 30
0.0
 11
-83.568750924957499
 21
-274.00385497564241
 31
0.0
  0
LINE
  8
DETAIL
  6
CONTINUOUS
 62
     5
 10
-83.568750924957499
 20
-274.00385497564241
 30
0.0
 11
-83.552803452056764
 21
-273.99726141245571
 31
0.0
  0
LINE
  8
DETAIL
  6
CONTINUOUS
 62
     5
 10
-83.552803452056764
 20
-273.99726141245571
 30
0.0
 11
-83.536685432369737
 21
-273.99100194288332
 31
0.0
  0
LINE
  8
DETAIL
  6
CONTINUOUS
 62
     5
 10
-83.536685432369737
 20
-273.99100194288332
 30
0.0
 11
-83.536685432369737
 21
-273.99100194288332
 31
0.0
  0
LINE
  8
DETAIL
  6
CONTINUOUS
 62
     5
 10
-83.536685432369737
 20
-273.99100194288332
 30
0.0
 11
-83.520442730744193
 21
-273.98510132717371
 31
0.0
  0
LINE
  8
DETAIL
  6
CONTINUOUS
 62
     5
 10
-83.520442730744193
 20
-273.98510132717371
 30
0.0
 11
-83.50408581493501
 21
-273.97956421475271
 31
0.0
  0
LINE
  8
DETAIL
  6
CONTINUOUS
 62
     5
 10
-83.50408581493501
 20
-273.97956421475271
 30
0.0
 11
-83.50408581493501
 21
-273.97956421475271
 31
0.0
  0
LINE
  8
DETAIL
  6
CONTINUOUS
 62
     5
 10
-83.50408581493501
 20
-273.97956421475271
 30
0.0
 11
-83.487612716463914
 21
-273.97439035193901
 31
0.0
  0
LINE
  8
DETAIL
  6
CONTINUOUS
 62
     5
 10
-83.487612716463914
 20
-273.97439035193901
 30
0.0
 11
-83.471007119016221
 21
-273.96957998343652
 31
0.0
  0
LINE
  8
DETAIL
  6
CONTINUOUS
 62
     5
 10
-83.471007119016221
 20
-273.96957998343652
 30
0.0
 11
-83.471007119016221
 21
-273.96957998343652
 31
0.0
  0
LINE
  8
DETAIL
  6
CONTINUOUS
 62
     5
 10
-83.471007119016221
 20
-273.96957998343652
 30
0.0
 11
-83.454272316427705
 21
-273.96513800786602
 31
0.0
  0
LINE
  8
DETAIL
  6
CONTINUOUS
 62
     5
 10
-83.454272316427705
 20
-273.96513800786602
 30
0.0
 11
-83.437504390977196
 21
-273.96108744112172
 31
0.0
  0
LINE
  8
DETAIL
  6
CONTINUOUS
 62
     5
 10
-83.437504390977196
 20
-273.96108744112172
 30
0.0
 11
-83.437504390977196
 21
-273.96108744112172
 31
0.0
  0
LINE
  8
DETAIL
  6
CONTINUOUS
 62
     5
 10
-83.437504390977196
 20
-273.96108744112172
 30
0.0
 11
-83.420785827700342
 21
-273.9574465411464
 31
0.0
  0
LINE
  8
DETAIL
  6
CONTINUOUS
 62
     5
 10
-83.420785827700342
 20
-273.9574465411464
 30
0.0
 11
-83.40405193422157
 21
-273.95419641680547
 31
0.0
  0
LINE
  8
DETAIL
  6
CONTINUOUS
 62
     5
 10
-83.40405193422157
 20
-273.95419641680547
 30
0.0
 11
-83.40405193422157
 21
-273.95419641680547
 31
0.0
  0
LINE
  8
DETAIL
  6
CONTINUOUS
 62
     5
 10
-83.40405193422157
 20
-273.95419641680547
 30
0.0
 11
-83.387224854920305
 21
-273.95131595263439
 31
0.0
  0
LINE
  8
DETAIL
  6
CONTINUOUS
 62
     5
 10
-83.387224854920305
 20
-273.95131595263439
 30
0.0
 11
-83.370321258606523
 21
-273.94881228493318
 31
0.0
  0
LINE
  8
DETAIL
  6
CONTINUOUS
 62
     5
 10
-83.370321258606523
 20
-273.94881228493318
 30
0.0
 11
-83.370321258606523
 21
-273.94881228493318
 31
0.0
  0
LINE
  8
DETAIL
  6
CONTINUOUS
 62
     5
 10
-83.370321258606523
 20
-273.94881228493318
 30
0.0
 11
-83.353375005789985
 21
-273.94669423209427
 31
0.0
  0
LINE
  8
DETAIL
  6
CONTINUOUS
 62
     5
 10
-83.353375005789985
 20
-273.94669423209427
 30
0.0
 11
-83.336394199346842
 21
-273.94494908911918
 31
0.0
  0
LINE
  8
DETAIL
  6
CONTINUOUS
 62
     5
 10
-83.336394199346842
 20
-273.94494908911918
 30
0.0
 11
-83.336394199346842
 21
-273.94494908911918
 31
0.0
  0
LINE
  8
DETAIL
  6
CONTINUOUS
 62
     5
 10
-83.336394199346842
 20
-273.94494908911918
 30
0.0
 11
-83.319382629270862
 21
-273.94357323061251
 31
0.0
  0
LINE
  8
DETAIL
  6
CONTINUOUS
 62
     5
 10
-83.319382629270862
 20
-273.94357323061251
 30
0.0
 11
-83.302352591657737
 21
-273.94262087297932
 31
0.0
  0
LINE
  8
DETAIL
  6
CONTINUOUS
 62
     5
 10
-83.302352591657737
 20
-273.94262087297932
 30
0.0
 11
-83.302352591657737
 21
-273.94262087297932
 31
0.0
  0
LINE
  8
DETAIL
  6
CONTINUOUS
 62
     5
 10
-83.302352591657737
 20
-273.94262087297932
 30
0.0
 11
-83.285316442435018
 21
-273.942108232122
 31
0.0
  0
LINE
  8
DETAIL
  6
CONTINUOUS
 62
     5
 10
-83.285316442435018
 20
-273.942108232122
 30
0.0
 11
-83.268278270754294
 21
-273.9418416801293
 31
0.0
  0
LINE
  8
DETAIL
  6
CONTINUOUS
 62
     5
 10
83.268278270754308
 20
-273.9418416801293
 30
0.0
 11
83.285316442435033
 21
-273.942108232122
 31
0.0
  0
LINE
  8
DETAIL
  6
CONTINUOUS
 62
     5
 10
83.285316442435033
 20
-273.942108232122
 30
0.0
 11
83.302352591657808
 21
-273.94262087297932
 31
0.0
  0
LINE
  8
DETAIL
  6
CONTINUOUS
 62
     5
 10
83.302352591657808
 20
-273.94262087297932
 30
0.0
 11
83.302352591657808
 21
-273.94262087297932
 31
0.0
  0
LINE
  8
DETAIL
  6
CONTINUOUS
 62
     5
 10
83.302352591657808
 20
-273.94262087297932
 30
0.0
 11
83.319382629270876
 21
-273.94357323061251
 31
0.0
  0
LINE
  8
DETAIL
  6
CONTINUOUS
 62
     5
 10
83.319382629270876
 20
-273.94357323061251
 30
0.0
 11
83.336394199346842
 21
-273.94494908911918
 31
0.0
  0
LINE
  8
DETAIL
  6
CONTINUOUS
 62
     5
 10
83.336394199346842
 20
-273.94494908911918
 30
0.0
 11
83.336394199346842
 21
-273.94494908911918
 31
0.0
  0
LINE
  8
DETAIL
  6
CONTINUOUS
 62
     5
 10
83.336394199346842
 20
-273.94494908911918
 30
0.0
 11
83.353375005789758
 21
-273.94669423209427
 31
0.0
  0
LINE
  8
DETAIL
  6
CONTINUOUS
 62
     5
 10
83.353375005789758
 20
-273.94669423209427
 30
0.0
 11
83.370321258606509
 21
-273.94881228493318
 31
0.0
  0
LINE
  8
DETAIL
  6
CONTINUOUS
 62
     5
 10
83.370321258606509
 20
-273.94881228493318
 30
0.0
 11
83.370321258606509
 21
-273.94881228493318
 31
0.0
  0
LINE
  8
DETAIL
  6
CONTINUOUS
 62
     5
 10
83.370321258606509
 20
-273.94881228493318
 30
0.0
 11
83.387224854920191
 21
-273.95131595263439
 31
0.0
  0
LINE
  8
DETAIL
  6
CONTINUOUS
 62
     5
 10
83.387224854920191
 20
-273.95131595263439
 30
0.0
 11
83.404051934221457
 21
-273.95419641680547
 31
0.0
  0
LINE
  8
DETAIL
  6
CONTINUOUS
 62
     5
 10
83.404051934221457
 20
-273.95419641680547
 30
0.0
 11
83.404051934221457
 21
-273.95419641680547
 31
0.0
  0
LINE
  8
DETAIL
  6
CONTINUOUS
 62
     5
 10
83.404051934221457
 20
-273.95419641680547
 30
0.0
 11
83.420785827700229
 21
-273.9574465411464
 31
0.0
  0
LINE
  8
DETAIL
  6
CONTINUOUS
 62
     5
 10
83.420785827700229
 20
-273.9574465411464
 30
0.0
 11
83.437504390977097
 21
-273.96108744112172
 31
0.0
  0
LINE
  8
DETAIL
  6
CONTINUOUS
 62
     5
 10
83.437504390977097
 20
-273.96108744112172
 30
0.0
 11
83.437504390977097
 21
-273.96108744112172
 31
0.0
  0
LINE
  8
DETAIL
  6
CONTINUOUS
 62
     5
 10
83.437504390977097
 20
-273.96108744112172
 30
0.0
 11
83.454272316427705
 21
-273.96513800786602
 31
0.0
  0
LINE
  8
DETAIL
  6
CONTINUOUS
 62
     5
 10
83.454272316427705
 20
-273.96513800786602
 30
0.0
 11
83.471007119016349
 21
-273.96957998343652
 31
0.0
  0
LINE
  8
DETAIL
  6
CONTINUOUS
 62
     5
 10
83.471007119016349
 20
-273.96957998343652
 30
0.0
 11
83.471007119016349
 21
-273.96957998343652
 31
0.0
  0
LINE
  8
DETAIL
  6
CONTINUOUS
 62
     5
 10
83.471007119016349
 20
-273.96957998343652
 30
0.0
 11
83.487612716464014
 21
-273.97439035193901
 31
0.0
  0
LINE
  8
DETAIL
  6
CONTINUOUS
 62
     5
 10
83.487612716464014
 20
-273.97439035193901
 30
0.0
 11
83.504085814935024
 21
-273.97956421475271
 31
0.0
  0
LINE
  8
DETAIL
  6
CONTINUOUS
 62
     5
 10
83.504085814935024
 20
-273.97956421475271
 30
0.0
 11
83.504085814935024
 21
-273.97956421475271
 31
0.0
  0
LINE
  8
DETAIL
  6
CONTINUOUS
 62
     5
 10
83.504085814935024
 20
-273.97956421475271
 30
0.0
 11
83.520442730744321
 21
-273.98510132717342
 31
0.0
  0
LINE
  8
DETAIL
  6
CONTINUOUS
 62
     5
 10
83.520442730744321
 20
-273.98510132717342
 30
0.0
 11
83.536685432369723
 21
-273.99100194288332
 31
0.0
  0
LINE
  8
DETAIL
  6
CONTINUOUS
 62
     5
 10
83.536685432369723
 20
-273.99100194288332
 30
0.0
 11
83.536685432369723
 21
-273.99100194288332
 31
0.0
  0
LINE
  8
DETAIL
  6
CONTINUOUS
 62
     5
 10
83.536685432369723
 20
-273.99100194288332
 30
0.0
 11
83.552803452056651
 21
-273.99726141245532
 31
0.0
  0
LINE
  8
DETAIL
  6
CONTINUOUS
 62
     5
 10
83.552803452056651
 20
-273.99726141245532
 30
0.0
 11
83.568750924957385
 21
-274.00385497564241
 31
0.0
  0
LINE
  8
DETAIL
  6
CONTINUOUS
 62
     5
 10
83.568750924957385
 20
-274.00385497564241
 30
0.0
 11
83.568750924957385
 21
-274.00385497564241
 31
0.0
  0
LINE
  8
DETAIL
  6
CONTINUOUS
 62
     5
 10
83.568750924957385
 20
-274.00385497564241
 30
0.0
 11
83.584512121003513
 21
-274.01077283071521
 31
0.0
  0
LINE
  8
DETAIL
  6
CONTINUOUS
 62
     5
 10
83.584512121003513
 20
-274.01077283071521
 30
0.0
 11
83.600227246334612
 21
-274.0180851208429
 31
0.0
  0
LINE
  8
DETAIL
  6
CONTINUOUS
 62
     5
 10
83.600227246334612
 20
-274.0180851208429
 30
0.0
 11
83.600227246334612
 21
-274.0180851208429
 31
0.0
  0
LINE
  8
DETAIL
  6
CONTINUOUS
 62
     5
 10
83.600227246334612
 20
-274.0180851208429
 30
0.0
 11
83.616013028096631
 21
-274.02585170537202
 31
0.0
  0
LINE
  8
DETAIL
  6
CONTINUOUS
 62
     5
 10
83.616013028096631
 20
-274.02585170537202
 30
0.0
 11
83.631736341251553
 21
-274.03401136346531
 31
0.0
  0
LINE
  8
DETAIL
  6
CONTINUOUS
 62
     5
 10
83.631736341251553
 20
-274.03401136346531
 30
0.0
 11
83.631736341251553
 21
-274.03401136346531
 31
0.0
  0
LINE
  8
DETAIL
  6
CONTINUOUS
 62
     5
 10
83.631736341251553
 20
-274.03401136346531
 30
0.0
 11
83.64724119139521
 21
-274.04249003825191
 31
0.0
  0
LINE
  8
DETAIL
  6
CONTINUOUS
 62
     5
 10
83.64724119139521
 20
-274.04249003825191
 30
0.0
 11
83.662529958845198
 21
-274.0512834089119
 31
0.0
  0
LINE
  8
DETAIL
  6
CONTINUOUS
 62
     5
 10
83.662529958845198
 20
-274.0512834089119
 30
0.0
 11
83.662529958845198
 21
-274.0512834089119
 31
0.0
  0
LINE
  8
DETAIL
  6
CONTINUOUS
 62
     5
 10
83.662529958845198
 20
-274.0512834089119
 30
0.0
 11
83.677636931546658
 21
-274.06040228405601
 31
0.0
  0
LINE
  8
DETAIL
  6
CONTINUOUS
 62
     5
 10
83.677636931546658
 20
-274.06040228405601
 30
0.0
 11
83.692565653235874
 21
-274.06984825396842
 31
0.0
  0
LINE
  8
DETAIL
  6
CONTINUOUS
 62
     5
 10
83.692565653235874
 20
-274.06984825396842
 30
0.0
 11
83.692565653235874
 21
-274.06984825396842
 31
0.0
  0
LINE
  8
DETAIL
  6
CONTINUOUS
 62
     5
 10
83.692565653235874
 20
-274.06984825396842
 30
0.0
 11
83.707303132125503
 21
-274.07961238866562
 31
0.0
  0
LINE
  8
DETAIL
  6
CONTINUOUS
 62
     5
 10
83.707303132125503
 20
-274.07961238866562
 30
0.0
 11
83.721800978544024
 21
-274.08965289542078
 31
0.0
  0
LINE
  8
DETAIL
  6
CONTINUOUS
 62
     5
 10
83.721800978544024
 20
-274.08965289542078
 30
0.0
 11
83.721800978544024
 21
-274.08965289542078
 31
0.0
  0
LINE
  8
DETAIL
  6
CONTINUOUS
 62
     5
 10
83.721800978544024
 20
-274.08965289542078
 30
0.0
 11
83.736045037285294
 21
-274.09995493314437
 31
0.0
  0
LINE
  8
DETAIL
  6
CONTINUOUS
 62
     5
 10
83.736045037285294
 20
-274.09995493314437
 30
0.0
 11
83.750193488889863
 21
-274.11064433005407
 31
0.0
  0
LINE
  8
DETAIL
  6
CONTINUOUS
 62
     5
 10
83.750193488889863
 20
-274.11064433005407
 30
0.0
 11
83.750193488889863
 21
-274.11064433005407
 31
0.0
  0
LINE
  8
DETAIL
  6
CONTINUOUS
 62
     5
 10
83.750193488889863
 20
-274.11064433005407
 30
0.0
 11
83.764377799890667
 21
-274.12182785772131
 31
0.0
  0
LINE
  8
DETAIL
  6
CONTINUOUS
 62
     5
 10
83.764377799890667
 20
-274.12182785772131
 30
0.0
 11
83.778450245041995
 21
-274.13339539183738
 31
0.0
  0
LINE
  8
DETAIL
  6
CONTINUOUS
 62
     5
 10
83.778450245041995
 20
-274.13339539183738
 30
0.0
 11
83.778450245041995
 21
-274.13339539183738
 31
0.0
  0
LINE
  8
DETAIL
  6
CONTINUOUS
 62
     5
 10
83.778450245041995
 20
-274.13339539183738
 30
0.0
 11
83.792238089023385
 21
-274.14521513338462
 31
0.0
  0
LINE
  8
DETAIL
  6
CONTINUOUS
 62
     5
 10
83.792238089023385
 20
-274.14521513338462
 30
0.0
 11
83.8057477479922
 21
-274.15728548038493
 31
0.0
  0
LINE
  8
DETAIL
  6
CONTINUOUS
 62
     5
 10
83.8057477479922
 20
-274.15728548038493
 30
0.0
 11
83.8057477479922
 21
-274.15728548038493
 31
0.0
  0
LINE
  8
DETAIL
  6
CONTINUOUS
 62
     5
 10
83.8057477479922
 20
-274.15728548038493
 30
0.0
 11
83.819020950590357
 21
-274.16963170914403
 31
0.0
  0
LINE
  8
DETAIL
  6
CONTINUOUS
 62
     5
 10
83.819020950590357
 20
-274.16963170914403
 30
0.0
 11
83.832061523920288
 21
-274.18225641206169
 31
0.0
  0
LINE
  8
DETAIL
  6
CONTINUOUS
 62
     5
 10
83.832061523920288
 20
-274.18225641206169
 30
0.0
 11
83.832061523920288
 21
-274.18225641206169
 31
0.0
  0
LINE
  8
DETAIL
  6
CONTINUOUS
 62
     5
 10
83.832061523920288
 20
-274.18225641206169
 30
0.0
 11
83.844856933370011
 21
-274.19514664520727
 31
0.0
  0
LINE
  8
DETAIL
  6
CONTINUOUS
 62
     5
 10
83.844856933370011
 20
-274.19514664520727
 30
0.0
 11
83.857367099006069
 21
-274.20825000323532
 31
0.0
  0
LINE
  8
DETAIL
  6
CONTINUOUS
 62
     5
 10
83.857367099006069
 20
-274.20825000323532
 30
0.0
 11
83.857367099006069
 21
-274.20825000323532
 31
0.0
  0
LINE
  8
DETAIL
  6
CONTINUOUS
 62
     5
 10
83.857367099006069
 20
-274.20825000323532
 30
0.0
 11
83.8695820752705
 21
-274.22154934783771
 31
0.0
  0
LINE
  8
DETAIL
  6
CONTINUOUS
 62
     5
 10
83.8695820752705
 20
-274.22154934783771
 30
0.0
 11
83.881639999428899
 21
-274.23520807027069
 31
0.0
  0
LINE
  8
DETAIL
  6
CONTINUOUS
 62
     5
 10
83.881639999428899
 20
-274.23520807027069
 30
0.0
 11
83.881639999428899
 21
-274.23520807027069
 31
0.0
  0
LINE
  8
DETAIL
  6
CONTINUOUS
 62
     5
 10
83.881639999428899
 20
-274.23520807027069
 30
0.0
 11
83.893655222363464
 21
-274.24936420949427
 31
0.0
  0
LINE
  8
DETAIL
  6
CONTINUOUS
 62
     5
 10
83.893655222363464
 20
-274.24936420949427
 30
0.0
 11
83.905498866602102
 21
-274.26387386571758
 31
0.0
  0
LINE
  8
DETAIL
  6
CONTINUOUS
 62
     5
 10
83.905498866602102
 20
-274.26387386571758
 30
0.0
 11
83.905498866602102
 21
-274.26387386571758
 31
0.0
  0
LINE
  8
DETAIL
  6
CONTINUOUS
 62
     5
 10
83.905498866602102
 20
-274.26387386571758
 30
0.0
 11
83.917020650423979
 21
-274.27856580665679
 31
0.0
  0
LINE
  8
DETAIL
  6
CONTINUOUS
 62
     5
 10
83.917020650423979
 20
-274.27856580665679
 30
0.0
 11
83.928227903467814
 21
-274.29344140880511
 31
0.0
  0
LINE
  8
DETAIL
  6
CONTINUOUS
 62
     5
 10
83.928227903467814
 20
-274.29344140880511
 30
0.0
 11
83.928227903467814
 21
-274.29344140880511
 31
0.0
  0
LINE
  8
DETAIL
  6
CONTINUOUS
 62
     5
 10
83.928227903467814
 20
-274.29344140880511
 30
0.0
 11
83.939158520207229
 21
-274.30853676064839
 31
0.0
  0
LINE
  8
DETAIL
  6
CONTINUOUS
 62
     5
 10
83.939158520207229
 20
-274.30853676064839
 30
0.0
 11
83.949815043093849
 21
-274.32385418986598
 31
0.0
  0
LINE
  8
DETAIL
  6
CONTINUOUS
 62
     5
 10
83.949815043093849
 20
-274.32385418986598
 30
0.0
 11
83.949815043093849
 21
-274.32385418986598
 31
0.0
  0
LINE
  8
DETAIL
  6
CONTINUOUS
 62
     5
 10
83.949815043093849
 20
-274.32385418986598
 30
0.0
 11
83.960187125755965
 21
-274.33937819254868
 31
0.0
  0
LINE
  8
DETAIL
  6
CONTINUOUS
 62
     5
 10
83.960187125755965
 20
-274.33937819254868
 30
0.0
 11
83.970248218548249
 21
-274.35505569923242
 31
0.0
  0
LINE
  8
DETAIL
  6
CONTINUOUS
 62
     5
 10
83.970248218548249
 20
-274.35505569923242
 30
0.0
 11
83.970248218548249
 21
-274.35505569923242
 31
0.0
  0
LINE
  8
DETAIL
  6
CONTINUOUS
 62
     5
 10
83.970248218548249
 20
-274.35505569923242
 30
0.0
 11
83.979992762286088
 21
-274.37087025482009
 31
0.0
  0
LINE
  8
DETAIL
  6
CONTINUOUS
 62
     5
 10
83.979992762286088
 20
-274.37087025482009
 30
0.0
 11
83.989515362898373
 21
-274.38698942723607
 31
0.0
  0
LINE
  8
DETAIL
  6
CONTINUOUS
 62
     5
 10
83.989515362898373
 20
-274.38698942723607
 30
0.0
 11
83.989515362898373
 21
-274.38698942723607
 31
0.0
  0
LINE
  8
DETAIL
  6
CONTINUOUS
 62
     5
 10
83.989515362898373
 20
-274.38698942723607
 30
0.0
 11
83.998893804899353
 21
-274.40355419560092
 31
0.0
  0
LINE
  8
DETAIL
  6
CONTINUOUS
 62
     5
 10
83.998893804899353
 20
-274.40355419560092
 30
0.0
 11
84.008038422027312
 21
-274.42041516080161
 31
0.0
  0
LINE
  8
DETAIL
  6
CONTINUOUS
 62
     5
 10
84.008038422027312
 20
-274.42041516080161
 30
0.0
 11
84.008038422027312
 21
-274.42041516080161
 31
0.0
  0
LINE
  8
DETAIL
  6
CONTINUOUS
 62
     5
 10
84.008038422027312
 20
-274.42041516080161
 30
0.0
 11
84.016845187953436
 21
-274.4373953091997
 31
0.0
  0
LINE
  8
DETAIL
  6
CONTINUOUS
 62
     5
 10
84.016845187953436
 20
-274.4373953091997
 30
0.0
 11
84.025320086847046
 21
-274.45449754728668
 31
0.0
  0
LINE
  8
DETAIL
  6
CONTINUOUS
 62
     5
 10
84.025320086847046
 20
-274.45449754728668
 30
0.0
 11
84.025320086847046
 21
-274.45449754728668
 31
0.0
  0
LINE
  8
DETAIL
  6
CONTINUOUS
 62
     5
 10
84.025320086847046
 20
-274.45449754728668
 30
0.0
 11
84.033490087258315
 21
-274.47176024139202
 31
0.0
  0
LINE
  8
DETAIL
  6
CONTINUOUS
 62
     5
 10
84.033490087258315
 20
-274.47176024139202
 30
0.0
 11
84.041356084760309
 21
-274.48918367707017
 31
0.0
  0
LINE
  8
DETAIL
  6
CONTINUOUS
 62
     5
 10
84.041356084760309
 20
-274.48918367707017
 30
0.0
 11
84.041356084760309
 21
-274.48918367707017
 31
0.0
  0
LINE
  8
DETAIL
  6
CONTINUOUS
 62
     5
 10
84.041356084760309
 20
-274.48918367707017
 30
0.0
 11
84.048911027033228
 21
-274.50675172042492
 31
0.0
  0
LINE
  8
DETAIL
  6
CONTINUOUS
 62
     5
 10
84.048911027033228
 20
-274.50675172042492
 30
0.0
 11
84.05614214316995
 21
-274.524420640529
 31
0.0
  0
LINE
  8
DETAIL
  6
CONTINUOUS
 62
     5
 10
84.05614214316995
 20
-274.524420640529
 30
0.0
 11
84.05614214316995
 21
-274.524420640529
 31
0.0
  0
LINE
  8
DETAIL
  6
CONTINUOUS
 62
     5
 10
84.05614214316995
 20
-274.524420640529
 30
0.0
 11
84.063047469448861
 21
-274.54217692442109
 31
0.0
  0
LINE
  8
DETAIL
  6
CONTINUOUS
 62
     5
 10
84.063047469448861
 20
-274.54217692442109
 30
0.0
 11
84.069673989479384
 21
-274.56015552804172
 31
0.0
  0
LINE
  8
DETAIL
  6
CONTINUOUS
 62
     5
 10
84.069673989479384
 20
-274.56015552804172
 30
0.0
 11
84.069673989479384
 21
-274.56015552804172
 31
0.0
  0
LINE
  8
DETAIL
  6
CONTINUOUS
 62
     5
 10
84.069673989479384
 20
-274.56015552804172
 30
0.0
 11
84.076059790398176
 21
-274.57846946618253
 31
0.0
  0
LINE
  8
DETAIL
  6
CONTINUOUS
 62
     5
 10
84.076059790398176
 20
-274.57846946618253
 30
0.0
 11
84.082158426119349
 21
-274.59699552014752
 31
0.0
  0
LINE
  8
DETAIL
  6
CONTINUOUS
 62
     5
 10
84.082158426119349
 20
-274.59699552014752
 30
0.0
 11
84.082158426119349
 21
-274.59699552014752
 31
0.0
  0
LINE
  8
DETAIL
  6
CONTINUOUS
 62
     5
 10
84.082158426119349
 20
-274.59699552014752
 30
0.0
 11
84.087916532422014
 21
-274.61558842382601
 31
0.0
  0
LINE
  8
DETAIL
  6
CONTINUOUS
 62
     5
 10
84.087916532422014
 20
-274.61558842382601
 30
0.0
 11
84.0933376057651
 21
-274.6342509549446
 31
0.0
  0
LINE
  8
DETAIL
  6
CONTINUOUS
 62
     5
 10
84.0933376057651
 20
-274.6342509549446
 30
0.0
 11
84.0933376057651
 21
-274.6342509549446
 31
0.0
  0
LINE
  8
DETAIL
  6
CONTINUOUS
 62
     5
 10
84.0933376057651
 20
-274.6342509549446
 30
0.0
 11
84.098435759138738
 21
-274.65301439672538
 31
0.0
  0
LINE
  8
DETAIL
  6
CONTINUOUS
 62
     5
 10
84.098435759138738
 20
-274.65301439672538
 30
0.0
 11
84.103210710975759
 21
-274.67187601053519
 31
0.0
  0
LINE
  8
DETAIL
  6
CONTINUOUS
 62
     5
 10
84.103210710975759
 20
-274.67187601053519
 30
0.0
 11
84.103210710975759
 21
-274.67187601053519
 31
0.0
  0
LINE
  8
DETAIL
  6
CONTINUOUS
 62
     5
 10
84.103210710975759
 20
-274.67187601053519
 30
0.0
 11
84.107658760457184
 21
-274.69082156317307
 31
0.0
  0
LINE
  8
DETAIL
  6
CONTINUOUS
 62
     5
 10
84.107658760457184
 20
-274.69082156317307
 30
0.0
 11
84.111776924311471
 21
-274.70982486502209
 31
0.0
  0
LINE
  8
DETAIL
  6
CONTINUOUS
 62
     5
 10
84.111776924311471
 20
-274.70982486502209
 30
0.0
 11
84.111776924311471
 21
-274.70982486502209
 31
0.0
  0
LINE
  8
DETAIL
  6
CONTINUOUS
 62
     5
 10
84.111776924311471
 20
-274.70982486502209
 30
0.0
 11
84.115565279746079
 21
-274.72887719924091
 31
0.0
  0
LINE
  8
DETAIL
  6
CONTINUOUS
 62
     5
 10
84.115565279746079
 20
-274.72887719924091
 30
0.0
 11
84.119035428331472
 21
-274.74805169650722
 31
0.0
  0
LINE
  8
DETAIL
  6
CONTINUOUS
 62
     5
 10
84.119035428331472
 20
-274.74805169650722
 30
0.0
 11
84.119035428331472
 21
-274.74805169650722
 31
0.0
  0
LINE
  8
DETAIL
  6
CONTINUOUS
 62
     5
 10
84.119035428331472
 20
-274.74805169650722
 30
0.0
 11
84.12219644011509
 21
-274.76740868232622
 31
0.0
  0
LINE
  8
DETAIL
  6
CONTINUOUS
 62
     5
 10
84.12219644011509
 20
-274.76740868232622
 30
0.0
 11
84.125035734687458
 21
-274.78687541398801
 31
0.0
  0
LINE
  8
DETAIL
  6
CONTINUOUS
 62
     5
 10
84.125035734687458
 20
-274.78687541398801
 30
0.0
 11
84.125035734687458
 21
-274.78687541398801
 31
0.0
  0
LINE
  8
DETAIL
  6
CONTINUOUS
 62
     5
 10
84.125035734687458
 20
-274.78687541398801
 30
0.0
 11
84.127538493102065
 21
-274.80636684318358
 31
0.0
  0
LINE
  8
DETAIL
  6
CONTINUOUS
 62
     5
 10
84.127538493102065
 20
-274.80636684318358
 30
0.0
 11
84.129702592719923
 21
-274.82588176742161
 31
0.0
  0
LINE
  8
DETAIL
  6
CONTINUOUS
 62
     5
 10
84.129702592719923
 20
-274.82588176742161
 30
0.0
 11
84.129702592719923
 21
-274.82588176742161
 31
0.0
  0
LINE
  8
DETAIL
  6
CONTINUOUS
 62
     5
 10
84.129702592719923
 20
-274.82588176742161
 30
0.0
 11
84.13153121098685
 21
-274.8454344049768
 31
0.0
  0
LINE
  8
DETAIL
  6
CONTINUOUS
 62
     5
 10
84.13153121098685
 20
-274.8454344049768
 30
0.0
 11
84.133036029377763
 21
-274.8650168113661
 31
0.0
  0
LINE
  8
DETAIL
  6
CONTINUOUS
 62
     5
 10
84.133036029377763
 20
-274.8650168113661
 30
0.0
 11
84.133036029377763
 21
-274.8650168113661
 31
0.0
  0
LINE
  8
DETAIL
  6
CONTINUOUS
 62
     5
 10
84.133036029377763
 20
-274.8650168113661
 30
0.0
 11
84.134219177268506
 21
-274.88461670272028
 31
0.0
  0
LINE
  8
DETAIL
  6
CONTINUOUS
 62
     5
 10
84.134219177268506
 20
-274.88461670272028
 30
0.0
 11
84.135036071609761
 21
-274.90422660037802
 31
0.0
  0
LINE
  8
DETAIL
  6
CONTINUOUS
 62
     5
 10
84.135036071609761
 20
-274.90422660037802
 30
0.0
 11
84.135036071609761
 21
-274.90422660037802
 31
0.0
  0
LINE
  8
DETAIL
  6
CONTINUOUS
 62
     5
 10
84.135036071609761
 20
-274.90422660037802
 30
0.0
 11
84.135475037663696
 21
-274.92384096246047
 31
0.0
  0
LINE
  8
DETAIL
  6
CONTINUOUS
 62
     5
 10
84.135475037663696
 20
-274.92384096246047
 30
0.0
 11
84.135702746365041
 21
-274.94345718901462
 31
0.0
  0
LINE
  8
DETAIL
  6
CONTINUOUS
 62
     5
 10
84.059152445296832
 20
-271.25344553511519
 30
0.0
 11
84.059152445296832
 21
-271.25344553511519
 31
0.0
  0
LINE
  8
DETAIL
  6
CONTINUOUS
 62
     5
 10
96.010338407008021
 20
-274.74313408723748
 30
0.0
 11
96.010282067109415
 21
-274.77788290871132
 31
0.0
  0
LINE
  8
DETAIL
  6
CONTINUOUS
 62
     5
 10
96.010282067109415
 20
-274.77788290871132
 30
0.0
 11
96.010172885664133
 21
-274.81263000676222
 31
0.0
  0
LINE
  8
DETAIL
  6
CONTINUOUS
 62
     5
 10
96.010172885664133
 20
-274.81263000676222
 30
0.0
 11
96.010172885664133
 21
-274.81263000676222
 31
0.0
  0
LINE
  8
DETAIL
  6
CONTINUOUS
 62
     5
 10
96.010172885664133
 20
-274.81263000676222
 30
0.0
 11
96.009968998116619
 21
-274.84737528596332
 31
0.0
  0
LINE
  8
DETAIL
  6
CONTINUOUS
 62
     5
 10
96.009968998116619
 20
-274.84737528596332
 30
0.0
 11
96.009672447874067
 21
-274.88212516286472
 31
0.0
  0
LINE
  8
DETAIL
  6
CONTINUOUS
 62
     5
 10
96.009672447874067
 20
-274.88212516286472
 30
0.0
 11
96.009672447874067
 21
-274.88212516286472
 31
0.0
  0
LINE
  8
DETAIL
  6
CONTINUOUS
 62
     5
 10
96.009672447874067
 20
-274.88212516286472
 30
0.0
 11
96.009293485597937
 21
-274.91688102150641
 31
0.0
  0
LINE
  8
DETAIL
  6
CONTINUOUS
 62
     5
 10
96.009293485597937
 20
-274.91688102150641
 30
0.0
 11
96.008831283000518
 21
-274.95161760390539
 31
0.0
  0
LINE
  8
DETAIL
  6
CONTINUOUS
 62
     5
 10
96.008831283000518
 20
-274.95161760390539
 30
0.0
 11
96.008831283000518
 21
-274.95161760390539
 31
0.0
  0
LINE
  8
DETAIL
  6
CONTINUOUS
 62
     5
 10
96.008831283000518
 20
-274.95161760390539
 30
0.0
 11
96.008282344014333
 21
-274.98632800560119
 31
0.0
  0
LINE
  8
DETAIL
  6
CONTINUOUS
 62
     5
 10
96.008282344014333
 20
-274.98632800560119
 30
0.0
 11
96.007643580406238
 21
-275.02110537824569
 31
0.0
  0
LINE
  8
DETAIL
  6
CONTINUOUS
 62
     5
 10
96.007643580406238
 20
-275.02110537824569
 30
0.0
 11
96.007643580406238
 21
-275.02110537824569
 31
0.0
  0
LINE
  8
DETAIL
  6
CONTINUOUS
 62
     5
 10
96.007643580406238
 20
-275.02110537824569
 30
0.0
 11
96.006914367804598
 21
-275.0559744919118
 31
0.0
  0
LINE
  8
DETAIL
  6
CONTINUOUS
 62
     5
 10
96.006914367804598
 20
-275.0559744919118
 30
0.0
 11
96.006103529453526
 21
-275.09058653424557
 31
0.0
  0
LINE
  8
DETAIL
  6
CONTINUOUS
 62
     5
 10
96.006103529453526
 20
-275.09058653424557
 30
0.0
 11
96.006103529453526
 21
-275.09058653424557
 31
0.0
  0
LINE
  8
DETAIL
  6
CONTINUOUS
 62
     5
 10
96.006103529453526
 20
-275.09058653424557
 30
0.0
 11
96.005218456959483
 21
-275.12464582836998
 31
0.0
  0
LINE
  8
DETAIL
  6
CONTINUOUS
 62
     5
 10
96.005218456959483
 20
-275.12464582836998
 30
0.0
 11
96.004251367763345
 21
-275.15844282173839
 31
0.0
  0
LINE
  8
DETAIL
  6
CONTINUOUS
 62
     5
 10
96.004251367763345
 20
-275.15844282173839
 30
0.0
 11
96.004251367763345
 21
-275.15844282173839
 31
0.0
  0
LINE
  8
DETAIL
  6
CONTINUOUS
 62
     5
 10
96.004251367763345
 20
-275.15844282173839
 30
0.0
 11
96.003192425320549
 21
-275.19232577935873
 31
0.0
  0
LINE
  8
DETAIL
  6
CONTINUOUS
 62
     5
 10
96.003192425320549
 20
-275.19232577935873
 30
0.0
 11
96.002038751310693
 21
-275.22628811211871
 31
0.0
  0
LINE
  8
DETAIL
  6
CONTINUOUS
 62
     5
 10
96.002038751310693
 20
-275.22628811211871
 30
0.0
 11
96.002038751310693
 21
-275.22628811211871
 31
0.0
  0
LINE
  8
DETAIL
  6
CONTINUOUS
 62
     5
 10
96.002038751310693
 20
-275.22628811211871
 30
0.0
 11
96.000789739454603
 21
-275.2602407538335
 31
0.0
  0
LINE
  8
DETAIL
  6
CONTINUOUS
 62
     5
 10
96.000789739454603
 20
-275.2602407538335
 30
0.0
 11
95.99944691341409
 21
-275.29411958413942
 31
0.0
  0
LINE
  8
DETAIL
  6
CONTINUOUS
 62
     5
 10
95.99944691341409
 20
-275.29411958413942
 30
0.0
 11
95.99944691341409
 21
-275.29411958413942
 31
0.0
  0
LINE
  8
DETAIL
  6
CONTINUOUS
 62
     5
 10
95.99944691341409
 20
-275.29411958413942
 30
0.0
 11
95.998008459839184
 21
-275.32793048683652
 31
0.0
  0
LINE
  8
DETAIL
  6
CONTINUOUS
 62
     5
 10
95.998008459839184
 20
-275.32793048683652
 30
0.0
 11
95.996457087391491
 21
-275.36193441655331
 31
0.0
  0
LINE
  8
DETAIL
  6
CONTINUOUS
 62
     5
 10
95.996457087391491
 20
-275.36193441655331
 30
0.0
 11
95.996457087391491
 21
-275.36193441655331
 31
0.0
  0
LINE
  8
DETAIL
  6
CONTINUOUS
 62
     5
 10
95.996457087391491
 20
-275.36193441655331
 30
0.0
 11
95.994786580738719
 21
-275.39619478834112
 31
0.0
  0
LINE
  8
DETAIL
  6
CONTINUOUS
 62
     5
 10
95.994786580738719
 20
-275.39619478834112
 30
0.0
 11
95.993050506561076
 21
-275.42972978811292
 31
0.0
  0
LINE
  8
DETAIL
  6
CONTINUOUS
 62
     5
 10
95.993050506561076
 20
-275.42972978811292
 30
0.0
 11
95.993050506561076
 21
-275.42972978811292
 31
0.0
  0
LINE
  8
DETAIL
  6
CONTINUOUS
 62
     5
 10
95.993050506561076
 20
-275.42972978811292
 30
0.0
 11
95.991295032437051
 21
-275.46170986149502
 31
0.0
  0
LINE
  8
DETAIL
  6
CONTINUOUS
 62
     5
 10
95.991295032437051
 20
-275.46170986149502
 30
0.0
 11
95.989476947529511
 21
-275.49295972210598
 31
0.0
  0
LINE
  8
DETAIL
  6
CONTINUOUS
 62
     5
 10
95.989476947529511
 20
-275.49295972210598
 30
0.0
 11
95.989476947529511
 21
-275.49295972210598
 31
0.0
  0
LINE
  8
DETAIL
  6
CONTINUOUS
 62
     5
 10
95.989476947529511
 20
-275.49295972210598
 30
0.0
 11
95.987543219922259
 21
-275.52446055399759
 31
0.0
  0
LINE
  8
DETAIL
  6
CONTINUOUS
 62
     5
 10
95.987543219922259
 20
-275.52446055399759
 30
0.0
 11
95.985490911798365
 21
-275.55616515495478
 31
0.0
  0
LINE
  8
DETAIL
  6
CONTINUOUS
 62
     5
 10
95.985490911798365
 20
-275.55616515495478
 30
0.0
 11
95.985490911798365
 21
-275.55616515495478
 31
0.0
  0
LINE
  8
DETAIL
  6
CONTINUOUS
 62
     5
 10
95.985490911798365
 20
-275.55616515495478
 30
0.0
 11
95.983328372717096
 21
-275.58781579010588
 31
0.0
  0
LINE
  8
DETAIL
  6
CONTINUOUS
 62
     5
 10
95.983328372717096
 20
-275.58781579010588
 30
0.0
 11
95.981059007644035
 21
-275.61934098021658
 31
0.0
  0
LINE
  8
DETAIL
  6
CONTINUOUS
 62
     5
 10
95.981059007644035
 20
-275.61934098021658
 30
0.0
 11
95.981059007644035
 21
-275.61934098021658
 31
0.0
  0
LINE
  8
DETAIL
  6
CONTINUOUS
 62
     5
 10
95.981059007644035
 20
-275.61934098021658
 30
0.0
 11
95.978677406464953
 21
-275.65078665089118
 31
0.0
  0
LINE
  8
DETAIL
  6
CONTINUOUS
 62
     5
 10
95.978677406464953
 20
-275.65078665089118
 30
0.0
 11
95.976147843342005
 21
-275.68248209145008
 31
0.0
  0
LINE
  8
DETAIL
  6
CONTINUOUS
 62
     5
 10
95.976147843342005
 20
-275.68248209145008
 30
0.0
 11
95.976147843342005
 21
-275.68248209145008
 31
0.0
  0
LINE
  8
DETAIL
  6
CONTINUOUS
 62
     5
 10
95.976147843342005
 20
-275.68248209145008
 30
0.0
 11
95.973458565379588
 21
-275.71449750451688
 31
0.0
  0
LINE
  8
DETAIL
  6
CONTINUOUS
 62
     5
 10
95.973458565379588
 20
-275.71449750451688
 30
0.0
 11
95.970724027168217
 21
-275.74558338221289
 31
0.0
  0
LINE
  8
DETAIL
  6
CONTINUOUS
 62
     5
 10
95.970724027168217
 20
-275.74558338221289
 30
0.0
 11
95.970724027168217
 21
-275.74558338221289
 31
0.0
  0
LINE
  8
DETAIL
  6
CONTINUOUS
 62
     5
 10
95.970724027168217
 20
-275.74558338221289
 30
0.0
 11
95.968042408558631
 21
-275.77468619294672
 31
0.0
  0
LINE
  8
DETAIL
  6
CONTINUOUS
 62
     5
 10
95.968042408558631
 20
-275.77468619294672
 30
0.0
 11
95.965320582954547
 21
-275.80285602078749
 31
0.0
  0
LINE
  8
DETAIL
  6
CONTINUOUS
 62
     5
 10
95.965320582954547
 20
-275.80285602078749
 30
0.0
 11
95.965320582954547
 21
-275.80285602078749
 31
0.0
  0
LINE
  8
DETAIL
  6
CONTINUOUS
 62
     5
 10
95.965320582954547
 20
-275.80285602078749
 30
0.0
 11
95.962445110102863
 21
-275.83134114944392
 31
0.0
  0
LINE
  8
DETAIL
  6
CONTINUOUS
 62
     5
 10
95.962445110102863
 20
-275.83134114944392
 30
0.0
 11
95.959412601575423
 21
-275.86007904552503
 31
0.0
  0
LINE
  8
DETAIL
  6
CONTINUOUS
 62
     5
 10
95.959412601575423
 20
-275.86007904552503
 30
0.0
 11
95.959412601575423
 21
-275.86007904552503
 31
0.0
  0
LINE
  8
DETAIL
  6
CONTINUOUS
 62
     5
 10
95.959412601575423
 20
-275.86007904552503
 30
0.0
 11
95.956243810584056
 21
-275.88874043583837
 31
0.0
  0
LINE
  8
DETAIL
  6
CONTINUOUS
 62
     5
 10
95.956243810584056
 20
-275.88874043583837
 30
0.0
 11
95.952946005077138
 21
-275.91723990508967
 31
0.0
  0
LINE
  8
DETAIL
  6
CONTINUOUS
 62
     5
 10
95.952946005077138
 20
-275.91723990508967
 30
0.0
 11
95.952946005077138
 21
-275.91723990508967
 31
0.0
  0
LINE
  8
DETAIL
  6
CONTINUOUS
 62
     5
 10
95.952946005077138
 20
-275.91723990508967
 30
0.0
 11
95.949509053994689
 21
-275.94563684883548
 31
0.0
  0
LINE
  8
DETAIL
  6
CONTINUOUS
 62
     5
 10
95.949509053994689
 20
-275.94563684883548
 30
0.0
 11
95.945866715505872
 21
-275.97432604814429
 31
0.0
  0
LINE
  8
DETAIL
  6
CONTINUOUS
 62
     5
 10
95.945866715505872
 20
-275.97432604814429
 30
0.0
 11
95.945866715505872
 21
-275.97432604814429
 31
0.0
  0
LINE
  8
DETAIL
  6
CONTINUOUS
 62
     5
 10
95.945866715505872
 20
-275.97432604814429
 30
0.0
 11
95.941998202174318
 21
-276.0033897804783
 31
0.0
  0
LINE
  8
DETAIL
  6
CONTINUOUS
 62
     5
 10
95.941998202174318
 20
-276.0033897804783
 30
0.0
 11
95.938120654907607
 21
-276.03132492335521
 31
0.0
  0
LINE
  8
DETAIL
  6
CONTINUOUS
 62
     5
 10
95.938120654907607
 20
-276.03132492335521
 30
0.0
 11
95.938120654907607
 21
-276.03132492335521
 31
0.0
  0
LINE
  8
DETAIL
  6
CONTINUOUS
 62
     5
 10
95.938120654907607
 20
-276.03132492335521
 30
0.0
 11
95.934420243872182
 21
-276.05686452613958
 31
0.0
  0
LINE
  8
DETAIL
  6
CONTINUOUS
 62
     5
 10
95.934420243872182
 20
-276.05686452613958
 30
0.0
 11
95.930721327919855
 21
-276.08127172552622
 31
0.0
  0
LINE
  8
DETAIL
  6
CONTINUOUS
 62
     5
 10
95.930721327919855
 20
-276.08127172552622
 30
0.0
 11
95.930721327919855
 21
-276.08127172552622
 31
0.0
  0
LINE
  8
DETAIL
  6
CONTINUOUS
 62
     5
 10
95.930721327919855
 20
-276.08127172552622
 30
0.0
 11
95.926810137209714
 21
-276.10604822594541
 31
0.0
  0
LINE
  8
DETAIL
  6
CONTINUOUS
 62
     5
 10
95.926810137209714
 20
-276.10604822594541
 30
0.0
 11
95.922682198442544
 21
-276.13111991544798
 31
0.0
  0
LINE
  8
DETAIL
  6
CONTINUOUS
 62
     5
 10
95.922682198442544
 20
-276.13111991544798
 30
0.0
 11
95.922682198442544
 21
-276.13111991544798
 31
0.0
  0
LINE
  8
DETAIL
  6
CONTINUOUS
 62
     5
 10
95.922682198442544
 20
-276.13111991544798
 30
0.0
 11
95.918379282487876
 21
-276.15609012658888
 31
0.0
  0
LINE
  8
DETAIL
  6
CONTINUOUS
 62
     5
 10
95.918379282487876
 20
-276.15609012658888
 30
0.0
 11
95.913918840345787
 21
-276.1808477863201
 31
0.0
  0
LINE
  8
DETAIL
  6
CONTINUOUS
 62
     5
 10
95.913918840345787
 20
-276.1808477863201
 30
0.0
 11
95.913918840345787
 21
-276.1808477863201
 31
0.0
  0
LINE
  8
DETAIL
  6
CONTINUOUS
 62
     5
 10
95.913918840345787
 20
-276.1808477863201
 30
0.0
 11
95.909284238782675
 21
-276.20546157989071
 31
0.0
  0
LINE
  8
DETAIL
  6
CONTINUOUS
 62
     5
 10
95.909284238782675
 20
-276.20546157989071
 30
0.0
 11
95.904346827499467
 21
-276.23043363133968
 31
0.0
  0
LINE
  8
DETAIL
  6
CONTINUOUS
 62
     5
 10
95.904346827499467
 20
-276.23043363133968
 30
0.0
 11
95.904346827499467
 21
-276.23043363133968
 31
0.0
  0
LINE
  8
DETAIL
  6
CONTINUOUS
 62
     5
 10
95.904346827499467
 20
-276.23043363133968
 30
0.0
 11
95.899068048963045
 21
-276.25586958701359
 31
0.0
  0
LINE
  8
DETAIL
  6
CONTINUOUS
 62
     5
 10
95.899068048963045
 20
-276.25586958701359
 30
0.0
 11
95.893881733773924
 21
-276.27985574370592
 31
0.0
  0
LINE
  8
DETAIL
  6
CONTINUOUS
 62
     5
 10
95.893881733773924
 20
-276.27985574370592
 30
0.0
 11
95.893881733773924
 21
-276.27985574370592
 31
0.0
  0
LINE
  8
DETAIL
  6
CONTINUOUS
 62
     5
 10
95.893881733773924
 20
-276.27985574370592
 30
0.0
 11
95.889160198371428
 21
-276.30077925539831
 31
0.0
  0
LINE
  8
DETAIL
  6
CONTINUOUS
 62
     5
 10
95.889160198371428
 20
-276.30077925539831
 30
0.0
 11
95.884557314414678
 21
-276.32025005438072
 31
0.0
  0
LINE
  8
DETAIL
  6
CONTINUOUS
 62
     5
 10
95.884557314414678
 20
-276.32025005438072
 30
0.0
 11
95.884557314414678
 21
-276.32025005438072
 31
0.0
  0
LINE
  8
DETAIL
  6
CONTINUOUS
 62
     5
 10
95.884557314414678
 20
-276.32025005438072
 30
0.0
 11
95.879652393125184
 21
-276.34017851650492
 31
0.0
  0
LINE
  8
DETAIL
  6
CONTINUOUS
 62
     5
 10
95.879652393125184
 20
-276.34017851650492
 30
0.0
 11
95.874444948752171
 21
-276.36045401355608
 31
0.0
  0
LINE
  8
DETAIL
  6
CONTINUOUS
 62
     5
 10
95.874444948752171
 20
-276.36045401355608
 30
0.0
 11
95.874444948752171
 21
-276.36045401355608
 31
0.0
  0
LINE
  8
DETAIL
  6
CONTINUOUS
 62
     5
 10
95.874444948752171
 20
-276.36045401355608
 30
0.0
 11
95.869023757383502
 21
-276.38056309799038
 31
0.0
  0
LINE
  8
DETAIL
  6
CONTINUOUS
 62
     5
 10
95.869023757383502
 20
-276.38056309799038
 30
0.0
 11
95.863414439434223
 21
-276.40040204899742
 31
0.0
  0
LINE
  8
DETAIL
  6
CONTINUOUS
 62
     5
 10
95.863414439434223
 20
-276.40040204899742
 30
0.0
 11
95.863414439434223
 21
-276.40040204899742
 31
0.0
  0
LINE
  8
DETAIL
  6
CONTINUOUS
 62
     5
 10
95.863414439434223
 20
-276.40040204899742
 30
0.0
 11
95.85758493131695
 21
-276.42006510173161
 31
0.0
  0
LINE
  8
DETAIL
  6
CONTINUOUS
 62
     5
 10
95.85758493131695
 20
-276.42006510173161
 30
0.0
 11
95.851335589108089
 21
-276.44002858847131
 31
0.0
  0
LINE
  8
DETAIL
  6
CONTINUOUS
 62
     5
 10
95.851335589108089
 20
-276.44002858847131
 30
0.0
 11
95.851335589108089
 21
-276.44002858847131
 31
0.0
  0
LINE
  8
DETAIL
  6
CONTINUOUS
 62
     5
 10
95.851335589108089
 20
-276.44002858847131
 30
0.0
 11
95.844608243055063
 21
-276.46037983696669
 31
0.0
  0
LINE
  8
DETAIL
  6
CONTINUOUS
 62
     5
 10
95.844608243055063
 20
-276.46037983696669
 30
0.0
 11
95.838078200421933
 21
-276.47926805974282
 31
0.0
  0
LINE
  8
DETAIL
  6
CONTINUOUS
 62
     5
 10
95.838078200421933
 20
-276.47926805974282
 30
0.0
 11
95.838078200421933
 21
-276.47926805974282
 31
0.0
  0
LINE
  8
DETAIL
  6
CONTINUOUS
 62
     5
 10
95.838078200421933
 20
-276.47926805974282
 30
0.0
 11
95.832325491749884
 21
-276.49513786830039
 31
0.0
  0
LINE
  8
DETAIL
  6
CONTINUOUS
 62
     5
 10
95.832325491749884
 20
-276.49513786830039
 30
0.0
 11
95.826815563663445
 21
-276.50955358527472
 31
0.0
  0
LINE
  8
DETAIL
  6
CONTINUOUS
 62
     5
 10
95.826815563663445
 20
-276.50955358527472
 30
0.0
 11
95.826815563663445
 21
-276.50955358527472
 31
0.0
  0
LINE
  8
DETAIL
  6
CONTINUOUS
 62
     5
 10
95.826815563663445
 20
-276.50955358527472
 30
0.0
 11
95.820898686771102
 21
-276.52436696506271
 31
0.0
  0
LINE
  8
DETAIL
  6
CONTINUOUS
 62
     5
 10
95.820898686771102
 20
-276.52436696506271
 30
0.0
 11
95.81457901153226
 21
-276.53945977798321
 31
0.0
  0
LINE
  8
DETAIL
  6
CONTINUOUS
 62
     5
 10
95.81457901153226
 20
-276.53945977798321
 30
0.0
 11
95.81457901153226
 21
-276.53945977798321
 31
0.0
  0
LINE
  8
DETAIL
  6
CONTINUOUS
 62
     5
 10
95.81457901153226
 20
-276.53945977798321
 30
0.0
 11
95.80799780942516
 21
-276.55432653872549
 31
0.0
  0
LINE
  8
DETAIL
  6
CONTINUOUS
 62
     5
 10
95.80799780942516
 20
-276.55432653872549
 30
0.0
 11
95.801190956152823
 21
-276.56888272354399
 31
0.0
  0
LINE
  8
DETAIL
  6
CONTINUOUS
 62
     5
 10
95.801190956152823
 20
-276.56888272354399
 30
0.0
 11
95.801190956152823
 21
-276.56888272354399
 31
0.0
  0
LINE
  8
DETAIL
  6
CONTINUOUS
 62
     5
 10
95.801190956152823
 20
-276.56888272354399
 30
0.0
 11
95.79410990428687
 21
-276.58322058354003
 31
0.0
  0
LINE
  8
DETAIL
  6
CONTINUOUS
 62
     5
 10
95.79410990428687
 20
-276.58322058354003
 30
0.0
 11
95.786473809649124
 21
-276.59771850763241
 31
0.0
  0
LINE
  8
DETAIL
  6
CONTINUOUS
 62
     5
 10
95.786473809649124
 20
-276.59771850763241
 30
0.0
 11
95.786473809649124
 21
-276.59771850763241
 31
0.0
  0
LINE
  8
DETAIL
  6
CONTINUOUS
 62
     5
 10
95.786473809649124
 20
-276.59771850763241
 30
0.0
 11
95.778202399567135
 21
-276.61243504098502
 31
0.0
  0
LINE
  8
DETAIL
  6
CONTINUOUS
 62
     5
 10
95.778202399567135
 20
-276.61243504098502
 30
0.0
 11
95.77024998414538
 21
-276.62586321592357
 31
0.0
  0
LINE
  8
DETAIL
  6
CONTINUOUS
 62
     5
 10
95.77024998414538
 20
-276.62586321592357
 30
0.0
 11
95.77024998414538
 21
-276.62586321592357
 31
0.0
  0
LINE
  8
DETAIL
  6
CONTINUOUS
 62
     5
 10
95.77024998414538
 20
-276.62586321592357
 30
0.0
 11
95.763436758880061
 21
-276.63673772744102
 31
0.0
  0
LINE
  8
DETAIL
  6
CONTINUOUS
 62
     5
 10
95.763436758880061
 20
-276.63673772744102
 30
0.0
 11
95.757011878059302
 21
-276.64632543403468
 31
0.0
  0
LINE
  8
DETAIL
  6
CONTINUOUS
 62
     5
 10
95.757011878059302
 20
-276.64632543403468
 30
0.0
 11
95.757011878059302
 21
-276.64632543403468
 31
0.0
  0
LINE
  8
DETAIL
  6
CONTINUOUS
 62
     5
 10
95.757011878059302
 20
-276.64632543403468
 30
0.0
 11
95.750063782655729
 21
-276.65611694568571
 31
0.0
  0
LINE
  8
DETAIL
  6
CONTINUOUS
 62
     5
 10
95.750063782655729
 20
-276.65611694568571
 30
0.0
 11
95.742609101588641
 21
-276.66596571480341
 31
0.0
  0
LINE
  8
DETAIL
  6
CONTINUOUS
 62
     5
 10
95.742609101588641
 20
-276.66596571480341
 30
0.0
 11
95.742609101588641
 21
-276.66596571480341
 31
0.0
  0
LINE
  8
DETAIL
  6
CONTINUOUS
 62
     5
 10
95.742609101588641
 20
-276.66596571480341
 30
0.0
 11
95.734851857703006
 21
-276.67541519911128
 31
0.0
  0
LINE
  8
DETAIL
  6
CONTINUOUS
 62
     5
 10
95.734851857703006
 20
-276.67541519911128
 30
0.0
 11
95.726817461601513
 21
-276.68440603517172
 31
0.0
  0
LINE
  8
DETAIL
  6
CONTINUOUS
 62
     5
 10
95.726817461601513
 20
-276.68440603517172
 30
0.0
 11
95.726817461601513
 21
-276.68440603517172
 31
0.0
  0
LINE
  8
DETAIL
  6
CONTINUOUS
 62
     5
 10
95.726817461601513
 20
-276.68440603517172
 30
0.0
 11
95.718433236082348
 21
-276.69299026481298
 31
0.0
  0
LINE
  8
DETAIL
  6
CONTINUOUS
 62
     5
 10
95.718433236082348
 20
-276.69299026481298
 30
0.0
 11
95.709412764965919
 21
-276.7012683720834
 31
0.0
  0
LINE
  8
DETAIL
  6
CONTINUOUS
 62
     5
 10
95.709412764965919
 20
-276.7012683720834
 30
0.0
 11
95.709412764965919
 21
-276.7012683720834
 31
0.0
  0
LINE
  8
DETAIL
  6
CONTINUOUS
 62
     5
 10
95.709412764965919
 20
-276.7012683720834
 30
0.0
 11
95.699674589367078
 21
-276.70920521465752
 31
0.0
  0
LINE
  8
DETAIL
  6
CONTINUOUS
 62
     5
 10
95.699674589367078
 20
-276.70920521465752
 30
0.0
 11
95.690170818550087
 21
-276.7161747024802
 31
0.0
  0
LINE
  8
DETAIL
  6
CONTINUOUS
 62
     5
 10
95.690170818550087
 20
-276.7161747024802
 30
0.0
 11
95.690170818550087
 21
-276.7161747024802
 31
0.0
  0
LINE
  8
DETAIL
  6
CONTINUOUS
 62
     5
 10
95.690170818550087
 20
-276.7161747024802
 30
0.0
 11
95.681729305910608
 21
-276.72167198449529
 31
0.0
  0
LINE
  8
DETAIL
  6
CONTINUOUS
 62
     5
 10
95.681729305910608
 20
-276.72167198449529
 30
0.0
 11
95.67364731321868
 21
-276.72626811337022
 31
0.0
  0
LINE
  8
DETAIL
  6
CONTINUOUS
 62
     5
 10
95.67364731321868
 20
-276.72626811337022
 30
0.0
 11
95.67364731321868
 21
-276.72626811337022
 31
0.0
  0
LINE
  8
DETAIL
  6
CONTINUOUS
 62
     5
 10
95.67364731321868
 20
-276.72626811337022
 30
0.0
 11
95.665075842688452
 21
-276.73061655623133
 31
0.0
  0
LINE
  8
DETAIL
  6
CONTINUOUS
 62
     5
 10
95.665075842688452
 20
-276.73061655623133
 30
0.0
 11
95.656111449933746
 21
-276.73462453432558
 31
0.0
  0
LINE
  8
DETAIL
  6
CONTINUOUS
 62
     5
 10
95.656111449933746
 20
-276.73462453432558
 30
0.0
 11
95.656111449933746
 21
-276.73462453432558
 31
0.0
  0
LINE
  8
DETAIL
  6
CONTINUOUS
 62
     5
 10
95.656111449933746
 20
-276.73462453432558
 30
0.0
 11
95.647023653868928
 21
-276.73806915177471
 31
0.0
  0
LINE
  8
DETAIL
  6
CONTINUOUS
 62
     5
 10
95.647023653868928
 20
-276.73806915177471
 30
0.0
 11
95.637828273211312
 21
-276.74095329008838
 31
0.0
  0
LINE
  8
DETAIL
  6
CONTINUOUS
 62
     5
 10
95.637828273211312
 20
-276.74095329008838
 30
0.0
 11
95.637828273211312
 21
-276.74095329008838
 31
0.0
  0
LINE
  8
DETAIL
  6
CONTINUOUS
 62
     5
 10
95.637828273211312
 20
-276.74095329008838
 30
0.0
 11
95.628495013475913
 21
-276.74329705920792
 31
0.0
  0
LINE
  8
DETAIL
  6
CONTINUOUS
 62
     5
 10
95.628495013475913
 20
-276.74329705920792
 30
0.0
 11
95.619062827567404
 21
-276.74496370540209
 31
0.0
  0
LINE
  8
DETAIL
  6
CONTINUOUS
 62
     5
 10
95.619062827567404
 20
-276.74496370540209
 30
0.0
 11
95.619062827567404
 21
-276.74496370540209
 31
0.0
  0
LINE
  8
DETAIL
  6
CONTINUOUS
 62
     5
 10
95.619062827567404
 20
-276.74496370540209
 30
0.0
 11
95.609582157898103
 21
-276.74587767834811
 31
0.0
  0
LINE
  8
DETAIL
  6
CONTINUOUS
 62
     5
 10
95.609582157898103
 20
-276.74587767834811
 30
0.0
 11
95.600080157518505
 21
-276.74636510500801
 31
0.0
  0
LINE
  8
DETAIL
  6
CONTINUOUS
 62
     5
 10
-95.731997539116591
 20
-276.67870294924342
 30
0.0
 11
-95.736230241043927
 21
-276.67375434908399
 31
0.0
  0
LINE
  8
DETAIL
  6
CONTINUOUS
 62
     5
 10
-95.736230241043927
 20
-276.67375434908399
 30
0.0
 11
-95.740406922641341
 21
-276.66872898182959
 31
0.0
  0
LINE
  8
DETAIL
  6
CONTINUOUS
 62
     5
 10
-95.740406922641341
 20
-276.66872898182959
 30
0.0
 11
-95.740406922641341
 21
-276.66872898182959
 31
0.0
  0
LINE
  8
DETAIL
  6
CONTINUOUS
 62
     5
 10
-95.740406922641341
 20
-276.66872898182959
 30
0.0
 11
-95.744476321420635
 21
-276.66358158527419
 31
0.0
  0
LINE
  8
DETAIL
  6
CONTINUOUS
 62
     5
 10
-95.744476321420635
 20
-276.66358158527419
 30
0.0
 11
-95.748406206261961
 21
-276.65839291676463
 31
0.0
  0
LINE
  8
DETAIL
  6
CONTINUOUS
 62
     5
 10
-95.748406206261961
 20
-276.65839291676463
 30
0.0
 11
-95.748406206261961
 21
-276.65839291676463
 31
0.0
  0
LINE
  8
DETAIL
  6
CONTINUOUS
 62
     5
 10
-95.748406206261961
 20
-276.65839291676463
 30
0.0
 11
-95.75220567572741
 21
-276.65320179985088
 31
0.0
  0
LINE
  8
DETAIL
  6
CONTINUOUS
 62
     5
 10
-95.75220567572741
 20
-276.65320179985088
 30
0.0
 11
-95.756030115742988
 21
-276.64775330334061
 31
0.0
  0
LINE
  8
DETAIL
  6
CONTINUOUS
 62
     5
 10
-95.756030115742988
 20
-276.64775330334061
 30
0.0
 11
-95.756030115742988
 21
-276.64775330334061
 31
0.0
  0
LINE
  8
DETAIL
  6
CONTINUOUS
 62
     5
 10
-95.756030115742988
 20
-276.64775330334061
 30
0.0
 11
-95.759920438870054
 21
-276.64198130720928
 31
0.0
  0
LINE
  8
DETAIL
  6
CONTINUOUS
 62
     5
 10
-95.759920438870054
 20
-276.64198130720928
 30
0.0
 11
-95.763313376848146
 21
-276.63686869085058
 31
0.0
  0
LINE
  8
DETAIL
  6
CONTINUOUS
 62
     5
 10
-95.763313376848146
 20
-276.63686869085058
 30
0.0
 11
-95.763313376848146
 21
-276.63686869085058
 31
0.0
  0
LINE
  8
DETAIL
  6
CONTINUOUS
 62
     5
 10
-95.763313376848146
 20
-276.63686869085058
 30
0.0
 11
-95.766062225191845
 21
-276.63268502278112
 31
0.0
  0
LINE
  8
DETAIL
  6
CONTINUOUS
 62
     5
 10
-95.766062225191845
 20
-276.63268502278112
 30
0.0
 11
-95.770290715341488
 21
-276.62579762858792
 31
0.0
  0
LINE
  8
DETAIL
  6
CONTINUOUS
 62
     5
 10
-95.770290715341488
 20
-276.62579762858792
 30
0.0
 11
-95.770290715341488
 21
-276.62579762858792
 31
0.0
  0
LINE
  8
DETAIL
  6
CONTINUOUS
 62
     5
 10
-95.770290715341488
 20
-276.62579762858792
 30
0.0
 11
-95.777760616875852
 21
-276.61311860143343
 31
0.0
  0
LINE
  8
DETAIL
  6
CONTINUOUS
 62
     5
 10
-95.777760616875852
 20
-276.61311860143343
 30
0.0
 11
-95.786515416002544
 21
-276.59764134770973
 31
0.0
  0
LINE
  8
DETAIL
  6
CONTINUOUS
 62
     5
 10
-95.786515416002544
 20
-276.59764134770973
 30
0.0
 11
-95.786515416002544
 21
-276.59764134770973
 31
0.0
  0
LINE
  8
DETAIL
  6
CONTINUOUS
 62
     5
 10
-95.786515416002544
 20
-276.59764134770973
 30
0.0
 11
-95.794281252852002
 21
-276.58293551443262
 31
0.0
  0
LINE
  8
DETAIL
  6
CONTINUOUS
 62
     5
 10
-95.794281252852002
 20
-276.58293551443262
 30
0.0
 11
-95.801233166613997
 21
-276.56879439787463
 31
0.0
  0
LINE
  8
DETAIL
  6
CONTINUOUS
 62
     5
 10
-95.801233166613997
 20
-276.56879439787463
 30
0.0
 11
-95.801233166613997
 21
-276.56879439787463
 31
0.0
  0
LINE
  8
DETAIL
  6
CONTINUOUS
 62
     5
 10
-95.801233166613997
 20
-276.56879439787463
 30
0.0
 11
-95.80800558623443
 21
-276.55428688606958
 31
0.0
  0
LINE
  8
DETAIL
  6
CONTINUOUS
 62
     5
 10
-95.80800558623443
 20
-276.55428688606958
 30
0.0
 11
-95.814621600616306
 21
-276.53936058483691
 31
0.0
  0
LINE
  8
DETAIL
  6
CONTINUOUS
 62
     5
 10
-95.814621600616306
 20
-276.53936058483691
 30
0.0
 11
-95.814621600616306
 21
-276.53936058483691
 31
0.0
  0
LINE
  8
DETAIL
  6
CONTINUOUS
 62
     5
 10
-95.814621600616306
 20
-276.53936058483691
 30
0.0
 11
-95.820950578929342
 21
-276.52424814934108
 31
0.0
  0
LINE
  8
DETAIL
  6
CONTINUOUS
 62
     5
 10
-95.820950578929342
 20
-276.52424814934108
 30
0.0
 11
-95.826858351450596
 21
-276.50944371434889
 31
0.0
  0
LINE
  8
DETAIL
  6
CONTINUOUS
 62
     5
 10
-95.826858351450596
 20
-276.50944371434889
 30
0.0
 11
-95.826858351450596
 21
-276.50944371434889
 31
0.0
  0
LINE
  8
DETAIL
  6
CONTINUOUS
 62
     5
 10
-95.826858351450596
 20
-276.50944371434889
 30
0.0
 11
-95.832366237637402
 21
-276.49502562547917
 31
0.0
  0
LINE
  8
DETAIL
  6
CONTINUOUS
 62
     5
 10
-95.832366237637402
 20
-276.49502562547917
 30
0.0
 11
-95.838121052557767
 21
-276.47914759216519
 31
0.0
  0
LINE
  8
DETAIL
  6
CONTINUOUS
 62
     5
 10
-95.838121052557767
 20
-276.47914759216519
 30
0.0
 11
-95.838121052557767
 21
-276.47914759216519
 31
0.0
  0
LINE
  8
DETAIL
  6
CONTINUOUS
 62
     5
 10
-95.838121052557767
 20
-276.47914759216519
 30
0.0
 11
-95.844649647467364
 21
-276.4602581417646
 31
0.0
  0
LINE
  8
DETAIL
  6
CONTINUOUS
 62
     5
 10
-95.844649647467364
 20
-276.4602581417646
 30
0.0
 11
-95.851373522766266
 21
-276.43990970951842
 31
0.0
  0
LINE
  8
DETAIL
  6
CONTINUOUS
 62
     5
 10
-95.851373522766266
 20
-276.43990970951842
 30
0.0
 11
-95.851373522766266
 21
-276.43990970951842
 31
0.0
  0
LINE
  8
DETAIL
  6
CONTINUOUS
 62
     5
 10
-95.851373522766266
 20
-276.43990970951842
 30
0.0
 11
-95.857620395245803
 21
-276.41994764169522
 31
0.0
  0
LINE
  8
DETAIL
  6
CONTINUOUS
 62
     5
 10
-95.857620395245803
 20
-276.41994764169522
 30
0.0
 11
-95.863448198119855
 21
-276.40028502079372
 31
0.0
  0
LINE
  8
DETAIL
  6
CONTINUOUS
 62
     5
 10
-95.863448198119855
 20
-276.40028502079372
 30
0.0
 11
-95.863448198119855
 21
-276.40028502079372
 31
0.0
  0
LINE
  8
DETAIL
  6
CONTINUOUS
 62
     5
 10
-95.863448198119855
 20
-276.40028502079372
 30
0.0
 11
-95.869055745441301
 21
-276.38044697226002
 31
0.0
  0
LINE
  8
DETAIL
  6
CONTINUOUS
 62
     5
 10
-95.869055745441301
 20
-276.38044697226002
 30
0.0
 11
-95.874475158195423
 21
-276.36033905710428
 31
0.0
  0
LINE
  8
DETAIL
  6
CONTINUOUS
 62
     5
 10
-95.874475158195423
 20
-276.36033905710428
 30
0.0
 11
-95.874475158195423
 21
-276.36033905710428
 31
0.0
  0
LINE
  8
DETAIL
  6
CONTINUOUS
 62
     5
 10
-95.874475158195423
 20
-276.36033905710428
 30
0.0
 11
-95.879681023062844
 21
-276.34006457560668
 31
0.0
  0
LINE
  8
DETAIL
  6
CONTINUOUS
 62
     5
 10
-95.879681023062844
 20
-276.34006457560668
 30
0.0
 11
-95.884584482570517
 21
-276.32013734956399
 31
0.0
  0
LINE
  8
DETAIL
  6
CONTINUOUS
 62
     5
 10
-95.884584482570517
 20
-276.32013734956399
 30
0.0
 11
-95.884584482570517
 21
-276.32013734956399
 31
0.0
  0
LINE
  8
DETAIL
  6
CONTINUOUS
 62
     5
 10
-95.884584482570517
 20
-276.32013734956399
 30
0.0
 11
-95.889185935627083
 21
-276.3006682007433
 31
0.0
  0
LINE
  8
DETAIL
  6
CONTINUOUS
 62
     5
 10
-95.889185935627083
 20
-276.3006682007433
 30
0.0
 11
-95.893906250821473
 21
-276.27974542928609
 31
0.0
  0
LINE
  8
DETAIL
  6
CONTINUOUS
 62
     5
 10
-95.893906250821473
 20
-276.27974542928609
 30
0.0
 11
-95.893906250821473
 21
-276.27974542928609
 31
0.0
  0
LINE
  8
DETAIL
  6
CONTINUOUS
 62
     5
 10
-95.893906250821473
 20
-276.27974542928609
 30
0.0
 11
-95.899091717307783
 21
-276.25575795985287
 31
0.0
  0
LINE
  8
DETAIL
  6
CONTINUOUS
 62
     5
 10
-95.899091717307783
 20
-276.25575795985287
 30
0.0
 11
-95.904369836819683
 21
-276.23031973681299
 31
0.0
  0
LINE
  8
DETAIL
  6
CONTINUOUS
 62
     5
 10
-95.904369836819683
 20
-276.23031973681299
 30
0.0
 11
-95.904369836819683
 21
-276.23031973681299
 31
0.0
  0
LINE
  8
DETAIL
  6
CONTINUOUS
 62
     5
 10
-95.904369836819683
 20
-276.23031973681299
 30
0.0
 11
-95.909306566409441
 21
-276.20534578006732
 31
0.0
  0
LINE
  8
DETAIL
  6
CONTINUOUS
 62
     5
 10
-95.909306566409441
 20
-276.20534578006732
 30
0.0
 11
-95.913940471823807
 21
-276.180730391932
 31
0.0
  0
LINE
  8
DETAIL
  6
CONTINUOUS
 62
     5
 10
-95.913940471823807
 20
-276.180730391932
 30
0.0
 11
-95.913940471823807
 21
-276.180730391932
 31
0.0
  0
LINE
  8
DETAIL
  6
CONTINUOUS
 62
     5
 10
-95.913940471823807
 20
-276.180730391932
 30
0.0
 11
-95.918400256854511
 21
-276.15597110446038
 31
0.0
  0
LINE
  8
DETAIL
  6
CONTINUOUS
 62
     5
 10
-95.918400256854511
 20
-276.15597110446038
 30
0.0
 11
-95.922702568781929
 21
-276.13099908622172
 31
0.0
  0
LINE
  8
DETAIL
  6
CONTINUOUS
 62
     5
 10
-95.922702568781929
 20
-276.13099908622172
 30
0.0
 11
-95.922702568781929
 21
-276.13099908622172
 31
0.0
  0
LINE
  8
DETAIL
  6
CONTINUOUS
 62
     5
 10
-95.922702568781929
 20
-276.13099908622172
 30
0.0
 11
-95.926829945096642
 21
-276.10592545779252
 31
0.0
  0
LINE
  8
DETAIL
  6
CONTINUOUS
 62
     5
 10
-95.926829945096642
 20
-276.10592545779252
 30
0.0
 11
-95.930740540642077
 21
-276.08114751125942
 31
0.0
  0
LINE
  8
DETAIL
  6
CONTINUOUS
 62
     5
 10
-95.930740540642077
 20
-276.08114751125942
 30
0.0
 11
-95.930740540642077
 21
-276.08114751125942
 31
0.0
  0
LINE
  8
DETAIL
  6
CONTINUOUS
 62
     5
 10
-95.930740540642077
 20
-276.08114751125942
 30
0.0
 11
-95.934438811374918
 21
-276.05673950094501
 31
0.0
  0
LINE
  8
DETAIL
  6
CONTINUOUS
 62
     5
 10
-95.934438811374918
 20
-276.05673950094501
 30
0.0
 11
-95.938138800352476
 21
-276.03119735862219
 31
0.0
  0
LINE
  8
DETAIL
  6
CONTINUOUS
 62
     5
 10
-95.938138800352476
 20
-276.03119735862219
 30
0.0
 11
-95.938138800352476
 21
-276.03119735862219
 31
0.0
  0
LINE
  8
DETAIL
  6
CONTINUOUS
 62
     5
 10
-95.938138800352476
 20
-276.03119735862219
 30
0.0
 11
-95.942016372467847
 21
-276.00325595731721
 31
0.0
  0
LINE
  8
DETAIL
  6
CONTINUOUS
 62
     5
 10
-95.942016372467847
 20
-276.00325595731721
 30
0.0
 11
-95.945885092848357
 21
-275.97418425762862
 31
0.0
  0
LINE
  8
DETAIL
  6
CONTINUOUS
 62
     5
 10
-95.945885092848357
 20
-275.97418425762862
 30
0.0
 11
-95.945885092848357
 21
-275.97418425762862
 31
0.0
  0
LINE
  8
DETAIL
  6
CONTINUOUS
 62
     5
 10
-95.945885092848357
 20
-275.97418425762862
 30
0.0
 11
-95.949527517321727
 21
-275.94548774057131
 31
0.0
  0
LINE
  8
DETAIL
  6
CONTINUOUS
 62
     5
 10
-95.949527517321727
 20
-275.94548774057131
 30
0.0
 11
-95.952964464281195
 21
-275.91708388124903
 31
0.0
  0
LINE
  8
DETAIL
  6
CONTINUOUS
 62
     5
 10
-95.952964464281195
 20
-275.91708388124903
 30
0.0
 11
-95.952964464281195
 21
-275.91708388124903
 31
0.0
  0
LINE
  8
DETAIL
  6
CONTINUOUS
 62
     5
 10
-95.952964464281195
 20
-275.91708388124903
 30
0.0
 11
-95.95626226079969
 21
-275.88857724758333
 31
0.0
  0
LINE
  8
DETAIL
  6
CONTINUOUS
 62
     5
 10
-95.95626226079969
 20
-275.88857724758333
 30
0.0
 11
-95.959431006109085
 21
-275.85990878467118
 31
0.0
  0
LINE
  8
DETAIL
  6
CONTINUOUS
 62
     5
 10
-95.959431006109085
 20
-275.85990878467118
 30
0.0
 11
-95.959431006109085
 21
-275.85990878467118
 31
0.0
  0
LINE
  8
DETAIL
  6
CONTINUOUS
 62
     5
 10
-95.959431006109085
 20
-275.85990878467118
 30
0.0
 11
-95.962463404681202
 21
-275.8311641562068
 31
0.0
  0
LINE
  8
DETAIL
  6
CONTINUOUS
 62
     5
 10
-95.962463404681202
 20
-275.8311641562068
 30
0.0
 11
-95.965338809789941
 21
-275.80267152308397
 31
0.0
  0
LINE
  8
DETAIL
  6
CONTINUOUS
 62
     5
 10
-95.965338809789941
 20
-275.80267152308397
 30
0.0
 11
-95.965338809789941
 21
-275.80267152308397
 31
0.0
  0
LINE
  8
DETAIL
  6
CONTINUOUS
 62
     5
 10
-95.965338809789941
 20
-275.80267152308397
 30
0.0
 11
-95.968060645068135
 21
-275.77449307900213
 31
0.0
  0
LINE
  8
DETAIL
  6
CONTINUOUS
 62
     5
 10
-95.968060645068135
 20
-275.77449307900213
 30
0.0
 11
-95.970741966781489
 21
-275.74538465167512
 31
0.0
  0
LINE
  8
DETAIL
  6
CONTINUOUS
 62
     5
 10
-95.970741966781489
 20
-275.74538465167512
 30
0.0
 11
-95.970741966781489
 21
-275.74538465167512
 31
0.0
  0
LINE
  8
DETAIL
  6
CONTINUOUS
 62
     5
 10
-95.970741966781489
 20
-275.74538465167512
 30
0.0
 11
-95.973475583748723
 21
-275.71429964749802
 31
0.0
  0
LINE
  8
DETAIL
  6
CONTINUOUS
 62
     5
 10
-95.973475583748723
 20
-275.71429964749802
 30
0.0
 11
-95.976163682363676
 21
-275.68228815358037
 31
0.0
  0
LINE
  8
DETAIL
  6
CONTINUOUS
 62
     5
 10
-95.976163682363676
 20
-275.68228815358037
 30
0.0
 11
-95.976163682363676
 21
-275.68228815358037
 31
0.0
  0
LINE
  8
DETAIL
  6
CONTINUOUS
 62
     5
 10
-95.976163682363676
 20
-275.68228815358037
 30
0.0
 11
-95.978692232345793
 21
-275.6505955700087
 31
0.0
  0
LINE
  8
DETAIL
  6
CONTINUOUS
 62
     5
 10
-95.978692232345793
 20
-275.6505955700087
 30
0.0
 11
-95.981072959137933
 21
-275.61915186806692
 31
0.0
  0
LINE
  8
DETAIL
  6
CONTINUOUS
 62
     5
 10
-95.981072959137933
 20
-275.61915186806692
 30
0.0
 11
-95.981072959137933
 21
-275.61915186806692
 31
0.0
  0
LINE
  8
DETAIL
  6
CONTINUOUS
 62
     5
 10
-95.981072959137933
 20
-275.61915186806692
 30
0.0
 11
-95.983341472590595
 21
-275.58762882816131
 31
0.0
  0
LINE
  8
DETAIL
  6
CONTINUOUS
 62
     5
 10
-95.983341472590595
 20
-275.58762882816131
 30
0.0
 11
-95.985503164465726
 21
-275.55598089599192
 31
0.0
  0
LINE
  8
DETAIL
  6
CONTINUOUS
 62
     5
 10
-95.985503164465726
 20
-275.55598089599192
 30
0.0
 11
-95.985503164465726
 21
-275.55598089599192
 31
0.0
  0
LINE
  8
DETAIL
  6
CONTINUOUS
 62
     5
 10
-95.985503164465726
 20
-275.55598089599192
 30
0.0
 11
-95.987554651160508
 21
-275.52427937548822
 31
0.0
  0
LINE
  8
DETAIL
  6
CONTINUOUS
 62
     5
 10
-95.987554651160508
 20
-275.52427937548822
 30
0.0
 11
-95.989487665708907
 21
-275.49278033821162
 31
0.0
  0
LINE
  8
DETAIL
  6
CONTINUOUS
 62
     5
 10
-95.989487665708907
 20
-275.49278033821162
 30
0.0
 11
-95.989487665708907
 21
-275.49278033821162
 31
0.0
  0
LINE
  8
DETAIL
  6
CONTINUOUS
 62
     5
 10
-95.989487665708907
 20
-275.49278033821162
 30
0.0
 11
-95.991305158190002
 21
-275.46153061367693
 31
0.0
  0
LINE
  8
DETAIL
  6
CONTINUOUS
 62
     5
 10
-95.991305158190002
 20
-275.46153061367693
 30
0.0
 11
-95.993059830229072
 21
-275.42955529558492
 31
0.0
  0
LINE
  8
DETAIL
  6
CONTINUOUS
 62
     5
 10
-95.993059830229072
 20
-275.42955529558492
 30
0.0
 11
-95.993059830229072
 21
-275.42955529558492
 31
0.0
  0
LINE
  8
DETAIL
  6
CONTINUOUS
 62
     5
 10
-95.993059830229072
 20
-275.42955529558492
 30
0.0
 11
-95.994794624825445
 21
-275.39603495523602
 31
0.0
  0
LINE
  8
DETAIL
  6
CONTINUOUS
 62
     5
 10
-95.994794624825445
 20
-275.39603495523602
 30
0.0
 11
-95.99646369893172
 21
-275.36179381014267
 31
0.0
  0
LINE
  8
DETAIL
  6
CONTINUOUS
 62
     5
 10
-95.99646369893172
 20
-275.36179381014267
 30
0.0
 11
-95.99646369893172
 21
-275.36179381014267
 31
0.0
  0
LINE
  8
DETAIL
  6
CONTINUOUS
 62
     5
 10
-95.99646369893172
 20
-275.36179381014267
 30
0.0
 11
-95.998013857172054
 21
-275.32780739788927
 31
0.0
  0
LINE
  8
DETAIL
  6
CONTINUOUS
 62
     5
 10
-95.998013857172054
 20
-275.32780739788927
 30
0.0
 11
-95.999451280899507
 21
-275.29401289014731
 31
0.0
  0
LINE
  8
DETAIL
  6
CONTINUOUS
 62
     5
 10
-95.999451280899507
 20
-275.29401289014731
 30
0.0
 11
-95.999451280899507
 21
-275.29401289014731
 31
0.0
  0
LINE
  8
DETAIL
  6
CONTINUOUS
 62
     5
 10
-95.999451280899507
 20
-275.29401289014731
 30
0.0
 11
-96.000793156083063
 21
-275.26015104749212
 31
0.0
  0
LINE
  8
DETAIL
  6
CONTINUOUS
 62
     5
 10
-96.000793156083063
 20
-275.26015104749212
 30
0.0
 11
-96.002041310428453
 21
-275.22621535203501
 31
0.0
  0
LINE
  8
DETAIL
  6
CONTINUOUS
 62
     5
 10
-96.002041310428453
 20
-275.22621535203501
 30
0.0
 11
-96.002041310428453
 21
-275.22621535203501
 31
0.0
  0
LINE
  8
DETAIL
  6
CONTINUOUS
 62
     5
 10
-96.002041310428453
 20
-275.22621535203501
 30
0.0
 11
-96.003194246156212
 21
-275.19226933621297
 31
0.0
  0
LINE
  8
DETAIL
  6
CONTINUOUS
 62
     5
 10
-96.003194246156212
 20
-275.19226933621297
 30
0.0
 11
-96.004252521814919
 21
-275.15840401224159
 31
0.0
  0
LINE
  8
DETAIL
  6
CONTINUOUS
 62
     5
 10
-96.004252521814919
 20
-275.15840401224159
 30
0.0
 11
-96.004252521814919
 21
-275.15840401224159
 31
0.0
  0
LINE
  8
DETAIL
  6
CONTINUOUS
 62
     5
 10
-96.004252521814919
 20
-275.15840401224159
 30
0.0
 11
-96.005218993273502
 21
-275.12462660211992
 31
0.0
  0
LINE
  8
DETAIL
  6
CONTINUOUS
 62
     5
 10
-96.005218993273502
 20
-275.12462660211992
 30
0.0
 11
-96.006103649354941
 21
-275.09058168720412
 31
0.0
  0
LINE
  8
DETAIL
  6
CONTINUOUS
 62
     5
 10
-96.006103649354941
 20
-275.09058168720412
 30
0.0
 11
-96.006103649354941
 21
-275.09058168720412
 31
0.0
  0
LINE
  8
DETAIL
  6
CONTINUOUS
 62
     5
 10
-96.006103649354941
 20
-275.09058168720412
 30
0.0
 11
-96.006914394128444
 21
-275.05597274788562
 31
0.0
  0
LINE
  8
DETAIL
  6
CONTINUOUS
 62
     5
 10
-96.006914394128444
 20
-275.05597274788562
 30
0.0
 11
-96.00764365969745
 21
-275.02110150133552
 31
0.0
  0
LINE
  8
DETAIL
  6
CONTINUOUS
 62
     5
 10
-96.00764365969745
 20
-275.02110150133552
 30
0.0
 11
-96.00764365969745
 21
-275.02110150133552
 31
0.0
  0
LINE
  8
DETAIL
  6
CONTINUOUS
 62
     5
 10
-96.00764365969745
 20
-275.02110150133552
 30
0.0
 11
-96.008282425095317
 21
-274.98632391197862
 31
0.0
  0
LINE
  8
DETAIL
  6
CONTINUOUS
 62
     5
 10
-96.008282425095317
 20
-274.98632391197862
 30
0.0
 11
-96.008831329038927
 21
-274.95161469647519
 31
0.0
  0
LINE
  8
DETAIL
  6
CONTINUOUS
 62
     5
 10
-96.008831329038927
 20
-274.95161469647519
 30
0.0
 11
-96.008831329038927
 21
-274.95161469647519
 31
0.0
  0
LINE
  8
DETAIL
  6
CONTINUOUS
 62
     5
 10
-96.008831329038927
 20
-274.95161469647519
 30
0.0
 11
-96.00929351289858
 21
-274.91687878687549
 31
0.0
  0
LINE
  8
DETAIL
  6
CONTINUOUS
 62
     5
 10
-96.00929351289858
 20
-274.91687878687549
 30
0.0
 11
-96.009672468974131
 21
-274.88212322455303
 31
0.0
  0
LINE
  8
DETAIL
  6
CONTINUOUS
 62
     5
 10
-96.009672468974131
 20
-274.88212322455303
 30
0.0
 11
-96.009672468974131
 21
-274.88212322455303
 31
0.0
  0
LINE
  8
DETAIL
  6
CONTINUOUS
 62
     5
 10
-96.009672468974131
 20
-274.88212322455303
 30
0.0
 11
-96.009969011447524
 21
-274.847373780829
 31
0.0
  0
LINE
  8
DETAIL
  6
CONTINUOUS
 62
     5
 10
-96.009969011447524
 20
-274.847373780829
 30
0.0
 11
-96.010172891098804
 21
-274.81262903749717
 31
0.0
  0
LINE
  8
DETAIL
  6
CONTINUOUS
 62
     5
 10
-96.010172891098804
 20
-274.81262903749717
 30
0.0
 11
-96.010172891098804
 21
-274.81262903749717
 31
0.0
  0
LINE
  8
DETAIL
  6
CONTINUOUS
 62
     5
 10
-96.010172891098804
 20
-274.81262903749717
 30
0.0
 11
-96.010282068526649
 21
-274.77788244116681
 31
0.0
  0
LINE
  8
DETAIL
  6
CONTINUOUS
 62
     5
 10
-96.010282068526649
 20
-274.77788244116681
 30
0.0
 11
-96.010338407008021
 21
-274.74313408723748
 31
0.0
  0
LINE
  8
DETAIL
  6
CONTINUOUS
 62
     5
 10
-95.600080157518406
 20
-276.74636510500801
 30
0.0
 11
-95.609587622496846
 21
-276.74587355502888
 31
0.0
  0
LINE
  8
DETAIL
  6
CONTINUOUS
 62
     5
 10
-95.609587622496846
 20
-276.74587355502888
 30
0.0
 11
-95.619062995710919
 21
-276.74496365393719
 31
0.0
  0
LINE
  8
DETAIL
  6
CONTINUOUS
 62
     5
 10
-95.619062995710919
 20
-276.74496365393719
 30
0.0
 11
-95.619062995710919
 21
-276.74496365393719
 31
0.0
  0
LINE
  8
DETAIL
  6
CONTINUOUS
 62
     5
 10
-95.619062995710919
 20
-276.74496365393719
 30
0.0
 11
-95.628479121032584
 21
-276.74330926551119
 31
0.0
  0
LINE
  8
DETAIL
  6
CONTINUOUS
 62
     5
 10
-95.628479121032584
 20
-276.74330926551119
 30
0.0
 11
-95.637828584876956
 21
-276.74095311309509
 31
0.0
  0
LINE
  8
DETAIL
  6
CONTINUOUS
 62
     5
 10
-95.637828584876956
 20
-276.74095311309509
 30
0.0
 11
-95.637828584876956
 21
-276.74095311309509
 31
0.0
  0
LINE
  8
DETAIL
  6
CONTINUOUS
 62
     5
 10
-95.637828584876956
 20
-276.74095311309509
 30
0.0
 11
-95.647083194874881
 21
-276.73802375139871
 31
0.0
  0
LINE
  8
DETAIL
  6
CONTINUOUS
 62
     5
 10
-95.647083194874881
 20
-276.73802375139871
 30
0.0
 11
-95.65611190097286
 21
-276.73462420103829
 31
0.0
  0
LINE
  8
DETAIL
  6
CONTINUOUS
 62
     5
 10
-95.65611190097286
 20
-276.73462420103829
 30
0.0
 11
-95.65611190097286
 21
-276.73462420103829
 31
0.0
  0
LINE
  8
DETAIL
  6
CONTINUOUS
 62
     5
 10
-95.65611190097286
 20
-276.73462420103829
 30
0.0
 11
-95.664855860744851
 21
-276.73078441830921
 31
0.0
  0
LINE
  8
DETAIL
  6
CONTINUOUS
 62
     5
 10
-95.664855860744851
 20
-276.73078441830921
 30
0.0
 11
-95.673647919956267
 21
-276.72626763632388
 31
0.0
  0
LINE
  8
DETAIL
  6
CONTINUOUS
 62
     5
 10
-95.673647919956267
 20
-276.72626763632388
 30
0.0
 11
-95.673647919956267
 21
-276.72626763632388
 31
0.0
  0
LINE
  8
DETAIL
  6
CONTINUOUS
 62
     5
 10
-95.673647919956267
 20
-276.72626763632388
 30
0.0
 11
-95.682552872649694
 21
-276.72104351410599
 31
0.0
  0
LINE
  8
DETAIL
  6
CONTINUOUS
 62
     5
 10
-95.682552872649694
 20
-276.72104351410599
 30
0.0
 11
-95.690171617783903
 21
-276.71617413750732
 31
0.0
  0
LINE
  8
DETAIL
  6
CONTINUOUS
 62
     5
 10
-95.690171617783903
 20
-276.71617413750732
 30
0.0
 11
-95.690171617783903
 21
-276.71617413750732
 31
0.0
  0
LINE
  8
DETAIL
  6
CONTINUOUS
 62
     5
 10
-95.690171617783903
 20
-276.71617413750732
 30
0.0
 11
-95.695344463561227
 21
-276.71258117520068
 31
0.0
  0
LINE
  8
DETAIL
  6
CONTINUOUS
 62
     5
 10
-95.695344463561227
 20
-276.71258117520068
 30
0.0
 11
-95.69933325024374
 21
-276.70953220031271
 31
0.0
  0
LINE
  8
DETAIL
  6
CONTINUOUS
 62
     5
 10
-95.69933325024374
 20
-276.70953220031271
 30
0.0
 11
-95.69933325024374
 21
-276.70953220031271
 31
0.0
  0
LINE
  8
DETAIL
  6
CONTINUOUS
 62
     5
 10
-95.69933325024374
 20
-276.70953220031271
 30
0.0
 11
-95.703611051332231
 21
-276.70612427144869
 31
0.0
  0
LINE
  8
DETAIL
  6
CONTINUOUS
 62
     5
 10
-95.703611051332231
 20
-276.70612427144869
 30
0.0
 11
-95.708074341220495
 21
-276.70242648467678
 31
0.0
  0
LINE
  8
DETAIL
  6
CONTINUOUS
 62
     5
 10
-95.708074341220495
 20
-276.70242648467678
 30
0.0
 11
-95.708074341220495
 21
-276.70242648467678
 31
0.0
  0
LINE
  8
DETAIL
  6
CONTINUOUS
 62
     5
 10
-95.708074341220495
 20
-276.70242648467678
 30
0.0
 11
-95.712331759805124
 21
-276.69868655288809
 31
0.0
  0
LINE
  8
DETAIL
  6
CONTINUOUS
 62
     5
 10
-95.712331759805124
 20
-276.69868655288809
 30
0.0
 11
-95.716417208100324
 21
-276.69489461881147
 31
0.0
  0
LINE
  8
DETAIL
  6
CONTINUOUS
 62
     5
 10
-95.716417208100324
 20
-276.69489461881147
 30
0.0
 11
-95.716417208100324
 21
-276.69489461881147
 31
0.0
  0
LINE
  8
DETAIL
  6
CONTINUOUS
 62
     5
 10
-95.716417208100324
 20
-276.69489461881147
 30
0.0
 11
-95.720439791058539
 21
-276.69099099343362
 31
0.0
  0
LINE
  8
DETAIL
  6
CONTINUOUS
 62
     5
 10
-95.720439791058539
 20
-276.69099099343362
 30
0.0
 11
-95.724384168270262
 21
-276.68697423092948
 31
0.0
  0
LINE
  8
DETAIL
  6
CONTINUOUS
 62
     5
 10
-95.724384168270262
 20
-276.68697423092948
 30
0.0
 11
-95.724384168270262
 21
-276.68697423092948
 31
0.0
  0
LINE
  8
DETAIL
  6
CONTINUOUS
 62
     5
 10
-95.724384168270262
 20
-276.68697423092948
 30
0.0
 11
-95.72822201806764
 21
-276.68286359562438
 31
0.0
  0
LINE
  8
DETAIL
  6
CONTINUOUS
 62
     5
 10
-95.72822201806764
 20
-276.68286359562438
 30
0.0
 11
-95.731997539116591
 21
-276.67870294924342
 31
0.0
  0
LINE
  8
DETAIL
  6
CONTINUOUS
 62
     5
 10
253.84381916672319
 20
-5.1082390953150707
 30
0.0
 11
253.79031999646739
 21
-5.109209756992982
 31
0.0
  0
LINE
  8
DETAIL
  6
CONTINUOUS
 62
     5
 10
253.79031999646739
 20
-5.109209756992982
 30
0.0
 11
253.736830637411
 21
-5.1110735778834169
 31
0.0
  0
LINE
  8
DETAIL
  6
CONTINUOUS
 62
     5
 10
253.736830637411
 20
-5.1110735778834169
 30
0.0
 11
253.736830637411
 21
-5.1110735778834169
 31
0.0
  0
LINE
  8
DETAIL
  6
CONTINUOUS
 62
     5
 10
253.736830637411
 20
-5.1110735778834169
 30
0.0
 11
253.6833682775391
 21
-5.1145328069900424
 31
0.0
  0
LINE
  8
DETAIL
  6
CONTINUOUS
 62
     5
 10
253.6833682775391
 20
-5.1145328069900424
 30
0.0
 11
253.6299796119815
 21
-5.1195260524772266
 31
0.0
  0
LINE
  8
DETAIL
  6
CONTINUOUS
 62
     5
 10
253.6299796119815
 20
-5.1195260524772266
 30
0.0
 11
253.6299796119815
 21
-5.1195260524772266
 31
0.0
  0
LINE
  8
DETAIL
  6
CONTINUOUS
 62
     5
 10
253.6299796119815
 20
-5.1195260524772266
 30
0.0
 11
253.57671444589911
 21
-5.1258528466769349
 31
0.0
  0
ARC
  8
DETAIL
  6
CONTINUOUS
 62
     5
 10
36.659127625201897
 20
-305.89337641357042
 30
0.0
 40
0.100161550888515
 50
90.0
 51
180.0
  0
ARC
  8
DETAIL
  6
CONTINUOUS
 62
     5
 10
33.453957996769077
 20
-305.89337641357042
 30
0.0
 40
0.100161550888515
 50
0.0
 51
90.0
  0
ARC
  8
DETAIL
  6
CONTINUOUS
 62
     5
 10
4.0064620355410634
 20
-306.99515347334449
 30
0.0
 40
0.500807754442576
 50
270.0
 51
0.0
  0
CIRCLE
  8
DETAIL
  6
CONTINUOUS
 62
     5
 10
0.0
 20
-249.40226171243981
 30
0.0
 40
1.5024232633279551
  0
ARC
  8
DETAIL
  6
CONTINUOUS
 62
     5
 10
35.056542810985427
 20
-305.0920840064623
 30
0.0
 40
1.702746365104999
 50
208.07248693589889
 51
331.92751306410099
  0
CIRCLE
  8
DETAIL
  6
CONTINUOUS
 62
     5
 10
0.0
 20
-249.40226171243981
 30
0.0
 40
4.5072697899838658
  0
CIRCLE
  8
DETAIL
  6
CONTINUOUS
 62
     5
 10
0.0
 20
-269.43457189014538
 30
0.0
 40
4.7075928917608962
  0
ARC
  8
DETAIL
  6
CONTINUOUS
 62
     5
 10
38.260578463137563
 20
-267.80570445204188
 30
0.0
 40
7.8864802092146196
 50
64.225585840399646
 51
90.001274074097466
  0
ARC
  8
DETAIL
  6
CONTINUOUS
 62
     5
 10
68.109854604200336
 20
-231.37318255250401
 30
0.0
 40
2.0032310177705881
 50
180.0
 51
270.0
  0
ARC
  8
DETAIL
  6
CONTINUOUS
 62
     5
 10
268.43295638126011
 20
-109.57673667205189
 30
0.0
 40
2.0032310177705308
 50
270.0
 51
90.0
  0
ARC
  8
DETAIL
  6
CONTINUOUS
 62
     5
 10
308.49757673667199
 20
-1.5024232633279551
 30
0.0
 40
1.5024232633279551
 50
270.0
 51
90.0
  0
ARC
  8
DETAIL
  6
CONTINUOUS
 62
     5
 10
204.13328774527551
 20
-13.02100161550891
 30
0.0
 40
3.004846526655911
 50
90.0
 51
180.0
  0
ARC
  8
DETAIL
  6
CONTINUOUS
 62
     5
 10
239.30932337653871
 20
-6.4103392568659956
 30
0.0
 40
3.605815831986888
 50
270.0
 51
0.0
  0
ARC
  8
DETAIL
  6
CONTINUOUS
 62
     5
 10
293.37318255250398
 20
-16.426494345718879
 30
0.0
 40
3.605815831987115
 50
270.0
 51
0.0
  0
ARC
  8
DETAIL
  6
CONTINUOUS
 62
     5
 10
197.5226253866326
 20
-16.426494345718879
 30
0.0
 40
3.605815831987115
 50
270.0
 51
0.0
  0
ARC
  8
DETAIL
  6
CONTINUOUS
 62
     5
 10
303.38933764135709
 20
-6.4103392568659956
 30
0.0
 40
3.605815831986888
 50
270.0
 51
0.0
  0
ARC
  8
DETAIL
  6
CONTINUOUS
 62
     5
 10
10.629974311329759
 20
-135.61666775702261
 30
0.0
 40
1.502423263327918
 50
188.00000001409029
 51
265.00000010659988
  0
ARC
  8
DETAIL
  6
CONTINUOUS
 62
     5
 10
13.02100161550891
 20
-143.5315024232635
 30
0.0
 40
3.605815831987127
 50
59.493559476899833
 51
90.0
  0
ARC
  8
DETAIL
  6
CONTINUOUS
 62
     5
 10
-33.453957996769077
 20
-305.89337641357042
 30
0.0
 40
0.100161550888515
 50
90.0
 51
180.0
  0
ARC
  8
DETAIL
  6
CONTINUOUS
 62
     5
 10
-36.659127625202018
 20
-305.89337641357042
 30
0.0
 40
0.100161550888572
 50
0.0
 51
90.0
  0
ARC
  8
DETAIL
  6
CONTINUOUS
 62
     5
 10
-4.0064620355412899
 20
-306.99515347334449
 30
0.0
 40
0.5008077544427471
 50
180.0
 51
270.0
  0
ARC
  8
DETAIL
  6
CONTINUOUS
 62
     5
 10
-35.056542810985547
 20
-305.0920840064623
 30
0.0
 40
1.702746365104949
 50
208.07248693589889
 51
331.92751306410099
  0
ARC
  8
DETAIL
  6
CONTINUOUS
 62
     5
 10
-68.109854604200223
 20
-231.37318255250401
 30
0.0
 40
2.0032310177706449
 50
270.0
 51
0.0
  0
ARC
  8
DETAIL
  6
CONTINUOUS
 62
     5
 10
-38.260578852913568
 20
-267.80570460655491
 30
0.0
 40
7.8864802713303748
 50
89.998723097002198
 51
115.7744111253966
  0
ARC
  8
DETAIL
  6
CONTINUOUS
 62
     5
 10
-308.49757673667199
 20
-1.5024232633279551
 30
0.0
 40
1.5024232633279551
 50
90.0
 51
270.0
  0
ARC
  8
DETAIL
  6
CONTINUOUS
 62
     5
 10
-10.62997431132999
 20
-135.61666775702261
 30
0.0
 40
1.5024232633277399
 50
274.99999989340012
 51
351.99999998590948
  0
ARC
  8
DETAIL
  6
CONTINUOUS
 62
     5
 10
-268.43295638126028
 20
-109.57673667205189
 30
0.0
 40
2.0032310177706449
 50
90.0
 51
270.0
  0
ARC
  8
DETAIL
  6
CONTINUOUS
 62
     5
 10
-204.13328774527571
 20
-13.02100161550891
 30
0.0
 40
3.004846526655911
 50
0.0
 51
90.0
  0
ARC
  8
DETAIL
  6
CONTINUOUS
 62
     5
 10
-303.38933764135692
 20
-6.4103392568659956
 30
0.0
 40
3.605815831987115
 50
180.0
 51
270.0
  0
ARC
  8
DETAIL
  6
CONTINUOUS
 62
     5
 10
-293.37318255250398
 20
-16.426494345718879
 30
0.0
 40
3.605815831987115
 50
180.0
 51
270.0
  0
ARC
  8
DETAIL
  6
CONTINUOUS
 62
     5
 10
-197.5226253866324
 20
-16.426494345718879
 30
0.0
 40
3.6058158319872282
 50
180.0
 51
270.0
  0
ARC
  8
DETAIL
  6
CONTINUOUS
 62
     5
 10
-239.30932337653871
 20
-6.4103392568659956
 30
0.0
 40
3.605815831987115
 50
180.0
 51
270.0
  0
ARC
  8
DETAIL
  6
CONTINUOUS
 62
     5
 10
-13.02100161550891
 20
-143.5315024232635
 30
0.0
 40
3.6058158319872282
 50
90.0
 51
120.5064405231002
  0
ARC
  8
DETAIL
  6
CONTINUOUS
 62
     5
 10
-57.893376413570309
 20
-147.83844911147011
 30
0.0
 40
7.4119547657511484
 50
90.0
 51
180.0
  0
LINE
  8
DETAIL
  6
CONTINUOUS
 62
     5
 10
-4.0064620355412899
 20
-307.49596122778689
 30
0.0
 11
4.0064620355410634
 21
-307.49596122778689
 31
0.0
  0
LINE
  8
DETAIL
  6
CONTINUOUS
 62
     5
 10
4.5072697899838658
 20
-306.79483037156712
 30
0.0
 11
40.064620355411989
 21
-306.79483037156712
 31
0.0
  0
LINE
  8
DETAIL
  6
CONTINUOUS
 62
     5
 10
-40.064620355411883
 20
-306.79483037156712
 30
0.0
 11
-4.5072697899838658
 21
-306.79483037156712
 31
0.0
  0
LINE
  8
DETAIL
  6
CONTINUOUS
 62
     5
 10
33.554119547657479
 20
-305.89337641357042
 30
0.0
 11
36.558966074313389
 21
-305.89337641357042
 31
0.0
  0
LINE
  8
DETAIL
  6
CONTINUOUS
 62
     5
 10
-36.558966074313382
 20
-305.89337641357042
 30
0.0
 11
-33.554119547657592
 21
-305.89337641357042
 31
0.0
  0
LINE
  8
DETAIL
  6
CONTINUOUS
 62
     5
 10
-96.200412643473427
 20
-276.74636510500801
 30
0.0
 11
-85.003127221976001
 21
-276.74636510500801
 31
0.0
  0
LINE
  8
DETAIL
  6
CONTINUOUS
 62
     5
 10
96.200412643473328
 20
-276.74636510500801
 30
0.0
 11
85.003127221975774
 21
-276.74636510500801
 31
0.0
  0
LINE
  8
DETAIL
  6
CONTINUOUS
 62
     5
 10
89.644588045234258
 20
-274.44264943457199
 30
0.0
 11
184.8387114935567
 21
-274.44264943457199
 31
0.0
  0
LINE
  8
DETAIL
  6
CONTINUOUS
 62
     5
 10
-184.83871149433321
 20
-274.44264943457199
 30
0.0
 11
-89.644588045234258
 21
-274.44264943457199
 31
0.0
  0
LINE
  8
DETAIL
  6
CONTINUOUS
 62
     5
 10
76.195496093223483
 20
-273.9418416801293
 30
0.0
 11
83.268278270754308
 21
-273.9418416801293
 31
0.0
  0
LINE
  8
DETAIL
  6
CONTINUOUS
 62
     5
 10
-83.268278270754294
 20
-273.9418416801293
 30
0.0
 11
-69.409403429762847
 21
-273.9418416801293
 31
0.0
  0
LINE
  8
DETAIL
  6
CONTINUOUS
 62
     5
 10
75.802130781104779
 20
-273.9418416801293
 30
0.0
 11
69.409403428986479
 21
-273.9418416801293
 31
0.0
  0
LINE
  8
DETAIL
  6
CONTINUOUS
 62
     5
 10
38.260403093461491
 20
-259.91922455573541
 30
0.0
 11
-38.260403093461491
 21
-259.91922455573541
 31
0.0
  0
LINE
  8
DETAIL
  6
CONTINUOUS
 62
     5
 10
-83.634894991922451
 20
-237.38287560581631
 30
0.0
 11
-86.138933764135686
 21
-237.38287560581631
 31
0.0
  0
LINE
  8
DETAIL
  6
CONTINUOUS
 62
     5
 10
86.138933764135572
 20
-237.38287560581631
 30
0.0
 11
83.634894991922465
 21
-237.38287560581631
 31
0.0
  0
LINE
  8
DETAIL
  6
CONTINUOUS
 62
     5
 10
89.644588045234258
 20
-236.38126009693079
 30
0.0
 11
180.5892167830084
 21
-236.38126009693079
 31
0.0
  0
LINE
  8
DETAIL
  6
CONTINUOUS
 62
     5
 10
-180.58921678300851
 20
-236.38126009693079
 30
0.0
 11
-89.644588045234258
 21
-236.38126009693079
 31
0.0
  0
LINE
  8
DETAIL
  6
CONTINUOUS
 62
     5
 10
-41.559359369751171
 20
-233.67689822294051
 30
0.0
 11
-44.564205896407088
 21
-233.67689822294051
 31
0.0
  0
LINE
  8
DETAIL
  6
CONTINUOUS
 62
     5
 10
86.138933764135572
 20
-233.37641357027479
 30
0.0
 11
-86.138933764135686
 21
-233.37641357027479
 31
0.0
  0
LINE
  8
DETAIL
  6
CONTINUOUS
 62
     5
 10
-48.0246813145734
 20
-226.86591276252051
 30
0.0
 11
-61.045682930082307
 21
-226.86591276252051
 31
0.0
  0
LINE
  8
DETAIL
  6
CONTINUOUS
 62
     5
 10
61.045682930082187
 20
-226.86591276252051
 30
0.0
 11
48.0246813145734
 21
-226.86591276252051
 31
0.0
  0
LINE
  8
DETAIL
  6
CONTINUOUS
 62
     5
 10
51.279931718450598
 20
-223.66074313408731
 30
0.0
 11
57.790432526205002
 21
-223.66074313408731
 31
0.0
  0
LINE
  8
DETAIL
  6
CONTINUOUS
 62
     5
 10
-57.790432526205109
 20
-223.66074313408731
 30
0.0
 11
-51.279931718450612
 21
-223.66074313408731
 31
0.0
  0
LINE
  8
DETAIL
  6
CONTINUOUS
 62
     5
 10
306.99515347334409
 20
-6.4103392568659956
 30
0.0
 11
306.99515347334409
 21
-3.0048465266560238
 31
0.0
  0
LINE
  8
DETAIL
  6
CONTINUOUS
 62
     5
 10
303.82456339745272
 20
-3.0048465266560238
 30
0.0
 11
303.82456339745272
 21
-5.1082390953150707
 31
0.0
  0
LINE
  8
DETAIL
  6
CONTINUOUS
 62
     5
 10
-68.821854436763715
 20
-273.80202721556401
 30
0.0
 11
-41.689852219609072
 21
-260.70381925353468
 31
0.0
  0
LINE
  8
DETAIL
  6
CONTINUOUS
 62
     5
 10
66.106623586429691
 20
-197.49010530310221
 30
0.0
 11
-66.106623586429819
 21
-197.49010530310221
 31
0.0
  0
LINE
  8
DETAIL
  6
CONTINUOUS
 62
     5
 10
65.305331179321456
 20
-196.68881289599389
 30
0.0
 11
-65.305331179321456
 21
-196.68881289599389
 31
0.0
  0
LINE
  8
DETAIL
  6
CONTINUOUS
 62
     5
 10
296.97899838449092
 20
-16.426494345718879
 30
0.0
 11
296.97899838449092
 21
-13.89004062544007
 31
0.0
  0
LINE
  8
DETAIL
  6
CONTINUOUS
 62
     5
 10
-1.5935605170379861
 20
-271.02813240640722
 30
0.0
 11
1.593560564401173
 21
-267.84101132574409
 31
0.0
  0
LINE
  8
DETAIL
  6
CONTINUOUS
 62
     5
 10
261.65756223160628
 20
-84.886914378029132
 30
0.0
 11
261.65756223160628
 21
-88.392568659127846
 31
0.0
  0
LINE
  8
DETAIL
  6
CONTINUOUS
 62
     5
 10
261.32961628886278
 20
-84.886914378029132
 30
0.0
 11
261.32961628886278
 21
-14.52342487883686
 31
0.0
  0
LINE
  8
DETAIL
  6
CONTINUOUS
 62
     5
 10
261.32961628886278
 20
-166.26817447495981
 30
0.0
 11
261.32961628886278
 21
-88.392568659127846
 31
0.0
  0
LINE
  8
DETAIL
  6
CONTINUOUS
 62
     5
 10
257.08012157831439
 20
-88.392568659127846
 30
0.0
 11
257.08012157831439
 21
-166.26817447495981
 31
0.0
  0
LINE
  8
DETAIL
  6
CONTINUOUS
 62
     5
 10
257.08012157831439
 20
-14.52342487883686
 30
0.0
 11
257.08012157831439
 21
-84.886914378029132
 31
0.0
  0
LINE
  8
DETAIL
  6
CONTINUOUS
 62
     5
 10
254.24712510435691
 20
-5.1082390953150707
 30
0.0
 11
254.24712510435691
 21
-3.0048465266560238
 31
0.0
  0
LINE
  8
DETAIL
  6
CONTINUOUS
 62
     5
 10
247.89983844911151
 20
-20.032310177705991
 30
0.0
 11
247.89983844911151
 21
-12.042155735942289
 31
0.0
  0
LINE
  8
DETAIL
  6
CONTINUOUS
 62
     5
 10
244.8949919224556
 20
-20.032310177705991
 30
0.0
 11
244.8949919224556
 21
-12.070778740339851
 31
0.0
  0
LINE
  8
DETAIL
  6
CONTINUOUS
 62
     5
 10
242.91513920852589
 20
-3.0048465266560238
 30
0.0
 11
242.91513920852589
 21
-6.4103392568659956
 31
0.0
  0
LINE
  8
DETAIL
  6
CONTINUOUS
 62
     5
 10
-10.49902949916736
 20
-137.11337384638901
 30
0.0
 11
-14.02261712439417
 21
-137.42164781906311
 31
0.0
  0
LINE
  8
DETAIL
  6
CONTINUOUS
 62
     5
 10
39.125008265995348
 20
-140.42649434571911
 30
0.0
 11
-57.893376413570309
 21
-140.42649434571911
 31
0.0
  0
LINE
  8
DETAIL
  6
CONTINUOUS
 62
     5
 10
13.02092624821228
 20
-139.9256865912761
 30
0.0
 11
-13.02092624898887
 21
-139.9256865912761
 31
0.0
  0
LINE
  8
DETAIL
  6
CONTINUOUS
 62
     5
 10
-14.02198705699368
 20
-138.92407108239101
 30
0.0
 11
14.021987056217091
 21
-138.92407108239101
 31
0.0
  0
LINE
  8
DETAIL
  6
CONTINUOUS
 62
     5
 10
-14.02261712439417
 20
-137.42164781906311
 30
0.0
 11
14.02261712439417
 21
-137.42164781906311
 31
0.0
  0
LINE
  8
DETAIL
  6
CONTINUOUS
 62
     5
 10
-9.0141345367496797
 20
-134.91760904684989
 30
0.0
 11
9.0141345359731986
 21
-134.91760904684989
 31
0.0
  0
LINE
  8
DETAIL
  6
CONTINUOUS
 62
     5
 10
10.49902949916714
 20
-137.11337384638901
 30
0.0
 11
14.02261712439417
 21
-137.42164781906311
 31
0.0
  0
LINE
  8
DETAIL
  6
CONTINUOUS
 62
     5
 10
235.65928033281989
 20
-84.886914378029132
 30
0.0
 11
235.65928033281989
 21
-88.392568659127846
 31
0.0
  0
LINE
  8
DETAIL
  6
CONTINUOUS
 62
     5
 10
235.1747326205309
 20
-14.52342487883686
 30
0.0
 11
235.1747326205309
 21
-18.529886914378039
 31
0.0
  0
LINE
  8
DETAIL
  6
CONTINUOUS
 62
     5
 10
230.16665507610421
 20
-18.529886914378039
 30
0.0
 11
230.16665507610421
 21
-166.26817447495981
 31
0.0
  0
LINE
  8
DETAIL
  6
CONTINUOUS
 62
     5
 10
230.16665507610421
 20
-14.52342487883686
 30
0.0
 11
230.16665507610421
 21
-18.082583469612128
 31
0.0
  0
LINE
  8
DETAIL
  6
CONTINUOUS
 62
     5
 10
225.15857753167771
 20
-18.529886914378039
 30
0.0
 11
225.15857753167771
 21
-14.52342487883686
 31
0.0
  0
LINE
  8
DETAIL
  6
CONTINUOUS
 62
     5
 10
213.16867623235791
 20
-14.52342487883686
 30
0.0
 11
213.16867623235791
 21
-10.016155088853001
 31
0.0
  0
LINE
  8
DETAIL
  6
CONTINUOUS
 62
     5
 10
-14.02234276793024
 20
-118.19063004846539
 30
0.0
 11
3.5024003786049889
 21
-118.19063004846539
 31
0.0
  0
LINE
  8
DETAIL
  6
CONTINUOUS
 62
     5
 10
0.4653642013749959
 20
-116.18739903069481
 30
0.0
 11
-14.02216811180824
 21
-116.18739903069481
 31
0.0
  0
LINE
  8
DETAIL
  6
CONTINUOUS
 62
     5
 10
-18.02907915993546
 20
-113.6833602584815
 30
0.0
 11
-3.3146416636736831
 21
-113.6833602584815
 31
0.0
  0
LINE
  8
DETAIL
  6
CONTINUOUS
 62
     5
 10
-19.030694668820619
 20
-112.68174474959611
 30
0.0
 11
-4.8070644964998337
 21
-112.6817445601434
 31
0.0
  0
LINE
  8
DETAIL
  6
CONTINUOUS
 62
     5
 10
-261.32961628886301
 20
-111.5799676898224
 30
0.0
 11
-268.43295638126028
 21
-111.5799676898224
 31
0.0
  0
LINE
  8
DETAIL
  6
CONTINUOUS
 62
     5
 10
230.16665507610421
 20
-111.5799676898224
 30
0.0
 11
-230.16665507610421
 21
-111.5799676898224
 31
0.0
  0
LINE
  8
DETAIL
  6
CONTINUOUS
 62
     5
 10
268.43295638126011
 20
-111.5799676898224
 30
0.0
 11
261.32961628886278
 21
-111.5799676898224
 31
0.0
  0
LINE
  8
DETAIL
  6
CONTINUOUS
 62
     5
 10
-261.32961628886301
 20
-107.57350565428131
 30
0.0
 11
-268.43295638126028
 21
-107.57350565428131
 31
0.0
  0
LINE
  8
DETAIL
  6
CONTINUOUS
 62
     5
 10
230.16665507610421
 20
-107.57350565428131
 30
0.0
 11
-230.16665507610421
 21
-107.57350565428131
 31
0.0
  0
LINE
  8
DETAIL
  6
CONTINUOUS
 62
     5
 10
268.43295638126011
 20
-107.57350565428131
 30
0.0
 11
261.32961628886278
 21
-107.57350565428131
 31
0.0
  0
LINE
  8
DETAIL
  6
CONTINUOUS
 62
     5
 10
235.66082883971379
 20
-88.392568659127846
 30
0.0
 11
261.65755023396059
 21
-88.392568659127846
 31
0.0
  0
LINE
  8
DETAIL
  6
CONTINUOUS
 62
     5
 10
201.1284412186196
 20
-13.02100161550891
 30
0.0
 11
201.1284412186196
 21
-16.426494345718879
 31
0.0
  0
LINE
  8
DETAIL
  6
CONTINUOUS
 62
     5
 10
-65.305331179321456
 20
-196.68881289599389
 30
0.0
 11
-66.106623586429819
 21
-197.49010530310221
 31
0.0
  0
LINE
  8
DETAIL
  6
CONTINUOUS
 62
     5
 10
235.66082883971379
 20
-84.886914378029132
 30
0.0
 11
261.65755023396059
 21
-84.886914378029132
 31
0.0
  0
LINE
  8
DETAIL
  6
CONTINUOUS
 62
     5
 10
261.32961628886278
 20
-20.032310177705991
 30
0.0
 11
293.37318255250398
 21
-20.032310177705991
 31
0.0
  0
LINE
  8
DETAIL
  6
CONTINUOUS
 62
     5
 10
-230.16665507610421
 20
-20.032310177705991
 30
0.0
 11
230.16665507610421
 21
-20.032310177705991
 31
0.0
  0
LINE
  8
DETAIL
  6
CONTINUOUS
 62
     5
 10
-293.37318255250398
 20
-20.032310177705991
 30
0.0
 11
-261.32961628886301
 21
-20.032310177705991
 31
0.0
  0
LINE
  8
DETAIL
  6
CONTINUOUS
 62
     5
 10
225.15857753167771
 20
-18.529886914378039
 30
0.0
 11
235.1747326205309
 21
-18.529886914378039
 31
0.0
  0
LINE
  8
DETAIL
  6
CONTINUOUS
 62
     5
 10
-266.33769383328939
 20
-18.529886914378039
 30
0.0
 11
-261.32961628886301
 21
-18.529886914378039
 31
0.0
  0
LINE
  8
DETAIL
  6
CONTINUOUS
 62
     5
 10
247.85124420634409
 20
-14.52342487883686
 30
0.0
 11
294.50537591889912
 21
-14.52342487883686
 31
0.0
  0
LINE
  8
DETAIL
  6
CONTINUOUS
 62
     5
 10
213.16867623235791
 20
-14.52342487883686
 30
0.0
 11
244.927937625803
 21
-14.52342487883686
 31
0.0
  0
LINE
  8
DETAIL
  6
CONTINUOUS
 62
     5
 10
-294.50537591967549
 20
-14.52342487883686
 30
0.0
 11
-213.16867623313419
 21
-14.52342487883686
 31
0.0
  0
LINE
  8
DETAIL
  6
CONTINUOUS
 62
     5
 10
300.17892012222768
 20
-10.016155088853001
 30
0.0
 11
303.38933764135709
 21
-10.016155088853001
 31
0.0
  0
LINE
  8
DETAIL
  6
CONTINUOUS
 62
     5
 10
239.30932337653871
 20
-10.016155088853001
 30
0.0
 11
244.927937625803
 21
-10.016155088853001
 31
0.0
  0
LINE
  8
DETAIL
  6
CONTINUOUS
 62
     5
 10
-239.30932337653871
 20
-10.016155088853001
 30
0.0
 11
239.30932337653871
 21
-10.016155088853001
 31
0.0
  0
LINE
  8
DETAIL
  6
CONTINUOUS
 62
     5
 10
-303.38933764135692
 20
-10.016155088853001
 30
0.0
 11
-300.17892012300427
 21
-10.016155088853001
 31
0.0
  0
LINE
  8
DETAIL
  6
CONTINUOUS
 62
     5
 10
-239.30932337653871
 20
-10.016155088853001
 30
0.0
 11
-244.92793762657939
 21
-10.016155088853001
 31
0.0
  0
LINE
  8
DETAIL
  6
CONTINUOUS
 62
     5
 10
253.84381916672319
 20
-5.1082390953150707
 30
0.0
 11
303.82456339745272
 21
-5.1082390953150707
 31
0.0
  0
LINE
  8
DETAIL
  6
CONTINUOUS
 62
     5
 10
-303.82456339745278
 20
-5.1082390953150707
 30
0.0
 11
-253.8438191674995
 21
-5.1082390953150707
 31
0.0
  0
LINE
  8
DETAIL
  6
CONTINUOUS
 62
     5
 10
-308.49757673667199
 20
-3.0048465266560238
 30
0.0
 11
308.49757673667199
 21
-3.0048465266560238
 31
0.0
  0
LINE
  8
DETAIL
  6
CONTINUOUS
 62
     5
 10
-308.49757673667199
 20
0.0
 30
0.0
 11
308.49757673667199
 21
0.0
 31
0.0
  0
LINE
  8
DETAIL
  6
CONTINUOUS
 62
     5
 10
96.756058158319775
 20
-283.45718901454012
 30
0.0
 11
96.756058158319775
 21
-274.44264943457199
 31
0.0
  0
LINE
  8
DETAIL
  6
CONTINUOUS
 62
     5
 10
96.605517693754564
 20
-274.74313408723748
 30
0.0
 11
96.605517693754564
 21
-274.44264943457199
 31
0.0
  0
LINE
  8
DETAIL
  6
CONTINUOUS
 62
     5
 10
96.010338407008021
 20
-274.74313408723748
 30
0.0
 11
96.010338407008021
 21
-274.44264943457199
 31
0.0
  0
LINE
  8
DETAIL
  6
CONTINUOUS
 62
     5
 10
89.644588045234258
 20
-269.25523422266502
 30
0.0
 11
89.644588045234258
 21
-274.44264943457199
 31
0.0
  0
LINE
  8
DETAIL
  6
CONTINUOUS
 62
     5
 10
89.644588045234258
 20
-236.38126009693079
 30
0.0
 11
89.644588045234258
 21
-260.61969481003371
 31
0.0
  0
LINE
  8
DETAIL
  6
CONTINUOUS
 62
     5
 10
86.138933764135572
 20
-237.38287560581631
 30
0.0
 11
86.138933764135572
 21
-233.37641357027479
 31
0.0
  0
LINE
  8
DETAIL
  6
CONTINUOUS
 62
     5
 10
84.135702746365041
 20
-274.94345718901462
 30
0.0
 11
84.135702746365041
 21
-275.74474959612292
 31
0.0
  0
LINE
  8
DETAIL
  6
CONTINUOUS
 62
     5
 10
66.106623586429691
 20
-231.37318255250401
 30
0.0
 11
66.106623586429691
 21
-197.49010530310221
 31
0.0
  0
LINE
  8
DETAIL
  6
CONTINUOUS
 62
     5
 10
65.305331179321456
 20
-196.68881289599389
 30
0.0
 11
65.305331179321456
 21
-155.6349129515975
 31
0.0
  0
LINE
  8
DETAIL
  6
CONTINUOUS
 62
     5
 10
61.045682930082187
 20
-233.37641357027479
 30
0.0
 11
61.045682930082187
 21
-226.86591276252051
 31
0.0
  0
LINE
  8
DETAIL
  6
CONTINUOUS
 62
     5
 10
57.790432526205002
 20
-223.66074313408731
 30
0.0
 11
57.790432526205002
 21
-226.86591276252051
 31
0.0
  0
LINE
  8
DETAIL
  6
CONTINUOUS
 62
     5
 10
54.535182122327797
 20
-233.37641357027479
 30
0.0
 11
54.535182122327797
 21
-227.44740724056069
 31
0.0
  0
LINE
  8
DETAIL
  6
CONTINUOUS
 62
     5
 10
51.279931718450598
 20
-223.66074313408731
 30
0.0
 11
51.279931718450598
 21
-226.86591276252051
 31
0.0
  0
LINE
  8
DETAIL
  6
CONTINUOUS
 62
     5
 10
48.0246813145734
 20
-233.37641357027479
 30
0.0
 11
48.0246813145734
 21
-226.86591276252051
 31
0.0
  0
LINE
  8
DETAIL
  6
CONTINUOUS
 62
     5
 10
40.064620355411989
 20
-306.79483037156712
 30
0.0
 11
40.064620355411989
 21
-305.79321486268208
 31
0.0
  0
LINE
  8
DETAIL
  6
CONTINUOUS
 62
     5
 10
-9.0145395799677317
 20
-134.91760904684989
 30
0.0
 11
-9.1421725287096933
 21
-135.82576466203301
 31
0.0
  0
LINE
  8
DETAIL
  6
CONTINUOUS
 62
     5
 10
14.02261712439417
 20
-137.42164781906311
 30
0.0
 11
14.02261712439417
 21
-138.92407108239101
 31
0.0
  0
LINE
  8
DETAIL
  6
CONTINUOUS
 62
     5
 10
8.5137318255249284
 20
-134.91760904684989
 30
0.0
 11
8.5137318255249284
 21
-121.4413449633944
 31
0.0
  0
LINE
  8
DETAIL
  6
CONTINUOUS
 62
     5
 10
8.5137318255249284
 20
-139.9256865912761
 30
0.0
 11
8.5137318255249284
 21
-138.92407108239101
 31
0.0
  0
LINE
  8
DETAIL
  6
CONTINUOUS
 62
     5
 10
4.5072697899838658
 20
-305.79321486268208
 30
0.0
 11
4.5072697899838658
 21
-306.99515347334449
 31
0.0
  0
LINE
  8
DETAIL
  6
CONTINUOUS
 62
     5
 10
9.0145395799677317
 20
-134.91760904684989
 30
0.0
 11
9.1421725279330985
 21
-135.82576466203301
 31
0.0
  0
LINE
  8
DETAIL
  6
CONTINUOUS
 62
     5
 10
-4.5072697899838658
 20
-305.79321486268208
 30
0.0
 11
-4.5072697899838658
 21
-306.99515347334449
 31
0.0
  0
LINE
  8
DETAIL
  6
CONTINUOUS
 62
     5
 10
-8.5137318255249284
 20
-134.91760904684989
 30
0.0
 11
-8.5137318255249284
 21
-118.19063004846539
 31
0.0
  0
LINE
  8
DETAIL
  6
CONTINUOUS
 62
     5
 10
-8.5137318255249284
 20
-139.9256865912761
 30
0.0
 11
-8.5137318255249284
 21
-138.92407108239101
 31
0.0
  0
LINE
  8
DETAIL
  6
CONTINUOUS
 62
     5
 10
-14.02261712439417
 20
-118.19063004846539
 30
0.0
 11
-14.02261712439417
 21
-113.6833602584815
 31
0.0
  0
LINE
  8
DETAIL
  6
CONTINUOUS
 62
     5
 10
-14.02261712439417
 20
-137.42164781906311
 30
0.0
 11
-14.02261712439417
 21
-138.92407108239101
 31
0.0
  0
LINE
  8
DETAIL
  6
CONTINUOUS
 62
     5
 10
-19.030694668820619
 20
-112.68174474959611
 30
0.0
 11
-19.030694668820619
 21
-111.5799676898224
 31
0.0
  0
LINE
  8
DETAIL
  6
CONTINUOUS
 62
     5
 10
-40.064620355411883
 20
-306.79483037156712
 30
0.0
 11
-40.064620355411883
 21
-305.79321486268208
 31
0.0
  0
LINE
  8
DETAIL
  6
CONTINUOUS
 62
     5
 10
-41.559359369751171
 20
-237.38287560581631
 30
0.0
 11
-41.559359369751171
 21
-233.67689822294051
 31
0.0
  0
LINE
  8
DETAIL
  6
CONTINUOUS
 62
     5
 10
-44.564205896407088
 20
-237.38287560581631
 30
0.0
 11
-44.564205896407088
 21
-233.67689822294051
 31
0.0
  0
LINE
  8
DETAIL
  6
CONTINUOUS
 62
     5
 10
-48.0246813145734
 20
-233.37641357027479
 30
0.0
 11
-48.0246813145734
 21
-226.86591276252051
 31
0.0
  0
LINE
  8
DETAIL
  6
CONTINUOUS
 62
     5
 10
-51.279931718450612
 20
-223.66074313408731
 30
0.0
 11
-51.279931718450612
 21
-226.86591276252051
 31
0.0
  0
LINE
  8
DETAIL
  6
CONTINUOUS
 62
     5
 10
-54.535182122327797
 20
-233.37641357027479
 30
0.0
 11
-54.535182122327797
 21
-227.44740724056069
 31
0.0
  0
LINE
  8
DETAIL
  6
CONTINUOUS
 62
     5
 10
-57.790432526205109
 20
-223.66074313408731
 30
0.0
 11
-57.790432526205109
 21
-226.86591276252051
 31
0.0
  0
LINE
  8
DETAIL
  6
CONTINUOUS
 62
     5
 10
-61.045682930082307
 20
-233.37641357027479
 30
0.0
 11
-61.045682930082307
 21
-226.86591276252051
 31
0.0
  0
LINE
  8
DETAIL
  6
CONTINUOUS
 62
     5
 10
-65.305331179321456
 20
-196.68881289599389
 30
0.0
 11
-65.305331179321456
 21
-147.83844911147011
 31
0.0
  0
LINE
  8
DETAIL
  6
CONTINUOUS
 62
     5
 10
-66.106623586429819
 20
-231.37318255250401
 30
0.0
 11
-66.106623586429819
 21
-197.49010530310221
 31
0.0
  0
LINE
  8
DETAIL
  6
CONTINUOUS
 62
     5
 10
-84.135702746365155
 20
-275.74474959612292
 30
0.0
 11
-84.135702746365155
 21
-274.94345718901462
 31
0.0
  0
LINE
  8
DETAIL
  6
CONTINUOUS
 62
     5
 10
-89.644588045234258
 20
-236.38126009693079
 30
0.0
 11
-89.644588045234258
 21
-274.44264943457199
 31
0.0
  0
LINE
  8
DETAIL
  6
CONTINUOUS
 62
     5
 10
-96.010338407008021
 20
-274.44264943457199
 30
0.0
 11
-96.010338407008021
 21
-274.74313408723748
 31
0.0
  0
LINE
  8
DETAIL
  6
CONTINUOUS
 62
     5
 10
-96.605517694531045
 20
-274.44264943457199
 30
0.0
 11
-96.605517694531045
 21
-274.74313408723748
 31
0.0
  0
LINE
  8
DETAIL
  6
CONTINUOUS
 62
     5
 10
-96.756058158319874
 20
-274.44264943457199
 30
0.0
 11
-96.756058158319874
 21
-283.45718901454012
 31
0.0
  0
LINE
  8
DETAIL
  6
CONTINUOUS
 62
     5
 10
65.305331179321456
 20
-196.68881289599389
 30
0.0
 11
66.106623586429691
 21
-197.49010530310221
 31
0.0
  0
LINE
  8
DETAIL
  6
CONTINUOUS
 62
     5
 10
-18.029082971509521
 20
-113.6833640700557
 30
0.0
 11
-19.030698692364581
 21
-112.6817487731402
 31
0.0
  0
LINE
  8
DETAIL
  6
CONTINUOUS
 62
     5
 10
-201.12844121861971
 20
-16.426494345718879
 30
0.0
 11
-201.12844121861971
 21
-13.02100161550891
 31
0.0
  0
LINE
  8
DETAIL
  6
CONTINUOUS
 62
     5
 10
-213.16867623313419
 20
-14.52342487883686
 30
0.0
 11
-213.16867623313419
 21
-10.016155088853001
 31
0.0
  0
LINE
  8
DETAIL
  6
CONTINUOUS
 62
     5
 10
1.593560516261505
 20
-271.02813240640722
 30
0.0
 11
-1.5935605644012869
 21
-267.84101132574409
 31
0.0
  0
LINE
  8
DETAIL
  6
CONTINUOUS
 62
     5
 10
-230.16665507610421
 20
-166.26817447495981
 30
0.0
 11
-230.16665507610421
 21
-14.52342487883686
 31
0.0
  0
LINE
  8
DETAIL
  6
CONTINUOUS
 62
     5
 10
-242.91513920852589
 20
-6.4103392568659956
 30
0.0
 11
-242.91513920852589
 21
-3.0048465266560238
 31
0.0
  0
LINE
  8
DETAIL
  6
CONTINUOUS
 62
     5
 10
-254.247125104357
 20
-5.1082390953150707
 30
0.0
 11
-254.247125104357
 21
-3.0048465266560238
 31
0.0
  0
LINE
  8
DETAIL
  6
CONTINUOUS
 62
     5
 10
-257.08012157831467
 20
-166.26817447495981
 30
0.0
 11
-257.08012157831467
 21
-14.52342487883686
 31
0.0
  0
LINE
  8
DETAIL
  6
CONTINUOUS
 62
     5
 10
41.689852219609072
 20
-260.70381925353468
 30
0.0
 11
68.821854436763488
 21
-273.80202721556401
 31
0.0
  0
LINE
  8
DETAIL
  6
CONTINUOUS
 62
     5
 10
-261.32961628886301
 20
-14.52342487883686
 30
0.0
 11
-261.32961628886301
 21
-166.26817447495981
 31
0.0
  0
LINE
  8
DETAIL
  6
CONTINUOUS
 62
     5
 10
-266.33769383328939
 20
-18.529886914378039
 30
0.0
 11
-266.33769383328939
 21
-14.52342487883686
 31
0.0
  0
LINE
  8
DETAIL
  6
CONTINUOUS
 62
     5
 10
-296.97899838449121
 20
-13.89004062544007
 30
0.0
 11
-296.97899838449121
 21
-16.426494345718879
 31
0.0
  0
LINE
  8
DETAIL
  6
CONTINUOUS
 62
     5
 10
-303.82456339745278
 20
-5.1082390953150707
 30
0.0
 11
-303.82456339745278
 21
-3.0048465266560238
 31
0.0
  0
LINE
  8
DETAIL
  6
CONTINUOUS
 62
     5
 10
-306.99515347334409
 20
-3.0048465266560238
 30
0.0
 11
-306.99515347334409
 21
-6.4103392568659956
 31
0.0
  0
ARC
  8
DETAIL
  6
CONTINUOUS
 62
     5
 10
95.153473344103418
 20
-283.45718901454012
 30
0.0
 40
1.6025848142162431
 50
270.0
 51
0.0
  0
ARC
  8
DETAIL
  6
CONTINUOUS
 62
     5
 10
91.156960533218012
 20
-288.46526655896628
 30
0.0
 40
3.4054923947853522
 50
90.0
 51
154.21518455549941
  0
ARC
  8
DETAIL
  6
CONTINUOUS
 62
     5
 10
76.112828254899568
 20
-301.1857835218093
 30
0.0
 40
4.6074313408726084
 50
270.0
 51
334.21519330550251
  0
ARC
  8
DETAIL
  6
CONTINUOUS
 62
     5
 10
83.634894991922465
 20
-243.3925686591277
 30
0.0
 40
6.0096930533117643
 50
0.0
 51
90.0
  0
ARC
  8
DETAIL
  6
CONTINUOUS
 62
     5
 10
258.41680129240689
 20
-49.479806138933782
 30
0.0
 40
29.447495961227741
 50
163.63677036490009
 51
180.0
  0
ARC
  8
DETAIL
  6
CONTINUOUS
 62
     5
 10
268.43295638126011
 20
-71.515347334410421
 30
0.0
 40
39.46365105008077
 50
180.0
 51
194.12715117499511
  0
ARC
  8
DETAIL
  6
CONTINUOUS
 62
     5
 10
-95.153473344103418
 20
-283.45718901454012
 30
0.0
 40
1.6025848142165839
 50
180.0
 51
270.0
  0
ARC
  8
DETAIL
  6
CONTINUOUS
 62
     5
 10
-91.156960325907093
 20
-288.46526655896628
 30
0.0
 40
3.4054923388811358
 50
25.784816962101061
 51
90.0
  0
ARC
  8
DETAIL
  6
CONTINUOUS
 62
     5
 10
-76.112828255676263
 20
-301.1857835218093
 30
0.0
 40
4.6074313408724157
 50
205.7848066944976
 51
270.0
  0
ARC
  8
DETAIL
  6
CONTINUOUS
 62
     5
 10
-83.634894991922451
 20
-243.3925686591277
 30
0.0
 40
6.0096930533117066
 50
90.0
 51
180.0
  0
ARC
  8
DETAIL
  6
CONTINUOUS
 62
     5
 10
-258.41680129240711
 20
-49.479806138933782
 30
0.0
 40
29.44749596122767
 50
0.0
 51
16.363229635099952
  0
ARC
  8
DETAIL
  6
CONTINUOUS
 62
     5
 10
-268.43295638126028
 20
-71.515347334410421
 30
0.0
 40
39.463651050080891
 50
345.87284882500478
 51
0.0
  0
LINE
  8
DETAIL
  6
CONTINUOUS
 62
     5
 10
-76.112828255676263
 20
-305.79321486268208
 30
0.0
 11
76.112828254899568
 21
-305.79321486268208
 31
0.0
  0
LINE
  8
DETAIL
  6
CONTINUOUS
 62
     5
 10
-95.153473344103418
 20
-285.05977382875602
 30
0.0
 11
95.153473344103418
 21
-285.05977382875602
 31
0.0
  0
LINE
  8
DETAIL
  6
CONTINUOUS
 62
     5
 10
83.634894991922465
 20
-237.38287560581631
 30
0.0
 11
-83.634894991922451
 21
-237.38287560581631
 31
0.0
  0
LINE
  8
DETAIL
  6
CONTINUOUS
 62
     5
 10
-2.5040387722131068
 20
-225.36348949919241
 30
0.0
 11
2.5040387722131068
 21
-225.36348949919241
 31
0.0
  0
LINE
  8
DETAIL
  6
CONTINUOUS
 62
     5
 10
88.090539772351008
 20
-286.98390329516218
 30
0.0
 11
80.261516784135438
 21
-303.18998087881192
 31
0.0
  0
LINE
  8
DETAIL
  6
CONTINUOUS
 62
     5
 10
228.96930533117941
 20
-49.479806138933782
 30
0.0
 11
228.96930533117941
 21
-71.515347334410421
 31
0.0
  0
LINE
  8
DETAIL
  6
CONTINUOUS
 62
     5
 10
261.32961628886278
 20
-111.5799676898224
 30
0.0
 11
268.43295638126011
 21
-111.5799676898224
 31
0.0
  0
LINE
  8
DETAIL
  6
CONTINUOUS
 62
     5
 10
-230.16665507610421
 20
-111.5799676898224
 30
0.0
 11
230.16665507610421
 21
-111.5799676898224
 31
0.0
  0
LINE
  8
DETAIL
  6
CONTINUOUS
 62
     5
 10
-268.43295638126028
 20
-111.5799676898224
 30
0.0
 11
-261.32961628886301
 21
-111.5799676898224
 31
0.0
  0
LINE
  8
DETAIL
  6
CONTINUOUS
 62
     5
 10
96.756058158319775
 20
-283.45718901454012
 30
0.0
 11
96.756058158319775
 21
-274.44264943457199
 31
0.0
  0
LINE
  8
DETAIL
  6
CONTINUOUS
 62
     5
 10
89.644588045234258
 20
-276.74636510500801
 30
0.0
 11
89.644588045234258
 21
-274.44264943457199
 31
0.0
  0
LINE
  8
DETAIL
  6
CONTINUOUS
 62
     5
 10
63.549721702295528
 20
-237.38287560581631
 30
0.0
 11
63.549721702295528
 21
-233.37641357027479
 31
0.0
  0
LINE
  8
DETAIL
  6
CONTINUOUS
 62
     5
 10
2.5040387722131068
 20
-225.36348949919241
 30
0.0
 11
2.5040387722131068
 21
-233.37641357027479
 31
0.0
  0
LINE
  8
DETAIL
  6
CONTINUOUS
 62
     5
 10
-2.5040387722131068
 20
-225.36348949919241
 30
0.0
 11
-2.5040387722131068
 21
-233.37641357027479
 31
0.0
  0
LINE
  8
DETAIL
  6
CONTINUOUS
 62
     5
 10
-63.549721702295543
 20
-237.38287560581631
 30
0.0
 11
-63.549721702295543
 21
-233.37641357027479
 31
0.0
  0
LINE
  8
DETAIL
  6
CONTINUOUS
 62
     5
 10
-86.138933764135686
 20
-237.38287560581631
 30
0.0
 11
-86.138933764135686
 21
-233.37641357027479
 31
0.0
  0
LINE
  8
DETAIL
  6
CONTINUOUS
 62
     5
 10
-89.644588045234258
 20
-274.44264943457199
 30
0.0
 11
-89.644588045234258
 21
-276.74636510500801
 31
0.0
  0
LINE
  8
DETAIL
  6
CONTINUOUS
 62
     5
 10
-96.756058158319874
 20
-274.44264943457199
 30
0.0
 11
-96.756058158319874
 21
-283.45718901454012
 31
0.0
  0
LINE
  8
DETAIL
  6
CONTINUOUS
 62
     5
 10
-88.090539772351022
 20
-286.98390329516218
 30
0.0
 11
-80.261516784911919
 21
-303.18998087881192
 31
0.0
  0
LINE
  8
DETAIL
  6
CONTINUOUS
 62
     5
 10
-228.96930533117941
 20
-49.479806138933782
 30
0.0
 11
-228.96930533117941
 21
-71.515347334410421
 31
0.0
  0
LINE
  8
NOTE
  6
CONTINUOUS
 62
     4
 10
-280.45234248788398
 20
-35.993442964608462
 30
0.0
 11
-280.45234248788398
 21
18.123274831851521
 31
0.0
  0
LINE
  8
BASIS
  6
DASHDOT
 62
     6
 10
0.0
 20
-336.72777471922228
 30
0.0
 11
0.0
 21
57.102584459130412
 31
0.0
  0
LINE
  8
NOTE
  6
CONTINUOUS
 62
     4
 10
280.4523424878837
 20
-35.993442964608462
 30
0.0
 11
280.4523424878837
 21
18.123274831851521
 31
0.0
  0
LINE
  8
DETAIL
  6
CONTINUOUS
 62
     4
 10
249.73006830673279
 20
-94.483203926353951
 30
0.0
 11
248.52213749710691
 21
-88.390125685500905
 31
0.0
  0
LINE
  8
DETAIL
  6
CONTINUOUS
 62
     4
 10
248.52213749710691
 20
-88.390125685500905
 30
0.0
 11
252.6147824263181
 21
-93.062914657132509
 31
0.0
  0
LINE
  8
DETAIL
  6
CONTINUOUS
 62
     4
 10
248.52213749710691
 20
-88.390125685500905
 30
0.0
 11
253.82271323594389
 21
-99.15599289798557
 31
0.0
  0
LINE
  8
NOTE
  6
CONTINUOUS
 62
     4
 10
253.82271323594389
 20
-99.15599289798557
 30
0.0
 11
398.9731114465003
 21
-406.87376105652038
 31
0.0
  0
LINE
  8
NOTE
  6
CONTINUOUS
 62
     4
 10
398.9731114465003
 20
-406.87376105652038
 30
0.0
 11
507.04412276840122
 21
-407.20937757780479
 31
0.0
  0
TEXT
  8
NOTE
  6
CONTINUOUS
 62
     4
 10
415.0738033676385
 20
-386.69609970116971
 30
0.0
 40
64.0
  1
EL
 41
0.9
 72
     2
 11
500.10237479620992
 21
-386.69609970116971
 31
0.0
  0
ARC
  8
DETAIL
  6
CONTINUOUS
 62
     5
 10
-153.31264192975141
 20
-171.01949564206649
 30
0.0
 40
108.1214215709827
 50
177.4813654889532
 51
253.04741387656969
  0
ARC
  8
DETAIL
  6
CONTINUOUS
 62
     5
 10
-145.81476734104581
 20
-170.17208155089551
 30
0.0
 40
111.333820306333
 50
177.9905184178341
 51
249.48130826925001
  0
ARC
  8
DETAIL
  6
CONTINUOUS
 62
     5
 10
-161.25092877221689
 20
-170.12221129159369
 30
0.0
 40
69.023408578368787
 50
176.79913014292759
 51
253.72964922247269
  0
ARC
  8
DETAIL
  6
CONTINUOUS
 62
     5
 10
-243.73429196531109
 20
-6.2766739413104924
 30
0.0
 40
3.925367398809831
 50
187.72578848804929
 51
252.29687138193029
  0
ARC
  8
DETAIL
  6
CONTINUOUS
 62
     5
 10
-257.19650745306541
 20
-8.7613788817661771
 30
0.0
 40
9.7704783813302853
 50
11.554396913549221
 51
36.11461353043029
  0
ARC
  8
DETAIL
  6
CONTINUOUS
 62
     5
 10
-244.5155540864944
 20
-8.1431624491212915
 30
0.0
 40
6.3935755923847131
 50
193.4710038631502
 51
266.30187372724322
  0
ARC
  8
DETAIL
  6
CONTINUOUS
 62
     5
 10
-255.78636746278431
 20
-9.7752588317399614
 30
0.0
 40
5.0551525301127214
 50
1.6175079109635251
 51
67.401512215019466
  0
ARC
  8
DETAIL
  6
CONTINUOUS
 62
     5
 10
-294.085638315697
 20
-8.1611794570276288
 30
0.0
 40
6.3760761023435499
 50
196.4220138705376
 51
266.22548466020697
  0
ARC
  8
DETAIL
  6
CONTINUOUS
 62
     5
 10
-305.57095920366021
 20
-9.9832076833920382
 30
0.0
 40
5.3693893257050949
 50
0.2075226331592162
 51
65.147224156716462
  0
ARC
  8
DETAIL
  6
CONTINUOUS
 62
     5
 10
-62.527727550464967
 20
-222.57628234395671
 30
0.0
 40
169.4907176197442
 50
139.08745800231779
 51
161.7639021407027
  0
ARC
  8
DETAIL
  6
CONTINUOUS
 62
     5
 10
563.94509457745039
 20
739.36156639713715
 30
0.0
 40
1024.4331304884061
 50
236.16569405188719
 51
239.18265028759089
  0
ARC
  8
DETAIL
  6
CONTINUOUS
 62
     5
 10
898.09496890432968
 20
1308.666081046282
 30
0.0
 40
1684.547067758994
 50
239.3420626639722
 51
241.00237631523709
  0
ARC
  8
DETAIL
  6
CONTINUOUS
 62
     5
 10
80.722853824463527
 20
-124.9529226869677
 30
0.0
 40
4.3740147270331544
 50
338.22590560042897
 51
70.372850644504197
  0
ARC
  8
DETAIL
  6
CONTINUOUS
 62
     5
 10
95.417474928652155
 20
-129.69729554862661
 30
0.0
 40
11.08150250944991
 50
163.63732908064659
 51
205.69336229910289
  0
ARC
  8
DETAIL
  6
CONTINUOUS
 62
     5
 10
24.943962192658649
 20
-160.5911632843515
 30
0.0
 40
57.107434483458533
 50
325.94997689594948
 51
355.64021700901259
  0
ARC
  8
DETAIL
  6
CONTINUOUS
 62
     5
 10
78.51585589732349
 20
-191.73088425555599
 30
0.0
 40
6.3111548363524701
 50
187.6090042740579
 51
304.64951778172082
  0
ARC
  8
DETAIL
  6
CONTINUOUS
 62
     5
 10
-12.45052046266291
 20
25.20528232678458
 30
0.0
 40
241.415466106775
 50
293.05830177528668
 51
300.97760443019058
  0
ARC
  8
DETAIL
  6
CONTINUOUS
 62
     5
 10
1511.9306817310139
 20
2338.373262609804
 30
0.0
 40
2882.9878587588209
 50
240.25281635632061
 51
241.60455435796979
  0
ARC
  8
DETAIL
  6
CONTINUOUS
 62
     5
 10
56.108390241019151
 20
-269.25867219851881
 30
0.0
 40
114.140997275134
 50
40.392940360174897
 51
54.763327139127597
  0
ARC
  8
DETAIL
  6
CONTINUOUS
 62
     5
 10
141.63753060210371
 20
-196.22869479412171
 30
0.0
 40
1.68653164159059
 50
244.574885727854
 51
33.724549910182077
  0
ARC
  8
DETAIL
  6
CONTINUOUS
 62
     5
 10
-181.9186138813966
 20
-179.94215421590309
 30
0.0
 40
42.869110880636981
 50
165.95289243336251
 51
204.34718803521631
  0
ARC
  8
DETAIL
  6
CONTINUOUS
 62
     5
 10
-220.98728293571
 20
-187.81547703201511
 30
0.0
 40
9.8001118043992079
 50
270.07111192853068
 51
341.3262155398204
  0
ARC
  8
DETAIL
  6
CONTINUOUS
 62
     5
 10
-105.373686577841
 20
-255.83600043127029
 30
0.0
 40
124.5620656869676
 50
115.6555618717945
 51
148.6082491610201
  0
ARC
  8
DETAIL
  6
CONTINUOUS
 62
     5
 10
220.39920372286539
 20
-983.16319491249942
 30
0.0
 40
921.47598091603811
 50
108.9405956692087
 51
114.33429983102729
  0
ARC
  8
DETAIL
  6
CONTINUOUS
 62
     5
 10
115.5919908744672
 20
-12.43869952792056
 30
0.0
 40
113.423491731141
 50
240.93608089019071
 51
252.8741886980101
  0
ARC
  8
DETAIL
  6
CONTINUOUS
 62
     5
 10
343.91321536263229
 20
506.20781764049929
 30
0.0
 40
703.47183236234298
 50
243.40091681361881
 51
248.42438924231041
  0
ARC
  8
DETAIL
  6
CONTINUOUS
 62
     5
 10
153.31264192974959
 20
-171.01949564206649
 30
0.0
 40
108.1214215709827
 50
286.95258612343031
 51
2.5186345110468511
  0
ARC
  8
DETAIL
  6
CONTINUOUS
 62
     5
 10
145.8147673410422
 20
-170.17208155089551
 30
0.0
 40
111.333820306333
 50
290.51869173074999
 51
2.0094815821659342
  0
ARC
  8
DETAIL
  6
CONTINUOUS
 62
     5
 10
161.25092877221499
 20
-170.12221129159369
 30
0.0
 40
69.023408578368787
 50
286.27035077752731
 51
3.200869857072409
  0
ARC
  8
DETAIL
  6
CONTINUOUS
 62
     5
 10
243.73429196530921
 20
-6.2766739413104924
 30
0.0
 40
3.925367398809831
 50
287.70312861806968
 51
352.27421151195068
  0
ARC
  8
DETAIL
  6
CONTINUOUS
 62
     5
 10
257.19650745306348
 20
-8.7613788817661771
 30
0.0
 40
9.7704783813302853
 50
143.88538646956971
 51
168.4456030864508
  0
ARC
  8
DETAIL
  6
CONTINUOUS
 62
     5
 10
244.5155540864927
 20
-8.1431624491214052
 30
0.0
 40
6.3935755923845443
 50
301.95991154841732
 51
346.52899613684349
  0
ARC
  8
DETAIL
  6
CONTINUOUS
 62
     5
 10
255.78636746278241
 20
-9.7752588317399614
 30
0.0
 40
5.0551525301127214
 50
112.59848778498051
 51
178.3824920890365
  0
ARC
  8
DETAIL
  6
CONTINUOUS
 62
     5
 10
294.08563831569518
 20
-8.1611794570276288
 30
0.0
 40
6.3760761023435499
 50
273.77451533979382
 51
343.57798612946232
  0
ARC
  8
DETAIL
  6
CONTINUOUS
 62
     5
 10
305.57095920365828
 20
-9.9832076833920382
 30
0.0
 40
5.3693893257050949
 50
114.8527758432836
 51
179.79247736684081
  0
ARC
  8
DETAIL
  6
CONTINUOUS
 62
     5
 10
72.189686767356534
 20
-141.25880022804819
 30
0.0
 40
14.86927369791654
 50
332.71143702961149
 51
26.856932343182901
  0
ARC
  8
DETAIL
  6
CONTINUOUS
 62
     5
 10
10.70509593538009
 20
-121.3041520372575
 30
0.0
 40
12.565590123782769
 50
13.441134405359611
 51
48.150224872050977
  0
ARC
  8
DETAIL
  6
CONTINUOUS
 62
     5
 10
34.159494471914513
 20
-109.423283892364
 30
0.0
 40
14.368800938642909
 50
218.5777696963377
 51
248.6887206712602
  0
POINT
  8
ARRANGE
  6
CONTINUOUS
 62
     1
 10
0.0000000000015916
 20
0.0
 30
0.0
 50
359.99829045418988
  0
LINE
  8
DETAIL
  6
CONTINUOUS
 62
     5
 10
308.49757673667199
 20
0.0
 30
0.0
 11
-308.49757673667159
 21
0.0
 31
0.0
  0
ARC
  8
DETAIL
  6
CONTINUOUS
 62
     5
 10
134.09194295410791
 20
68.065814501814202
 30
0.0
 40
325.18889177453178
 50
265.17579100274583
 51
276.43209794939582
  0
ARC
  8
DETAIL
  6
CONTINUOUS
 62
     5
 10
127.61990196574671
 20
147.58393885329039
 30
0.0
 40
412.98312306573229
 50
267.31571634362467
 51
276.55029686146412
  0
ARC
  8
DETAIL
  6
CONTINUOUS
 62
     5
 10
165.2209721409688
 20
-187.80099733411041
 30
0.0
 40
67.483601959271326
 50
274.50490692057213
 51
352.2586728265436
  0
ARC
  8
DETAIL
  6
CONTINUOUS
 62
     5
 10
166.87753122153089
 20
-189.49069947459159
 30
0.0
 40
73.632596278687728
 50
276.12275351393811
 51
351.98950265906171
  0
ARC
  8
DETAIL
  6
CONTINUOUS
 62
     5
 10
-1148.642426980329
 20
-16.040504079444421
 30
0.0
 40
1390.8151458385689
 50
357.16271043032299
 51
359.90871696649032
  0
ARC
  8
DETAIL
  6
CONTINUOUS
 62
     5
 10
-1096.7281857811779
 20
-18.040833132371521
 30
0.0
 40
1347.078210568116
 50
357.155756298288
 51
359.97508792381609
  0
ARC
  8
DETAIL
  6
CONTINUOUS
 62
     5
 10
246.26713268231251
 20
-18.519763874654931
 30
0.0
 40
4.1050225021541156
 50
111.5796693267602
 51
64.223417601429631
  0
ARC
  8
DETAIL
  6
CONTINUOUS
 62
     5
 10
205.84857550490031
 20
-653.8037462508637
 30
0.0
 40
409.99094212962302
 50
103.9883151565102
 51
109.61420485646541
  0
ARC
  8
DETAIL
  6
CONTINUOUS
 62
     5
 10
131.61590246178429
 20
-404.69516949924491
 30
0.0
 40
141.6842784640684
 50
99.480468177037054
 51
112.46058968039129
  0
ARC
  8
DETAIL
  6
CONTINUOUS
 62
     5
 10
-2558.0313053575851
 20
68.779564462998223
 30
0.0
 40
2802.7406735598838
 50
354.56078988333729
 51
356.78532166893552
  0
ARC
  8
DETAIL
  6
CONTINUOUS
 62
     5
 10
-2027.513524911179
 20
34.035023740976612
 30
0.0
 40
2279.3264480000198
 50
354.11291305702878
 51
356.92103709985179
  0
CIRCLE
  8
DETAIL
  6
CONTINUOUS
 62
     5
 10
246.42050902991991
 20
-14.98044369249283
 30
0.0
 40
1.5019551727974541
  0
CIRCLE
  8
DETAIL
  6
CONTINUOUS
 62
     5
 10
246.38935299871599
 20
-12.0835735003061
 30
0.0
 40
1.5019551727974541
  0
ARC
  8
DETAIL
  6
CONTINUOUS
 62
     5
 10
66.472625010766194
 20
-269.55358396275119
 30
0.0
 40
12.82030680878562
 50
24.612746795032621
 51
32.507394424672569
  0
ARC
  8
DETAIL
  6
CONTINUOUS
 62
     5
 10
70.374385721814122
 20
-266.956097606551
 30
0.0
 40
8.1344940985961927
 50
31.847550150937
 51
50.182081729100908
  0
ARC
  8
DETAIL
  6
CONTINUOUS
 62
     5
 10
73.089479000453963
 20
-263.53845439266291
 30
0.0
 40
3.7722579614699452
 50
48.616388289870343
 51
93.060530116662193
  0
ARC
  8
DETAIL
  6
CONTINUOUS
 62
     5
 10
73.402579987247748
 20
-263.50858292277439
 30
0.0
 40
3.7722579614704501
 50
97.839113082108852
 51
142.28325490889509
  0
ARC
  8
DETAIL
  6
CONTINUOUS
 62
     5
 10
76.714932543725581
 20
-266.35117631451072
 30
0.0
 40
8.134494098596381
 50
140.71756146966689
 51
159.05209304783031
  0
ARC
  8
DETAIL
  6
CONTINUOUS
 62
     5
 10
82.282680296692035
 20
-268.5672462701109
 30
0.0
 40
14.12675452914711
 50
158.7315784245084
 51
171.41392200874881
  0
ARC
  8
DETAIL
  6
CONTINUOUS
 62
     5
 10
77.165535461593294
 20
-268.43956563606741
 30
0.0
 40
9.0703429533489057
 50
167.38226164752251
 51
181.6646526739512
  0
LINE
  8
DETAIL
  6
CONTINUOUS
 62
     5
 10
68.099020448611327
 20
-268.70305531463958
 30
0.0
 11
68.051879099610005
 21
-273.43031498397249
 31
0.0
  0
ARC
  8
DETAIL
  6
CONTINUOUS
 62
     5
 10
246.3949919224558
 20
-20.173273072058691
 30
0.0
 40
1.5066089650217871
 50
174.63137623898879
 51
5.3686237610111966
  0
ARC
  8
DETAIL
  6
CONTINUOUS
 62
     5
 10
-2.2603339061693082
 20
-300.60614166834682
 30
0.0
 40
175.9275986933711
 50
45.08103663055202
 51
60.1792622808318
  0
ARC
  8
DETAIL
  6
CONTINUOUS
 62
     5
 10
-41.314693795418343
 20
87.012404380669722
 30
0.0
 40
309.59870080944393
 50
301.82885619042122
 51
320.09802275361062
  0
ARC
  8
OUTLINE
  6
CONTINUOUS
 62
     3
 10
-153.3126419297509
 20
-171.01949564207791
 30
0.0
 40
108.1214215709827
 50
177.4813654889532
 51
253.04741387656881
  0
ARC
  8
OUTLINE
  6
CONTINUOUS
 62
     3
 10
-294.08563831569649
 20
-8.1611794570389975
 30
0.0
 40
6.3760761023435499
 50
196.4220138705376
 51
266.22548466020618
  0
ARC
  8
OUTLINE
  6
CONTINUOUS
 62
     3
 10
153.3126419297501
 20
-171.01949564207791
 30
0.0
 40
108.1214215709827
 50
286.95258612343122
 51
2.5186345110468511
  0
ARC
  8
OUTLINE
  6
CONTINUOUS
 62
     3
 10
294.08563831569569
 20
-8.1611794570389975
 30
0.0
 40
6.3760761023435499
 50
273.77451533979382
 51
343.57798612946232
  0
ENDSEC
  0
EOF
