  0
SECTION
  2
HEADER
  9
$ACADVER
  1
AC1009
  9
$DWGCODEPAGE
  3
dos932
  9
$INSBASE
 10
0.0
 20
0.0
 30
0.0
  9
$EXTMIN
 10
-446.84141389657998
 20
-438.99534961557401
 30
-0.0015258207003583
  9
$EXTMAX
 10
1071.3317987291739
 20
679.00086261681281
 30
0.0000000349246037
  9
$LIMMIN
 10
-2970.0
 20
-2100.0
  9
$LIMMAX
 10
2970.0
 20
2100.0
  9
$ORTHOMODE
 70
     1
  9
$REGENMODE
 70
     1
  9
$FILLMODE
 70
     1
  9
$QTEXTMODE
 70
     0
  9
$MIRRTEXT
 70
     0
  9
$LTSCALE
 40
20.0
  9
$ATTMODE
 70
     1
  9
$TEXTSIZE
 40
64.0
  9
$TRACEWID
 40
0.05
  9
$TEXTSTYLE
  7
STANDARD
  9
$CLAYER
  8
SIZE
  9
$CELTYPE
  6
CONTINUOUS
  9
$CECOLOR
 62
     7
  9
$DIMSCALE
 40
1.0
  9
$DIMASZ
 40
12.0
  9
$DIMEXO
 40
20.0
  9
$DIMDLI
 40
200.0
  9
$DIMRND
 40
0.0
  9
$DIMDLE
 40
0.0
  9
$DIMEXE
 40
20.0
  9
$DIMTP
 40
0.0
  9
$DIMTM
 40
0.0
  9
$DIMTXT
 40
64.0
  9
$DIMCEN
 40
0.09
  9
$DIMTSZ
 40
0.0
  9
$DIMTOL
 70
     0
  9
$DIMLIM
 70
     0
  9
$DIMTIH
 70
     0
  9
$DIMTOH
 70
     0
  9
$DIMSE1
 70
     0
  9
$DIMSE2
 70
     0
  9
$DIMTAD
 70
     1
  9
$DIMZIN
 70
     8
  9
$DIMBLK
  1

  9
$DIMASO
 70
     1
  9
$DIMSHO
 70
     0
  9
$DIMPOST
  1

  9
$DIMAPOST
  1

  9
$DIMALT
 70
     0
  9
$DIMALTD
 70
     2
  9
$DIMALTF
 40
25.399999999999999
  9
$DIMLFAC
 40
1.0
  9
$DIMTOFL
 70
     1
  9
$DIMTVP
 40
0.0
  9
$DIMTIX
 70
     1
  9
$DIMSOXD
 70
     0
  9
$DIMSAH
 70
     0
  9
$DIMBLK1
  1

  9
$DIMBLK2
  1

  9
$DIMSTYLE
  2
STANDARD
  9
$DIMCLRD
 70
     7
  9
$DIMCLRE
 70
     7
  9
$DIMCLRT
 70
     7
  9
$DIMTFAC
 40
1.0
  9
$DIMGAP
 40
25.0
  9
$LUNITS
 70
     2
  9
$LUPREC
 70
     4
  9
$SKETCHINC
 40
0.1
  9
$FILLETRAD
 40
3.0
  9
$AUNITS
 70
     1
  9
$AUPREC
 70
     3
  9
$MENU
  1
ACAD
  9
$ELEVATION
 40
0.0
  9
$PELEVATION
 40
0.0
  9
$THICKNESS
 40
0.0
  9
$LIMCHECK
 70
     0
  9
$CHAMFERA
 40
0.0
  9
$CHAMFERB
 40
0.0
  9
$SKPOLY
 70
     0
  9
$TDCREATE
 40
2453019.62301037
  9
$TDUPDATE
 40
2458949.45461294
  9
$TDINDWG
 40
1.7136155208
  9
$TDUSRTIMER
 40
1.7136155208
  9
$USRTIMER
 70
     1
  9
$ANGBASE
 50
0.0
  9
$ANGDIR
 70
     0
  9
$PDMODE
 70
     3
  9
$PDSIZE
 40
-2.0
  9
$PLINEWID
 40
0.0
  9
$SPLFRAME
 70
     0
  9
$SPLINETYPE
 70
     6
  9
$SPLINESEGS
 70
     8
  9
$SURFTAB1
 70
     6
  9
$SURFTAB2
 70
     6
  9
$SURFTYPE
 70
     6
  9
$SURFU
 70
     6
  9
$SURFV
 70
     6
  9
$UCSNAME
  2

  9
$UCSORG
 10
0.0
 20
0.0
 30
0.0
  9
$UCSXDIR
 10
1.0
 20
0.0
 30
0.0
  9
$UCSYDIR
 10
0.0
 20
1.0
 30
0.0
  9
$PUCSNAME
  2

  9
$PUCSORG
 10
0.0
 20
0.0
 30
0.0
  9
$PUCSXDIR
 10
1.0
 20
0.0
 30
0.0
  9
$PUCSYDIR
 10
0.0
 20
1.0
 30
0.0
  9
$USERI1
 70
     0
  9
$USERI2
 70
     0
  9
$USERI3
 70
     0
  9
$USERI4
 70
     0
  9
$USERI5
 70
     0
  9
$USERR1
 40
20.0
  9
$USERR2
 40
0.0
  9
$USERR3
 40
0.0
  9
$USERR4
 40
0.0
  9
$USERR5
 40
0.0
  9
$WORLDVIEW
 70
     1
  9
$SHADEDGE
 70
     3
  9
$SHADEDIF
 70
    70
  9
$TILEMODE
 70
     1
  9
$MAXACTVP
 70
    48
  9
$PINSBASE
 10
0.0
 20
0.0
 30
0.0
  9
$PLIMCHECK
 70
     0
  9
$PEXTMIN
 10
-100000000000000000000.0
 20
-100000000000000000000.0
 30
-100000000000000000000.0
  9
$PEXTMAX
 10
100000000000000000000.0
 20
100000000000000000000.0
 30
100000000000000000000.0
  9
$PLIMMIN
 10
0.0
 20
0.0
  9
$PLIMMAX
 10
12.0
 20
9.0
  9
$UNITMODE
 70
     0
  9
$VISRETAIN
 70
     0
  9
$PLINEGEN
 70
     0
  9
$PSLTSCALE
 70
     0
  9
$TREEDEPTH
 70
  3020
  9
$ATTDIA
 70
     0
  9
$ATTREQ
 70
     1
  9
$BLIPMODE
 70
     1
  9
$COORDS
 70
     1
  9
$DRAGMODE
 70
     2
  9
$OSMODE
 70
     0
  9
$HANDLING
 70
     0
  9
$HANDSEED
  5
1030D
  0
ENDSEC
  0
SECTION
  2
TABLES
  0
TABLE
  2
LTYPE
 70
     2
  0
LTYPE
  2
CONTINUOUS
 70
     0
  3
実線
 72
    65
 73
     0
 40
0.0
  0
LTYPE
  2
DASHDOT
 70
     0
  3
____ _ ____ _ ____ _ ____ _ ____ _ ____ _ ____
 72
    65
 73
     4
 40
5.5
 49
4.0
 49
-0.6
 49
0.3
 49
-0.6
  0
ENDTAB
  0
TABLE
  2
LAYER
 70
    12
  0
LAYER
  2
0
 70
     0
 62
     7
  6
CONTINUOUS
  0
LAYER
  2
BASIS
 70
     0
 62
     6
  6
DASHDOT
  0
LAYER
  2
OUTLINE
 70
     0
 62
     3
  6
CONTINUOUS
  0
LAYER
  2
DETAIL
 70
     0
 62
     5
  6
CONTINUOUS
  0
LAYER
  2
SIZE
 70
     0
 62
    30
  6
CONTINUOUS
  0
LAYER
  2
ARRANGE
 70
     0
 62
     1
  6
CONTINUOUS
  0
LAYER
  2
DEFPOINTS
 70
     0
 62
     7
  6
CONTINUOUS
  0
LAYER
  2
ETC
 70
     0
 62
    61
  6
CONTINUOUS
  0
LAYER
  2
FIX
 70
     0
 62
    11
  6
CONTINUOUS
  0
LAYER
  2
NOTE
 70
     0
 62
     4
  6
CONTINUOUS
  0
LAYER
  2
SERVICESPACE
 70
    64
 62
     2
  6
DASHDOT
  0
LAYER
  2
SYMBOLLINE
 70
    64
 62
    15
  6
CONTINUOUS
  0
ENDTAB
  0
TABLE
  2
STYLE
 70
     1
  0
STYLE
  2
STANDARD
 70
     0
 40
64.0
 41
0.9
 50
0.0
 71
     0
 42
64.0
  3
SIMPLEX.shx
  4
BIGFONT.shx
  0
ENDTAB
  0
TABLE
  2
APPID
 70
    19
  0
APPID
  2
ACAD
 70
     0
  0
APPID
  2
AUTOCAD_POSTSCRIPT_FIGURE
 70
     0
  0
APPID
  2
ACAD_EXEMPT_FROM_CAD_STANDARDS
 70
     0
  0
APPID
  2
ACAD_PSEXT
 70
     0
  0
APPID
  2
ACAUTHENVIRON
 70
     0
  0
APPID
  2
GENIUS_GENOENT_13
 70
     0
  0
APPID
  2
GENIUS_GENCFG_13
 70
     0
  0
APPID
  2
GENIUS_GENCFG0_13
 70
     0
  0
APPID
  2
GENIUS_GENCFG1_13
 70
     0
  0
APPID
  2
GENIUS_GENCFG2_13
 70
     0
  0
APPID
  2
GENIUS_GENCFG3_13
 70
     0
  0
APPID
  2
GENIUS_GENCFG4_13
 70
     0
  0
APPID
  2
GENIUS_GEVCFG0_13
 70
     0
  0
APPID
  2
CONTENTBLOCKICON
 70
     0
  0
APPID
  2
CONTENTBLOCKDESCRIPTION
 70
     0
  0
APPID
  2
ACAD_NAV_VCDISPLAY
 70
     0
  0
APPID
  2
ACAD_MLEADERVER
 70
     0
  0
APPID
  2
ACDBDYNAMICBLOCKTRUENAME
 70
     0
  0
APPID
  2
ACDBDYNAMICBLOCKGUID
 70
     0
  0
ENDTAB
  0
TABLE
  2
DIMSTYLE
 70
     1
  0
DIMSTYLE
  2
STANDARD
 70
     0
  3

  4

  5
_ORIGIN
  6

  7

 40
1.0
 41
12.0
 42
20.0
 43
200.0
 44
20.0
 45
0.0
 46
0.0
 47
0.0
 48
0.0
140
64.0
141
0.09
142
0.0
143
25.399999999999999
144
1.0
145
0.0
146
1.0
147
25.0
 71
     0
 72
     0
 73
     0
 74
     0
 75
     0
 76
     0
 77
     1
 78
     8
170
     0
171
     2
172
     1
173
     0
174
     1
175
     0
176
     7
177
     7
178
     7
  0
ENDTAB
  0
TABLE
  2
VIEW
 70
     1
  0
VIEW
  2
ALL
 70
     0
 40
4282.6198079999986
 10
0.0
 20
41.309904000000003
 41
5940.0
 11
0.0
 21
0.0
 31
1.0
 12
0.0
 22
0.0
 32
0.0
 42
50.0
 43
0.0
 44
0.0
 50
0.0
 71
     0
  0
ENDTAB
  0
TABLE
  2
UCS
 70
     0
  0
ENDTAB
  0
TABLE
  2
VPORT
 70
     1
  0
VPORT
  2
*ACTIVE
 70
     0
 10
0.0
 20
0.0
 11
1.0
 21
1.0
 12
312.24519241629707
 22
120.0027565006194
 13
0.0
 23
0.0
 14
1.0
 24
1.0
 15
0.0
 25
0.0
 16
0.0
 26
0.0
 36
1.0
 17
0.0
 27
0.0
 37
0.0
 40
1125.4083418162479
 41
1.747787610619469
 42
50.0
 43
0.0
 44
0.0
 50
0.0
 51
0.0
 71
     0
 72
  1000
 73
     1
 74
     3
 75
     0
 76
     0
 77
     0
 78
     0
  0
ENDTAB
  0
ENDSEC
  0
SECTION
  2
BLOCKS
  0
BLOCK
  8
0
  2
_ORIGIN
 70
     0
 10
0.0
 20
0.0
 30
0.0
  3
_ORIGIN
  1
_ORIGIN
  0
CIRCLE
  8
0
  6
CONTINUOUS
 62
     7
 10
0.0
 20
0.0
 30
0.0
 40
0.5
  0
LINE
  8
0
  6
CONTINUOUS
 62
     7
 10
0.0
 20
0.0
 30
0.0
 11
-1.0
 21
0.0
 31
0.0
  0
ENDBLK
  8
0
  0
ENDSEC
  0
SECTION
  2
ENTITIES
  0
POINT
  8
ARRANGE
  6
CONTINUOUS
 62
     1
 10
0.0
 20
0.0
 30
0.0
  0
CIRCLE
  8
ARRANGE
  6
CONTINUOUS
 62
     1
 10
0.0
 20
0.0
 30
0.0
 40
40.0
  0
TEXT
  8
ETC
  6
CONTINUOUS
 62
    61
 10
308.38039964551541
 20
587.96709437737286
 30
0.0
 40
64.0
  1
EWG-45DTA2-Q_4
 41
0.9
  0
TEXT
  8
ETC
  6
CONTINUOUS
 62
    61
 10
304.19440564551508
 20
470.01178436254168
 30
0.0
 40
64.0
  1
産業扇
 41
0.9
  0
TEXT
  8
ETC
  6
CONTINUOUS
 62
    61
 10
354.89580389407092
 20
361.86301147631639
 30
0.0
 40
40.0
  1
EWG-45DTA2-Q
 41
0.9
  0
TEXT
  8
NOTE
  6
CONTINUOUS
 62
     4
 10
111.20894172444881
 20
-424.37655265318767
 30
0.0
 40
64.0
  1
4-φ14
 41
0.9
  0
LINE
  8
SIZE
  6
CONTINUOUS
 62
    30
 10
-10.01615508885283
 20
323.38933764135709
 30
0.0
 11
-10.01615508885283
 21
394.6876981118553
 31
0.0
  0
LINE
  8
SIZE
  6
CONTINUOUS
 62
    30
 10
0.0
 20
328.49757673667199
 30
0.0
 11
0.0
 21
394.6876981118553
 31
0.0
  0
LINE
  8
SIZE
  6
CONTINUOUS
 62
    30
 10
-22.01615508885283
 20
374.6876981118553
 30
0.0
 11
-34.016155088852827
 21
374.6876981118553
 31
0.0
  0
LINE
  8
SIZE
  6
CONTINUOUS
 62
    30
 10
12.0
 20
374.6876981118553
 30
0.0
 11
156.28571428571431
 21
374.6876981118553
 31
0.0
  0
LINE
  8
SIZE
  6
CONTINUOUS
 62
    30
 10
-10.01615508885283
 20
374.6876981118553
 30
0.0
 11
0.0
 21
374.6876981118553
 31
0.0
  0
CIRCLE
  8
SIZE
  6
CONTINUOUS
 62
    30
 10
-10.01615508885283
 20
374.6876981118553
 30
0.0
 40
6.0
  0
LINE
  8
SIZE
  6
CONTINUOUS
 62
    30
 10
-10.01615508885283
 20
374.6876981118553
 30
0.0
 11
-22.01615508885283
 21
374.6876981118553
 31
0.0
  0
CIRCLE
  8
SIZE
  6
CONTINUOUS
 62
    30
 10
0.0
 20
374.6876981118553
 30
0.0
 40
6.0
  0
LINE
  8
SIZE
  6
CONTINUOUS
 62
    30
 10
0.0
 20
374.6876981118553
 30
0.0
 11
12.0
 21
374.6876981118553
 31
0.0
  0
TEXT
  8
SIZE
  6
CONTINUOUS
 62
    30
 10
49.0
 20
399.6876981118553
 30
0.0
 40
64.0
  1
10
 41
0.9
 72
     1
 11
90.142857142857139
 21
399.6876981118553
 31
0.0
  0
POINT
  8
DEFPOINTS
  6
CONTINUOUS
 62
    30
 10
-10.01615508885283
 20
303.38933764135709
 30
0.0
  0
POINT
  8
DEFPOINTS
  6
CONTINUOUS
 62
    30
 10
0.0
 20
308.49757673667199
 30
0.0
  0
POINT
  8
DEFPOINTS
  6
CONTINUOUS
 62
    30
 10
0.0
 20
374.6876981118553
 30
0.0
  0
LINE
  8
SIZE
  6
CONTINUOUS
 62
    30
 10
-20.032310177705771
 20
313.37318255250398
 30
0.0
 11
-20.032310177705771
 21
394.6876981118553
 31
0.0
  0
LINE
  8
SIZE
  6
CONTINUOUS
 62
    30
 10
-10.01615508885283
 20
323.38933764135709
 30
0.0
 11
-10.01615508885283
 21
394.6876981118553
 31
0.0
  0
LINE
  8
SIZE
  6
CONTINUOUS
 62
    30
 10
1.983844911147173
 20
374.6876981118553
 30
0.0
 11
13.98384491114717
 21
374.6876981118553
 31
0.0
  0
LINE
  8
SIZE
  6
CONTINUOUS
 62
    30
 10
-32.032310177705767
 20
374.6876981118553
 30
0.0
 11
-295.72794123272757
 21
374.6876981118553
 31
0.0
  0
LINE
  8
SIZE
  6
CONTINUOUS
 62
    30
 10
-10.01615508885283
 20
374.6876981118553
 30
0.0
 11
-20.032310177705771
 21
374.6876981118553
 31
0.0
  0
CIRCLE
  8
SIZE
  6
CONTINUOUS
 62
    30
 10
-10.01615508885283
 20
374.6876981118553
 30
0.0
 40
6.0
  0
LINE
  8
SIZE
  6
CONTINUOUS
 62
    30
 10
-10.01615508885283
 20
374.6876981118553
 30
0.0
 11
1.983844911147173
 21
374.6876981118553
 31
0.0
  0
CIRCLE
  8
SIZE
  6
CONTINUOUS
 62
    30
 10
-20.032310177705771
 20
374.6876981118553
 30
0.0
 40
6.0
  0
LINE
  8
SIZE
  6
CONTINUOUS
 62
    30
 10
-20.032310177705771
 20
374.6876981118553
 30
0.0
 11
-32.032310177705767
 21
374.6876981118553
 31
0.0
  0
TEXT
  8
SIZE
  6
CONTINUOUS
 62
    30
 10
-270.72794123272752
 20
399.6876981118553
 30
0.0
 40
64.0
  1
10
 41
0.9
 72
     1
 11
-229.58508408987041
 21
399.6876981118553
 31
0.0
  0
POINT
  8
DEFPOINTS
  6
CONTINUOUS
 62
    30
 10
-20.032310177705771
 20
293.37318255250398
 30
0.0
  0
POINT
  8
DEFPOINTS
  6
CONTINUOUS
 62
    30
 10
-10.01615508885283
 20
303.38933764135709
 30
0.0
  0
POINT
  8
DEFPOINTS
  6
CONTINUOUS
 62
    30
 10
-10.01615508885283
 20
374.6876981118553
 30
0.0
  0
LINE
  8
SIZE
  6
CONTINUOUS
 62
    30
 10
18.499999999999769
 20
309.99999804575418
 30
0.0
 11
352.13545641544181
 21
309.99999804575401
 31
0.0
  0
LINE
  8
SIZE
  6
CONTINUOUS
 62
    30
 10
18.497576736672041
 20
-310.0
 30
0.0
 11
352.13545641544158
 21
-310.00000000000011
 31
0.0
  0
LINE
  8
SIZE
  6
CONTINUOUS
 62
    30
 10
332.13545641544181
 20
297.99999804575401
 30
0.0
 11
332.13545641544169
 21
-298.00000000000011
 31
0.0
  0
CIRCLE
  8
SIZE
  6
CONTINUOUS
 62
    30
 10
332.13545641544181
 20
309.99999804575401
 30
0.0
 40
6.0
  0
LINE
  8
SIZE
  6
CONTINUOUS
 62
    30
 10
332.13545641544181
 20
309.99999804575401
 30
0.0
 11
332.13545641544181
 21
297.99999804575401
 31
0.0
  0
CIRCLE
  8
SIZE
  6
CONTINUOUS
 62
    30
 10
332.13545641544169
 20
-310.00000000000011
 30
0.0
 40
6.0
  0
LINE
  8
SIZE
  6
CONTINUOUS
 62
    30
 10
332.13545641544169
 20
-310.00000000000011
 30
0.0
 11
332.13545641544169
 21
-298.00000000000011
 31
0.0
  0
TEXT
  8
SIZE
  6
CONTINUOUS
 62
    30
 10
307.13545641544181
 20
-80.859766315696021
 30
0.0
 40
64.0
  1
620
 50
90.0
 41
0.9
 72
     1
 11
307.13545641544181
 21
-6.8026234585531711
 31
0.0
  0
POINT
  8
DEFPOINTS
  6
CONTINUOUS
 62
    30
 10
-1.5000000000002269
 20
309.99999804575418
 30
0.0
  0
POINT
  8
DEFPOINTS
  6
CONTINUOUS
 62
    30
 10
-1.5024232633279551
 20
-310.0
 30
0.0
  0
POINT
  8
DEFPOINTS
  6
CONTINUOUS
 62
    30
 10
332.13545641544169
 20
-310.00000000000011
 30
0.0
  0
LINE
  8
SIZE
  6
CONTINUOUS
 62
    30
 10
35.030481073345072
 20
280.4523424878837
 30
0.0
 11
224.80384637328521
 21
280.45234248788358
 31
0.0
  0
LINE
  8
SIZE
  6
CONTINUOUS
 62
    30
 10
35.030481073345072
 20
-280.4523424878837
 30
0.0
 11
224.8038463732851
 21
-280.45234248788381
 31
0.0
  0
LINE
  8
SIZE
  6
CONTINUOUS
 62
    30
 10
204.80384637328521
 20
268.45234248788358
 30
0.0
 11
204.8038463732851
 21
-268.45234248788381
 31
0.0
  0
CIRCLE
  8
SIZE
  6
CONTINUOUS
 62
    30
 10
204.80384637328521
 20
280.45234248788358
 30
0.0
 40
6.0
  0
LINE
  8
SIZE
  6
CONTINUOUS
 62
    30
 10
204.80384637328521
 20
280.45234248788358
 30
0.0
 11
204.80384637328521
 21
268.45234248788358
 31
0.0
  0
CIRCLE
  8
SIZE
  6
CONTINUOUS
 62
    30
 10
204.8038463732851
 20
-280.45234248788381
 30
0.0
 40
6.0
  0
LINE
  8
SIZE
  6
CONTINUOUS
 62
    30
 10
204.8038463732851
 20
-280.45234248788381
 30
0.0
 11
204.8038463732851
 21
-268.45234248788381
 31
0.0
  0
TEXT
  8
SIZE
  6
CONTINUOUS
 62
    30
 10
179.8038463732851
 20
-74.05714285714285
 30
0.0
 40
64.0
  1
560
 50
90.0
 41
0.9
 72
     1
 11
179.8038463732851
 21
0.0
 31
0.0
  0
POINT
  8
DEFPOINTS
  6
CONTINUOUS
 62
    30
 10
15.03048107334507
 20
280.4523424878837
 30
0.0
  0
POINT
  8
DEFPOINTS
  6
CONTINUOUS
 62
    30
 10
15.03048107334507
 20
-280.4523424878837
 30
0.0
  0
POINT
  8
DEFPOINTS
  6
CONTINUOUS
 62
    30
 10
204.8038463732851
 20
-280.45234248788381
 30
0.0
  0
CIRCLE
  8
FIX
  6
CONTINUOUS
 62
    11
 10
0.0
 20
-280.4523424878837
 30
0.0
 40
7.0
  0
CIRCLE
  8
FIX
  6
CONTINUOUS
 62
    11
 10
0.0
 20
280.4523424878837
 30
0.0
 40
7.0
  0
LINE
  8
SIZE
  6
CONTINUOUS
 62
    30
 10
0.0
 20
328.49757673667199
 30
0.0
 11
0.0
 21
529.59874507452014
 31
0.0
  0
LINE
  8
SIZE
  6
CONTINUOUS
 62
    30
 10
-135.21809369951191
 20
250.16665507610449
 30
0.0
 11
-135.21809369951191
 21
529.59874507452014
 31
0.0
  0
LINE
  8
SIZE
  6
CONTINUOUS
 62
    30
 10
-123.2180936995119
 20
509.59874507452002
 30
0.0
 11
-12.0
 21
509.59874507452002
 31
0.0
  0
LINE
  8
SIZE
  6
CONTINUOUS
 62
    30
 10
0.0
 20
509.59874507452002
 30
0.0
 11
199.14285714285711
 21
509.59874507452002
 31
0.0
  0
CIRCLE
  8
SIZE
  6
CONTINUOUS
 62
    30
 10
-135.21809369951191
 20
509.59874507452002
 30
0.0
 40
6.0
  0
LINE
  8
SIZE
  6
CONTINUOUS
 62
    30
 10
-135.21809369951191
 20
509.59874507452002
 30
0.0
 11
-123.2180936995119
 21
509.59874507452002
 31
0.0
  0
CIRCLE
  8
SIZE
  6
CONTINUOUS
 62
    30
 10
0.0
 20
509.59874507452002
 30
0.0
 40
6.0
  0
LINE
  8
SIZE
  6
CONTINUOUS
 62
    30
 10
0.0
 20
509.59874507452002
 30
0.0
 11
-12.0
 21
509.59874507452002
 31
0.0
  0
TEXT
  8
SIZE
  6
CONTINUOUS
 62
    30
 10
37.000000000000007
 20
534.59874507452014
 30
0.0
 40
64.0
  1
135
 41
0.9
 72
     1
 11
105.5714285714286
 21
534.59874507452014
 31
0.0
  0
POINT
  8
DEFPOINTS
  6
CONTINUOUS
 62
    30
 10
0.0
 20
308.49757673667199
 30
0.0
  0
POINT
  8
DEFPOINTS
  6
CONTINUOUS
 62
    30
 10
-135.21809369951191
 20
230.16665507610449
 30
0.0
  0
POINT
  8
DEFPOINTS
  6
CONTINUOUS
 62
    30
 10
-135.21809369951191
 20
509.59874507452002
 30
0.0
  0
LINE
  8
SIZE
  6
CONTINUOUS
 62
    30
 10
0.0
 20
328.49757673667199
 30
0.0
 11
0.0
 21
609.77985092565723
 31
0.0
  0
LINE
  8
SIZE
  6
CONTINUOUS
 62
    30
 10
-315.1089889540346
 20
-28.55871865409603
 30
0.0
 11
-315.10898895403449
 21
609.77985092565723
 31
0.0
  0
LINE
  8
SIZE
  6
CONTINUOUS
 62
    30
 10
-12.0
 20
589.77985092565723
 30
0.0
 11
-303.10898895403449
 21
589.77985092565723
 31
0.0
  0
CIRCLE
  8
SIZE
  6
CONTINUOUS
 62
    30
 10
0.0
 20
589.77985092565723
 30
0.0
 40
6.0
  0
LINE
  8
SIZE
  6
CONTINUOUS
 62
    30
 10
0.0
 20
589.77985092565723
 30
0.0
 11
-12.0
 21
589.77985092565723
 31
0.0
  0
CIRCLE
  8
SIZE
  6
CONTINUOUS
 62
    30
 10
-315.10898895403449
 20
589.77985092565723
 30
0.0
 40
6.0
  0
LINE
  8
SIZE
  6
CONTINUOUS
 62
    30
 10
-315.10898895403449
 20
589.77985092565723
 30
0.0
 11
-303.10898895403449
 21
589.77985092565723
 31
0.0
  0
TEXT
  8
SIZE
  6
CONTINUOUS
 62
    30
 10
-226.12592304844591
 20
614.77985092565723
 30
0.0
 40
64.0
  1
315
 41
0.9
 72
     1
 11
-157.5544944770173
 21
614.77985092565723
 31
0.0
  0
POINT
  8
DEFPOINTS
  6
CONTINUOUS
 62
    30
 10
0.0
 20
308.49757673667199
 30
0.0
  0
POINT
  8
DEFPOINTS
  6
CONTINUOUS
 62
    30
 10
-315.1089889540346
 20
-48.558718654096033
 30
0.0
  0
POINT
  8
DEFPOINTS
  6
CONTINUOUS
 62
    30
 10
-315.10898895403449
 20
589.77985092565723
 30
0.0
  0
TEXT
  8
NOTE
  6
CONTINUOUS
 62
     4
 10
-356.65133123951978
 20
-393.39475877791119
 30
0.0
 40
64.0
  1
EL
 41
0.9
 72
     2
 11
-271.62275981094842
 21
-393.39475877791119
 31
0.0
  0
LINE
  8
SIZE
  6
CONTINUOUS
 62
    30
 10
-325.19224555735059
 20
65.305331179321456
 30
0.0
 11
-366.97315554879691
 21
65.305331179321456
 31
0.0
  0
LINE
  8
SIZE
  6
CONTINUOUS
 62
    30
 10
-325.19224555735059
 20
-65.30533117932157
 30
0.0
 11
-366.97315554879691
 21
-65.30533117932157
 31
0.0
  0
LINE
  8
SIZE
  6
CONTINUOUS
 62
    30
 10
-346.97315554879708
 20
53.305331179321463
 30
0.0
 11
-346.97315554879708
 21
-53.305331179321563
 31
0.0
  0
CIRCLE
  8
SIZE
  6
CONTINUOUS
 62
    30
 10
-346.97315554879708
 20
65.305331179321456
 30
0.0
 40
6.0
  0
LINE
  8
SIZE
  6
CONTINUOUS
 62
    30
 10
-346.97315554879708
 20
65.305331179321456
 30
0.0
 11
-346.97315554879708
 21
53.305331179321463
 31
0.0
  0
CIRCLE
  8
SIZE
  6
CONTINUOUS
 62
    30
 10
-346.97315554879708
 20
-65.30533117932157
 30
0.0
 40
6.0
  0
LINE
  8
SIZE
  6
CONTINUOUS
 62
    30
 10
-346.97315554879708
 20
-65.30533117932157
 30
0.0
 11
-346.97315554879708
 21
-53.305331179321563
 31
0.0
  0
TEXT
  8
SIZE
  6
CONTINUOUS
 62
    30
 10
-382.63982221546371
 20
-96.548571428571478
 30
0.0
 40
64.0
  1
φ131
 50
90.0
 41
0.9
 72
     1
 11
-382.63982221546371
 21
-0.0000000000000568
 31
0.0
  0
POINT
  8
DEFPOINTS
  6
CONTINUOUS
 62
    30
 10
-305.19224555735059
 20
65.305331179321456
 30
0.0
  0
POINT
  8
DEFPOINTS
  6
CONTINUOUS
 62
    30
 10
-305.19224555735059
 20
-65.30533117932157
 30
0.0
  0
POINT
  8
DEFPOINTS
  6
CONTINUOUS
 62
    30
 10
-346.97315554879708
 20
-65.30533117932157
 30
0.0
  0
LINE
  8
DETAIL
  6
CONTINUOUS
 62
     4
 10
-112.96436070379529
 20
-265.22683984454079
 30
0.0
 11
-107.91229474904399
 21
-261.6127937907608
 31
0.0
  0
LINE
  8
DETAIL
  6
CONTINUOUS
 62
     4
 10
-107.91229474904399
 20
-261.6127937907608
 30
0.0
 11
-110.48048065745419
 21
-267.26868633127492
 31
0.0
  0
LINE
  8
DETAIL
  6
CONTINUOUS
 62
     4
 10
-107.91229474904399
 20
-261.6127937907608
 30
0.0
 11
-115.53254661220549
 21
-270.88273238505491
 31
0.0
  0
LINE
  8
NOTE
  6
CONTINUOUS
 62
     4
 10
-115.53254661220549
 20
-270.88273238505491
 30
0.0
 11
-237.27354534018281
 21
-418.97909493076509
 31
0.0
  0
LINE
  8
NOTE
  6
CONTINUOUS
 62
     4
 10
-237.27354534018281
 20
-418.97909493076509
 30
0.0
 11
-372.44103675184789
 21
-419.08367665520763
 31
0.0
  0
LINE
  8
DETAIL
  6
CONTINUOUS
 62
     4
 10
1.9466328506205171
 20
-286.35109827490191
 30
0.0
 11
-0.0000000000002274
 21
-280.45234248788341
 31
0.0
  0
LINE
  8
DETAIL
  6
CONTINUOUS
 62
     4
 10
-0.0000000000002274
 20
-280.45234248788341
 30
0.0
 11
4.6352176254299593
 21
-284.58749143984397
 31
0.0
  0
LINE
  8
DETAIL
  6
CONTINUOUS
 62
     4
 10
-0.0000000000002274
 20
-280.45234248788341
 30
0.0
 11
6.5818504760507608
 21
-290.48624722686247
 31
0.0
  0
LINE
  8
NOTE
  6
CONTINUOUS
 62
     4
 10
6.5818504760507608
 20
-290.48624722686247
 30
0.0
 11
103.877734768713
 21
-438.81195563357352
 31
0.0
  0
LINE
  8
NOTE
  6
CONTINUOUS
 62
     4
 10
103.877734768713
 20
-438.81195563357352
 30
0.0
 11
394.01203122688622
 21
-438.38012172871282
 31
0.0
  0
LINE
  8
NOTE
  6
CONTINUOUS
 62
     4
 10
18.546847567183701
 20
-280.45234248788358
 30
0.0
 11
-24.853765971884059
 21
-280.45234248788358
 31
0.0
  0
LINE
  8
NOTE
  6
CONTINUOUS
 62
     4
 10
18.546847567183701
 20
280.4523424878837
 30
0.0
 11
-24.853765971884059
 21
280.4523424878837
 31
0.0
  0
LINE
  8
OUTLINE
  6
CONTINUOUS
 62
     3
 10
-20.032310177706218
 20
-293.37318255250398
 30
0.0
 11
-20.032310177706218
 21
-261.32961628886301
 31
0.0
  0
ARC
  8
OUTLINE
  6
CONTINUOUS
 62
     3
 10
-16.42649434571922
 20
-293.37318255250398
 30
0.0
 40
3.6058158319874569
 50
180.0
 51
270.0
  0
LINE
  8
OUTLINE
  6
CONTINUOUS
 62
     3
 10
-13.89004062621734
 20
-296.97899838449092
 30
0.0
 11
-16.42649434571922
 21
-296.97899838449092
 31
0.0
  0
LINE
  8
OUTLINE
  6
CONTINUOUS
 62
     3
 10
-10.01615508885379
 20
-303.38933764135692
 30
0.0
 11
-10.016155088858341
 21
-300.07806681034572
 31
0.0
  0
ARC
  8
OUTLINE
  6
CONTINUOUS
 62
     3
 10
-6.4103392568658819
 20
-303.38933764135692
 30
0.0
 40
3.6058158319874569
 50
180.0
 51
270.0
  0
LINE
  8
OUTLINE
  6
CONTINUOUS
 62
     3
 10
-3.00484652665773
 20
-306.99515347334409
 30
0.0
 11
-6.4103392568658819
 21
-306.99515347334409
 31
0.0
  0
LINE
  8
OUTLINE
  6
CONTINUOUS
 62
     3
 10
-20.032310177706218
 20
-261.32961628886301
 30
0.0
 11
-178.2875605815839
 21
-261.32961628886301
 31
0.0
  0
LINE
  8
OUTLINE
  6
CONTINUOUS
 62
     3
 10
-286.46203554119711
 20
-94.652665589660742
 30
0.0
 11
-286.46203554119711
 21
-180.5892167830084
 31
0.0
  0
LINE
  8
OUTLINE
  6
CONTINUOUS
 62
     3
 10
-290.46849757673772
 20
65.305331179321684
 30
0.0
 11
-290.46849757673772
 21
94.652665589660728
 31
0.0
  0
LINE
  8
OUTLINE
  6
CONTINUOUS
 62
     3
 10
-290.46849757673772
 20
-94.652665589660742
 30
0.0
 11
-286.46203554119711
 21
-94.652665589660742
 31
0.0
  0
LINE
  8
OUTLINE
  6
CONTINUOUS
 62
     3
 10
-290.46849757673772
 20
-94.652650945110281
 30
0.0
 11
-290.46849757673772
 21
-65.305331179321456
 31
0.0
  0
LINE
  8
OUTLINE
  6
CONTINUOUS
 62
     3
 10
-305.19224555735042
 20
-65.305331179321456
 30
0.0
 11
-290.46849757673772
 21
-65.305331179321456
 31
0.0
  0
ARC
  8
OUTLINE
  6
CONTINUOUS
 62
     3
 10
-305.19224555735042
 20
-57.893376413570167
 30
0.0
 40
7.4119547657519389
 50
180.0
 51
270.0
  0
LINE
  8
OUTLINE
  6
CONTINUOUS
 62
     3
 10
-312.60420032310321
 20
-57.893376413570167
 30
0.0
 11
-312.60420032310321
 21
57.893376413570422
 31
0.0
  0
ARC
  8
OUTLINE
  6
CONTINUOUS
 62
     3
 10
-305.19224555735042
 20
57.893376413570422
 30
0.0
 40
7.4119547657512017
 50
90.0
 51
180.0
  0
LINE
  8
OUTLINE
  6
CONTINUOUS
 62
     3
 10
-305.19224555735042
 20
65.305331179321684
 30
0.0
 11
-290.46849757673772
 21
65.305331179321684
 31
0.0
  0
LINE
  8
OUTLINE
  6
CONTINUOUS
 62
     3
 10
-286.46203554119711
 20
94.652665589660728
 30
0.0
 11
-290.46849757673772
 21
94.652665589660728
 31
0.0
  0
LINE
  8
OUTLINE
  6
CONTINUOUS
 62
     3
 10
-16.42649434571922
 20
296.97899838449121
 30
0.0
 11
-13.89004062621734
 21
296.97899838449121
 31
0.0
  0
ARC
  8
OUTLINE
  6
CONTINUOUS
 62
     3
 10
-16.42649434571922
 20
293.3731825525042
 30
0.0
 40
3.605815831987059
 50
90.0
 51
180.0
  0
LINE
  8
OUTLINE
  6
CONTINUOUS
 62
     3
 10
-20.032310177706218
 20
261.32961628963949
 30
0.0
 11
-20.032310177706218
 21
293.3731825525042
 31
0.0
  0
LINE
  8
OUTLINE
  6
CONTINUOUS
 62
     3
 10
-178.2875605815839
 20
261.32961628963949
 30
0.0
 11
-20.032310177706218
 21
261.32961628963949
 31
0.0
  0
LINE
  8
OUTLINE
  6
CONTINUOUS
 62
     3
 10
-286.46203554119711
 20
180.5892167830084
 30
0.0
 11
-286.46203554119711
 21
94.652665589660728
 31
0.0
  0
LINE
  8
OUTLINE
  6
CONTINUOUS
 62
     3
 10
-3.00484652665773
 20
306.99515347334409
 30
0.0
 11
-3.00484652665773
 21
308.49757673667199
 31
0.0
  0
LINE
  8
OUTLINE
  6
CONTINUOUS
 62
     3
 10
-10.01615508885379
 20
303.38933764135709
 30
0.0
 11
-10.016155088858341
 21
300.29204387052908
 31
0.0
  0
ARC
  8
OUTLINE
  6
CONTINUOUS
 62
     3
 10
-6.4103392568658819
 20
303.38933764135709
 30
0.0
 40
3.605815831987115
 50
90.0
 51
180.0
  0
LINE
  8
OUTLINE
  6
CONTINUOUS
 62
     3
 10
-6.4103392568658819
 20
306.99515347334409
 30
0.0
 11
-3.00484652665773
 21
306.99515347334409
 31
0.0
  0
ARC
  8
OUTLINE
  6
CONTINUOUS
 62
     3
 10
-1.5024232633295469
 20
-308.49757673667199
 30
0.0
 40
1.5024232633277279
 50
180.0
 51
0.0
  0
LINE
  8
OUTLINE
  6
CONTINUOUS
 62
     3
 10
0.0
 20
-308.49757673667199
 30
0.0
 11
0.0
 21
308.49757673667199
 31
0.0
  0
ARC
  8
OUTLINE
  6
CONTINUOUS
 62
     3
 10
-1.5024232633295469
 20
308.49757673667199
 30
0.0
 40
1.502423263328637
 50
0.0
 51
180.0
  0
LINE
  8
OUTLINE
  6
CONTINUOUS
 62
     3
 10
-3.00484652665773
 20
-308.49757673667199
 30
0.0
 11
-3.00484652665773
 21
-306.99515347334409
 31
0.0
  0
LINE
  8
DETAIL
  6
CONTINUOUS
 62
     5
 10
-3.004846526655911
 20
-306.99515347334432
 30
0.0
 11
-6.4103392568636082
 21
-306.99515347334432
 31
0.0
  0
LINE
  8
DETAIL
  6
CONTINUOUS
 62
     5
 10
-5.1082390953132517
 20
-303.82456339745272
 30
0.0
 11
-3.004846526655911
 21
-303.82456339745272
 31
0.0
  0
LINE
  8
DETAIL
  6
CONTINUOUS
 62
     5
 10
-13.89004062621507
 20
-296.97899838449092
 30
0.0
 11
-16.426494345716382
 21
-296.97899838449092
 31
0.0
  0
LINE
  8
DETAIL
  6
CONTINUOUS
 62
     5
 10
-20.032310177702019
 20
-291.97092084006482
 30
0.0
 11
-20.53311793214516
 21
-291.97092084006482
 31
0.0
  0
LINE
  8
DETAIL
  6
CONTINUOUS
 62
     5
 10
-14.523424878837091
 20
-267.11244612600967
 30
0.0
 11
-18.082583470386449
 21
-267.11244612600967
 31
0.0
  0
LINE
  8
DETAIL
  6
CONTINUOUS
 62
     5
 10
-14.523424878837091
 20
-264.2210312070481
 30
0.0
 11
-18.082583470386449
 21
-264.2210312070481
 31
0.0
  0
LINE
  8
DETAIL
  6
CONTINUOUS
 62
     5
 10
-20.032310177702019
 20
-261.92245557350589
 30
0.0
 11
-20.53311793214516
 21
-261.92245557350589
 31
0.0
  0
LINE
  8
DETAIL
  6
CONTINUOUS
 62
     5
 10
-14.523424878837091
 20
-261.32961628886318
 30
0.0
 11
-178.28756058158299
 21
-261.32961628886318
 31
0.0
  0
LINE
  8
DETAIL
  6
CONTINUOUS
 62
     5
 10
-178.28756058158299
 20
-257.08012157831467
 30
0.0
 11
-14.523424878837091
 21
-257.08012157831467
 31
0.0
  0
LINE
  8
DETAIL
  6
CONTINUOUS
 62
     5
 10
-5.1082390953132517
 20
-254.24712510435691
 30
0.0
 11
-3.004846526655911
 21
-254.24712510435691
 31
0.0
  0
LINE
  8
DETAIL
  6
CONTINUOUS
 62
     5
 10
-6.4103392568636082
 20
-242.91513920852589
 30
0.0
 11
-3.004846526655911
 21
-242.91513920852589
 31
0.0
  0
LINE
  8
DETAIL
  6
CONTINUOUS
 62
     5
 10
-14.523424878837091
 20
-230.16665507610449
 30
0.0
 11
-178.28756058158299
 21
-230.16665507610449
 31
0.0
  0
LINE
  8
DETAIL
  6
CONTINUOUS
 62
     5
 10
-14.523424878837091
 20
-213.16867623235791
 30
0.0
 11
-10.016155088849249
 21
-213.16867623235791
 31
0.0
  0
LINE
  8
DETAIL
  6
CONTINUOUS
 62
     5
 10
-16.426494345716382
 20
-201.12844121861991
 30
0.0
 11
-13.021001615508681
 21
-201.12844121861991
 31
0.0
  0
LINE
  8
DETAIL
  6
CONTINUOUS
 62
     5
 10
-286.46203554119518
 20
-95.153473344103503
 30
0.0
 11
-289.46688206784762
 21
-95.153473344103503
 31
0.0
  0
LINE
  8
DETAIL
  6
CONTINUOUS
 62
     5
 10
-290.46849757673323
 20
-94.652665589660742
 30
0.0
 11
-286.46203554119518
 21
-94.652665589660742
 31
0.0
  0
LINE
  8
DETAIL
  6
CONTINUOUS
 62
     5
 10
-243.39256865912739
 20
-66.106623586429819
 30
0.0
 11
-209.80249273281109
 21
-66.106623586429819
 31
0.0
  0
LINE
  8
DETAIL
  6
CONTINUOUS
 62
     5
 10
-305.19224555735133
 20
-65.305331179321456
 30
0.0
 11
-290.46849757673323
 21
-65.305331179321456
 31
0.0
  0
LINE
  8
DETAIL
  6
CONTINUOUS
 62
     5
 10
-208.4146135723017
 20
-65.305331179321456
 30
0.0
 11
-179.8901453957983
 21
-65.305331179321456
 31
0.0
  0
LINE
  8
DETAIL
  6
CONTINUOUS
 62
     5
 10
-167.2697899838449
 20
-26.049655248174759
 30
0.0
 11
-157.792666317564
 21
-25.220514364478959
 31
0.0
  0
LINE
  8
DETAIL
  6
CONTINUOUS
 62
     5
 10
-245.39579967689801
 20
-62.052860909919673
 30
0.0
 11
-239.4667933471851
 21
-62.052860909919673
 31
0.0
  0
LINE
  8
DETAIL
  6
CONTINUOUS
 62
     5
 10
-245.39579967689801
 20
-58.294021516123848
 30
0.0
 11
-239.4667933471851
 21
-58.294021516123848
 31
0.0
  0
LINE
  8
DETAIL
  6
CONTINUOUS
 62
     5
 10
-235.6801292407099
 20
-57.790432526205002
 30
0.0
 11
-238.8852988691439
 21
-57.790432526205002
 31
0.0
  0
LINE
  8
DETAIL
  6
CONTINUOUS
 62
     5
 10
-313.10500807754312
 20
-53.285945072697807
 30
0.0
 11
-312.60420032310049
 21
-53.285945072697807
 31
0.0
  0
LINE
  8
DETAIL
  6
CONTINUOUS
 62
     5
 10
-235.6801292407099
 20
-51.279931718450612
 30
0.0
 11
-238.8852988691439
 21
-51.279931718450612
 31
0.0
  0
LINE
  8
DETAIL
  6
CONTINUOUS
 62
     5
 10
-245.39579967689801
 20
-50.776342728531972
 30
0.0
 11
-239.4667933471851
 21
-50.776342728531972
 31
0.0
  0
LINE
  8
DETAIL
  6
CONTINUOUS
 62
     5
 10
-245.39579967689801
 20
-47.01750333473592
 30
0.0
 11
-239.4667933471851
 21
-47.01750333473592
 31
0.0
  0
LINE
  8
DETAIL
  6
CONTINUOUS
 62
     5
 10
-313.10500807754312
 20
-43.870759289176263
 30
0.0
 11
-312.60420032310049
 21
-43.870759289176263
 31
0.0
  0
LINE
  8
DETAIL
  6
CONTINUOUS
 62
     5
 10
-313.10500807754312
 20
-43.870759289176263
 30
0.0
 11
-313.10500807754312
 21
-53.285945072697807
 31
0.0
  0
LINE
  8
DETAIL
  6
CONTINUOUS
 62
     5
 10
-312.60420032310049
 20
-57.893376413570167
 30
0.0
 11
-312.60420032310049
 21
57.893376413570422
 31
0.0
  0
LINE
  8
DETAIL
  6
CONTINUOUS
 62
     5
 10
-290.46849757673323
 20
-94.652650945110281
 30
0.0
 11
-290.46849757673323
 21
94.652665589660728
 31
0.0
  0
LINE
  8
DETAIL
  6
CONTINUOUS
 62
     5
 10
-289.46688206784762
 20
-95.153473344103503
 30
0.0
 11
-289.46688206784762
 21
-94.652665589660742
 31
0.0
  0
LINE
  8
DETAIL
  6
CONTINUOUS
 62
     5
 10
-286.46203554119518
 20
180.5892167830084
 30
0.0
 11
-286.46203554119518
 21
-180.5892167830082
 31
0.0
  0
LINE
  8
DETAIL
  6
CONTINUOUS
 62
     5
 10
-239.4667933471851
 20
47.01750333473592
 30
0.0
 11
-238.8852988691439
 21
48.024681315349653
 31
0.0
  0
LINE
  8
DETAIL
  6
CONTINUOUS
 62
     5
 10
-138.3231017770581
 20
-14.02261712439417
 30
0.0
 11
-135.81906300484519
 21
-14.02261712439417
 31
0.0
  0
LINE
  8
DETAIL
  6
CONTINUOUS
 62
     5
 10
-140.32633279482889
 20
-13.867168483725891
 30
0.0
 11
-138.3231017770581
 21
-13.867168483725891
 31
0.0
  0
LINE
  8
DETAIL
  6
CONTINUOUS
 62
     5
 10
-171.9773828756029
 20
-8.5137318255249284
 30
0.0
 11
-167.2697899838449
 21
-8.5137318255249284
 31
0.0
  0
LINE
  8
DETAIL
  6
CONTINUOUS
 62
     5
 10
-152.74636510500801
 20
-8.5137318255249284
 30
0.0
 11
-140.32633279482889
 21
-8.5137318255249284
 31
0.0
  0
LINE
  8
DETAIL
  6
CONTINUOUS
 62
     5
 10
-171.9773828756029
 20
8.5137318255249284
 30
0.0
 11
-167.2697899838449
 21
8.5137318255249284
 31
0.0
  0
LINE
  8
DETAIL
  6
CONTINUOUS
 62
     5
 10
-152.74636510500801
 20
8.5137318255249284
 30
0.0
 11
-140.32633279482889
 21
8.5137318255249284
 31
0.0
  0
LINE
  8
DETAIL
  6
CONTINUOUS
 62
     5
 10
-138.3231017770581
 20
10.435530043481091
 30
0.0
 11
-140.32633279482889
 21
10.435530043481091
 31
0.0
  0
LINE
  8
DETAIL
  6
CONTINUOUS
 62
     5
 10
-140.32633279482889
 20
10.53135295082075
 30
0.0
 11
-138.3231017770581
 21
10.53135295082075
 31
0.0
  0
LINE
  8
DETAIL
  6
CONTINUOUS
 62
     5
 10
-138.3231017770581
 20
14.02261712439417
 30
0.0
 11
-135.81906300484519
 21
14.02261712439417
 31
0.0
  0
LINE
  8
DETAIL
  6
CONTINUOUS
 62
     5
 10
-239.4667933471851
 20
-47.01750333473592
 30
0.0
 11
-238.8852988691439
 21
-48.0246813145734
 31
0.0
  0
LINE
  8
DETAIL
  6
CONTINUOUS
 62
     5
 10
-248.40064620355409
 20
-180.5892167830082
 30
0.0
 11
-248.40064620355409
 21
180.5892167830084
 31
0.0
  0
LINE
  8
DETAIL
  6
CONTINUOUS
 62
     5
 10
-245.39579967689801
 20
85.638044237492295
 30
0.0
 11
-245.39579967689801
 21
-85.638044237492295
 31
0.0
  0
LINE
  8
DETAIL
  6
CONTINUOUS
 62
     5
 10
-238.8852988691439
 20
61.045682930858902
 30
0.0
 11
-238.8852988691439
 21
48.024681315349653
 31
0.0
  0
LINE
  8
DETAIL
  6
CONTINUOUS
 62
     5
 10
-238.8852988691439
 20
-48.0246813145734
 30
0.0
 11
-238.8852988691439
 21
-61.045682930082179
 31
0.0
  0
LINE
  8
DETAIL
  6
CONTINUOUS
 62
     5
 10
-235.6801292407099
 20
-57.790432526205002
 30
0.0
 11
-235.6801292407099
 21
-51.279931718450612
 31
0.0
  0
LINE
  8
DETAIL
  6
CONTINUOUS
 62
     5
 10
-235.6801292407099
 20
51.279931719227079
 30
0.0
 11
-235.6801292407099
 21
57.790432526981483
 31
0.0
  0
LINE
  8
DETAIL
  6
CONTINUOUS
 62
     5
 10
-239.4667933471851
 20
-62.052860909919673
 30
0.0
 11
-238.8852988691439
 21
-61.045682930082179
 31
0.0
  0
LINE
  8
DETAIL
  6
CONTINUOUS
 62
     5
 10
-135.819065504224
 20
13.02100406752584
 30
0.0
 11
-135.21809369951191
 21
13.621976099735781
 31
0.0
  0
LINE
  8
DETAIL
  6
CONTINUOUS
 62
     5
 10
-208.4146135723017
 20
-65.305331179321456
 30
0.0
 11
-209.80249273281109
 21
-66.106623586429819
 31
0.0
  0
LINE
  8
DETAIL
  6
CONTINUOUS
 62
     5
 10
-245.39579967689801
 20
47.01750333473592
 30
0.0
 11
-239.4667933471851
 21
47.01750333473592
 31
0.0
  0
LINE
  8
DETAIL
  6
CONTINUOUS
 62
     5
 10
-245.39579967689801
 20
50.776342728531972
 30
0.0
 11
-239.4667933471851
 21
50.776342728531972
 31
0.0
  0
LINE
  8
DETAIL
  6
CONTINUOUS
 62
     5
 10
-235.6801292407099
 20
51.279931719227079
 30
0.0
 11
-238.8852988691439
 21
51.279931719227079
 31
0.0
  0
LINE
  8
DETAIL
  6
CONTINUOUS
 62
     5
 10
-235.6801292407099
 20
57.790432526981483
 30
0.0
 11
-238.8852988691439
 21
57.790432526981483
 31
0.0
  0
LINE
  8
DETAIL
  6
CONTINUOUS
 62
     5
 10
-245.39579967689801
 20
58.29402151690033
 30
0.0
 11
-239.4667933471851
 21
58.29402151690033
 31
0.0
  0
LINE
  8
DETAIL
  6
CONTINUOUS
 62
     5
 10
-245.39579967689801
 20
62.052860910696147
 30
0.0
 11
-239.4667933471851
 21
62.052860910696147
 31
0.0
  0
LINE
  8
DETAIL
  6
CONTINUOUS
 62
     5
 10
-248.40064620355409
 20
63.549721703072009
 30
0.0
 11
-245.39579967689801
 21
63.549721703072009
 31
0.0
  0
LINE
  8
DETAIL
  6
CONTINUOUS
 62
     5
 10
-305.19224555735133
 20
65.305331179321684
 30
0.0
 11
-290.46849757673323
 21
65.305331179321684
 31
0.0
  0
LINE
  8
DETAIL
  6
CONTINUOUS
 62
     5
 10
-208.4146135723017
 20
65.305331179321684
 30
0.0
 11
-179.8901453957983
 21
65.305331179321684
 31
0.0
  0
LINE
  8
DETAIL
  6
CONTINUOUS
 62
     5
 10
-243.39256865912739
 20
66.106623586429805
 30
0.0
 11
-209.80249273281109
 21
66.106623586429805
 31
0.0
  0
LINE
  8
DETAIL
  6
CONTINUOUS
 62
     5
 10
-167.2697899838449
 20
26.049655248174759
 30
0.0
 11
-157.792666317564
 21
25.220514364478731
 31
0.0
  0
LINE
  8
DETAIL
  6
CONTINUOUS
 62
     5
 10
-209.80249273281109
 20
66.106623586429805
 30
0.0
 11
-209.80249273281109
 21
-66.106623586429819
 31
0.0
  0
LINE
  8
DETAIL
  6
CONTINUOUS
 62
     5
 10
-208.4146135723017
 20
65.305331179321684
 30
0.0
 11
-208.4146135723017
 21
-65.305331179321456
 31
0.0
  0
LINE
  8
DETAIL
  6
CONTINUOUS
 62
     5
 10
-18.082583470386449
 20
235.9494849132509
 30
0.0
 11
-18.529886914378039
 21
235.1747326205307
 31
0.0
  0
LINE
  8
DETAIL
  6
CONTINUOUS
 62
     5
 10
-286.46203554119518
 20
94.652665589660728
 30
0.0
 11
-290.46849757673323
 21
94.652665589660728
 31
0.0
  0
LINE
  8
DETAIL
  6
CONTINUOUS
 62
     5
 10
-239.4667933471851
 20
62.052860910696147
 30
0.0
 11
-238.8852988691439
 21
61.045682930858902
 31
0.0
  0
LINE
  8
DETAIL
  6
CONTINUOUS
 62
     5
 10
-172.47819063004539
 20
57.893376413570422
 30
0.0
 11
-172.47819063004539
 21
-46.665035568571277
 31
0.0
  0
LINE
  8
DETAIL
  6
CONTINUOUS
 62
     5
 10
-171.9773828756029
 20
13.02100161550902
 30
0.0
 11
-171.9773828756029
 21
-13.02100161550902
 31
0.0
  0
LINE
  8
DETAIL
  6
CONTINUOUS
 62
     5
 10
-167.2697899838449
 20
-26.049655248174759
 30
0.0
 11
-167.2697899838449
 21
26.049655248174759
 31
0.0
  0
LINE
  8
DETAIL
  6
CONTINUOUS
 62
     5
 10
-152.74636510500801
 20
-15.024232633279331
 30
0.0
 11
-153.2401287382736
 21
-20.66797678518742
 31
0.0
  0
LINE
  8
DETAIL
  6
CONTINUOUS
 62
     5
 10
-208.4146135723017
 20
65.305331179321684
 30
0.0
 11
-209.80249273281109
 21
66.106623586429805
 31
0.0
  0
LINE
  8
DETAIL
  6
CONTINUOUS
 62
     5
 10
-135.819065504224
 20
-13.021004066749359
 30
0.0
 11
-135.21809369951191
 21
-13.621976099735781
 31
0.0
  0
LINE
  8
DETAIL
  6
CONTINUOUS
 62
     5
 10
-18.082583470386449
 20
-267.11244612600967
 30
0.0
 11
-18.529886914378039
 21
-266.33769383328939
 31
0.0
  0
LINE
  8
DETAIL
  6
CONTINUOUS
 62
     5
 10
-152.74636510500801
 20
15.024232633279549
 30
0.0
 11
-153.2401287382736
 21
20.66797678518742
 31
0.0
  0
LINE
  8
DETAIL
  6
CONTINUOUS
 62
     5
 10
-152.74636510500801
 20
-15.024232633279331
 30
0.0
 11
-152.74636510500801
 21
15.024232633279549
 31
0.0
  0
LINE
  8
DETAIL
  6
CONTINUOUS
 62
     5
 10
-140.32633279482889
 20
-13.86724259628568
 30
0.0
 11
-140.32633279482889
 21
10.53080870478766
 31
0.0
  0
LINE
  8
DETAIL
  6
CONTINUOUS
 62
     5
 10
-138.3231017770581
 20
14.02261712439417
 30
0.0
 11
-138.3231017770581
 21
-14.02261712439417
 31
0.0
  0
LINE
  8
DETAIL
  6
CONTINUOUS
 62
     5
 10
-135.81906300484519
 20
14.02261712439417
 30
0.0
 11
-135.81906300484519
 21
-14.02261712439417
 31
0.0
  0
LINE
  8
DETAIL
  6
CONTINUOUS
 62
     5
 10
-135.21809369951191
 20
230.16665507610449
 30
0.0
 11
-135.21809369951191
 21
-230.16665507610449
 31
0.0
  0
LINE
  8
DETAIL
  6
CONTINUOUS
 62
     5
 10
-131.21163166397031
 20
230.16665507610449
 30
0.0
 11
-131.21163166397031
 21
-230.16665507610449
 31
0.0
  0
LINE
  8
DETAIL
  6
CONTINUOUS
 62
     5
 10
-13.021001615508681
 20
201.1284412186196
 30
0.0
 11
-16.426494345716382
 21
201.1284412186196
 31
0.0
  0
LINE
  8
DETAIL
  6
CONTINUOUS
 62
     5
 10
-14.523424878837091
 20
213.16867623313419
 30
0.0
 11
-10.016155088849249
 21
213.16867623313419
 31
0.0
  0
LINE
  8
DETAIL
  6
CONTINUOUS
 62
     5
 10
-14.523424878837091
 20
224.38382523973411
 30
0.0
 11
-18.082583470386449
 21
224.38382523973411
 31
0.0
  0
LINE
  8
DETAIL
  6
CONTINUOUS
 62
     5
 10
-14.523424878837091
 20
227.27524015791909
 30
0.0
 11
-18.082583470386449
 21
227.27524015791909
 31
0.0
  0
LINE
  8
DETAIL
  6
CONTINUOUS
 62
     5
 10
-178.28756058158299
 20
230.16665507610449
 30
0.0
 11
-18.529886914378039
 21
230.16665507610449
 31
0.0
  0
LINE
  8
DETAIL
  6
CONTINUOUS
 62
     5
 10
-14.523424878837091
 20
233.05806999506581
 30
0.0
 11
-18.082583470386449
 21
233.05806999506581
 31
0.0
  0
LINE
  8
DETAIL
  6
CONTINUOUS
 62
     5
 10
-14.523424878837091
 20
235.9494849132509
 30
0.0
 11
-18.082583470386449
 21
235.9494849132509
 31
0.0
  0
LINE
  8
DETAIL
  6
CONTINUOUS
 62
     5
 10
-3.004846526655911
 20
242.9151392093024
 30
0.0
 11
-6.4103392568636082
 21
242.9151392093024
 31
0.0
  0
LINE
  8
DETAIL
  6
CONTINUOUS
 62
     5
 10
-5.1082390953132517
 20
254.24712510435691
 30
0.0
 11
-3.004846526655911
 21
254.24712510435691
 31
0.0
  0
LINE
  8
DETAIL
  6
CONTINUOUS
 62
     5
 10
-14.523424878837091
 20
257.08012157831467
 30
0.0
 11
-178.28756058158299
 21
257.08012157831467
 31
0.0
  0
LINE
  8
DETAIL
  6
CONTINUOUS
 62
     5
 10
-178.28756058158299
 20
261.32961628963949
 30
0.0
 11
-14.523424878837091
 21
261.32961628963949
 31
0.0
  0
LINE
  8
DETAIL
  6
CONTINUOUS
 62
     5
 10
-20.53311793214516
 20
-291.97092084006482
 30
0.0
 11
-20.53311793214516
 21
-261.92246381548148
 31
0.0
  0
LINE
  8
DETAIL
  6
CONTINUOUS
 62
     5
 10
-20.032310177702019
 20
-293.37318255250398
 30
0.0
 11
-20.032310177702019
 21
-261.32961628886318
 31
0.0
  0
LINE
  8
DETAIL
  6
CONTINUOUS
 62
     5
 10
-20.032310177702019
 20
-230.16665507610449
 30
0.0
 11
-20.032310177702019
 21
230.16665507610449
 31
0.0
  0
LINE
  8
DETAIL
  6
CONTINUOUS
 62
     5
 10
-20.032310177702019
 20
261.32961628963949
 30
0.0
 11
-20.032310177702019
 21
293.37318255250398
 31
0.0
  0
LINE
  8
DETAIL
  6
CONTINUOUS
 62
     5
 10
-18.529886914378039
 20
-266.33769383328939
 30
0.0
 11
-18.529886914378039
 21
-261.32961628886318
 31
0.0
  0
LINE
  8
DETAIL
  6
CONTINUOUS
 62
     5
 10
-18.529886914378039
 20
225.15857753167771
 30
0.0
 11
-18.529886914378039
 21
235.1747326205307
 31
0.0
  0
LINE
  8
DETAIL
  6
CONTINUOUS
 62
     5
 10
-14.523424878837091
 20
-250.2234124025249
 30
0.0
 11
-14.523424878837091
 21
-254.54418187391519
 31
0.0
  0
LINE
  8
DETAIL
  6
CONTINUOUS
 62
     5
 10
-14.523424878837091
 20
-294.50537591889878
 30
0.0
 11
-14.523424878837091
 21
-254.54418187391519
 31
0.0
  0
LINE
  8
DETAIL
  6
CONTINUOUS
 62
     5
 10
-14.523424878837091
 20
-250.2234124025249
 30
0.0
 11
-14.523424878837091
 21
-213.16867623235791
 31
0.0
  0
LINE
  8
DETAIL
  6
CONTINUOUS
 62
     5
 10
-14.523424878837091
 20
213.16867623313419
 30
0.0
 11
-14.523424878837091
 21
250.2234124025247
 31
0.0
  0
LINE
  8
DETAIL
  6
CONTINUOUS
 62
     5
 10
-14.523424878837091
 20
250.2234124025247
 30
0.0
 11
-14.523424878837091
 21
254.5441818746917
 31
0.0
  0
LINE
  8
DETAIL
  6
CONTINUOUS
 62
     5
 10
-14.523424878837091
 20
254.5441818746917
 30
0.0
 11
-14.523424878837091
 21
294.50537591967532
 31
0.0
  0
LINE
  8
DETAIL
  6
CONTINUOUS
 62
     5
 10
-10.016155088849249
 20
303.38933764135709
 30
0.0
 11
-10.01615508885379
 21
300.29204387052908
 31
0.0
  0
LINE
  8
DETAIL
  6
CONTINUOUS
 62
     5
 10
-10.016155088849249
 20
-239.30932337653891
 30
0.0
 11
-10.016155088849249
 21
-244.927937625803
 31
0.0
  0
LINE
  8
DETAIL
  6
CONTINUOUS
 62
     5
 10
-10.016155088849249
 20
-303.38933764135709
 30
0.0
 11
-10.01615508885379
 21
-300.07806681034572
 31
0.0
  0
LINE
  8
DETAIL
  6
CONTINUOUS
 62
     5
 10
-10.016155088849249
 20
-239.30932337653891
 30
0.0
 11
-10.016155088849249
 21
239.3093233773152
 31
0.0
  0
LINE
  8
DETAIL
  6
CONTINUOUS
 62
     5
 10
-10.016155088849249
 20
239.3093233773152
 30
0.0
 11
-10.013320606280841
 21
245.0349261558919
 31
0.0
  0
LINE
  8
DETAIL
  6
CONTINUOUS
 62
     5
 10
-5.1082390953132517
 20
-303.82456339745272
 30
0.0
 11
-5.1082390953132517
 21
-253.84381916672311
 31
0.0
  0
LINE
  8
DETAIL
  6
CONTINUOUS
 62
     5
 10
-5.1082390953132517
 20
253.94401173891711
 30
0.0
 11
-5.1082390953132517
 21
303.82456339745272
 31
0.0
  0
LINE
  8
DETAIL
  6
CONTINUOUS
 62
     5
 10
-3.004846526655911
 20
-308.49757673667199
 30
0.0
 11
-3.004846526655911
 21
308.49757673667199
 31
0.0
  0
LINE
  8
DETAIL
  6
CONTINUOUS
 62
     5
 10
-0.0000000000001137
 20
-308.49757673667199
 30
0.0
 11
-0.0000000000001137
 21
308.49757673667199
 31
0.0
  0
LINE
  8
DETAIL
  6
CONTINUOUS
 62
     5
 10
-16.426494345716382
 20
296.97899838449121
 30
0.0
 11
-13.89004062621507
 21
296.97899838449121
 31
0.0
  0
LINE
  8
DETAIL
  6
CONTINUOUS
 62
     5
 10
-3.004846526655911
 20
303.82456339745272
 30
0.0
 11
-5.1082390953132517
 21
303.82456339745272
 31
0.0
  0
LINE
  8
DETAIL
  6
CONTINUOUS
 62
     5
 10
-6.4103392568636082
 20
306.99515347334409
 30
0.0
 11
-3.004846526655911
 21
306.99515347334409
 31
0.0
  0
LINE
  8
DETAIL
  6
CONTINUOUS
 62
     5
 10
-18.082583470386449
 20
224.38382523973411
 30
0.0
 11
-18.529886914378039
 21
225.15857753167771
 31
0.0
  0
ARC
  8
DETAIL
  6
CONTINUOUS
 62
     5
 10
-305.19224555735133
 20
-57.893376413570167
 30
0.0
 40
7.411954765749214
 50
180.0
 51
270.0
  0
ARC
  8
DETAIL
  6
CONTINUOUS
 62
     5
 10
-179.8901453957983
 20
-57.893376413570167
 30
0.0
 40
7.4119547657512914
 50
270.0
 51
322.34658205670621
  0
ARC
  8
DETAIL
  6
CONTINUOUS
 62
     5
 10
-308.57520193861001
 20
-48.578352180936918
 30
0.0
 40
6.5330371567037044
 50
133.89739816709701
 51
226.10260183291109
  0
ARC
  8
DETAIL
  6
CONTINUOUS
 62
     5
 10
-243.39256865912739
 20
-68.109854604200351
 30
0.0
 40
2.0032310177705881
 50
90.0
 51
179.9999999963002
  0
ARC
  8
DETAIL
  6
CONTINUOUS
 62
     5
 10
-305.19224555735133
 20
57.893376413570422
 30
0.0
 40
7.4119547657511902
 50
90.0
 51
180.0
  0
ARC
  8
DETAIL
  6
CONTINUOUS
 62
     5
 10
-179.8901453957983
 20
57.893376413570422
 30
0.0
 40
7.4119547657528511
 50
0.0
 51
90.0
  0
ARC
  8
DETAIL
  6
CONTINUOUS
 62
     5
 10
-175.58319870758851
 20
13.02100161550902
 30
0.0
 40
3.605815831985637
 50
0.0
 51
30.506440523123711
  0
ARC
  8
DETAIL
  6
CONTINUOUS
 62
     5
 10
-175.58319870758851
 20
-13.02100161550902
 30
0.0
 40
3.6058158319840969
 50
329.49355947687633
 51
0.0
  0
ARC
  8
DETAIL
  6
CONTINUOUS
 62
     5
 10
-243.39256865912739
 20
68.109854604200336
 30
0.0
 40
2.0032310177707591
 50
180.00000000369991
 51
270.0
  0
ARC
  8
DETAIL
  6
CONTINUOUS
 62
     5
 10
-130.71082390952779
 20
-232.8756058158319
 30
0.0
 40
3.906300484652546
 50
90.0
 51
97.367573868519912
  0
ARC
  8
DETAIL
  6
CONTINUOUS
 62
     5
 10
-6.4103392568636082
 20
-239.30932337653891
 30
0.0
 40
3.605815831985637
 50
180.0
 51
270.0
  0
ARC
  8
DETAIL
  6
CONTINUOUS
 62
     5
 10
-6.4103392568636082
 20
-303.38933764135709
 30
0.0
 40
3.605815831985637
 50
180.0
 51
270.0
  0
ARC
  8
DETAIL
  6
CONTINUOUS
 62
     5
 10
-16.426494345716382
 20
-293.37318255250398
 30
0.0
 40
3.605815831985637
 50
180.0
 51
270.0
  0
ARC
  8
DETAIL
  6
CONTINUOUS
 62
     5
 10
-16.426494345716382
 20
-197.5226253866324
 30
0.0
 40
3.605815831985637
 50
180.0
 51
270.0
  0
ARC
  8
DETAIL
  6
CONTINUOUS
 62
     5
 10
-13.021001615508681
 20
-204.13328774527579
 30
0.0
 40
3.004846526659549
 50
0.0
 51
90.0
  0
ARC
  8
DETAIL
  6
CONTINUOUS
 62
     5
 10
-1.5024232633240899
 20
-308.49757673667199
 30
0.0
 40
1.5024232633318211
 50
180.0
 51
0.0
  0
ARC
  8
DETAIL
  6
CONTINUOUS
 62
     5
 10
-158.22914903590481
 20
20.231494067625821
 30
0.0
 40
5.0080775444271506
 50
4.9999999999998126
 51
84.999999999960963
  0
ARC
  8
DETAIL
  6
CONTINUOUS
 62
     5
 10
-158.22914903590481
 20
-20.23149406684956
 30
0.0
 40
5.0080775444267838
 50
275.00000000003911
 51
355.00000000000023
  0
ARC
  8
DETAIL
  6
CONTINUOUS
 62
     5
 10
-130.71082390952779
 20
232.87560581583219
 30
0.0
 40
3.9063004846529541
 50
262.63242613148009
 51
270.0
  0
ARC
  8
DETAIL
  6
CONTINUOUS
 62
     5
 10
-16.426494345716382
 20
197.5226253866326
 30
0.0
 40
3.605815831987115
 50
90.0
 51
180.0
  0
ARC
  8
DETAIL
  6
CONTINUOUS
 62
     5
 10
-6.4103392568636082
 20
239.3093233773152
 30
0.0
 40
3.605815831987115
 50
90.0
 51
180.0
  0
ARC
  8
DETAIL
  6
CONTINUOUS
 62
     5
 10
-13.021001615508681
 20
204.13328774527579
 30
0.0
 40
3.004846526655911
 50
270.0
 51
0.0
  0
ARC
  8
DETAIL
  6
CONTINUOUS
 62
     5
 10
-16.426494345716382
 20
293.37318255250398
 30
0.0
 40
3.605815831987115
 50
90.0
 51
180.0
  0
ARC
  8
DETAIL
  6
CONTINUOUS
 62
     5
 10
-6.4103392568636082
 20
303.38933764135709
 30
0.0
 40
3.6058158319870022
 50
90.0
 51
180.0
  0
ARC
  8
DETAIL
  6
CONTINUOUS
 62
     5
 10
-1.5024232633240899
 20
308.49757673667199
 30
0.0
 40
1.5024232633240899
 50
0.0
 51
180.0
  0
LINE
  8
DETAIL
  6
CONTINUOUS
 62
     5
 10
-172.4781789111457
 20
-16.907883131181961
 30
0.0
 11
-172.46830151409071
 21
-16.846318040120881
 31
0.0
  0
LINE
  8
DETAIL
  6
CONTINUOUS
 62
     5
 10
-172.46830151409071
 20
-16.846318040120881
 30
0.0
 11
-172.45841355948869
 21
-16.784691787824841
 31
0.0
  0
LINE
  8
DETAIL
  6
CONTINUOUS
 62
     5
 10
-172.45841355948869
 20
-16.784691787824841
 30
0.0
 11
-172.45841355948869
 21
-16.784691787824841
 31
0.0
  0
LINE
  8
DETAIL
  6
CONTINUOUS
 62
     5
 10
-172.45841355948869
 20
-16.784691787824841
 30
0.0
 11
-172.44851428147041
 21
-16.723004502133559
 31
0.0
  0
LINE
  8
DETAIL
  6
CONTINUOUS
 62
     5
 10
-172.44851428147041
 20
-16.723004502133559
 30
0.0
 11
-172.4386420808805
 21
-16.66150146719087
 31
0.0
  0
LINE
  8
DETAIL
  6
CONTINUOUS
 62
     5
 10
-172.4386420808805
 20
-16.66150146719087
 30
0.0
 11
-172.4386420808805
 21
-16.66150146719087
 31
0.0
  0
LINE
  8
DETAIL
  6
CONTINUOUS
 62
     5
 10
-172.4386420808805
 20
-16.66150146719087
 30
0.0
 11
-172.4288055853693
 21
-16.600244154125679
 31
0.0
  0
LINE
  8
DETAIL
  6
CONTINUOUS
 62
     5
 10
-172.4288055853693
 20
-16.600244154125679
 30
0.0
 11
-172.41885516317461
 21
-16.538313625702131
 31
0.0
  0
LINE
  8
DETAIL
  6
CONTINUOUS
 62
     5
 10
-172.41885516317461
 20
-16.538313625702131
 30
0.0
 11
-172.41885516317461
 21
-16.538313625702131
 31
0.0
  0
LINE
  8
DETAIL
  6
CONTINUOUS
 62
     5
 10
-172.41885516317461
 20
-16.538313625702131
 30
0.0
 11
-172.40875008542031
 21
-16.47546496188124
 31
0.0
  0
LINE
  8
DETAIL
  6
CONTINUOUS
 62
     5
 10
-172.40875008542031
 20
-16.47546496188124
 30
0.0
 11
-172.3990434942416
 21
-16.41512971977841
 31
0.0
  0
LINE
  8
DETAIL
  6
CONTINUOUS
 62
     5
 10
-172.3990434942416
 20
-16.41512971977841
 30
0.0
 11
-172.3990434942416
 21
-16.41512971977841
 31
0.0
  0
LINE
  8
DETAIL
  6
CONTINUOUS
 62
     5
 10
-172.3990434942416
 20
-16.41512971977841
 30
0.0
 11
-172.38988269337869
 21
-16.358227200734522
 31
0.0
  0
LINE
  8
DETAIL
  6
CONTINUOUS
 62
     5
 10
-172.38988269337869
 20
-16.358227200734522
 30
0.0
 11
-172.37919776194849
 21
-16.291951205841769
 31
0.0
  0
LINE
  8
DETAIL
  6
CONTINUOUS
 62
     5
 10
-172.37919776194849
 20
-16.291951205841769
 30
0.0
 11
-172.37919776194849
 21
-16.291951205841769
 31
0.0
  0
LINE
  8
DETAIL
  6
CONTINUOUS
 62
     5
 10
-172.37919776194849
 20
-16.291951205841769
 30
0.0
 11
-172.36523681898549
 21
-16.205478537661751
 31
0.0
  0
LINE
  8
DETAIL
  6
CONTINUOUS
 62
     5
 10
-172.36523681898549
 20
-16.205478537661751
 30
0.0
 11
-172.34973736775419
 21
-16.10964350488689
 31
0.0
  0
LINE
  8
DETAIL
  6
CONTINUOUS
 62
     5
 10
-172.34973736775419
 20
-16.10964350488689
 30
0.0
 11
-172.34973736775419
 21
-16.10964350488689
 31
0.0
  0
LINE
  8
DETAIL
  6
CONTINUOUS
 62
     5
 10
-172.34973736775419
 20
-16.10964350488689
 30
0.0
 11
-172.33475523775039
 21
-16.017254596423982
 31
0.0
  0
LINE
  8
DETAIL
  6
CONTINUOUS
 62
     5
 10
-172.33475523775039
 20
-16.017254596423982
 30
0.0
 11
-172.32013017909051
 21
-15.92735951590976
 31
0.0
  0
LINE
  8
DETAIL
  6
CONTINUOUS
 62
     5
 10
-172.32013017909051
 20
-15.92735951590976
 30
0.0
 11
-172.32013017909051
 21
-15.92735951590976
 31
0.0
  0
LINE
  8
DETAIL
  6
CONTINUOUS
 62
     5
 10
-172.32013017909051
 20
-15.92735951590976
 30
0.0
 11
-172.30530170108
 21
-15.836519155576751
 31
0.0
  0
LINE
  8
DETAIL
  6
CONTINUOUS
 62
     5
 10
-172.30530170108
 20
-15.836519155576751
 30
0.0
 11
-172.29032442908689
 21
-15.745107947310769
 31
0.0
  0
LINE
  8
DETAIL
  6
CONTINUOUS
 62
     5
 10
-172.29032442908689
 20
-15.745107947310769
 30
0.0
 11
-172.29032442908689
 21
-15.745107947310769
 31
0.0
  0
LINE
  8
DETAIL
  6
CONTINUOUS
 62
     5
 10
-172.29032442908689
 20
-15.745107947310769
 30
0.0
 11
-172.27534567126739
 21
-15.65408036457484
 31
0.0
  0
LINE
  8
DETAIL
  6
CONTINUOUS
 62
     5
 10
-172.27534567126739
 20
-15.65408036457484
 30
0.0
 11
-172.26026835084801
 21
-15.562897507491019
 31
0.0
  0
LINE
  8
DETAIL
  6
CONTINUOUS
 62
     5
 10
-172.26026835084801
 20
-15.562897507491019
 30
0.0
 11
-172.26026835084801
 21
-15.562897507491019
 31
0.0
  0
LINE
  8
DETAIL
  6
CONTINUOUS
 62
     5
 10
-172.26026835084801
 20
-15.562897507491019
 30
0.0
 11
-172.24502490072399
 21
-15.471187121273941
 31
0.0
  0
LINE
  8
DETAIL
  6
CONTINUOUS
 62
     5
 10
-172.24502490072399
 20
-15.471187121273941
 30
0.0
 11
-172.22991017749291
 21
-15.380736904850661
 31
0.0
  0
LINE
  8
DETAIL
  6
CONTINUOUS
 62
     5
 10
-172.22991017749291
 20
-15.380736904850661
 30
0.0
 11
-172.22991017749291
 21
-15.380736904850661
 31
0.0
  0
LINE
  8
DETAIL
  6
CONTINUOUS
 62
     5
 10
-172.22991017749291
 20
-15.380736904850661
 30
0.0
 11
-172.2151816416044
 21
-15.293108901631291
 31
0.0
  0
LINE
  8
DETAIL
  6
CONTINUOUS
 62
     5
 10
-172.2151816416044
 20
-15.293108901631291
 30
0.0
 11
-172.2005847453224
 21
-15.20680257924619
 31
0.0
  0
LINE
  8
DETAIL
  6
CONTINUOUS
 62
     5
 10
-172.2005847453224
 20
-15.20680257924619
 30
0.0
 11
-172.2005847453224
 21
-15.20680257924619
 31
0.0
  0
LINE
  8
DETAIL
  6
CONTINUOUS
 62
     5
 10
-172.2005847453224
 20
-15.20680257924619
 30
0.0
 11
-172.18581683339269
 21
-15.120031718211751
 31
0.0
  0
LINE
  8
DETAIL
  6
CONTINUOUS
 62
     5
 10
-172.18581683339269
 20
-15.120031718211751
 30
0.0
 11
-172.17089482880749
 21
-15.03292992636648
 31
0.0
  0
LINE
  8
DETAIL
  6
CONTINUOUS
 62
     5
 10
-172.17089482880749
 20
-15.03292992636648
 30
0.0
 11
-172.17089482880749
 21
-15.03292992636648
 31
0.0
  0
LINE
  8
DETAIL
  6
CONTINUOUS
 62
     5
 10
-172.17089482880749
 20
-15.03292992636648
 30
0.0
 11
-172.15589341883361
 21
-14.945978193287599
 31
0.0
  0
LINE
  8
DETAIL
  6
CONTINUOUS
 62
     5
 10
-172.15589341883361
 20
-14.945978193287599
 30
0.0
 11
-172.14079876961929
 21
-14.859127208183279
 31
0.0
  0
LINE
  8
DETAIL
  6
CONTINUOUS
 62
     5
 10
-172.14079876961929
 20
-14.859127208183279
 30
0.0
 11
-172.14079876961929
 21
-14.859127208183279
 31
0.0
  0
LINE
  8
DETAIL
  6
CONTINUOUS
 62
     5
 10
-172.14079876961929
 20
-14.859127208183279
 30
0.0
 11
-172.12558354359479
 21
-14.772245428708629
 31
0.0
  0
LINE
  8
DETAIL
  6
CONTINUOUS
 62
     5
 10
-172.12558354359479
 20
-14.772245428708629
 30
0.0
 11
-172.11025490941441
 21
-14.685402686668789
 31
0.0
  0
LINE
  8
DETAIL
  6
CONTINUOUS
 62
     5
 10
-172.11025490941441
 20
-14.685402686668789
 30
0.0
 11
-172.11025490941441
 21
-14.685402686668789
 31
0.0
  0
LINE
  8
DETAIL
  6
CONTINUOUS
 62
     5
 10
-172.11025490941441
 20
-14.685402686668789
 30
0.0
 11
-172.0948162863431
 21
-14.59865035834787
 31
0.0
  0
LINE
  8
DETAIL
  6
CONTINUOUS
 62
     5
 10
-172.0948162863431
 20
-14.59865035834787
 30
0.0
 11
-172.07922158985639
 21
-14.511764623794759
 31
0.0
  0
LINE
  8
DETAIL
  6
CONTINUOUS
 62
     5
 10
-172.07922158985639
 20
-14.511764623794759
 30
0.0
 11
-172.07922158985639
 21
-14.511764623794759
 31
0.0
  0
LINE
  8
DETAIL
  6
CONTINUOUS
 62
     5
 10
-172.07922158985639
 20
-14.511764623794759
 30
0.0
 11
-172.0634298881711
 21
-14.424548449884011
 31
0.0
  0
LINE
  8
DETAIL
  6
CONTINUOUS
 62
     5
 10
-172.0634298881711
 20
-14.424548449884011
 30
0.0
 11
-172.047470364324
 21
-14.33718714703423
 31
0.0
  0
LINE
  8
DETAIL
  6
CONTINUOUS
 62
     5
 10
-172.047470364324
 20
-14.33718714703423
 30
0.0
 11
-172.047470364324
 21
-14.33718714703423
 31
0.0
  0
LINE
  8
DETAIL
  6
CONTINUOUS
 62
     5
 10
-172.047470364324
 20
-14.33718714703423
 30
0.0
 11
-172.03138004177069
 21
-14.249906576369771
 31
0.0
  0
LINE
  8
DETAIL
  6
CONTINUOUS
 62
     5
 10
-172.03138004177069
 20
-14.249906576369771
 30
0.0
 11
-172.01515719085549
 21
-14.1627124582908
 31
0.0
  0
LINE
  8
DETAIL
  6
CONTINUOUS
 62
     5
 10
-172.01515719085549
 20
-14.1627124582908
 30
0.0
 11
-172.01515719085549
 21
-14.1627124582908
 31
0.0
  0
LINE
  8
DETAIL
  6
CONTINUOUS
 62
     5
 10
-172.01515719085549
 20
-14.1627124582908
 30
0.0
 11
-171.99878906314879
 21
-14.07555062450569
 31
0.0
  0
LINE
  8
DETAIL
  6
CONTINUOUS
 62
     5
 10
-171.99878906314879
 20
-14.07555062450569
 30
0.0
 11
-171.9822575881976
 21
-13.98834749267667
 31
0.0
  0
LINE
  8
DETAIL
  6
CONTINUOUS
 62
     5
 10
-171.9822575881976
 20
-13.98834749267667
 30
0.0
 11
-171.9822575881976
 21
-13.98834749267667
 31
0.0
  0
LINE
  8
DETAIL
  6
CONTINUOUS
 62
     5
 10
-171.9822575881976
 20
-13.98834749267667
 30
0.0
 11
-171.96555837532881
 21
-13.901099076180341
 31
0.0
  0
LINE
  8
DETAIL
  6
CONTINUOUS
 62
     5
 10
-171.96555837532881
 20
-13.901099076180341
 30
0.0
 11
-171.94874707509231
 21
-13.814099185303119
 31
0.0
  0
LINE
  8
DETAIL
  6
CONTINUOUS
 62
     5
 10
-171.94874707509231
 20
-13.814099185303119
 30
0.0
 11
-171.94874707509231
 21
-13.814099185303119
 31
0.0
  0
LINE
  8
DETAIL
  6
CONTINUOUS
 62
     5
 10
-171.94874707509231
 20
-13.814099185303119
 30
0.0
 11
-171.9318356376277
 21
-13.72742313616072
 31
0.0
  0
LINE
  8
DETAIL
  6
CONTINUOUS
 62
     5
 10
-171.9318356376277
 20
-13.72742313616072
 30
0.0
 11
-171.91460117029331
 21
-13.639974471282811
 31
0.0
  0
LINE
  8
DETAIL
  6
CONTINUOUS
 62
     5
 10
-171.91460117029331
 20
-13.639974471282811
 30
0.0
 11
-171.91460117029331
 21
-13.639974471282811
 31
0.0
  0
LINE
  8
DETAIL
  6
CONTINUOUS
 62
     5
 10
-171.91460117029331
 20
-13.639974471282811
 30
0.0
 11
-171.89685451774039
 21
-13.55082664734846
 31
0.0
  0
LINE
  8
DETAIL
  6
CONTINUOUS
 62
     5
 10
-171.89685451774039
 20
-13.55082664734846
 30
0.0
 11
-171.87877631659831
 21
-13.46090455122317
 31
0.0
  0
LINE
  8
DETAIL
  6
CONTINUOUS
 62
     5
 10
-171.87877631659831
 20
-13.46090455122317
 30
0.0
 11
-171.87877631659831
 21
-13.46090455122317
 31
0.0
  0
LINE
  8
DETAIL
  6
CONTINUOUS
 62
     5
 10
-171.87877631659831
 20
-13.46090455122317
 30
0.0
 11
-171.8605831186301
 21
-13.37130647868889
 31
0.0
  0
LINE
  8
DETAIL
  6
CONTINUOUS
 62
     5
 10
-171.8605831186301
 20
-13.37130647868889
 30
0.0
 11
-171.84226534417169
 21
-13.2819729310072
 31
0.0
  0
LINE
  8
DETAIL
  6
CONTINUOUS
 62
     5
 10
-171.84226534417169
 20
-13.2819729310072
 30
0.0
 11
-171.84226534417169
 21
-13.2819729310072
 31
0.0
  0
LINE
  8
DETAIL
  6
CONTINUOUS
 62
     5
 10
-171.84226534417169
 20
-13.2819729310072
 30
0.0
 11
-171.82376806302349
 21
-13.19261446499581
 31
0.0
  0
LINE
  8
DETAIL
  6
CONTINUOUS
 62
     5
 10
-171.82376806302349
 20
-13.19261446499581
 30
0.0
 11
-171.80508107429699
 21
-13.103179654215641
 31
0.0
  0
LINE
  8
DETAIL
  6
CONTINUOUS
 62
     5
 10
-171.80508107429699
 20
-13.103179654215641
 30
0.0
 11
-171.80508107429699
 21
-13.103179654215641
 31
0.0
  0
LINE
  8
DETAIL
  6
CONTINUOUS
 62
     5
 10
-171.80508107429699
 20
-13.103179654215641
 30
0.0
 11
-171.78621716298429
 21
-13.013728008300181
 31
0.0
  0
LINE
  8
DETAIL
  6
CONTINUOUS
 62
     5
 10
-171.78621716298429
 20
-13.013728008300181
 30
0.0
 11
-171.76723632826
 21
-12.92452476443032
 31
0.0
  0
LINE
  8
DETAIL
  6
CONTINUOUS
 62
     5
 10
-171.76723632826
 20
-12.92452476443032
 30
0.0
 11
-171.76723632826
 21
-12.92452476443032
 31
0.0
  0
LINE
  8
DETAIL
  6
CONTINUOUS
 62
     5
 10
-171.76723632826
 20
-12.92452476443032
 30
0.0
 11
-171.74815197633561
 21
-12.83562135994066
 31
0.0
  0
LINE
  8
DETAIL
  6
CONTINUOUS
 62
     5
 10
-171.74815197633561
 20
-12.83562135994066
 30
0.0
 11
-171.7287439273359
 21
-12.74600830523241
 31
0.0
  0
LINE
  8
DETAIL
  6
CONTINUOUS
 62
     5
 10
-171.7287439273359
 20
-12.74600830523241
 30
0.0
 11
-171.7287439273359
 21
-12.74600830523241
 31
0.0
  0
LINE
  8
DETAIL
  6
CONTINUOUS
 62
     5
 10
-171.7287439273359
 20
-12.74600830523241
 30
0.0
 11
-171.70882597305231
 21
-12.65483632117798
 31
0.0
  0
LINE
  8
DETAIL
  6
CONTINUOUS
 62
     5
 10
-171.70882597305231
 20
-12.65483632117798
 30
0.0
 11
-171.68858137803269
 21
-12.562957897471961
 31
0.0
  0
LINE
  8
DETAIL
  6
CONTINUOUS
 62
     5
 10
-171.68858137803269
 20
-12.562957897471961
 30
0.0
 11
-171.68858137803269
 21
-12.562957897471961
 31
0.0
  0
LINE
  8
DETAIL
  6
CONTINUOUS
 62
     5
 10
-171.68858137803269
 20
-12.562957897471961
 30
0.0
 11
-171.66822828632081
 21
-12.47138361659472
 31
0.0
  0
LINE
  8
DETAIL
  6
CONTINUOUS
 62
     5
 10
-171.66822828632081
 20
-12.47138361659472
 30
0.0
 11
-171.64775488721261
 21
-12.38005466334994
 31
0.0
  0
LINE
  8
DETAIL
  6
CONTINUOUS
 62
     5
 10
-171.64775488721261
 20
-12.38005466334994
 30
0.0
 11
-171.64775488721261
 21
-12.38005466334994
 31
0.0
  0
LINE
  8
DETAIL
  6
CONTINUOUS
 62
     5
 10
-171.64775488721261
 20
-12.38005466334994
 30
0.0
 11
-171.62710426707639
 21
-12.288703856665959
 31
0.0
  0
LINE
  8
DETAIL
  6
CONTINUOUS
 62
     5
 10
-171.62710426707639
 20
-12.288703856665959
 30
0.0
 11
-171.6062690553135
 21
-12.197299949644499
 31
0.0
  0
LINE
  8
DETAIL
  6
CONTINUOUS
 62
     5
 10
-171.6062690553135
 20
-12.197299949644499
 30
0.0
 11
-171.6062690553135
 21
-12.197299949644499
 31
0.0
  0
LINE
  8
DETAIL
  6
CONTINUOUS
 62
     5
 10
-171.6062690553135
 20
-12.197299949644499
 30
0.0
 11
-171.58526221273721
 21
-12.105902094176599
 31
0.0
  0
LINE
  8
DETAIL
  6
CONTINUOUS
 62
     5
 10
-171.58526221273721
 20
-12.105902094176599
 30
0.0
 11
-171.5641284827725
 21
-12.01469510313359
 31
0.0
  0
LINE
  8
DETAIL
  6
CONTINUOUS
 62
     5
 10
-171.5641284827725
 20
-12.01469510313359
 30
0.0
 11
-171.5641284827725
 21
-12.01469510313359
 31
0.0
  0
LINE
  8
DETAIL
  6
CONTINUOUS
 62
     5
 10
-171.5641284827725
 20
-12.01469510313359
 30
0.0
 11
-171.5428763861205
 21
-11.92371056010802
 31
0.0
  0
LINE
  8
DETAIL
  6
CONTINUOUS
 62
     5
 10
-171.5428763861205
 20
-11.92371056010802
 30
0.0
 11
-171.5213377700164
 21
-11.83224147059536
 31
0.0
  0
LINE
  8
DETAIL
  6
CONTINUOUS
 62
     5
 10
-171.5213377700164
 20
-11.83224147059536
 30
0.0
 11
-171.5213377700164
 21
-11.83224147059536
 31
0.0
  0
LINE
  8
DETAIL
  6
CONTINUOUS
 62
     5
 10
-171.5213377700164
 20
-11.83224147059536
 30
0.0
 11
-171.49937061215479
 21
-11.739693859893579
 31
0.0
  0
LINE
  8
DETAIL
  6
CONTINUOUS
 62
     5
 10
-171.49937061215479
 20
-11.739693859893579
 30
0.0
 11
-171.47711408555821
 21
-11.64666441060854
 31
0.0
  0
LINE
  8
DETAIL
  6
CONTINUOUS
 62
     5
 10
-171.47711408555821
 20
-11.64666441060854
 30
0.0
 11
-171.47711408555821
 21
-11.64666441060854
 31
0.0
  0
LINE
  8
DETAIL
  6
CONTINUOUS
 62
     5
 10
-171.47711408555821
 20
-11.64666441060854
 30
0.0
 11
-171.45473412832129
 21
-11.55386126453209
 31
0.0
  0
LINE
  8
DETAIL
  6
CONTINUOUS
 62
     5
 10
-171.45473412832129
 20
-11.55386126453209
 30
0.0
 11
-171.43222254351679
 21
-11.46124774289888
 31
0.0
  0
LINE
  8
DETAIL
  6
CONTINUOUS
 62
     5
 10
-171.43222254351679
 20
-11.46124774289888
 30
0.0
 11
-171.43222254351679
 21
-11.46124774289888
 31
0.0
  0
LINE
  8
DETAIL
  6
CONTINUOUS
 62
     5
 10
-171.43222254351679
 20
-11.46124774289888
 30
0.0
 11
-171.4095359352286
 21
-11.36863792763393
 31
0.0
  0
LINE
  8
DETAIL
  6
CONTINUOUS
 62
     5
 10
-171.4095359352286
 20
-11.36863792763393
 30
0.0
 11
-171.38666424669421
 21
-11.27599376398871
 31
0.0
  0
LINE
  8
DETAIL
  6
CONTINUOUS
 62
     5
 10
-171.38666424669421
 20
-11.27599376398871
 30
0.0
 11
-171.38666424669421
 21
-11.27599376398871
 31
0.0
  0
LINE
  8
DETAIL
  6
CONTINUOUS
 62
     5
 10
-171.38666424669421
 20
-11.27599376398871
 30
0.0
 11
-171.36361595055089
 21
-11.183352504858931
 31
0.0
  0
LINE
  8
DETAIL
  6
CONTINUOUS
 62
     5
 10
-171.36361595055089
 20
-11.183352504858931
 30
0.0
 11
-171.34044029789629
 21
-11.090904770399669
 31
0.0
  0
LINE
  8
DETAIL
  6
CONTINUOUS
 62
     5
 10
-171.34044029789629
 20
-11.090904770399669
 30
0.0
 11
-171.34044029789629
 21
-11.090904770399669
 31
0.0
  0
LINE
  8
DETAIL
  6
CONTINUOUS
 62
     5
 10
-171.34044029789629
 20
-11.090904770399669
 30
0.0
 11
-171.31714762119489
 21
-10.99868918948982
 31
0.0
  0
LINE
  8
DETAIL
  6
CONTINUOUS
 62
     5
 10
-171.31714762119489
 20
-10.99868918948982
 30
0.0
 11
-171.2935517999135
 21
-10.90598305865387
 31
0.0
  0
LINE
  8
DETAIL
  6
CONTINUOUS
 62
     5
 10
-171.2935517999135
 20
-10.90598305865387
 30
0.0
 11
-171.2935517999135
 21
-10.90598305865387
 31
0.0
  0
LINE
  8
DETAIL
  6
CONTINUOUS
 62
     5
 10
-171.2935517999135
 20
-10.90598305865387
 30
0.0
 11
-171.26949497740259
 21
-10.812176172855519
 31
0.0
  0
LINE
  8
DETAIL
  6
CONTINUOUS
 62
     5
 10
-171.26949497740259
 20
-10.812176172855519
 30
0.0
 11
-171.24512880546351
 21
-10.7178696531771
 31
0.0
  0
LINE
  8
DETAIL
  6
CONTINUOUS
 62
     5
 10
-171.24512880546351
 20
-10.7178696531771
 30
0.0
 11
-171.24512880546351
 21
-10.7178696531771
 31
0.0
  0
LINE
  8
DETAIL
  6
CONTINUOUS
 62
     5
 10
-171.24512880546351
 20
-10.7178696531771
 30
0.0
 11
-171.22063708034119
 21
-10.62378743759132
 31
0.0
  0
LINE
  8
DETAIL
  6
CONTINUOUS
 62
     5
 10
-171.22063708034119
 20
-10.62378743759132
 30
0.0
 11
-171.19602266753421
 21
-10.52993340551461
 31
0.0
  0
LINE
  8
DETAIL
  6
CONTINUOUS
 62
     5
 10
-171.19602266753421
 20
-10.52993340551461
 30
0.0
 11
-171.19602266753421
 21
-10.52993340551461
 31
0.0
  0
LINE
  8
DETAIL
  6
CONTINUOUS
 62
     5
 10
-171.19602266753421
 20
-10.52993340551461
 30
0.0
 11
-171.17124091854791
 21
-10.436127711091791
 31
0.0
  0
LINE
  8
DETAIL
  6
CONTINUOUS
 62
     5
 10
-171.17124091854791
 20
-10.436127711091791
 30
0.0
 11
-171.14623805964081
 21
-10.342175665936111
 31
0.0
  0
LINE
  8
DETAIL
  6
CONTINUOUS
 62
     5
 10
-171.14623805964081
 20
-10.342175665936111
 30
0.0
 11
-171.14623805964081
 21
-10.342175665936111
 31
0.0
  0
LINE
  8
DETAIL
  6
CONTINUOUS
 62
     5
 10
-171.14623805964081
 20
-10.342175665936111
 30
0.0
 11
-171.12101239369721
 21
-10.248073728198509
 31
0.0
  0
LINE
  8
DETAIL
  6
CONTINUOUS
 62
     5
 10
-171.12101239369721
 20
-10.248073728198509
 30
0.0
 11
-171.09577965528021
 21
-10.15459778471177
 31
0.0
  0
LINE
  8
DETAIL
  6
CONTINUOUS
 62
     5
 10
-171.09577965528021
 20
-10.15459778471177
 30
0.0
 11
-171.09577965528021
 21
-10.15459778471177
 31
0.0
  0
LINE
  8
DETAIL
  6
CONTINUOUS
 62
     5
 10
-171.09577965528021
 20
-10.15459778471177
 30
0.0
 11
-171.0705947864993
 21
-10.06194286142977
 31
0.0
  0
LINE
  8
DETAIL
  6
CONTINUOUS
 62
     5
 10
-171.0705947864993
 20
-10.06194286142977
 30
0.0
 11
-171.04465212795279
 21
-9.9672011121119795
 31
0.0
  0
LINE
  8
DETAIL
  6
CONTINUOUS
 62
     5
 10
-171.04465212795279
 20
-9.9672011121119795
 30
0.0
 11
-171.04465212795279
 21
-9.9672011121119795
 31
0.0
  0
LINE
  8
DETAIL
  6
CONTINUOUS
 62
     5
 10
-171.04465212795279
 20
-9.9672011121119795
 30
0.0
 11
-171.01727453004801
 21
-9.8679369338826746
 31
0.0
  0
LINE
  8
DETAIL
  6
CONTINUOUS
 62
     5
 10
-171.01727453004801
 20
-9.8679369338826746
 30
0.0
 11
-170.98915948399511
 21
-9.7667065695229667
 31
0.0
  0
LINE
  8
DETAIL
  6
CONTINUOUS
 62
     5
 10
-170.98915948399511
 20
-9.7667065695229667
 30
0.0
 11
-170.98915948399511
 21
-9.7667065695229667
 31
0.0
  0
LINE
  8
DETAIL
  6
CONTINUOUS
 62
     5
 10
-170.98915948399511
 20
-9.7667065695229667
 30
0.0
 11
-170.96110199017201
 21
-9.6664214980562519
 31
0.0
  0
LINE
  8
DETAIL
  6
CONTINUOUS
 62
     5
 10
-170.96110199017201
 20
-9.6664214980562519
 30
0.0
 11
-170.93291244489319
 21
-9.5664222978223279
 31
0.0
  0
LINE
  8
DETAIL
  6
CONTINUOUS
 62
     5
 10
-170.93291244489319
 20
-9.5664222978223279
 30
0.0
 11
-170.93291244489319
 21
-9.5664222978223279
 31
0.0
  0
LINE
  8
DETAIL
  6
CONTINUOUS
 62
     5
 10
-170.93291244489319
 20
-9.5664222978223279
 30
0.0
 11
-170.9043456619047
 21
-9.4658163534804771
 31
0.0
  0
LINE
  8
DETAIL
  6
CONTINUOUS
 62
     5
 10
-170.9043456619047
 20
-9.4658163534804771
 30
0.0
 11
-170.87591872881561
 21
-9.3663491756585699
 31
0.0
  0
LINE
  8
DETAIL
  6
CONTINUOUS
 62
     5
 10
-170.87591872881561
 20
-9.3663491756585699
 30
0.0
 11
-170.87591872881561
 21
-9.3663491756585699
 31
0.0
  0
LINE
  8
DETAIL
  6
CONTINUOUS
 62
     5
 10
-170.87591872881561
 20
-9.3663491756585699
 30
0.0
 11
-170.8478231788531
 21
-9.2686804056788787
 31
0.0
  0
LINE
  8
DETAIL
  6
CONTINUOUS
 62
     5
 10
-170.8478231788531
 20
-9.2686804056788787
 30
0.0
 11
-170.8181860539153
 21
-9.1664880816790628
 31
0.0
  0
LINE
  8
DETAIL
  6
CONTINUOUS
 62
     5
 10
-170.8181860539153
 20
-9.1664880816790628
 30
0.0
 11
-170.8181860539153
 21
-9.1664880816790628
 31
0.0
  0
LINE
  8
DETAIL
  6
CONTINUOUS
 62
     5
 10
-170.8181860539153
 20
-9.1664880816790628
 30
0.0
 11
-170.78649219593311
 21
-9.058026912692867
 31
0.0
  0
LINE
  8
DETAIL
  6
CONTINUOUS
 62
     5
 10
-170.78649219593311
 20
-9.058026912692867
 30
0.0
 11
-170.75972213835669
 21
-8.9668398945325407
 31
0.0
  0
LINE
  8
DETAIL
  6
CONTINUOUS
 62
     5
 10
-170.75972213835669
 20
-8.9668398945325407
 30
0.0
 11
-170.75972213835669
 21
-8.9668398945325407
 31
0.0
  0
LINE
  8
DETAIL
  6
CONTINUOUS
 62
     5
 10
-170.75972213835669
 20
-8.9668398945325407
 30
0.0
 11
-170.74379488018471
 21
-8.9128349147856625
 31
0.0
  0
LINE
  8
DETAIL
  6
CONTINUOUS
 62
     5
 10
-170.74379488018471
 20
-8.9128349147856625
 30
0.0
 11
-170.73288759107069
 21
-8.8760911413735357
 31
0.0
  0
LINE
  8
DETAIL
  6
CONTINUOUS
 62
     5
 10
-170.73288759107069
 20
-8.8760911413735357
 30
0.0
 11
-170.73288759107069
 21
-8.8760911413735357
 31
0.0
  0
LINE
  8
DETAIL
  6
CONTINUOUS
 62
     5
 10
-170.73288759107069
 20
-8.8760911413735357
 30
0.0
 11
-170.72009280827339
 21
-8.8330444069456462
 31
0.0
  0
LINE
  8
DETAIL
  6
CONTINUOUS
 62
     5
 10
-170.72009280827339
 20
-8.8330444069456462
 30
0.0
 11
-170.70590636878981
 21
-8.785385922733667
 31
0.0
  0
LINE
  8
DETAIL
  6
CONTINUOUS
 62
     5
 10
-170.70590636878981
 20
-8.785385922733667
 30
0.0
 11
-170.70590636878981
 21
-8.785385922733667
 31
0.0
  0
LINE
  8
DETAIL
  6
CONTINUOUS
 62
     5
 10
-170.70590636878981
 20
-8.785385922733667
 30
0.0
 11
-170.69217947808761
 21
-8.7394294453408747
 31
0.0
  0
LINE
  8
DETAIL
  6
CONTINUOUS
 62
     5
 10
-170.69217947808761
 20
-8.7394294453408747
 30
0.0
 11
-170.67878151579541
 21
-8.6947235342754539
 31
0.0
  0
LINE
  8
DETAIL
  6
CONTINUOUS
 62
     5
 10
-170.67878151579541
 20
-8.6947235342754539
 30
0.0
 11
-170.67878151579541
 21
-8.6947235342754539
 31
0.0
  0
LINE
  8
DETAIL
  6
CONTINUOUS
 62
     5
 10
-170.67878151579541
 20
-8.6947235342754539
 30
0.0
 11
-170.66521740599109
 21
-8.6495768022214179
 31
0.0
  0
LINE
  8
DETAIL
  6
CONTINUOUS
 62
     5
 10
-170.66521740599109
 20
-8.6495768022214179
 30
0.0
 11
-170.65151607637651
 21
-8.6041032716607333
 31
0.0
  0
LINE
  8
DETAIL
  6
CONTINUOUS
 62
     5
 10
-170.65151607637651
 20
-8.6041032716607333
 30
0.0
 11
-170.65151607637651
 21
-8.6041032716607333
 31
0.0
  0
LINE
  8
DETAIL
  6
CONTINUOUS
 62
     5
 10
-170.65151607637651
 20
-8.6041032716607333
 30
0.0
 11
-170.63780890839459
 21
-8.55875420700022
 31
0.0
  0
LINE
  8
DETAIL
  6
CONTINUOUS
 62
     5
 10
-170.63780890839459
 20
-8.55875420700022
 30
0.0
 11
-170.62411309481379
 21
-8.5135244305517972
 31
0.0
  0
LINE
  8
DETAIL
  6
CONTINUOUS
 62
     5
 10
-79.528271405490614
 20
-228.96930533117941
 30
0.0
 11
-130.71082390952779
 21
-228.96930533117941
 31
0.0
  0
LINE
  8
DETAIL
  6
CONTINUOUS
 62
     5
 10
-248.40064620355409
 20
-85.638126009692982
 30
0.0
 11
-245.39579967689801
 21
-85.638126009692982
 31
0.0
  0
LINE
  8
DETAIL
  6
CONTINUOUS
 62
     5
 10
-237.38287560581239
 20
-79.628432956381175
 30
0.0
 11
-245.39579967689801
 21
-79.628432956381175
 31
0.0
  0
LINE
  8
DETAIL
  6
CONTINUOUS
 62
     5
 10
-237.38287560581239
 20
-74.620355411954492
 30
0.0
 11
-245.39579967689801
 21
-74.620355411954492
 31
0.0
  0
LINE
  8
DETAIL
  6
CONTINUOUS
 62
     5
 10
-248.40064620355409
 20
-63.549721702295543
 30
0.0
 11
-245.39579967689801
 21
-63.549721702295543
 31
0.0
  0
LINE
  8
DETAIL
  6
CONTINUOUS
 62
     5
 10
-237.38287560581239
 20
-79.628432956381175
 30
0.0
 11
-237.38287560581239
 21
-74.620355411954492
 31
0.0
  0
LINE
  8
DETAIL
  6
CONTINUOUS
 62
     5
 10
-237.38287560581239
 20
74.620355411954733
 30
0.0
 11
-237.38287560581239
 21
79.628432956381175
 31
0.0
  0
LINE
  8
DETAIL
  6
CONTINUOUS
 62
     5
 10
-237.38287560581239
 20
74.620355411954733
 30
0.0
 11
-245.39579967689801
 21
74.620355411954733
 31
0.0
  0
LINE
  8
DETAIL
  6
CONTINUOUS
 62
     5
 10
-237.38287560581239
 20
79.628432956381175
 30
0.0
 11
-245.39579967689801
 21
79.628432956381175
 31
0.0
  0
LINE
  8
DETAIL
  6
CONTINUOUS
 62
     5
 10
-79.528271405490614
 20
228.96930533117941
 30
0.0
 11
-130.71082390952779
 21
228.96930533117941
 31
0.0
  0
LINE
  8
DETAIL
  6
CONTINUOUS
 62
     5
 10
-79.528271405490614
 20
-228.96930533117941
 30
0.0
 11
-77.961598541127614
 21
-228.98357609538789
 31
0.0
  0
LINE
  8
DETAIL
  6
CONTINUOUS
 62
     5
 10
-77.961598541127614
 20
-228.98357609538789
 30
0.0
 11
-76.39885821404232
 21
-229.01043481848731
 31
0.0
  0
LINE
  8
DETAIL
  6
CONTINUOUS
 62
     5
 10
-76.39885821404232
 20
-229.01043481848731
 30
0.0
 11
-76.39885821404232
 21
-229.01043481848731
 31
0.0
  0
LINE
  8
DETAIL
  6
CONTINUOUS
 62
     5
 10
-76.39885821404232
 20
-229.01043481848731
 30
0.0
 11
-74.841129407979906
 21
-229.0601154599162
 31
0.0
  0
LINE
  8
DETAIL
  6
CONTINUOUS
 62
     5
 10
-74.841129407979906
 20
-229.0601154599162
 30
0.0
 11
-73.278076892563604
 21
-229.13343598130251
 31
0.0
  0
LINE
  8
DETAIL
  6
CONTINUOUS
 62
     5
 10
-73.278076892563604
 20
-229.13343598130251
 30
0.0
 11
-73.278076892563604
 21
-229.13343598130251
 31
0.0
  0
LINE
  8
DETAIL
  6
CONTINUOUS
 62
     5
 10
-73.278076892563604
 20
-229.13343598130251
 30
0.0
 11
-71.707926098034818
 21
-229.22796976461041
 31
0.0
  0
LINE
  8
DETAIL
  6
CONTINUOUS
 62
     5
 10
-71.707926098034818
 20
-229.22796976461041
 30
0.0
 11
-70.174559311224129
 21
-229.33772787096129
 31
0.0
  0
LINE
  8
DETAIL
  6
CONTINUOUS
 62
     5
 10
-70.174559311224129
 20
-229.33772787096129
 30
0.0
 11
-70.174559311224129
 21
-229.33772787096129
 31
0.0
  0
LINE
  8
DETAIL
  6
CONTINUOUS
 62
     5
 10
-70.174559311224129
 20
-229.33772787096129
 30
0.0
 11
-68.69046973005095
 21
-229.46174710156171
 31
0.0
  0
LINE
  8
DETAIL
  6
CONTINUOUS
 62
     5
 10
-68.69046973005095
 20
-229.46174710156171
 30
0.0
 11
-67.096937340196746
 21
-229.62272953880051
 31
0.0
  0
LINE
  8
DETAIL
  6
CONTINUOUS
 62
     5
 10
-67.096937340196746
 20
-229.62272953880051
 30
0.0
 11
-67.096937340196746
 21
-229.62272953880051
 31
0.0
  0
LINE
  8
DETAIL
  6
CONTINUOUS
 62
     5
 10
-67.096937340196746
 20
-229.62272953880051
 30
0.0
 11
-65.352237822372899
 21
-229.82651888439051
 31
0.0
  0
LINE
  8
DETAIL
  6
CONTINUOUS
 62
     5
 10
-65.352237822372899
 20
-229.82651888439051
 30
0.0
 11
-64.053842849658849
 21
-229.98786003615649
 31
0.0
  0
LINE
  8
DETAIL
  6
CONTINUOUS
 62
     5
 10
-64.053842849658849
 20
-229.98786003615649
 30
0.0
 11
-64.053842849658849
 21
-229.98786003615649
 31
0.0
  0
LINE
  8
DETAIL
  6
CONTINUOUS
 62
     5
 10
-64.053842849658849
 20
-229.98786003615649
 30
0.0
 11
-63.705647534104742
 21
-230.03264293268779
 31
0.0
  0
LINE
  8
DETAIL
  6
CONTINUOUS
 62
     5
 10
-63.705647534104742
 20
-230.03264293268779
 30
0.0
 11
-63.798044751260477
 21
-230.02243647951289
 31
0.0
  0
LINE
  8
DETAIL
  6
CONTINUOUS
 62
     5
 10
-63.798044751260477
 20
-230.02243647951289
 30
0.0
 11
-63.798044751260477
 21
-230.02243647951289
 31
0.0
  0
LINE
  8
DETAIL
  6
CONTINUOUS
 62
     5
 10
-63.798044751260477
 20
-230.02243647951289
 30
0.0
 11
-63.729286180816302
 21
-230.03255082991541
 31
0.0
  0
LINE
  8
DETAIL
  6
CONTINUOUS
 62
     5
 10
-63.729286180816302
 20
-230.03255082991541
 30
0.0
 11
-63.542560955438603
 21
-230.05758216125079
 31
0.0
  0
LINE
  8
DETAIL
  6
CONTINUOUS
 62
     5
 10
-63.542560955438603
 20
-230.05758216125079
 30
0.0
 11
-63.542560955438603
 21
-230.05758216125079
 31
0.0
  0
LINE
  8
DETAIL
  6
CONTINUOUS
 62
     5
 10
-63.542560955438603
 20
-230.05758216125079
 30
0.0
 11
-63.399104049940433
 21
-230.07735184931971
 31
0.0
  0
LINE
  8
DETAIL
  6
CONTINUOUS
 62
     5
 10
-63.399104049940433
 20
-230.07735184931971
 30
0.0
 11
-63.287396354635462
 21
-230.09329603962101
 31
0.0
  0
LINE
  8
DETAIL
  6
CONTINUOUS
 62
     5
 10
-63.287396354635462
 20
-230.09329603962101
 30
0.0
 11
-63.287396354635462
 21
-230.09329603962101
 31
0.0
  0
LINE
  8
DETAIL
  6
CONTINUOUS
 62
     5
 10
-63.287396354635462
 20
-230.09329603962101
 30
0.0
 11
-63.164249959958738
 21
-230.11081829436151
 31
0.0
  0
LINE
  8
DETAIL
  6
CONTINUOUS
 62
     5
 10
-63.164249959958738
 20
-230.11081829436151
 30
0.0
 11
-63.032555841287831
 21
-230.12957707287339
 31
0.0
  0
LINE
  8
DETAIL
  6
CONTINUOUS
 62
     5
 10
-63.032555841287831
 20
-230.12957707287339
 30
0.0
 11
-63.032555841287831
 21
-230.12957707287339
 31
0.0
  0
LINE
  8
DETAIL
  6
CONTINUOUS
 62
     5
 10
-63.032555841287831
 20
-230.12957707287339
 30
0.0
 11
-62.903834331413009
 21
-230.14813596921951
 31
0.0
  0
LINE
  8
DETAIL
  6
CONTINUOUS
 62
     5
 10
-62.903834331413009
 20
-230.14813596921951
 30
0.0
 11
-62.778044307845903
 21
-230.16642421925829
 31
0.0
  0
LINE
  8
DETAIL
  6
CONTINUOUS
 62
     5
 10
-79.528271405490614
 20
228.96930533117941
 30
0.0
 11
-77.961598541127614
 21
228.98357609541591
 31
0.0
  0
LINE
  8
DETAIL
  6
CONTINUOUS
 62
     5
 10
-77.961598541127614
 20
228.98357609541591
 30
0.0
 11
-76.39885821404232
 21
229.01043481856209
 31
0.0
  0
LINE
  8
DETAIL
  6
CONTINUOUS
 62
     5
 10
-76.39885821404232
 20
229.01043481856209
 30
0.0
 11
-76.39885821404232
 21
229.01043481856209
 31
0.0
  0
LINE
  8
DETAIL
  6
CONTINUOUS
 62
     5
 10
-76.39885821404232
 20
229.01043481856209
 30
0.0
 11
-74.841129407979906
 21
229.06011546007039
 31
0.0
  0
LINE
  8
DETAIL
  6
CONTINUOUS
 62
     5
 10
-74.841129407979906
 20
229.06011546007039
 30
0.0
 11
-73.278076892563604
 21
229.13343598155799
 31
0.0
  0
LINE
  8
DETAIL
  6
CONTINUOUS
 62
     5
 10
-73.278076892563604
 20
229.13343598155799
 30
0.0
 11
-73.278076892563604
 21
229.13343598155799
 31
0.0
  0
LINE
  8
DETAIL
  6
CONTINUOUS
 62
     5
 10
-73.278076892563604
 20
229.13343598155799
 30
0.0
 11
-71.707926098034818
 21
229.2279697649758
 31
0.0
  0
LINE
  8
DETAIL
  6
CONTINUOUS
 62
     5
 10
-71.707926098034818
 20
229.2279697649758
 30
0.0
 11
-70.174559311224129
 21
229.33772787143721
 31
0.0
  0
LINE
  8
DETAIL
  6
CONTINUOUS
 62
     5
 10
-70.174559311224129
 20
229.33772787143721
 30
0.0
 11
-70.174559311224129
 21
229.33772787143721
 31
0.0
  0
LINE
  8
DETAIL
  6
CONTINUOUS
 62
     5
 10
-70.174559311224129
 20
229.33772787143721
 30
0.0
 11
-68.69046973005095
 21
229.4617471021422
 31
0.0
  0
LINE
  8
DETAIL
  6
CONTINUOUS
 62
     5
 10
-68.69046973005095
 20
229.4617471021422
 30
0.0
 11
-67.096937340196746
 21
229.62272953947061
 31
0.0
  0
LINE
  8
DETAIL
  6
CONTINUOUS
 62
     5
 10
-67.096937340196746
 20
229.62272953947061
 30
0.0
 11
-67.096937340196746
 21
229.62272953947061
 31
0.0
  0
LINE
  8
DETAIL
  6
CONTINUOUS
 62
     5
 10
-67.096937340196746
 20
229.62272953947061
 30
0.0
 11
-65.352237822372899
 21
229.82651888512581
 31
0.0
  0
LINE
  8
DETAIL
  6
CONTINUOUS
 62
     5
 10
-65.352237822372899
 20
229.82651888512581
 30
0.0
 11
-64.053842849658849
 21
229.9878600369282
 31
0.0
  0
LINE
  8
DETAIL
  6
CONTINUOUS
 62
     5
 10
-64.053842849658849
 20
229.9878600369282
 30
0.0
 11
-64.053842849658849
 21
229.9878600369282
 31
0.0
  0
LINE
  8
DETAIL
  6
CONTINUOUS
 62
     5
 10
-64.053842849658849
 20
229.9878600369282
 30
0.0
 11
-63.705647534104742
 21
230.0326429334657
 31
0.0
  0
LINE
  8
DETAIL
  6
CONTINUOUS
 62
     5
 10
-63.705647534104742
 20
230.0326429334657
 30
0.0
 11
-63.798044751260477
 21
230.0224364802807
 31
0.0
  0
LINE
  8
DETAIL
  6
CONTINUOUS
 62
     5
 10
-63.798044751260477
 20
230.0224364802807
 30
0.0
 11
-63.798044751260477
 21
230.0224364802807
 31
0.0
  0
LINE
  8
DETAIL
  6
CONTINUOUS
 62
     5
 10
-63.798044751260477
 20
230.0224364802807
 30
0.0
 11
-63.729286180816302
 21
230.03255083066759
 31
0.0
  0
LINE
  8
DETAIL
  6
CONTINUOUS
 62
     5
 10
-63.729286180816302
 20
230.03255083066759
 30
0.0
 11
-63.542560955438603
 21
230.0575821619768
 31
0.0
  0
LINE
  8
DETAIL
  6
CONTINUOUS
 62
     5
 10
-63.542560955438603
 20
230.0575821619768
 30
0.0
 11
-63.542560955438603
 21
230.0575821619768
 31
0.0
  0
LINE
  8
DETAIL
  6
CONTINUOUS
 62
     5
 10
-63.542560955438603
 20
230.0575821619768
 30
0.0
 11
-63.399104049940433
 21
230.07735184999839
 31
0.0
  0
LINE
  8
DETAIL
  6
CONTINUOUS
 62
     5
 10
-63.399104049940433
 20
230.07735184999839
 30
0.0
 11
-63.287396354635462
 21
230.09329604022969
 31
0.0
  0
LINE
  8
DETAIL
  6
CONTINUOUS
 62
     5
 10
-63.287396354635462
 20
230.09329604022969
 30
0.0
 11
-63.287396354635462
 21
230.09329604022969
 31
0.0
  0
LINE
  8
DETAIL
  6
CONTINUOUS
 62
     5
 10
-63.287396354635462
 20
230.09329604022969
 30
0.0
 11
-63.164249959958738
 21
230.1108182948735
 31
0.0
  0
LINE
  8
DETAIL
  6
CONTINUOUS
 62
     5
 10
-63.164249959958738
 20
230.1108182948735
 30
0.0
 11
-63.032555841287831
 21
230.12957707325211
 31
0.0
  0
LINE
  8
DETAIL
  6
CONTINUOUS
 62
     5
 10
-63.032555841287831
 20
230.12957707325211
 30
0.0
 11
-63.032555841287831
 21
230.12957707325211
 31
0.0
  0
LINE
  8
DETAIL
  6
CONTINUOUS
 62
     5
 10
-63.032555841287831
 20
230.12957707325211
 30
0.0
 11
-62.903834331413009
 21
230.14813596942139
 31
0.0
  0
LINE
  8
DETAIL
  6
CONTINUOUS
 62
     5
 10
-62.903834331413009
 20
230.14813596942139
 30
0.0
 11
-62.778044307845903
 21
230.16642421925849
 31
0.0
  0
LINE
  8
DETAIL
  6
CONTINUOUS
 62
     5
 10
-248.40064620355409
 20
85.638126009692996
 30
0.0
 11
-245.39579967689801
 21
85.638126009692996
 31
0.0
  0
LINE
  8
BASIS
  6
DASHDOT
 62
     6
 10
73.804749039505623
 20
0.0
 30
0.0
 11
-336.61333859373741
 21
0.0
 31
0.0
  0
ARC
  8
DETAIL
  6
CONTINUOUS
 62
     5
 10
-177.74008052496711
 20
-141.56951066431239
 30
0.0
 40
115.5119083390904
 50
199.74278063634111
 51
270.27156000195902
  0
ARC
  8
DETAIL
  6
CONTINUOUS
 62
     5
 10
-180.53673006558731
 20
-158.9813036245969
 30
0.0
 40
71.220874921910578
 50
197.6615075583093
 51
271.80971307630369
  0
ARC
  8
DETAIL
  6
CONTINUOUS
 62
     5
 10
-6.2738394587380526
 20
-243.62730343521849
 30
0.0
 40
3.925367398809831
 50
197.70312861806889
 51
262.27421151194409
  0
ARC
  8
DETAIL
  6
CONTINUOUS
 62
     5
 10
-8.7585443991941929
 20
-257.08951892297267
 30
0.0
 40
9.7704783813302853
 50
53.885386469618084
 51
78.445603086464132
  0
ARC
  8
DETAIL
  6
CONTINUOUS
 62
     5
 10
-8.1403279665486252
 20
-244.4085655564036
 30
0.0
 40
6.3935755923847131
 50
183.69812627275681
 51
256.52899613684309
  0
ARC
  8
DETAIL
  6
CONTINUOUS
 62
     5
 10
-9.772424349166954
 20
-255.67937893269351
 30
0.0
 40
5.0551525301127214
 50
22.598487785024691
 51
88.382492089036489
  0
ARC
  8
DETAIL
  6
CONTINUOUS
 62
     5
 10
-9.9803732008207362
 20
-305.46397067356747
 30
0.0
 40
5.3693893257050949
 50
24.852775843288821
 51
89.792477366873356
  0
ARC
  8
DETAIL
  6
CONTINUOUS
 62
     5
 10
-180.65850406879579
 20
159.15351807147911
 30
0.0
 40
71.05270579124516
 50
88.087753640613101
 51
162.44102572477311
  0
ARC
  8
DETAIL
  6
CONTINUOUS
 62
     5
 10
-6.2738394587380526
 20
243.84128049540001
 30
0.0
 40
3.925367398809831
 50
97.725788488055855
 51
162.29687138193111
  0
ARC
  8
DETAIL
  6
CONTINUOUS
 62
     5
 10
-8.7585443991941929
 20
257.30349598315428
 30
0.0
 40
9.7704783813302853
 50
281.55439691353592
 51
306.11461353038192
  0
ARC
  8
DETAIL
  6
CONTINUOUS
 62
     5
 10
-8.1403279665486252
 20
244.62254261658521
 30
0.0
 40
6.3935755923847131
 50
103.47100386315689
 51
176.30187372724319
  0
ARC
  8
DETAIL
  6
CONTINUOUS
 62
     5
 10
-9.772424349166954
 20
255.89335599287489
 30
0.0
 40
5.0551525301127214
 50
271.61750791096352
 51
337.4015122149753
  0
ARC
  8
DETAIL
  6
CONTINUOUS
 62
     5
 10
-9.9803732008207362
 20
305.67794773374902
 30
0.0
 40
5.3693893257050949
 50
270.20752263312659
 51
335.14722415671122
  0
ARC
  8
DETAIL
  6
CONTINUOUS
 62
     5
 10
-177.74008052591341
 20
141.56951066543371
 30
0.0
 40
115.5119083379646
 50
90.271560001490798
 51
160.2572193638251
  0
ARC
  8
DETAIL
  6
CONTINUOUS
 62
     5
 10
-107.98771135919409
 20
-121.4999927152644
 30
0.0
 40
97.600339675531544
 50
243.8313732748878
 51
253.80243190241819
  0
ARC
  8
DETAIL
  6
CONTINUOUS
 62
     5
 10
-8.0834962198808853
 20
-125.3898987552521
 30
0.0
 40
165.6523887252973
 50
181.08202174048361
 51
210.35216918203389
  0
ARC
  8
DETAIL
  6
CONTINUOUS
 62
     5
 10
659.05522208269167
 20
-94.707156483734721
 30
0.0
 40
833.44766248668111
 50
176.78355407500939
 51
182.32498368335769
  0
ARC
  8
DETAIL
  6
CONTINUOUS
 62
     5
 10
-169.93527064739681
 20
-48.52982691851733
 30
0.0
 40
3.1983493174646038
 50
53.401895875651377
 51
169.44580053152461
  0
ARC
  8
DETAIL
  6
CONTINUOUS
 62
     5
 10
142.6351756216624
 20
394.30278051900888
 30
0.0
 40
538.84770844695197
 50
234.78489890138269
 51
238.95978156347391
  0
ARC
  8
DETAIL
  6
CONTINUOUS
 62
     5
 10
-55.230794376570323
 20
-24.596044018242569
 30
0.0
 40
114.316760120162
 50
134.40085483762189
 51
153.90498901440239
  0
ARC
  8
DETAIL
  6
CONTINUOUS
 62
     5
 10
-156.86911329874451
 20
157.52137731201171
 30
0.0
 40
15.84708340114434
 50
63.1291441980934
 51
174.64373759129589
  0
ARC
  8
DETAIL
  6
CONTINUOUS
 62
     5
 10
334.86594523157481
 20
118.3296349993747
 30
0.0
 40
509.1399844511937
 50
175.4182258473007
 51
183.74993091797509
  0
ARC
  8
DETAIL
  6
CONTINUOUS
 62
     5
 10
-166.35217250017229
 20
84.3278214759452
 30
0.0
 40
6.8678815636848709
 50
174.12423020871651
 51
263.9241396110861
  0
ARC
  8
DETAIL
  6
CONTINUOUS
 62
     5
 10
-167.7165404863666
 20
6.1398166423782357
 30
0.0
 40
71.361549727153431
 50
78.276358931954647
 51
89.488199354356169
  0
ARC
  8
DETAIL
  6
CONTINUOUS
 62
     5
 10
-254.7530023040093
 20
32.488985830711933
 30
0.0
 40
174.36344741439089
 50
46.71833653851558
 51
52.953933148134062
  0
ARC
  8
DETAIL
  6
CONTINUOUS
 62
     5
 10
-178.73182637260061
 20
-149.08956782051979
 30
0.0
 40
112.2409277058468
 50
196.29859442264149
 51
270.22678555669268
  0
ARC
  8
DETAIL
  6
CONTINUOUS
 62
     5
 10
-8.1583449744524614
 20
-293.97864978560438
 30
0.0
 40
6.3760761023435499
 50
183.77451533979379
 51
253.57798612942159
  0
ARC
  8
DETAIL
  6
CONTINUOUS
 62
     5
 10
-8.1583449744524614
 20
294.1926268457878
 30
0.0
 40
6.3760761023435499
 50
106.4220138705784
 51
176.22548466020621
  0
ARC
  8
DETAIL
  6
CONTINUOUS
 62
     5
 10
-178.72401102304559
 20
149.0790969624837
 30
0.0
 40
112.25136782331001
 50
89.777224707767047
 51
163.69739531313769
  0
ARC
  8
DETAIL
  6
CONTINUOUS
 62
     5
 10
-344.49560591400802
 20
88.733669720418646
 30
0.0
 40
191.7020959856948
 50
354.79254671951622
 51
356.20866082092323
  0
ARC
  8
DETAIL
  6
CONTINUOUS
 62
     5
 10
-104.2703496622202
 20
141.73278578876349
 30
0.0
 40
85.952573046773153
 50
234.98858948629521
 51
248.89819733381381
  0
ARC
  8
DETAIL
  6
CONTINUOUS
 62
     5
 10
-517.39581664605453
 20
417.12072283898812
 30
0.0
 40
598.11233873344793
 50
307.61693511600811
 51
309.71567964285782
  0
ARC
  8
OUTLINE
  6
CONTINUOUS
 62
     3
 10
-178.7318263726028
 20
-149.08956782051979
 30
0.0
 40
112.2409277058468
 50
196.2985944226391
 51
270.22678555669353
  0
ARC
  8
OUTLINE
  6
CONTINUOUS
 62
     3
 10
-8.1583449744545078
 20
-293.97864978560438
 30
0.0
 40
6.3760761023435499
 50
183.77451533979379
 51
253.57798612942159
  0
ARC
  8
OUTLINE
  6
CONTINUOUS
 62
     3
 10
-8.1583449744545078
 20
294.1926268457878
 30
0.0
 40
6.3760761023435499
 50
106.4220138705784
 51
176.22548466020621
  0
ARC
  8
OUTLINE
  6
CONTINUOUS
 62
     3
 10
-178.72401102304761
 20
149.0790969624837
 30
0.0
 40
112.25136782331001
 50
89.777224707765413
 51
163.69739531313769
  0
ENDSEC
  0
EOF
