  0
SECTION
  2
HEADER
  9
$ACADVER
  1
AC1009
  9
$DWGCODEPAGE
  3
dos932
  9
$INSBASE
 10
0.0
 20
0.0
 30
0.0
  9
$EXTMIN
 10
-635.36680474105196
 20
-487.38096978909022
 30
-0.0015258207003583
  9
$EXTMAX
 10
948.51838305885576
 20
558.83789860973775
 30
0.0000000349246037
  9
$LIMMIN
 10
-2970.0
 20
-2100.0
  9
$LIMMAX
 10
2970.0
 20
2100.0
  9
$ORTHOMODE
 70
     1
  9
$REGENMODE
 70
     1
  9
$FILLMODE
 70
     1
  9
$QTEXTMODE
 70
     0
  9
$MIRRTEXT
 70
     0
  9
$LTSCALE
 40
20.0
  9
$ATTMODE
 70
     1
  9
$TEXTSIZE
 40
64.0
  9
$TRACEWID
 40
0.05
  9
$TEXTSTYLE
  7
STANDARD
  9
$CLAYER
  8
SIZE
  9
$CELTYPE
  6
CONTINUOUS
  9
$CECOLOR
 62
     7
  9
$DIMSCALE
 40
1.0
  9
$DIMASZ
 40
12.0
  9
$DIMEXO
 40
20.0
  9
$DIMDLI
 40
200.0
  9
$DIMRND
 40
0.0
  9
$DIMDLE
 40
0.0
  9
$DIMEXE
 40
20.0
  9
$DIMTP
 40
0.0
  9
$DIMTM
 40
0.0
  9
$DIMTXT
 40
64.0
  9
$DIMCEN
 40
0.09
  9
$DIMTSZ
 40
0.0
  9
$DIMTOL
 70
     0
  9
$DIMLIM
 70
     0
  9
$DIMTIH
 70
     0
  9
$DIMTOH
 70
     0
  9
$DIMSE1
 70
     0
  9
$DIMSE2
 70
     0
  9
$DIMTAD
 70
     1
  9
$DIMZIN
 70
     8
  9
$DIMBLK
  1

  9
$DIMASO
 70
     1
  9
$DIMSHO
 70
     0
  9
$DIMPOST
  1

  9
$DIMAPOST
  1

  9
$DIMALT
 70
     0
  9
$DIMALTD
 70
     2
  9
$DIMALTF
 40
25.399999999999999
  9
$DIMLFAC
 40
1.0
  9
$DIMTOFL
 70
     1
  9
$DIMTVP
 40
0.0
  9
$DIMTIX
 70
     1
  9
$DIMSOXD
 70
     0
  9
$DIMSAH
 70
     0
  9
$DIMBLK1
  1

  9
$DIMBLK2
  1

  9
$DIMSTYLE
  2
STANDARD
  9
$DIMCLRD
 70
     7
  9
$DIMCLRE
 70
     7
  9
$DIMCLRT
 70
     7
  9
$DIMTFAC
 40
1.0
  9
$DIMGAP
 40
25.0
  9
$LUNITS
 70
     2
  9
$LUPREC
 70
     4
  9
$SKETCHINC
 40
0.1
  9
$FILLETRAD
 40
3.0
  9
$AUNITS
 70
     1
  9
$AUPREC
 70
     3
  9
$MENU
  1
ACAD
  9
$ELEVATION
 40
0.0
  9
$PELEVATION
 40
0.0
  9
$THICKNESS
 40
0.0
  9
$LIMCHECK
 70
     0
  9
$CHAMFERA
 40
0.0
  9
$CHAMFERB
 40
0.0
  9
$SKPOLY
 70
     0
  9
$TDCREATE
 40
2453019.62301037
  9
$TDUPDATE
 40
2458949.454032442
  9
$TDINDWG
 40
1.7127474653
  9
$TDUSRTIMER
 40
1.7127474653
  9
$USRTIMER
 70
     1
  9
$ANGBASE
 50
0.0
  9
$ANGDIR
 70
     0
  9
$PDMODE
 70
     3
  9
$PDSIZE
 40
-2.0
  9
$PLINEWID
 40
0.0
  9
$SPLFRAME
 70
     0
  9
$SPLINETYPE
 70
     6
  9
$SPLINESEGS
 70
     8
  9
$SURFTAB1
 70
     6
  9
$SURFTAB2
 70
     6
  9
$SURFTYPE
 70
     6
  9
$SURFU
 70
     6
  9
$SURFV
 70
     6
  9
$UCSNAME
  2

  9
$UCSORG
 10
0.0
 20
0.0
 30
0.0
  9
$UCSXDIR
 10
1.0
 20
0.0
 30
0.0
  9
$UCSYDIR
 10
0.0
 20
1.0
 30
0.0
  9
$PUCSNAME
  2

  9
$PUCSORG
 10
0.0
 20
0.0
 30
0.0
  9
$PUCSXDIR
 10
1.0
 20
0.0
 30
0.0
  9
$PUCSYDIR
 10
0.0
 20
1.0
 30
0.0
  9
$USERI1
 70
     0
  9
$USERI2
 70
     0
  9
$USERI3
 70
     0
  9
$USERI4
 70
     0
  9
$USERI5
 70
     0
  9
$USERR1
 40
20.0
  9
$USERR2
 40
0.0
  9
$USERR3
 40
0.0
  9
$USERR4
 40
0.0
  9
$USERR5
 40
0.0
  9
$WORLDVIEW
 70
     1
  9
$SHADEDGE
 70
     3
  9
$SHADEDIF
 70
    70
  9
$TILEMODE
 70
     1
  9
$MAXACTVP
 70
    48
  9
$PINSBASE
 10
0.0
 20
0.0
 30
0.0
  9
$PLIMCHECK
 70
     0
  9
$PEXTMIN
 10
-100000000000000000000.0
 20
-100000000000000000000.0
 30
-100000000000000000000.0
  9
$PEXTMAX
 10
100000000000000000000.0
 20
100000000000000000000.0
 30
100000000000000000000.0
  9
$PLIMMIN
 10
0.0
 20
0.0
  9
$PLIMMAX
 10
12.0
 20
9.0
  9
$UNITMODE
 70
     0
  9
$VISRETAIN
 70
     0
  9
$PLINEGEN
 70
     0
  9
$PSLTSCALE
 70
     0
  9
$TREEDEPTH
 70
  3020
  9
$ATTDIA
 70
     0
  9
$ATTREQ
 70
     1
  9
$BLIPMODE
 70
     1
  9
$COORDS
 70
     1
  9
$DRAGMODE
 70
     2
  9
$OSMODE
 70
     0
  9
$HANDLING
 70
     0
  9
$HANDSEED
  5
EE6F
  0
ENDSEC
  0
SECTION
  2
TABLES
  0
TABLE
  2
LTYPE
 70
     2
  0
LTYPE
  2
CONTINUOUS
 70
     0
  3
実線
 72
    65
 73
     0
 40
0.0
  0
LTYPE
  2
DASHDOT
 70
     0
  3
____ _ ____ _ ____ _ ____ _ ____ _ ____ _ ____
 72
    65
 73
     4
 40
5.5
 49
4.0
 49
-0.6
 49
0.3
 49
-0.6
  0
ENDTAB
  0
TABLE
  2
LAYER
 70
    12
  0
LAYER
  2
0
 70
     0
 62
     7
  6
CONTINUOUS
  0
LAYER
  2
BASIS
 70
     0
 62
     6
  6
DASHDOT
  0
LAYER
  2
OUTLINE
 70
     0
 62
     3
  6
CONTINUOUS
  0
LAYER
  2
DETAIL
 70
     0
 62
     5
  6
CONTINUOUS
  0
LAYER
  2
SIZE
 70
     0
 62
    30
  6
CONTINUOUS
  0
LAYER
  2
ARRANGE
 70
     0
 62
     1
  6
CONTINUOUS
  0
LAYER
  2
DEFPOINTS
 70
     0
 62
     7
  6
CONTINUOUS
  0
LAYER
  2
ETC
 70
     0
 62
    61
  6
CONTINUOUS
  0
LAYER
  2
FIX
 70
     0
 62
    11
  6
CONTINUOUS
  0
LAYER
  2
NOTE
 70
     0
 62
     4
  6
CONTINUOUS
  0
LAYER
  2
SERVICESPACE
 70
    64
 62
     2
  6
DASHDOT
  0
LAYER
  2
SYMBOLLINE
 70
    64
 62
    15
  6
CONTINUOUS
  0
ENDTAB
  0
TABLE
  2
STYLE
 70
     1
  0
STYLE
  2
STANDARD
 70
     0
 40
64.0
 41
0.9
 50
0.0
 71
     0
 42
64.0
  3
SIMPLEX.shx
  4
BIGFONT.shx
  0
ENDTAB
  0
TABLE
  2
APPID
 70
    19
  0
APPID
  2
ACAD
 70
     0
  0
APPID
  2
AUTOCAD_POSTSCRIPT_FIGURE
 70
     0
  0
APPID
  2
ACAD_EXEMPT_FROM_CAD_STANDARDS
 70
     0
  0
APPID
  2
ACAD_PSEXT
 70
     0
  0
APPID
  2
ACAUTHENVIRON
 70
     0
  0
APPID
  2
GENIUS_GENOENT_13
 70
     0
  0
APPID
  2
GENIUS_GENCFG_13
 70
     0
  0
APPID
  2
GENIUS_GENCFG0_13
 70
     0
  0
APPID
  2
GENIUS_GENCFG1_13
 70
     0
  0
APPID
  2
GENIUS_GENCFG2_13
 70
     0
  0
APPID
  2
GENIUS_GENCFG3_13
 70
     0
  0
APPID
  2
GENIUS_GENCFG4_13
 70
     0
  0
APPID
  2
GENIUS_GEVCFG0_13
 70
     0
  0
APPID
  2
CONTENTBLOCKICON
 70
     0
  0
APPID
  2
CONTENTBLOCKDESCRIPTION
 70
     0
  0
APPID
  2
ACAD_NAV_VCDISPLAY
 70
     0
  0
APPID
  2
ACAD_MLEADERVER
 70
     0
  0
APPID
  2
ACDBDYNAMICBLOCKTRUENAME
 70
     0
  0
APPID
  2
ACDBDYNAMICBLOCKGUID
 70
     0
  0
ENDTAB
  0
TABLE
  2
DIMSTYLE
 70
     1
  0
DIMSTYLE
  2
STANDARD
 70
     0
  3

  4

  5
_ORIGIN
  6

  7

 40
1.0
 41
12.0
 42
20.0
 43
200.0
 44
20.0
 45
0.0
 46
0.0
 47
0.0
 48
0.0
140
64.0
141
0.09
142
0.0
143
25.399999999999999
144
1.0
145
0.0
146
1.0
147
25.0
 71
     0
 72
     0
 73
     0
 74
     0
 75
     0
 76
     0
 77
     1
 78
     8
170
     0
171
     2
172
     1
173
     0
174
     1
175
     0
176
     7
177
     7
178
     7
  0
ENDTAB
  0
TABLE
  2
VIEW
 70
     1
  0
VIEW
  2
ALL
 70
     0
 40
4282.6198079999986
 10
0.0
 20
41.309904000000003
 41
5940.0
 11
0.0
 21
0.0
 31
1.0
 12
0.0
 22
0.0
 32
0.0
 42
50.0
 43
0.0
 44
0.0
 50
0.0
 71
     0
  0
ENDTAB
  0
TABLE
  2
UCS
 70
     0
  0
ENDTAB
  0
TABLE
  2
VPORT
 70
     1
  0
VPORT
  2
*ACTIVE
 70
     0
 10
0.0
 20
0.0
 11
1.0
 21
1.0
 12
156.57578915890201
 22
35.728464410323738
 13
0.0
 23
0.0
 14
1.0
 24
1.0
 15
0.0
 25
0.0
 16
0.0
 26
0.0
 36
1.0
 17
0.0
 27
0.0
 37
0.0
 40
1053.15512608987
 41
1.747787610619469
 42
50.0
 43
0.0
 44
0.0
 50
0.0
 51
0.0
 71
     0
 72
  1000
 73
     1
 74
     3
 75
     0
 76
     0
 77
     0
 78
     0
  0
ENDTAB
  0
ENDSEC
  0
SECTION
  2
BLOCKS
  0
BLOCK
  8
0
  2
_ORIGIN
 70
     0
 10
0.0
 20
0.0
 30
0.0
  3
_ORIGIN
  1
_ORIGIN
  0
CIRCLE
  8
0
  6
CONTINUOUS
 62
     7
 10
0.0
 20
0.0
 30
0.0
 40
0.5
  0
LINE
  8
0
  6
CONTINUOUS
 62
     7
 10
0.0
 20
0.0
 30
0.0
 11
-1.0
 21
0.0
 31
0.0
  0
ENDBLK
  8
0
  0
ENDSEC
  0
SECTION
  2
ENTITIES
  0
POINT
  8
ARRANGE
  6
CONTINUOUS
 62
     1
 10
0.0
 20
-0.0000000000000568
 30
0.0
 50
359.99829045418988
  0
CIRCLE
  8
ARRANGE
  6
CONTINUOUS
 62
     1
 10
0.0
 20
0.0
 30
0.0
 40
39.999999999999993
  0
TEXT
  8
ETC
  6
CONTINUOUS
 62
    61
 10
344.87539504366401
 20
494.56101113953292
 30
0.0
 40
64.0
  1
EWG-45DTA2_1
 41
0.9
  0
TEXT
  8
ETC
  6
CONTINUOUS
 62
    61
 10
340.68940104366362
 20
376.60570112470168
 30
0.0
 40
64.0
  1
産業扇
 41
0.9
  0
TEXT
  8
ETC
  6
CONTINUOUS
 62
    61
 10
391.39079929221953
 20
268.45692823847639
 30
0.0
 40
40.0
  1
EWG-45DTA2
 41
0.9
  0
LINE
  8
SIZE
  6
CONTINUOUS
 62
    30
 10
-309.51960185989128
 20
18.50000000000006
 30
0.0
 11
-309.51960185989128
 21
264.96668498765212
 31
0.0
  0
LINE
  8
SIZE
  6
CONTINUOUS
 62
    30
 10
309.48039618270559
 20
18.497576736671991
 30
0.0
 11
309.48039618270559
 21
264.96668498765212
 31
0.0
  0
LINE
  8
SIZE
  6
CONTINUOUS
 62
    30
 10
-297.51960185989128
 20
244.9666849876522
 30
0.0
 11
297.48039618270559
 21
244.9666849876522
 31
0.0
  0
CIRCLE
  8
SIZE
  6
CONTINUOUS
 62
    30
 10
-309.51960185989128
 20
244.9666849876522
 30
0.0
 40
6.0
  0
LINE
  8
SIZE
  6
CONTINUOUS
 62
    30
 10
-309.51960185989128
 20
244.9666849876522
 30
0.0
 11
-297.51960185989128
 21
244.9666849876522
 31
0.0
  0
CIRCLE
  8
SIZE
  6
CONTINUOUS
 62
    30
 10
309.48039618270559
 20
244.9666849876522
 30
0.0
 40
6.0
  0
LINE
  8
SIZE
  6
CONTINUOUS
 62
    30
 10
309.48039618270559
 20
244.9666849876522
 30
0.0
 11
297.48039618270559
 21
244.9666849876522
 31
0.0
  0
TEXT
  8
SIZE
  6
CONTINUOUS
 62
    30
 10
-74.834492931621895
 20
269.96668498765212
 30
0.0
 40
64.0
  1
620
 41
0.9
 72
     1
 11
-0.7773500744790454
 21
269.96668498765212
 31
0.0
  0
POINT
  8
DEFPOINTS
  6
CONTINUOUS
 62
    30
 10
-309.51960185989128
 20
-1.4999999999999429
 30
0.0
  0
POINT
  8
DEFPOINTS
  6
CONTINUOUS
 62
    30
 10
309.48039618270559
 20
-1.5024232633280119
 30
0.0
  0
POINT
  8
DEFPOINTS
  6
CONTINUOUS
 62
    30
 10
309.48039618270559
 20
244.9666849876522
 30
0.0
  0
LINE
  8
SIZE
  6
CONTINUOUS
 62
    30
 10
-281.22969256213418
 20
44.796828318904552
 30
0.0
 11
-281.22969256213418
 21
151.39419561661629
 31
0.0
  0
LINE
  8
SIZE
  6
CONTINUOUS
 62
    30
 10
279.67499241363288
 20
44.796828318904197
 30
0.0
 11
279.67499241363288
 21
151.39419561661629
 31
0.0
  0
LINE
  8
SIZE
  6
CONTINUOUS
 62
    30
 10
-269.22969256213418
 20
131.39419561661629
 30
0.0
 11
267.67499241363288
 21
131.39419561661629
 31
0.0
  0
CIRCLE
  8
SIZE
  6
CONTINUOUS
 62
    30
 10
-281.22969256213418
 20
131.39419561661629
 30
0.0
 40
6.0
  0
LINE
  8
SIZE
  6
CONTINUOUS
 62
    30
 10
-281.22969256213418
 20
131.39419561661629
 30
0.0
 11
-269.22969256213418
 21
131.39419561661629
 31
0.0
  0
CIRCLE
  8
SIZE
  6
CONTINUOUS
 62
    30
 10
279.67499241363288
 20
131.39419561661629
 30
0.0
 40
6.0
  0
LINE
  8
SIZE
  6
CONTINUOUS
 62
    30
 10
279.67499241363288
 20
131.39419561661629
 30
0.0
 11
267.67499241363288
 21
131.39419561661629
 31
0.0
  0
TEXT
  8
SIZE
  6
CONTINUOUS
 62
    30
 10
-74.834492931393612
 20
156.39419561661629
 30
0.0
 40
64.0
  1
560
 41
0.9
 72
     1
 11
-0.7773500742507622
 21
156.39419561661629
 31
0.0
  0
POINT
  8
DEFPOINTS
  6
CONTINUOUS
 62
    30
 10
-281.22969256213418
 20
24.796828318904488
 30
0.0
  0
POINT
  8
DEFPOINTS
  6
CONTINUOUS
 62
    30
 10
279.67499241363288
 20
24.796828318904151
 30
0.0
  0
POINT
  8
DEFPOINTS
  6
CONTINUOUS
 62
    30
 10
279.67499241363288
 20
131.39419561661629
 30
0.0
  0
CIRCLE
  8
FIX
  6
CONTINUOUS
 62
    11
 10
-281.22969256213418
 20
0.0000000000000568
 30
0.0
 40
7.0
  0
CIRCLE
  8
FIX
  6
CONTINUOUS
 62
    11
 10
279.67499241363288
 20
0.0000000000000568
 30
0.0
 40
7.0
  0
LINE
  8
SIZE
  6
CONTINUOUS
 62
    30
 10
327.72022666242128
 20
0.0000000000000568
 30
0.0
 11
458.87747230986042
 21
0.0
 31
0.0
  0
LINE
  8
SIZE
  6
CONTINUOUS
 62
    30
 10
322.6119875671061
 20
-10.016155088853051
 30
0.0
 11
458.87747230986042
 21
-10.016155088853109
 31
0.0
  0
LINE
  8
SIZE
  6
CONTINUOUS
 62
    30
 10
438.87747230986042
 20
-22.016155088853111
 30
0.0
 11
438.87747230986042
 21
-34.016155088853111
 31
0.0
  0
LINE
  8
SIZE
  6
CONTINUOUS
 62
    30
 10
438.87747230986042
 20
12.0
 30
0.0
 11
438.87747230986042
 21
156.28571428571431
 31
0.0
  0
LINE
  8
SIZE
  6
CONTINUOUS
 62
    30
 10
438.87747230986042
 20
-10.016155088853109
 30
0.0
 11
438.87747230986042
 21
0.0
 31
0.0
  0
CIRCLE
  8
SIZE
  6
CONTINUOUS
 62
    30
 10
438.87747230986042
 20
-10.016155088853109
 30
0.0
 40
6.0
  0
LINE
  8
SIZE
  6
CONTINUOUS
 62
    30
 10
438.87747230986042
 20
-10.016155088853109
 30
0.0
 11
438.87747230986042
 21
-22.016155088853111
 31
0.0
  0
CIRCLE
  8
SIZE
  6
CONTINUOUS
 62
    30
 10
438.87747230986042
 20
0.0
 30
0.0
 40
6.0
  0
LINE
  8
SIZE
  6
CONTINUOUS
 62
    30
 10
438.87747230986042
 20
0.0
 30
0.0
 11
438.87747230986042
 21
12.0
 31
0.0
  0
TEXT
  8
SIZE
  6
CONTINUOUS
 62
    30
 10
413.87747230986042
 20
49.000000000000092
 30
0.0
 40
64.0
  1
10
 50
90.0
 41
0.9
 72
     1
 11
413.87747230986042
 21
90.142857142857224
 31
0.0
  0
POINT
  8
DEFPOINTS
  6
CONTINUOUS
 62
    30
 10
307.72022666242128
 20
0.0000000000000568
 30
0.0
  0
POINT
  8
DEFPOINTS
  6
CONTINUOUS
 62
    30
 10
302.6119875671061
 20
-10.016155088853051
 30
0.0
  0
POINT
  8
DEFPOINTS
  6
CONTINUOUS
 62
    30
 10
438.87747230986042
 20
-10.016155088853109
 30
0.0
  0
LINE
  8
SIZE
  6
CONTINUOUS
 62
    30
 10
322.6119875671061
 20
-10.016155088853051
 30
0.0
 11
458.87747230986042
 21
-10.016155088853109
 31
0.0
  0
LINE
  8
SIZE
  6
CONTINUOUS
 62
    30
 10
312.59583247825321
 20
-20.032310177706279
 30
0.0
 11
458.87747230986042
 21
-20.032310177706339
 31
0.0
  0
LINE
  8
SIZE
  6
CONTINUOUS
 62
    30
 10
438.87747230986042
 20
1.983844911146889
 30
0.0
 11
438.87747230986042
 21
13.983844911146891
 31
0.0
  0
LINE
  8
SIZE
  6
CONTINUOUS
 62
    30
 10
438.87747230986042
 20
-32.032310177706343
 30
0.0
 11
438.87747230986042
 21
-257.26694449511132
 31
0.0
  0
LINE
  8
SIZE
  6
CONTINUOUS
 62
    30
 10
438.87747230986042
 20
-10.016155088853109
 30
0.0
 11
438.87747230986042
 21
-20.032310177706339
 31
0.0
  0
CIRCLE
  8
SIZE
  6
CONTINUOUS
 62
    30
 10
438.87747230986042
 20
-10.016155088853109
 30
0.0
 40
6.0
  0
LINE
  8
SIZE
  6
CONTINUOUS
 62
    30
 10
438.87747230986042
 20
-10.016155088853109
 30
0.0
 11
438.87747230986042
 21
1.983844911146889
 31
0.0
  0
CIRCLE
  8
SIZE
  6
CONTINUOUS
 62
    30
 10
438.87747230986042
 20
-20.032310177706339
 30
0.0
 40
6.0
  0
LINE
  8
SIZE
  6
CONTINUOUS
 62
    30
 10
438.87747230986042
 20
-20.032310177706339
 30
0.0
 11
438.87747230986042
 21
-32.032310177706343
 31
0.0
  0
TEXT
  8
SIZE
  6
CONTINUOUS
 62
    30
 10
413.87747230986042
 20
-232.2669444951112
 30
0.0
 40
64.0
  1
10
 50
90.0
 41
0.9
 72
     1
 11
413.87747230986042
 21
-191.12408735225409
 31
0.0
  0
POINT
  8
DEFPOINTS
  6
CONTINUOUS
 62
    30
 10
302.6119875671061
 20
-10.016155088853051
 30
0.0
  0
POINT
  8
DEFPOINTS
  6
CONTINUOUS
 62
    30
 10
292.59583247825321
 20
-20.032310177706279
 30
0.0
  0
POINT
  8
DEFPOINTS
  6
CONTINUOUS
 62
    30
 10
438.87747230986042
 20
-20.032310177706339
 30
0.0
  0
LINE
  8
SIZE
  6
CONTINUOUS
 62
    30
 10
327.72022666242128
 20
0.0000000000000568
 30
0.0
 11
600.4362798262091
 21
0.0
 31
0.0
  0
LINE
  8
SIZE
  6
CONTINUOUS
 62
    30
 10
287.65560630700929
 20
-111.5799676898226
 30
0.0
 11
600.4362798262091
 21
-111.57996768982269
 31
0.0
  0
LINE
  8
SIZE
  6
CONTINUOUS
 62
    30
 10
580.4362798262091
 20
-12.0
 30
0.0
 11
580.4362798262091
 21
-99.579967689822638
 31
0.0
  0
LINE
  8
SIZE
  6
CONTINUOUS
 62
    30
 10
580.4362798262091
 20
-111.57996768982269
 30
0.0
 11
580.4362798262091
 21
-275.0656819755369
 31
0.0
  0
CIRCLE
  8
SIZE
  6
CONTINUOUS
 62
    30
 10
580.4362798262091
 20
0.0
 30
0.0
 40
6.0
  0
LINE
  8
SIZE
  6
CONTINUOUS
 62
    30
 10
580.4362798262091
 20
0.0
 30
0.0
 11
580.4362798262091
 21
-12.0
 31
0.0
  0
CIRCLE
  8
SIZE
  6
CONTINUOUS
 62
    30
 10
580.4362798262091
 20
-111.57996768982269
 30
0.0
 40
6.0
  0
LINE
  8
SIZE
  6
CONTINUOUS
 62
    30
 10
580.4362798262091
 20
-111.57996768982269
 30
0.0
 11
580.4362798262091
 21
-99.579967689822695
 31
0.0
  0
TEXT
  8
SIZE
  6
CONTINUOUS
 62
    30
 10
555.4362798262091
 20
-250.06568197553679
 30
0.0
 40
64.0
  1
111
 50
90.0
 41
0.9
 72
     1
 11
555.4362798262091
 21
-199.32282483267969
 31
0.0
  0
POINT
  8
DEFPOINTS
  6
CONTINUOUS
 62
    30
 10
307.72022666242128
 20
0.0000000000000568
 30
0.0
  0
POINT
  8
DEFPOINTS
  6
CONTINUOUS
 62
    30
 10
267.65560630700929
 20
-111.5799676898226
 30
0.0
  0
POINT
  8
DEFPOINTS
  6
CONTINUOUS
 62
    30
 10
580.4362798262091
 20
-111.57996768982269
 30
0.0
  0
TEXT
  8
NOTE
  6
CONTINUOUS
 62
     4
 10
-628.01975295431339
 20
89.566182407517999
 30
0.0
 40
64.0
  1
4-φ14
 41
0.9
  0
LINE
  8
SIZE
  6
CONTINUOUS
 62
    30
 10
-328.01960185989128
 20
0.0000000000000568
 30
0.0
 11
-384.5966677755473
 21
0.0000000000000568
 31
0.0
  0
LINE
  8
SIZE
  6
CONTINUOUS
 62
    30
 10
-20.00000000001819
 20
-309.09854604200291
 30
0.0
 11
-384.5966677755473
 21
-309.09854604200268
 31
0.0
  0
LINE
  8
SIZE
  6
CONTINUOUS
 62
    30
 10
-364.5966677755473
 20
-11.99999999999994
 30
0.0
 11
-364.5966677755473
 21
-297.09854604200268
 31
0.0
  0
CIRCLE
  8
SIZE
  6
CONTINUOUS
 62
    30
 10
-364.5966677755473
 20
0.0000000000000568
 30
0.0
 40
6.0
  0
LINE
  8
SIZE
  6
CONTINUOUS
 62
    30
 10
-364.5966677755473
 20
0.0000000000000568
 30
0.0
 11
-364.5966677755473
 21
-11.99999999999994
 31
0.0
  0
CIRCLE
  8
SIZE
  6
CONTINUOUS
 62
    30
 10
-364.5966677755473
 20
-309.09854604200268
 30
0.0
 40
6.0
  0
LINE
  8
SIZE
  6
CONTINUOUS
 62
    30
 10
-364.5966677755473
 20
-309.09854604200268
 30
0.0
 11
-364.5966677755473
 21
-297.09854604200268
 31
0.0
  0
TEXT
  8
SIZE
  6
CONTINUOUS
 62
    30
 10
-389.5966677755473
 20
-227.23498730671591
 30
0.0
 40
64.0
  1
309
 50
90.0
 41
0.9
 72
     1
 11
-389.5966677755473
 21
-154.5492730210016
 31
0.0
  0
POINT
  8
DEFPOINTS
  6
CONTINUOUS
 62
    30
 10
-308.01960185989128
 20
0.0000000000000568
 30
0.0
  0
POINT
  8
DEFPOINTS
  6
CONTINUOUS
 62
    30
 10
-0.0000000000181899
 20
-309.09854604200291
 30
0.0
  0
POINT
  8
DEFPOINTS
  6
CONTINUOUS
 62
    30
 10
-364.5966677755473
 20
-309.09854604200268
 30
0.0
  0
LINE
  8
NOTE
  6
CONTINUOUS
 62
     4
 10
-281.22969256213418
 20
-55.428046801112323
 30
0.0
 11
-281.22969256213418
 21
16.03525237625848
 31
0.0
  0
LINE
  8
NOTE
  6
CONTINUOUS
 62
     4
 10
279.67499241363288
 20
-55.428046801112323
 30
0.0
 11
279.67499241363288
 21
16.03525237625848
 31
0.0
  0
LINE
  8
DETAIL
  6
CONTINUOUS
 62
     4
 10
-283.93444707329559
 20
5.4966390564275676
 30
0.0
 11
-281.1710484336636
 21
-0.0664830210104697
 31
0.0
  0
LINE
  8
DETAIL
  6
CONTINUOUS
 62
     4
 10
-281.1710484336636
 20
-0.0664830210104697
 30
0.0
 11
-286.34578807309958
 21
3.3696149045512702
 31
0.0
  0
LINE
  8
DETAIL
  6
CONTINUOUS
 62
     4
 10
-281.1710484336636
 20
-0.0664830210104697
 30
0.0
 11
-289.10918671273163
 21
8.9327369819893079
 31
0.0
  0
LINE
  8
NOTE
  6
CONTINUOUS
 62
     4
 10
-289.1091867127318
 20
8.9327369819893079
 30
0.0
 11
-337.27464131316492
 21
63.536411956604979
 31
0.0
  0
LINE
  8
NOTE
  6
CONTINUOUS
 62
     4
 10
-337.27464131316492
 20
63.536411956604979
 30
0.0
 11
-635.14320355819927
 21
63.697866805785338
 31
0.0
  0
LINE
  8
NOTE
  6
CONTINUOUS
 62
     4
 10
-281.22969256213418
 20
-46.485854787462422
 30
0.0
 11
-281.22969256213418
 21
24.796828318904488
 31
0.0
  0
LINE
  8
NOTE
  6
CONTINUOUS
 62
     4
 10
279.67499241363288
 20
-46.485854787462422
 30
0.0
 11
279.67499241363288
 21
24.796828318904151
 31
0.0
  0
LINE
  8
OUTLINE
  6
CONTINUOUS
 62
     3
 10
-4.7075928917608962
 20
-307.09531502423278
 30
0.0
 11
4.7075928917608962
 21
-307.09531502423278
 31
0.0
  0
LINE
  8
OUTLINE
  6
CONTINUOUS
 62
     3
 10
57.893376413570188
 20
-306.59450726978997
 30
0.0
 11
-57.893376413570188
 21
-306.59450726978997
 31
0.0
  0
LINE
  8
OUTLINE
  6
CONTINUOUS
 62
     3
 10
89.644588045234286
 20
-284.45880452342521
 30
0.0
 11
65.305331179321456
 21
-284.45880452342521
 31
0.0
  0
LINE
  8
OUTLINE
  6
CONTINUOUS
 62
     3
 10
-180.58921678309591
 20
-280.45234248785528
 30
0.0
 11
-89.644588045234286
 21
-280.4523424878837
 31
0.0
  0
LINE
  8
OUTLINE
  6
CONTINUOUS
 62
     3
 10
89.644588045234286
 20
-280.4523424878837
 30
0.0
 11
180.58921678309619
 21
-280.45234248785528
 31
0.0
  0
LINE
  8
OUTLINE
  6
CONTINUOUS
 62
     3
 10
-306.99515347334409
 20
-6.4103392568659956
 30
0.0
 11
-306.99515347334409
 21
-3.004846526655911
 31
0.0
  0
LINE
  8
OUTLINE
  6
CONTINUOUS
 62
     3
 10
-296.97899838449121
 20
-16.426494345718989
 30
0.0
 11
-296.97899838449121
 21
-13.89004062544007
 31
0.0
  0
LINE
  8
OUTLINE
  6
CONTINUOUS
 62
     3
 10
-257.08012157831467
 20
-178.28756058158319
 30
0.0
 11
-257.08012157831467
 21
-20.032310177706108
 31
0.0
  0
LINE
  8
OUTLINE
  6
CONTINUOUS
 62
     3
 10
-268.43295638126028
 20
-111.5799676898224
 30
0.0
 11
-257.08012157831467
 21
-111.5799676898224
 31
0.0
  0
LINE
  8
OUTLINE
  6
CONTINUOUS
 62
     3
 10
257.08012157831467
 20
-111.5799676898224
 30
0.0
 11
268.43295638126011
 21
-111.5799676898224
 31
0.0
  0
LINE
  8
OUTLINE
  6
CONTINUOUS
 62
     3
 10
-268.43295638126028
 20
-107.57350565428111
 30
0.0
 11
-257.08012157831467
 21
-107.57350565428111
 31
0.0
  0
LINE
  8
OUTLINE
  6
CONTINUOUS
 62
     3
 10
257.08012157831467
 20
-107.57350565428111
 30
0.0
 11
268.43295638126011
 21
-107.57350565428111
 31
0.0
  0
LINE
  8
OUTLINE
  6
CONTINUOUS
 62
     3
 10
262.98812737806679
 20
-88.392568659127733
 30
0.0
 11
257.08012157831467
 21
-88.392568659127733
 31
0.0
  0
LINE
  8
OUTLINE
  6
CONTINUOUS
 62
     3
 10
262.98812737806679
 20
-84.886914378029019
 30
0.0
 11
257.08012157831467
 21
-84.886914378029019
 31
0.0
  0
LINE
  8
OUTLINE
  6
CONTINUOUS
 62
     3
 10
293.37318255250398
 20
-20.032310177706108
 30
0.0
 11
257.08012157831467
 21
-20.032310177706108
 31
0.0
  0
LINE
  8
OUTLINE
  6
CONTINUOUS
 62
     3
 10
-257.08012157831467
 20
-20.032310177706108
 30
0.0
 11
-293.37318255250398
 21
-20.032310177706108
 31
0.0
  0
LINE
  8
OUTLINE
  6
CONTINUOUS
 62
     3
 10
-89.644588045234286
 20
-284.45880452342521
 30
0.0
 11
-89.644588045234286
 21
-280.4523424878837
 31
0.0
  0
LINE
  8
OUTLINE
  6
CONTINUOUS
 62
     3
 10
-65.305331179321456
 20
-299.18255250403888
 30
0.0
 11
-65.305331179321456
 21
-284.45880452342521
 31
0.0
  0
LINE
  8
OUTLINE
  6
CONTINUOUS
 62
     3
 10
303.38933764135709
 20
-10.016155088853109
 30
0.0
 11
300.17892012222768
 21
-10.016155088853109
 31
0.0
  0
LINE
  8
OUTLINE
  6
CONTINUOUS
 62
     3
 10
-300.17892012222768
 20
-10.016155088853109
 30
0.0
 11
-303.38933764135709
 21
-10.016155088853109
 31
0.0
  0
LINE
  8
OUTLINE
  6
CONTINUOUS
 62
     3
 10
308.49757673667199
 20
-3.004846526655911
 30
0.0
 11
306.99515347334409
 21
-3.004846526655911
 31
0.0
  0
LINE
  8
OUTLINE
  6
CONTINUOUS
 62
     3
 10
308.49757673667199
 20
0.0
 30
0.0
 11
-308.49757673667182
 21
0.0
 31
0.0
  0
LINE
  8
OUTLINE
  6
CONTINUOUS
 62
     3
 10
-4.7075928917608962
 20
-307.09531502423278
 30
0.0
 11
-4.7075928917608962
 21
-306.59450726978997
 31
0.0
  0
LINE
  8
OUTLINE
  6
CONTINUOUS
 62
     3
 10
4.7075928917608962
 20
-307.09531502423278
 30
0.0
 11
4.7075928917608962
 21
-306.59450726978997
 31
0.0
  0
LINE
  8
OUTLINE
  6
CONTINUOUS
 62
     3
 10
65.305331179321456
 20
-299.18255250403888
 30
0.0
 11
65.305331179321456
 21
-284.45880452342521
 31
0.0
  0
LINE
  8
OUTLINE
  6
CONTINUOUS
 62
     3
 10
89.644588045234286
 20
-284.45880452342521
 30
0.0
 11
89.644588045234286
 21
-280.4523424878837
 31
0.0
  0
LINE
  8
OUTLINE
  6
CONTINUOUS
 62
     3
 10
257.92138462007978
 20
-85.888529886914512
 30
0.0
 11
257.21313550139638
 21
-84.886914378029019
 31
0.0
  0
LINE
  8
OUTLINE
  6
CONTINUOUS
 62
     3
 10
257.08012157831467
 20
-20.032310177706108
 30
0.0
 11
257.08012157831467
 21
-178.28756058158319
 31
0.0
  0
LINE
  8
OUTLINE
  6
CONTINUOUS
 62
     3
 10
257.92138462007978
 20
-85.888529886914512
 30
0.0
 11
257.92138462007978
 21
-87.390953150242581
 31
0.0
  0
LINE
  8
OUTLINE
  6
CONTINUOUS
 62
     3
 10
262.98813544223623
 20
-84.886914378029019
 30
0.0
 11
262.98813544223623
 21
-88.392568659127733
 31
0.0
  0
LINE
  8
OUTLINE
  6
CONTINUOUS
 62
     3
 10
296.97899838449098
 20
-13.89004062544007
 30
0.0
 11
296.97899838449098
 21
-16.426494345718989
 31
0.0
  0
LINE
  8
OUTLINE
  6
CONTINUOUS
 62
     3
 10
306.99515347334409
 20
-3.004846526655911
 30
0.0
 11
306.99515347334409
 21
-6.4103392568659956
 31
0.0
  0
LINE
  8
OUTLINE
  6
CONTINUOUS
 62
     3
 10
257.21313550139638
 20
-88.392568659127733
 30
0.0
 11
257.92138462007978
 21
-87.390953150242581
 31
0.0
  0
ARC
  8
OUTLINE
  6
CONTINUOUS
 62
     3
 10
-293.37318255250398
 20
-16.426494345718989
 30
0.0
 40
3.6058158319872282
 50
180.0
 51
270.0
  0
ARC
  8
OUTLINE
  6
CONTINUOUS
 62
     3
 10
-268.43295638126028
 20
-109.57673667205189
 30
0.0
 40
2.0032310177705308
 50
90.0
 51
270.0
  0
ARC
  8
OUTLINE
  6
CONTINUOUS
 62
     3
 10
-57.893376413570188
 20
-299.18255250403888
 30
0.0
 40
7.4119547657512017
 50
180.0
 51
270.0
  0
ARC
  8
OUTLINE
  6
CONTINUOUS
 62
     3
 10
-303.38933764135709
 20
-6.4103392568659956
 30
0.0
 40
3.6058158319870022
 50
180.0
 51
270.0
  0
ARC
  8
OUTLINE
  6
CONTINUOUS
 62
     3
 10
-308.49757673667182
 20
-1.502423263328069
 30
0.0
 40
1.5024232633279551
 50
90.0
 51
270.0
  0
ARC
  8
OUTLINE
  6
CONTINUOUS
 62
     3
 10
57.893376413570188
 20
-299.18255250403888
 30
0.0
 40
7.4119547657511484
 50
270.0
 51
0.0
  0
ARC
  8
OUTLINE
  6
CONTINUOUS
 62
     3
 10
0.0
 20
-302.56550888529921
 30
0.0
 40
6.5330371567043954
 50
223.89739816710619
 51
316.10260183289381
  0
ARC
  8
OUTLINE
  6
CONTINUOUS
 62
     3
 10
293.37318255250398
 20
-16.426494345718989
 30
0.0
 40
3.6058158319872282
 50
270.0
 51
0.0
  0
ARC
  8
OUTLINE
  6
CONTINUOUS
 62
     3
 10
268.43295638126011
 20
-109.57673667205189
 30
0.0
 40
2.0032310177707591
 50
270.0
 51
90.0
  0
ARC
  8
OUTLINE
  6
CONTINUOUS
 62
     3
 10
303.38933764135709
 20
-6.4103392568659956
 30
0.0
 40
3.6058158319872282
 50
270.0
 51
0.0
  0
ARC
  8
OUTLINE
  6
CONTINUOUS
 62
     3
 10
308.49757673667199
 20
-1.502423263328069
 30
0.0
 40
1.5024232633279551
 50
270.0
 51
90.0
  0
LINE
  8
OUTLINE
  6
CONTINUOUS
 62
     3
 10
268.43295638126011
 20
-111.5799676898224
 30
0.0
 11
257.08012157831467
 21
-111.5799676898224
 31
0.0
  0
LINE
  8
OUTLINE
  6
CONTINUOUS
 62
     3
 10
-257.08012157831467
 20
-111.5799676898224
 30
0.0
 11
-268.43295638126028
 21
-111.5799676898224
 31
0.0
  0
ARC
  8
OUTLINE
  6
CONTINUOUS
 62
     3
 10
-258.41680129240717
 20
-49.479806138934009
 30
0.0
 40
29.44749596122794
 50
87.397983385301686
 51
90.0
  0
ARC
  8
OUTLINE
  6
CONTINUOUS
 62
     3
 10
258.41680129240717
 20
-49.479806138934009
 30
0.0
 40
29.447495961227791
 50
90.0
 51
92.602016614698343
  0
LINE
  8
DETAIL
  6
CONTINUOUS
 62
     5
 10
-4.7075928917608962
 20
-307.09531502423278
 30
0.0
 11
4.7075928917608962
 21
-307.09531502423278
 31
0.0
  0
LINE
  8
DETAIL
  6
CONTINUOUS
 62
     5
 10
57.893376413570188
 20
-306.59450726978997
 30
0.0
 11
-57.893376413570188
 21
-306.59450726978997
 31
0.0
  0
LINE
  8
DETAIL
  6
CONTINUOUS
 62
     5
 10
89.644588045234286
 20
-284.45880452342521
 30
0.0
 11
-89.644588045234059
 21
-284.45880452342521
 31
0.0
  0
LINE
  8
DETAIL
  6
CONTINUOUS
 62
     5
 10
-180.58921678309591
 20
-280.45234248785528
 30
0.0
 11
-89.644588045234059
 21
-280.4523424878837
 31
0.0
  0
LINE
  8
DETAIL
  6
CONTINUOUS
 62
     5
 10
89.644588045234286
 20
-280.4523424878837
 30
0.0
 11
180.58921678309619
 21
-280.45234248785528
 31
0.0
  0
LINE
  8
DETAIL
  6
CONTINUOUS
 62
     5
 10
-0.6703428415423787
 20
-258.33821356902263
 30
0.0
 11
0.670294766327288
 21
-258.33821356902263
 31
0.0
  0
LINE
  8
DETAIL
  6
CONTINUOUS
 62
     5
 10
-2.5785224940702851
 20
-256.9503344085108
 30
0.0
 11
2.5785126300986581
 21
-256.9503344085108
 31
0.0
  0
LINE
  8
DETAIL
  6
CONTINUOUS
 62
     5
 10
-180.5892167830084
 20
-248.40064620355429
 30
0.0
 11
-89.644588045234059
 21
-248.40064620355429
 31
0.0
  0
LINE
  8
DETAIL
  6
CONTINUOUS
 62
     5
 10
89.644588045234286
 20
-248.40064620355429
 30
0.0
 11
180.5892167830086
 21
-248.40064620355429
 31
0.0
  0
LINE
  8
DETAIL
  6
CONTINUOUS
 62
     5
 10
-306.99515347334409
 20
-6.4103392568659956
 30
0.0
 11
-306.99515347334409
 21
-3.004846526655911
 31
0.0
  0
LINE
  8
DETAIL
  6
CONTINUOUS
 62
     5
 10
-303.82456339745272
 20
-3.004846526655911
 30
0.0
 11
-303.82456339745272
 21
-5.1082390953154118
 31
0.0
  0
LINE
  8
DETAIL
  6
CONTINUOUS
 62
     5
 10
-296.97899838449138
 20
-16.426494345718989
 30
0.0
 11
-296.97899838449138
 21
-13.89004062544007
 31
0.0
  0
LINE
  8
DETAIL
  6
CONTINUOUS
 62
     5
 10
83.634894991922465
 20
-243.3925686591277
 30
0.0
 11
-83.634894991922465
 21
-243.3925686591277
 31
0.0
  0
LINE
  8
DETAIL
  6
CONTINUOUS
 62
     5
 10
-86.1389337641358
 20
-243.3925686591277
 30
0.0
 11
-83.843891088602504
 21
-243.3925686591277
 31
0.0
  0
LINE
  8
DETAIL
  6
CONTINUOUS
 62
     5
 10
83.843891088602732
 20
-243.3925686591277
 30
0.0
 11
86.1389337641358
 21
-243.3925686591277
 31
0.0
  0
LINE
  8
DETAIL
  6
CONTINUOUS
 62
     5
 10
-86.1389337641358
 20
-239.38610662358661
 30
0.0
 11
86.1389337641358
 21
-239.38610662358661
 31
0.0
  0
LINE
  8
DETAIL
  6
CONTINUOUS
 62
     5
 10
-61.045682930082187
 20
-232.8756058158323
 30
0.0
 11
-48.0246813145734
 21
-232.8756058158323
 31
0.0
  0
LINE
  8
DETAIL
  6
CONTINUOUS
 62
     5
 10
48.0246813145734
 20
-232.8756058158323
 30
0.0
 11
61.045682930082187
 21
-232.8756058158323
 31
0.0
  0
LINE
  8
DETAIL
  6
CONTINUOUS
 62
     5
 10
57.790432526205002
 20
-229.67043618739899
 30
0.0
 11
51.279931718450598
 21
-229.67043618739899
 31
0.0
  0
LINE
  8
DETAIL
  6
CONTINUOUS
 62
     5
 10
-51.279931718450598
 20
-229.67043618739899
 30
0.0
 11
-57.790432526205002
 21
-229.67043618739899
 31
0.0
  0
LINE
  8
DETAIL
  6
CONTINUOUS
 62
     5
 10
-66.106623586429805
 20
-203.7927996795033
 30
0.0
 11
66.106623586429805
 21
-203.7927996795033
 31
0.0
  0
LINE
  8
DETAIL
  6
CONTINUOUS
 62
     5
 10
-65.305331179321456
 20
-202.40492051821539
 30
0.0
 11
65.305331179321456
 21
-202.40492051821539
 31
0.0
  0
LINE
  8
DETAIL
  6
CONTINUOUS
 62
     5
 10
-257.08012157831467
 20
-178.28756058158319
 30
0.0
 11
-257.08012157831467
 21
-14.523424878837091
 31
0.0
  0
LINE
  8
DETAIL
  6
CONTINUOUS
 62
     5
 10
-254.24712510435691
 20
-5.1082390953154118
 30
0.0
 11
-254.24712510435691
 21
-3.004846526655911
 31
0.0
  0
LINE
  8
DETAIL
  6
CONTINUOUS
 62
     5
 10
-252.83062686776631
 20
-14.523424878837091
 30
0.0
 11
-252.83062686776631
 21
-178.28756058158319
 31
0.0
  0
LINE
  8
DETAIL
  6
CONTINUOUS
 62
     5
 10
-242.91513920852569
 20
-3.004846526655911
 30
0.0
 11
-242.91513920852569
 21
-6.4103392568659956
 31
0.0
  0
LINE
  8
DETAIL
  6
CONTINUOUS
 62
     5
 10
-235.1747326205307
 20
-14.523424878837091
 30
0.0
 11
-235.1747326205307
 21
-18.529886914378039
 31
0.0
  0
LINE
  8
DETAIL
  6
CONTINUOUS
 62
     5
 10
-230.16665507610401
 20
-14.523424878837091
 30
0.0
 11
-230.16665507610401
 21
-18.082583469612128
 31
0.0
  0
LINE
  8
DETAIL
  6
CONTINUOUS
 62
     5
 10
-230.16665507610401
 20
-18.529886914378039
 30
0.0
 11
-230.16665507610401
 21
-178.28756058158319
 31
0.0
  0
LINE
  8
DETAIL
  6
CONTINUOUS
 62
     5
 10
-57.893376413570188
 20
-166.4684975767367
 30
0.0
 11
57.893376413570188
 21
-166.4684975767367
 31
0.0
  0
LINE
  8
DETAIL
  6
CONTINUOUS
 62
     5
 10
-13.02095713834524
 20
-165.96768982229409
 30
0.0
 11
13.02100161550902
 21
-165.96768982229409
 31
0.0
  0
LINE
  8
DETAIL
  6
CONTINUOUS
 62
     5
 10
26.049655248174759
 20
-162.66235864297289
 30
0.0
 11
-26.049655248174759
 21
-162.66235864297289
 31
0.0
  0
LINE
  8
DETAIL
  6
CONTINUOUS
 62
     5
 10
15.024232633279331
 20
-148.13893376413591
 30
0.0
 11
-15.024232633279331
 21
-148.13893376413591
 31
0.0
  0
LINE
  8
DETAIL
  6
CONTINUOUS
 62
     5
 10
-225.15857753167779
 20
-18.529886914378039
 30
0.0
 11
-225.15857753167779
 21
-14.523424878837091
 31
0.0
  0
LINE
  8
DETAIL
  6
CONTINUOUS
 62
     5
 10
-213.16867623313419
 20
-14.523424878837091
 30
0.0
 11
-213.16867623313419
 21
-10.016155088853109
 31
0.0
  0
LINE
  8
DETAIL
  6
CONTINUOUS
 62
     5
 10
-201.12844121861991
 20
-13.02100161550902
 30
0.0
 11
-201.12844121861991
 21
-16.426494345718989
 31
0.0
  0
LINE
  8
DETAIL
  6
CONTINUOUS
 62
     5
 10
-15.024232633279331
 20
-148.13893376413591
 30
0.0
 11
-20.66797677975228
 21
-148.63269739662621
 31
0.0
  0
LINE
  8
DETAIL
  6
CONTINUOUS
 62
     5
 10
-14.02234276793024
 20
-118.19063004846539
 30
0.0
 11
-6.0799889112472556
 21
-118.19063004846539
 31
0.0
  0
LINE
  8
DETAIL
  6
CONTINUOUS
 62
     5
 10
6.1568548536899934
 20
-118.19063004846539
 30
0.0
 11
14.02240771531979
 21
-118.19063004846539
 31
0.0
  0
LINE
  8
DETAIL
  6
CONTINUOUS
 62
     5
 10
-14.02204835275688
 20
-116.18739903069471
 30
0.0
 11
14.02240771531979
 21
-116.18739903069471
 31
0.0
  0
LINE
  8
DETAIL
  6
CONTINUOUS
 62
     5
 10
18.02907915993524
 20
-113.6833602584817
 30
0.0
 11
-18.02907915993524
 21
-113.6833602584817
 31
0.0
  0
LINE
  8
DETAIL
  6
CONTINUOUS
 62
     5
 10
15.024232633279331
 20
-148.13893376413591
 30
0.0
 11
20.66797677975228
 21
-148.63269739662621
 31
0.0
  0
LINE
  8
DETAIL
  6
CONTINUOUS
 62
     5
 10
19.030694668820839
 20
-112.68174474959621
 30
0.0
 11
-19.030694668820619
 21
-112.68174474959621
 31
0.0
  0
LINE
  8
DETAIL
  6
CONTINUOUS
 62
     5
 10
-268.43295638126011
 20
-111.5799676898224
 30
0.0
 11
-257.08012157831467
 21
-111.5799676898224
 31
0.0
  0
LINE
  8
DETAIL
  6
CONTINUOUS
 62
     5
 10
-230.16665507610401
 20
-111.5799676898224
 30
0.0
 11
230.16665507610449
 21
-111.5799676898224
 31
0.0
  0
LINE
  8
DETAIL
  6
CONTINUOUS
 62
     5
 10
257.08012157831467
 20
-111.5799676898224
 30
0.0
 11
268.43295638126011
 21
-111.5799676898224
 31
0.0
  0
LINE
  8
DETAIL
  6
CONTINUOUS
 62
     5
 10
-268.43295638126011
 20
-107.57350565428111
 30
0.0
 11
-257.08012157831467
 21
-107.57350565428111
 31
0.0
  0
LINE
  8
DETAIL
  6
CONTINUOUS
 62
     5
 10
-230.16665507610401
 20
-107.57350565428111
 30
0.0
 11
230.16665507610449
 21
-107.57350565428111
 31
0.0
  0
LINE
  8
DETAIL
  6
CONTINUOUS
 62
     5
 10
257.08012157831467
 20
-107.57350565428111
 30
0.0
 11
268.43295638126011
 21
-107.57350565428111
 31
0.0
  0
LINE
  8
DETAIL
  6
CONTINUOUS
 62
     5
 10
262.98812737806679
 20
-88.392568659127733
 30
0.0
 11
257.08012157831467
 21
-88.392568659127733
 31
0.0
  0
LINE
  8
DETAIL
  6
CONTINUOUS
 62
     5
 10
262.98812737806679
 20
-84.886914378029019
 30
0.0
 11
257.08012157831467
 21
-84.886914378029019
 31
0.0
  0
LINE
  8
DETAIL
  6
CONTINUOUS
 62
     5
 10
-18.029082971509521
 20
-113.683364070832
 30
0.0
 11
-19.030698692364471
 21
-112.6817487731399
 31
0.0
  0
LINE
  8
DETAIL
  6
CONTINUOUS
 62
     5
 10
293.37318255250398
 20
-20.032310177706108
 30
0.0
 11
257.08012157831467
 21
-20.032310177706108
 31
0.0
  0
LINE
  8
DETAIL
  6
CONTINUOUS
 62
     5
 10
230.16665507610449
 20
-20.032310177706108
 30
0.0
 11
-230.16665507610401
 21
-20.032310177706108
 31
0.0
  0
LINE
  8
DETAIL
  6
CONTINUOUS
 62
     5
 10
-257.08012157831467
 20
-20.032310177706108
 30
0.0
 11
-293.37318255250398
 21
-20.032310177706108
 31
0.0
  0
LINE
  8
DETAIL
  6
CONTINUOUS
 62
     5
 10
266.33769383328968
 20
-18.529886914378039
 30
0.0
 11
257.08012157831467
 21
-18.529886914378039
 31
0.0
  0
LINE
  8
DETAIL
  6
CONTINUOUS
 62
     5
 10
-225.15857753167779
 20
-18.529886914378039
 30
0.0
 11
-235.1747326205307
 21
-18.529886914378039
 31
0.0
  0
LINE
  8
DETAIL
  6
CONTINUOUS
 62
     5
 10
294.50537591889878
 20
-14.523424878837091
 30
0.0
 11
213.16867623235771
 21
-14.523424878837091
 31
0.0
  0
LINE
  8
DETAIL
  6
CONTINUOUS
 62
     5
 10
-213.16867623313419
 20
-14.523424878837091
 30
0.0
 11
-294.50537591967532
 21
-14.523424878837091
 31
0.0
  0
LINE
  8
DETAIL
  6
CONTINUOUS
 62
     5
 10
-89.644588045234059
 20
-284.45880452342521
 30
0.0
 11
-89.644588045234059
 21
-248.40064620355429
 31
0.0
  0
LINE
  8
DETAIL
  6
CONTINUOUS
 62
     5
 10
-66.106623586429805
 20
-237.38287560581591
 30
0.0
 11
-66.106623586429805
 21
-203.7927996795033
 31
0.0
  0
LINE
  8
DETAIL
  6
CONTINUOUS
 62
     5
 10
-65.305331179321456
 20
-299.18255250403888
 30
0.0
 11
-65.305331179321456
 21
-284.45880452342521
 31
0.0
  0
LINE
  8
DETAIL
  6
CONTINUOUS
 62
     5
 10
-65.305331179321456
 20
-202.40492051821539
 30
0.0
 11
-65.305331179321456
 21
-173.8804523424881
 31
0.0
  0
LINE
  8
DETAIL
  6
CONTINUOUS
 62
     5
 10
303.38933764135692
 20
-10.016155088853109
 30
0.0
 11
300.17892012222802
 21
-10.016155088853109
 31
0.0
  0
LINE
  8
DETAIL
  6
CONTINUOUS
 62
     5
 10
239.30932337653871
 20
-10.016155088853109
 30
0.0
 11
-239.30932337653871
 21
-10.016155088853109
 31
0.0
  0
LINE
  8
DETAIL
  6
CONTINUOUS
 62
     5
 10
-239.30932337653871
 20
-10.016155088853109
 30
0.0
 11
-244.92793762657951
 21
-10.016155088853109
 31
0.0
  0
LINE
  8
DETAIL
  6
CONTINUOUS
 62
     5
 10
-300.17892012222768
 20
-10.016155088853109
 30
0.0
 11
-303.38933764135709
 21
-10.016155088853109
 31
0.0
  0
LINE
  8
DETAIL
  6
CONTINUOUS
 62
     5
 10
239.30932337653871
 20
-10.016155088853109
 30
0.0
 11
244.927937625803
 21
-10.016155088853109
 31
0.0
  0
LINE
  8
DETAIL
  6
CONTINUOUS
 62
     5
 10
303.82456339745272
 20
-5.1082390953154118
 30
0.0
 11
253.84381916672331
 21
-5.1082390953154118
 31
0.0
  0
LINE
  8
DETAIL
  6
CONTINUOUS
 62
     5
 10
-303.82456339745272
 20
-5.1082390953154118
 30
0.0
 11
-253.84381916672331
 21
-5.1082390953154118
 31
0.0
  0
LINE
  8
DETAIL
  6
CONTINUOUS
 62
     5
 10
308.49757673667199
 20
-3.004846526655911
 30
0.0
 11
-308.49757673667182
 21
-3.004846526655911
 31
0.0
  0
LINE
  8
DETAIL
  6
CONTINUOUS
 62
     5
 10
308.49757673667199
 20
0.0
 30
0.0
 11
-308.49757673667182
 21
0.0
 31
0.0
  0
LINE
  8
DETAIL
  6
CONTINUOUS
 62
     5
 10
65.305331179321456
 20
-202.40492051821539
 30
0.0
 11
66.106623586429805
 21
-203.7927996795033
 31
0.0
  0
LINE
  8
DETAIL
  6
CONTINUOUS
 62
     5
 10
-61.045682930082187
 20
-239.38610662358661
 30
0.0
 11
-61.045682930082187
 21
-232.8756058158323
 31
0.0
  0
LINE
  8
DETAIL
  6
CONTINUOUS
 62
     5
 10
-57.790432526205002
 20
-229.67043618739899
 30
0.0
 11
-57.790432526205002
 21
-232.8756058158323
 31
0.0
  0
LINE
  8
DETAIL
  6
CONTINUOUS
 62
     5
 10
-54.535182122327797
 20
-239.38610662358661
 30
0.0
 11
-54.535182122327797
 21
-233.45710029387229
 31
0.0
  0
LINE
  8
DETAIL
  6
CONTINUOUS
 62
     5
 10
-51.279931718450598
 20
-229.67043618739899
 30
0.0
 11
-51.279931718450598
 21
-232.8756058158323
 31
0.0
  0
LINE
  8
DETAIL
  6
CONTINUOUS
 62
     5
 10
-48.0246813145734
 20
-239.38610662358661
 30
0.0
 11
-48.0246813145734
 21
-232.8756058158323
 31
0.0
  0
LINE
  8
DETAIL
  6
CONTINUOUS
 62
     5
 10
-19.030694668820619
 20
-112.68174474959621
 30
0.0
 11
-19.030694668820619
 21
-111.5799676898224
 31
0.0
  0
LINE
  8
DETAIL
  6
CONTINUOUS
 62
     5
 10
-14.02261712439417
 20
-118.19063004846539
 30
0.0
 11
-14.02261712439417
 21
-113.6833602584817
 31
0.0
  0
LINE
  8
DETAIL
  6
CONTINUOUS
 62
     5
 10
-8.5137318255249284
 20
-165.96768982229409
 30
0.0
 11
-8.5137318255249284
 21
-162.66235864297289
 31
0.0
  0
LINE
  8
DETAIL
  6
CONTINUOUS
 62
     5
 10
-8.5137318255249284
 20
-148.13893376413591
 30
0.0
 11
-8.5137318255249284
 21
-118.19063004846539
 31
0.0
  0
LINE
  8
DETAIL
  6
CONTINUOUS
 62
     5
 10
-6.0800045985647557
 20
-116.18739903069471
 30
0.0
 11
-6.0800045985647557
 21
-118.19063004846539
 31
0.0
  0
LINE
  8
DETAIL
  6
CONTINUOUS
 62
     5
 10
-4.7075928917608962
 20
-307.09531502423278
 30
0.0
 11
-4.7075928917608962
 21
-306.59450726978997
 31
0.0
  0
LINE
  8
DETAIL
  6
CONTINUOUS
 62
     5
 10
-26.049655248174759
 20
-162.66235864297289
 30
0.0
 11
-25.220514364478959
 21
-153.1852349759175
 31
0.0
  0
LINE
  8
DETAIL
  6
CONTINUOUS
 62
     5
 10
26.049655248174759
 20
-162.66235864297289
 30
0.0
 11
25.220514364478959
 21
-153.1852349759175
 31
0.0
  0
LINE
  8
DETAIL
  6
CONTINUOUS
 62
     5
 10
4.7075928917608962
 20
-307.09531502423278
 30
0.0
 11
4.7075928917608962
 21
-306.59450726978997
 31
0.0
  0
LINE
  8
DETAIL
  6
CONTINUOUS
 62
     5
 10
6.1568613812726198
 20
-116.18739903069471
 30
0.0
 11
6.1568613812726198
 21
-118.19063004846539
 31
0.0
  0
LINE
  8
DETAIL
  6
CONTINUOUS
 62
     5
 10
8.5137318255251557
 20
-165.96768982229409
 30
0.0
 11
8.5137318255251557
 21
-162.66235864297289
 31
0.0
  0
LINE
  8
DETAIL
  6
CONTINUOUS
 62
     5
 10
8.5137318255251557
 20
-148.13893376413591
 30
0.0
 11
8.5137318255251557
 21
-118.19063004846539
 31
0.0
  0
LINE
  8
DETAIL
  6
CONTINUOUS
 62
     5
 10
14.02261712439417
 20
-118.19063004846539
 30
0.0
 11
14.02261712439417
 21
-113.6833602584817
 31
0.0
  0
LINE
  8
DETAIL
  6
CONTINUOUS
 62
     5
 10
19.030694668820839
 20
-112.68174474959621
 30
0.0
 11
19.030694668820839
 21
-111.5799676898224
 31
0.0
  0
LINE
  8
DETAIL
  6
CONTINUOUS
 62
     5
 10
48.0246813145734
 20
-239.38610662358661
 30
0.0
 11
48.0246813145734
 21
-232.8756058158323
 31
0.0
  0
LINE
  8
DETAIL
  6
CONTINUOUS
 62
     5
 10
51.279931718450598
 20
-229.67043618739899
 30
0.0
 11
51.279931718450598
 21
-232.8756058158323
 31
0.0
  0
LINE
  8
DETAIL
  6
CONTINUOUS
 62
     5
 10
54.535182122327797
 20
-239.38610662358661
 30
0.0
 11
54.535182122327797
 21
-233.45710029387229
 31
0.0
  0
LINE
  8
DETAIL
  6
CONTINUOUS
 62
     5
 10
57.790432526205002
 20
-229.67043618739899
 30
0.0
 11
57.790432526205002
 21
-232.8756058158323
 31
0.0
  0
LINE
  8
DETAIL
  6
CONTINUOUS
 62
     5
 10
61.045682930082187
 20
-239.38610662358661
 30
0.0
 11
61.045682930082187
 21
-232.8756058158323
 31
0.0
  0
LINE
  8
DETAIL
  6
CONTINUOUS
 62
     5
 10
63.549721702295528
 20
-243.3925686591277
 30
0.0
 11
63.549721702295528
 21
-239.38610662358661
 31
0.0
  0
LINE
  8
DETAIL
  6
CONTINUOUS
 62
     5
 10
65.305331179321456
 20
-299.18255250403888
 30
0.0
 11
65.305331179321456
 21
-284.45880452342521
 31
0.0
  0
LINE
  8
DETAIL
  6
CONTINUOUS
 62
     5
 10
65.305331179321456
 20
-202.40492051821539
 30
0.0
 11
65.305331179321456
 21
-173.8804523424881
 31
0.0
  0
LINE
  8
DETAIL
  6
CONTINUOUS
 62
     5
 10
66.106623586429805
 20
-237.38287560581591
 30
0.0
 11
66.106623586429805
 21
-203.7927996795033
 31
0.0
  0
LINE
  8
DETAIL
  6
CONTINUOUS
 62
     5
 10
86.1389337641358
 20
-243.3925686591277
 30
0.0
 11
86.1389337641358
 21
-239.38610662358661
 31
0.0
  0
LINE
  8
DETAIL
  6
CONTINUOUS
 62
     5
 10
89.644588045234286
 20
-284.45880452342521
 30
0.0
 11
89.644588045234286
 21
-248.40064620355429
 31
0.0
  0
LINE
  8
DETAIL
  6
CONTINUOUS
 62
     5
 10
-65.305331179321456
 20
-202.40492051821539
 30
0.0
 11
-66.106623586429805
 21
-203.7927996795033
 31
0.0
  0
LINE
  8
DETAIL
  6
CONTINUOUS
 62
     5
 10
257.92138462007978
 20
-85.888529886914512
 30
0.0
 11
257.21313550139638
 21
-84.886914378029019
 31
0.0
  0
LINE
  8
DETAIL
  6
CONTINUOUS
 62
     5
 10
18.029082971509521
 20
-113.683364070832
 30
0.0
 11
19.03069869158821
 21
-112.6817487739166
 31
0.0
  0
LINE
  8
DETAIL
  6
CONTINUOUS
 62
     5
 10
201.12844121861991
 20
-16.426494345718989
 30
0.0
 11
201.12844121861991
 21
-13.02100161550902
 31
0.0
  0
LINE
  8
DETAIL
  6
CONTINUOUS
 62
     5
 10
213.16867623235771
 20
-14.523424878837091
 30
0.0
 11
213.16867623235771
 21
-10.016155088853109
 31
0.0
  0
LINE
  8
DETAIL
  6
CONTINUOUS
 62
     5
 10
230.16665507610449
 20
-178.28756058158319
 30
0.0
 11
230.16665507610449
 21
-14.523424878837091
 31
0.0
  0
LINE
  8
DETAIL
  6
CONTINUOUS
 62
     5
 10
242.91513920852569
 20
-6.4103392568659956
 30
0.0
 11
242.91513920852569
 21
-3.004846526655911
 31
0.0
  0
LINE
  8
DETAIL
  6
CONTINUOUS
 62
     5
 10
252.83062686699009
 20
-178.28756058158319
 30
0.0
 11
252.83062686699009
 21
-14.523424878837091
 31
0.0
  0
LINE
  8
DETAIL
  6
CONTINUOUS
 62
     5
 10
254.24712510435691
 20
-5.1082390953154118
 30
0.0
 11
254.24712510435691
 21
-3.004846526655911
 31
0.0
  0
LINE
  8
DETAIL
  6
CONTINUOUS
 62
     5
 10
257.08012157831467
 20
-14.523424878837091
 30
0.0
 11
257.08012157831467
 21
-178.28756058158319
 31
0.0
  0
LINE
  8
DETAIL
  6
CONTINUOUS
 62
     5
 10
257.92138462007978
 20
-85.888529886914512
 30
0.0
 11
257.92138462007978
 21
-87.390953150242581
 31
0.0
  0
LINE
  8
DETAIL
  6
CONTINUOUS
 62
     5
 10
261.32961628886301
 20
-14.523424878837091
 30
0.0
 11
261.32961628886301
 21
-18.082583469612128
 31
0.0
  0
LINE
  8
DETAIL
  6
CONTINUOUS
 62
     5
 10
262.98813544223623
 20
-84.886914378029019
 30
0.0
 11
262.98813544223623
 21
-88.392568659127733
 31
0.0
  0
LINE
  8
DETAIL
  6
CONTINUOUS
 62
     5
 10
266.33769383328968
 20
-18.529886914378039
 30
0.0
 11
266.33769383328968
 21
-14.523424878837091
 31
0.0
  0
LINE
  8
DETAIL
  6
CONTINUOUS
 62
     5
 10
296.97899838449098
 20
-13.89004062544007
 30
0.0
 11
296.97899838449098
 21
-16.426494345718989
 31
0.0
  0
LINE
  8
DETAIL
  6
CONTINUOUS
 62
     5
 10
303.82456339745272
 20
-5.1082390953154118
 30
0.0
 11
303.82456339745272
 21
-3.004846526655911
 31
0.0
  0
LINE
  8
DETAIL
  6
CONTINUOUS
 62
     5
 10
306.99515347334432
 20
-3.004846526655911
 30
0.0
 11
306.99515347334432
 21
-6.4103392568659956
 31
0.0
  0
LINE
  8
DETAIL
  6
CONTINUOUS
 62
     5
 10
257.21313550139638
 20
-88.392568659127733
 30
0.0
 11
257.92138462007978
 21
-87.390953150242581
 31
0.0
  0
ARC
  8
DETAIL
  6
CONTINUOUS
 62
     5
 10
-197.5226253866326
 20
-16.426494345718989
 30
0.0
 40
3.605815831987115
 50
180.0
 51
270.0
  0
ARC
  8
DETAIL
  6
CONTINUOUS
 62
     5
 10
-293.37318255250398
 20
-16.426494345718989
 30
0.0
 40
3.6058158319872282
 50
180.0
 51
270.0
  0
ARC
  8
DETAIL
  6
CONTINUOUS
 62
     5
 10
-204.13328774527579
 20
-13.02100161550902
 30
0.0
 40
3.004846526655911
 50
0.0
 51
90.0
  0
ARC
  8
DETAIL
  6
CONTINUOUS
 62
     5
 10
-268.43295638126011
 20
-109.57673667205189
 30
0.0
 40
2.0032310177705308
 50
90.0
 51
270.0
  0
ARC
  8
DETAIL
  6
CONTINUOUS
 62
     5
 10
-57.893376413570188
 20
-299.18255250403888
 30
0.0
 40
7.4119547657512017
 50
180.0
 51
270.0
  0
ARC
  8
DETAIL
  6
CONTINUOUS
 62
     5
 10
-57.893376413570188
 20
-173.8804523424881
 30
0.0
 40
7.4119547657512621
 50
90.0
 51
180.0
  0
ARC
  8
DETAIL
  6
CONTINUOUS
 62
     5
 10
-83.634894991922465
 20
-249.4022617124397
 30
0.0
 40
6.0096930533118211
 50
90.0
 51
180.0
  0
ARC
  8
DETAIL
  6
CONTINUOUS
 62
     5
 10
-13.021001615508791
 20
-169.57350565428109
 30
0.0
 40
3.605815831987115
 50
90.0
 51
120.506440523093
  0
ARC
  8
DETAIL
  6
CONTINUOUS
 62
     5
 10
-68.109854604200336
 20
-237.38287560581591
 30
0.0
 40
2.0032310177706449
 50
270.0
 51
0.0
  0
ARC
  8
DETAIL
  6
CONTINUOUS
 62
     5
 10
-20.23149406684956
 20
-153.62171769503229
 30
0.0
 40
5.0080775444265084
 50
94.999999935999284
 51
174.99999998889709
  0
ARC
  8
DETAIL
  6
CONTINUOUS
 62
     5
 10
-303.38933764135709
 20
-6.4103392568659956
 30
0.0
 40
3.6058158319870022
 50
180.0
 51
270.0
  0
ARC
  8
DETAIL
  6
CONTINUOUS
 62
     5
 10
-239.30932337653871
 20
-6.4103392568659956
 30
0.0
 40
3.6058158319870022
 50
180.0
 51
270.0
  0
ARC
  8
DETAIL
  6
CONTINUOUS
 62
     5
 10
-308.49757673667182
 20
-1.502423263328069
 30
0.0
 40
1.5024232633279551
 50
90.0
 51
270.0
  0
ARC
  8
DETAIL
  6
CONTINUOUS
 62
     5
 10
57.893376413570188
 20
-299.18255250403888
 30
0.0
 40
7.4119547657511484
 50
270.0
 51
0.0
  0
ARC
  8
DETAIL
  6
CONTINUOUS
 62
     5
 10
57.893376413570188
 20
-173.8804523424881
 30
0.0
 40
7.4119547657512319
 50
0.0
 51
90.0
  0
ARC
  8
DETAIL
  6
CONTINUOUS
 62
     5
 10
0.0
 20
-302.56550888529921
 30
0.0
 40
6.5330371567043954
 50
223.89739816710619
 51
316.10260183289381
  0
ARC
  8
DETAIL
  6
CONTINUOUS
 62
     5
 10
83.634894991922465
 20
-249.4022617124397
 30
0.0
 40
6.0096930533117927
 50
0.0
 51
90.0
  0
ARC
  8
DETAIL
  6
CONTINUOUS
 62
     5
 10
13.02100161550902
 20
-169.57350565428109
 30
0.0
 40
3.6058158319869591
 50
59.493559476907024
 51
90.0
  0
ARC
  8
DETAIL
  6
CONTINUOUS
 62
     5
 10
68.109854604200336
 20
-237.38287560581591
 30
0.0
 40
2.0032310177706449
 50
180.0
 51
270.0
  0
ARC
  8
DETAIL
  6
CONTINUOUS
 62
     5
 10
20.23149406684956
 20
-153.62171769503229
 30
0.0
 40
5.008077544426496
 50
5.0000000111029186
 51
85.00000006400073
  0
ARC
  8
DETAIL
  6
CONTINUOUS
 62
     5
 10
197.52262538663291
 20
-16.426494345718989
 30
0.0
 40
3.6058158319872282
 50
270.0
 51
0.0
  0
ARC
  8
DETAIL
  6
CONTINUOUS
 62
     5
 10
293.37318255250398
 20
-16.426494345718989
 30
0.0
 40
3.6058158319872282
 50
270.0
 51
0.0
  0
ARC
  8
DETAIL
  6
CONTINUOUS
 62
     5
 10
204.13328774527579
 20
-13.02100161550902
 30
0.0
 40
3.004846526655911
 50
90.0
 51
180.0
  0
ARC
  8
DETAIL
  6
CONTINUOUS
 62
     5
 10
268.43295638126011
 20
-109.57673667205189
 30
0.0
 40
2.0032310177707591
 50
270.0
 51
90.0
  0
ARC
  8
DETAIL
  6
CONTINUOUS
 62
     5
 10
239.30932337653871
 20
-6.4103392568659956
 30
0.0
 40
3.6058158319872282
 50
270.0
 51
0.0
  0
ARC
  8
DETAIL
  6
CONTINUOUS
 62
     5
 10
303.38933764135692
 20
-6.4103392568659956
 30
0.0
 40
3.6058158319872282
 50
270.0
 51
0.0
  0
ARC
  8
DETAIL
  6
CONTINUOUS
 62
     5
 10
308.49757673667199
 20
-1.502423263328069
 30
0.0
 40
1.5024232633279551
 50
270.0
 51
90.0
  0
LINE
  8
DETAIL
  6
CONTINUOUS
 62
     5
 10
17.471995577459669
 20
-127.1538963667375
 30
0.0
 11
18.359444006783409
 21
-127.712021209897
 31
0.0
  0
LINE
  8
DETAIL
  6
CONTINUOUS
 62
     5
 10
18.359444006783409
 20
-127.712021209897
 30
0.0
 11
18.359444006783409
 21
-127.712021209897
 31
0.0
  0
LINE
  8
DETAIL
  6
CONTINUOUS
 62
     5
 10
18.359444006783409
 20
-127.712021209897
 30
0.0
 11
19.259560546673359
 21
-128.27682358326919
 31
0.0
  0
LINE
  8
DETAIL
  6
CONTINUOUS
 62
     5
 10
35.929227867136433
 20
-138.51057175468461
 30
0.0
 11
36.381009434348023
 21
-138.78221025968
 31
0.0
  0
LINE
  8
DETAIL
  6
CONTINUOUS
 62
     5
 10
36.381009434348023
 20
-138.78221025968
 30
0.0
 11
36.381009434348023
 21
-138.78221025968
 31
0.0
  0
LINE
  8
DETAIL
  6
CONTINUOUS
 62
     5
 10
36.381009434348023
 20
-138.78221025968
 30
0.0
 11
36.833023666866673
 21
-139.05372320571851
 31
0.0
  0
LINE
  8
DETAIL
  6
CONTINUOUS
 62
     5
 10
36.833023666866673
 20
-139.05372320571851
 30
0.0
 11
37.284829471892408
 21
-139.32485086356721
 31
0.0
  0
LINE
  8
DETAIL
  6
CONTINUOUS
 62
     5
 10
37.284829471892408
 20
-139.32485086356721
 30
0.0
 11
37.284829471892408
 21
-139.32485086356721
 31
0.0
  0
LINE
  8
DETAIL
  6
CONTINUOUS
 62
     5
 10
37.284829471892408
 20
-139.32485086356721
 30
0.0
 11
37.736054946870127
 21
-139.59537503234219
 31
0.0
  0
LINE
  8
DETAIL
  6
CONTINUOUS
 62
     5
 10
37.736054946870127
 20
-139.59537503234219
 30
0.0
 11
38.187067413895868
 21
-139.86552065183321
 31
0.0
  0
LINE
  8
DETAIL
  6
CONTINUOUS
 62
     5
 10
38.187067413895868
 20
-139.86552065183321
 30
0.0
 11
38.187067413895868
 21
-139.86552065183321
 31
0.0
  0
LINE
  8
DETAIL
  6
CONTINUOUS
 62
     5
 10
38.187067413895868
 20
-139.86552065183321
 30
0.0
 11
38.638303706319903
 21
-140.1355542018492
 31
0.0
  0
LINE
  8
DETAIL
  6
CONTINUOUS
 62
     5
 10
38.638303706319903
 20
-140.1355542018492
 30
0.0
 11
39.089739477855119
 21
-140.4054651816061
 31
0.0
  0
LINE
  8
DETAIL
  6
CONTINUOUS
 62
     5
 10
39.089739477855119
 20
-140.4054651816061
 30
0.0
 11
39.089739477855119
 21
-140.4054651816061
 31
0.0
  0
LINE
  8
DETAIL
  6
CONTINUOUS
 62
     5
 10
39.089739477855119
 20
-140.4054651816061
 30
0.0
 11
39.541257539680601
 21
-140.67518738454089
 31
0.0
  0
LINE
  8
DETAIL
  6
CONTINUOUS
 62
     5
 10
39.541257539680601
 20
-140.67518738454089
 30
0.0
 11
39.992830512477887
 21
-140.94470876156799
 31
0.0
  0
LINE
  8
DETAIL
  6
CONTINUOUS
 62
     5
 10
39.992830512477887
 20
-140.94470876156799
 30
0.0
 11
39.992830512477887
 21
-140.94470876156799
 31
0.0
  0
LINE
  8
DETAIL
  6
CONTINUOUS
 62
     5
 10
39.992830512477887
 20
-140.94470876156799
 30
0.0
 11
40.444478954711258
 21
-141.21404589064159
 31
0.0
  0
LINE
  8
DETAIL
  6
CONTINUOUS
 62
     5
 10
40.444478954711258
 20
-141.21404589064159
 30
0.0
 11
40.896325366471267
 21
-141.4832757004003
 31
0.0
  0
LINE
  8
DETAIL
  6
CONTINUOUS
 62
     5
 10
40.896325366471267
 20
-141.4832757004003
 30
0.0
 11
40.896325366471267
 21
-141.4832757004003
 31
0.0
  0
LINE
  8
DETAIL
  6
CONTINUOUS
 62
     5
 10
40.896325366471267
 20
-141.4832757004003
 30
0.0
 11
41.348393339252418
 21
-141.75241631709949
 31
0.0
  0
LINE
  8
DETAIL
  6
CONTINUOUS
 62
     5
 10
41.348393339252418
 20
-141.75241631709949
 30
0.0
 11
41.800208888542777
 21
-142.02119030678571
 31
0.0
  0
LINE
  8
DETAIL
  6
CONTINUOUS
 62
     5
 10
41.800208888542777
 20
-142.02119030678571
 30
0.0
 11
41.800208888542777
 21
-142.02119030678571
 31
0.0
  0
LINE
  8
DETAIL
  6
CONTINUOUS
 62
     5
 10
41.800208888542777
 20
-142.02119030678571
 30
0.0
 11
42.251372880261208
 21
-142.28936306384171
 31
0.0
  0
LINE
  8
DETAIL
  6
CONTINUOUS
 62
     5
 10
42.251372880261208
 20
-142.28936306384171
 30
0.0
 11
42.702283158062073
 21
-142.55716685621201
 31
0.0
  0
LINE
  8
DETAIL
  6
CONTINUOUS
 62
     5
 10
42.702283158062073
 20
-142.55716685621201
 30
0.0
 11
42.702283158062073
 21
-142.55716685621201
 31
0.0
  0
LINE
  8
DETAIL
  6
CONTINUOUS
 62
     5
 10
2.504038772213335
 20
-231.37318255250429
 30
0.0
 11
-2.5040387722131068
 21
-231.37318255250429
 31
0.0
  0
LINE
  8
DETAIL
  6
CONTINUOUS
 62
     5
 10
-228.96930533117921
 20
-49.479806138934009
 30
0.0
 11
-228.96930533117921
 21
-71.515347334410194
 31
0.0
  0
LINE
  8
DETAIL
  6
CONTINUOUS
 62
     5
 10
268.43295638126011
 20
-111.5799676898224
 30
0.0
 11
257.08012157831467
 21
-111.5799676898224
 31
0.0
  0
LINE
  8
DETAIL
  6
CONTINUOUS
 62
     5
 10
230.16665507610449
 20
-111.5799676898224
 30
0.0
 11
-230.16665507610401
 21
-111.5799676898224
 31
0.0
  0
LINE
  8
DETAIL
  6
CONTINUOUS
 62
     5
 10
-257.08012157831467
 20
-111.5799676898224
 30
0.0
 11
-268.43295638126011
 21
-111.5799676898224
 31
0.0
  0
LINE
  8
DETAIL
  6
CONTINUOUS
 62
     5
 10
-86.1389337641358
 20
-243.3925686591277
 30
0.0
 11
-86.1389337641358
 21
-239.38610662358661
 31
0.0
  0
LINE
  8
DETAIL
  6
CONTINUOUS
 62
     5
 10
-63.549721702295528
 20
-243.3925686591277
 30
0.0
 11
-63.549721702295528
 21
-239.38610662358661
 31
0.0
  0
LINE
  8
DETAIL
  6
CONTINUOUS
 62
     5
 10
-2.5040387722131068
 20
-231.37318255250429
 30
0.0
 11
-2.5040387722131068
 21
-239.38610662358661
 31
0.0
  0
LINE
  8
DETAIL
  6
CONTINUOUS
 62
     5
 10
2.504038772213335
 20
-231.37318255250429
 30
0.0
 11
2.504038772213335
 21
-239.38610662358661
 31
0.0
  0
LINE
  8
DETAIL
  6
CONTINUOUS
 62
     5
 10
228.96930533117921
 20
-49.479806138934009
 30
0.0
 11
228.96930533117921
 21
-71.515347334410194
 31
0.0
  0
ARC
  8
DETAIL
  6
CONTINUOUS
 62
     5
 10
-268.43295638126011
 20
-71.515347334410194
 30
0.0
 40
39.463651050080969
 50
345.87284882499722
 51
0.0
  0
ARC
  8
DETAIL
  6
CONTINUOUS
 62
     5
 10
-258.41680129240717
 20
-49.479806138934009
 30
0.0
 40
29.447495961227791
 50
0.0
 51
16.363229635099952
  0
ARC
  8
DETAIL
  6
CONTINUOUS
 62
     5
 10
-258.41680129240717
 20
-49.479806138934009
 30
0.0
 40
29.44749596122794
 50
87.397983385301686
 51
90.0
  0
CIRCLE
  8
DETAIL
  6
CONTINUOUS
 62
     5
 10
0.0
 20
-255.41195476575149
 30
0.0
 40
3.004846526655911
  0
ARC
  8
DETAIL
  6
CONTINUOUS
 62
     5
 10
268.43295638126011
 20
-71.515347334410194
 30
0.0
 40
39.46365105008077
 50
180.0
 51
194.12715117500289
  0
ARC
  8
DETAIL
  6
CONTINUOUS
 62
     5
 10
258.41680129240717
 20
-49.479806138934009
 30
0.0
 40
29.44749596122778
 50
163.63677036490009
 51
180.0
  0
ARC
  8
DETAIL
  6
CONTINUOUS
 62
     5
 10
258.41680129240717
 20
-49.479806138934009
 30
0.0
 40
29.447495961227791
 50
90.0
 51
92.602016614698343
  0
LINE
  8
BASIS
  6
DASHDOT
 62
     6
 10
0.0
 20
-343.58555431038923
 30
0.0
 11
0.0
 21
67.397275598763372
 31
0.0
  0
LINE
  8
OUTLINE
  6
CONTINUOUS
 62
     3
 10
-306.99515347334409
 20
-3.004846526655967
 30
0.0
 11
-308.49757673667182
 21
-3.004846526655911
 31
0.0
  0
LINE
  8
OUTLINE
  6
CONTINUOUS
 62
     3
 10
-65.305331179321456
 20
-284.45880452342521
 30
0.0
 11
-89.644588045234286
 21
-284.45880452342521
 31
0.0
  0
LINE
  8
SIZE
  6
CONTINUOUS
 62
    30
 10
-65.305331179321456
 20
-319.18255250403888
 30
0.0
 11
-65.305331179321456
 21
-487.1014647332895
 31
0.0
  0
LINE
  8
SIZE
  6
CONTINUOUS
 62
    30
 10
65.305331179321456
 20
-319.18255250403888
 30
0.0
 11
65.305331179321456
 21
-487.1014647332895
 31
0.0
  0
LINE
  8
SIZE
  6
CONTINUOUS
 62
    30
 10
-53.305331179321463
 20
-467.1014647332895
 30
0.0
 11
53.305331179321463
 21
-467.1014647332895
 31
0.0
  0
LINE
  8
SIZE
  6
CONTINUOUS
 62
    30
 10
65.305331179321456
 20
-467.1014647332895
 30
0.0
 11
328.9109128282048
 21
-467.1014647332895
 31
0.0
  0
CIRCLE
  8
SIZE
  6
CONTINUOUS
 62
    30
 10
-65.305331179321456
 20
-467.1014647332895
 30
0.0
 40
6.0
  0
LINE
  8
SIZE
  6
CONTINUOUS
 62
    30
 10
-65.305331179321456
 20
-467.1014647332895
 30
0.0
 11
-53.305331179321463
 21
-467.1014647332895
 31
0.0
  0
CIRCLE
  8
SIZE
  6
CONTINUOUS
 62
    30
 10
65.305331179321456
 20
-467.1014647332895
 30
0.0
 40
6.0
  0
LINE
  8
SIZE
  6
CONTINUOUS
 62
    30
 10
65.305331179321456
 20
-467.1014647332895
 30
0.0
 11
53.305331179321463
 21
-467.1014647332895
 31
0.0
  0
TEXT
  8
SIZE
  6
CONTINUOUS
 62
    30
 10
120.9623413996333
 20
-431.43479806662288
 30
0.0
 40
64.0
  1
φ131
 41
0.9
 72
     1
 11
217.51091282820471
 21
-431.43479806662288
 31
0.0
  0
POINT
  8
DEFPOINTS
  6
CONTINUOUS
 62
    30
 10
-65.305331179321456
 20
-299.18255250403888
 30
0.0
  0
POINT
  8
DEFPOINTS
  6
CONTINUOUS
 62
    30
 10
65.305331179321456
 20
-299.18255250403888
 30
0.0
  0
POINT
  8
DEFPOINTS
  6
CONTINUOUS
 62
    30
 10
65.305331179321456
 20
-467.1014647332895
 30
0.0
  0
LINE
  8
DETAIL
  6
CONTINUOUS
 62
     5
 10
308.49757673667227
 20
0.0
 30
0.0
 11
-308.49757673667227
 21
0.0
 31
0.0
  0
ARC
  8
DETAIL
  6
CONTINUOUS
 62
     5
 10
-149.2247835753908
 20
-177.25293984739491
 30
0.0
 40
107.86030027673981
 50
180.5496026842776
 51
253.0948882151352
  0
ARC
  8
DETAIL
  6
CONTINUOUS
 62
     5
 10
-141.66056792187209
 20
-176.30204446561831
 30
0.0
 40
111.1877883595152
 50
181.023203557475
 51
249.50557580831429
  0
ARC
  8
DETAIL
  6
CONTINUOUS
 62
     5
 10
-157.97441023477359
 20
-179.82474892171359
 30
0.0
 40
72.208608650379375
 50
178.7801861917419
 51
251.74859317363811
  0
ARC
  8
DETAIL
  6
CONTINUOUS
 62
     5
 10
-243.73429196531109
 20
-6.2766739413104924
 30
0.0
 40
3.925367398809831
 50
187.72578848804929
 51
252.29687138193091
  0
ARC
  8
DETAIL
  6
CONTINUOUS
 62
     5
 10
-257.19650745306541
 20
-8.7613788817661771
 30
0.0
 40
9.7704783813302853
 50
11.554396913550191
 51
36.114613530430773
  0
ARC
  8
DETAIL
  6
CONTINUOUS
 62
     5
 10
-244.5155540864944
 20
-8.1431624491212915
 30
0.0
 40
6.3935755923847131
 50
193.4710038631504
 51
266.30187372724311
  0
ARC
  8
DETAIL
  6
CONTINUOUS
 62
     5
 10
-255.78636746278431
 20
-9.7752588317399614
 30
0.0
 40
5.0551525301127214
 50
1.617507910963663
 51
67.401512215018101
  0
ARC
  8
DETAIL
  6
CONTINUOUS
 62
     5
 10
-294.085638315697
 20
-8.1611794570276288
 30
0.0
 40
6.3760761023435499
 50
196.42201387053811
 51
266.22548466020612
  0
ARC
  8
DETAIL
  6
CONTINUOUS
 62
     5
 10
-305.5709592036601
 20
-9.9832076833920382
 30
0.0
 40
5.3693893257050949
 50
0.2075226331592015
 51
65.147224156718465
  0
ARC
  8
DETAIL
  6
CONTINUOUS
 62
     5
 10
-62.527727550464988
 20
-222.57628234395671
 30
0.0
 40
169.4907176197442
 50
139.0874580023231
 51
161.76390214071091
  0
ARC
  8
DETAIL
  6
CONTINUOUS
 62
     5
 10
533.85064838346671
 20
684.2754529512473
 30
0.0
 40
961.76528678807767
 50
236.89173979674521
 51
240.88299268590811
  0
ARC
  8
DETAIL
  6
CONTINUOUS
 62
     5
 10
989.57780170890692
 20
1472.6559749695009
 30
0.0
 40
1872.327668190756
 50
240.41930376711269
 51
240.98656770124049
  0
ARC
  8
DETAIL
  6
CONTINUOUS
 62
     5
 10
80.722853824463527
 20
-124.9529226869677
 30
0.0
 40
4.3740147270331544
 50
338.22590560042988
 51
70.372850644504339
  0
ARC
  8
DETAIL
  6
CONTINUOUS
 62
     5
 10
95.417474928652155
 20
-129.69729554862661
 30
0.0
 40
11.08150250944991
 50
163.6373290806435
 51
205.69336229910431
  0
ARC
  8
DETAIL
  6
CONTINUOUS
 62
     5
 10
14.450001546654679
 20
-155.14115298960169
 30
0.0
 40
68.867179046318569
 50
327.08165383234342
 51
348.97508918229107
  0
ARC
  8
DETAIL
  6
CONTINUOUS
 62
     5
 10
78.51585589732349
 20
-191.73088425555599
 30
0.0
 40
6.3111548363524701
 50
187.6090042740538
 51
304.64951778172122
  0
ARC
  8
DETAIL
  6
CONTINUOUS
 62
     5
 10
-41.314693795418862
 20
87.012404380670432
 30
0.0
 40
309.59870080944472
 50
293.49325880776848
 51
320.09802275361568
  0
ARC
  8
DETAIL
  6
CONTINUOUS
 62
     5
 10
445.13426024573351
 20
378.29472927265198
 30
0.0
 40
651.44454759834707
 50
239.28696855904869
 51
242.16064174335989
  0
ARC
  8
DETAIL
  6
CONTINUOUS
 62
     5
 10
56.108390241019151
 20
-269.25867219851881
 30
0.0
 40
114.140997275134
 50
40.39294036017278
 51
54.763327139121969
  0
ARC
  8
DETAIL
  6
CONTINUOUS
 62
     5
 10
141.63753060210371
 20
-196.22869479412171
 30
0.0
 40
1.68653164159059
 50
244.57488572785621
 51
33.724549910180727
  0
ARC
  8
DETAIL
  6
CONTINUOUS
 62
     5
 10
-181.9186138813966
 20
-179.94215421590309
 30
0.0
 40
42.869110880636981
 50
165.95289243336251
 51
204.34718803522131
  0
ARC
  8
DETAIL
  6
CONTINUOUS
 62
     5
 10
-220.98728293571
 20
-187.81547703201511
 30
0.0
 40
9.8001118043992079
 50
270.07111192853068
 51
341.3262155398217
  0
ARC
  8
DETAIL
  6
CONTINUOUS
 62
     5
 10
-105.373686577841
 20
-255.83600043127029
 30
0.0
 40
124.5620656869676
 50
115.65556187179661
 51
148.60824916102831
  0
ARC
  8
DETAIL
  6
CONTINUOUS
 62
     5
 10
220.39920372286539
 20
-983.16319491249942
 30
0.0
 40
921.47598091603811
 50
108.94059566921069
 51
114.33429983102749
  0
ARC
  8
DETAIL
  6
CONTINUOUS
 62
     5
 10
115.5919908744672
 20
-12.43869952792056
 30
0.0
 40
113.423491731141
 50
240.93608089018909
 51
252.87418869801189
  0
ARC
  8
DETAIL
  6
CONTINUOUS
 62
     5
 10
343.9132153626324
 20
506.20781764049929
 30
0.0
 40
703.47183236234298
 50
243.40091681361881
 51
248.42438924230831
  0
ARC
  8
DETAIL
  6
CONTINUOUS
 62
     5
 10
243.73429196530921
 20
-6.2766739413104924
 30
0.0
 40
3.925367398809831
 50
287.70312861806912
 51
352.27421151195068
  0
ARC
  8
DETAIL
  6
CONTINUOUS
 62
     5
 10
257.19650745306348
 20
-8.7613788817661771
 30
0.0
 40
9.7704783813302853
 50
143.88538646956931
 51
168.44560308644981
  0
ARC
  8
DETAIL
  6
CONTINUOUS
 62
     5
 10
244.51555408649261
 20
-8.1431624491212915
 30
0.0
 40
6.3935755923847131
 50
273.69812627275678
 51
346.52899613684332
  0
ARC
  8
DETAIL
  6
CONTINUOUS
 62
     5
 10
255.78636746278241
 20
-9.7752588317399614
 30
0.0
 40
5.0551525301127214
 50
112.5984877849819
 51
178.38249208903639
  0
ARC
  8
DETAIL
  6
CONTINUOUS
 62
     5
 10
294.08563831569518
 20
-8.1611794570276288
 30
0.0
 40
6.3760761023435499
 50
273.77451533979388
 51
343.57798612946192
  0
ARC
  8
DETAIL
  6
CONTINUOUS
 62
     5
 10
305.57095920365828
 20
-9.9832076833920382
 30
0.0
 40
5.3693893257050949
 50
114.85277584328151
 51
179.79247736684081
  0
ARC
  8
DETAIL
  6
CONTINUOUS
 62
     5
 10
107.3201682480976
 20
-162.0584533270536
 30
0.0
 40
25.9839351239326
 50
151.40685481381999
 51
193.48160262109789
  0
ARC
  8
DETAIL
  6
CONTINUOUS
 62
     5
 10
72.189686767356761
 20
-141.25880022804819
 30
0.0
 40
14.86927369791635
 50
326.25829058253282
 51
26.85693234318035
  0
ARC
  8
DETAIL
  6
CONTINUOUS
 62
     5
 10
10.70509593538009
 20
-121.3041520372575
 30
0.0
 40
12.565590123782769
 50
13.441134405358101
 51
48.150224872047538
  0
ARC
  8
DETAIL
  6
CONTINUOUS
 62
     5
 10
34.159494471914513
 20
-109.423283892364
 30
0.0
 40
14.368800938642909
 50
218.5777696963253
 51
248.6887206712602
  0
ARC
  8
DETAIL
  6
CONTINUOUS
 62
     5
 10
149.2247835753908
 20
-177.25293984739491
 30
0.0
 40
107.86030027673981
 50
286.9051117848648
 51
359.45039731572228
  0
ARC
  8
DETAIL
  6
CONTINUOUS
 62
     5
 10
141.66056792187209
 20
-176.30204446561831
 30
0.0
 40
111.1877883595152
 50
290.49442419168571
 51
358.97679644252503
  0
ARC
  8
DETAIL
  6
CONTINUOUS
 62
     5
 10
157.97441023477359
 20
-179.82474892171359
 30
0.0
 40
72.208608650379375
 50
288.25140682636192
 51
1.219813808258092
  0
ARC
  8
OUTLINE
  6
CONTINUOUS
 62
     3
 10
-149.224783575391
 20
-177.25293984738579
 30
0.0
 40
107.86030027673981
 50
180.5496026842809
 51
253.0948882151352
  0
ARC
  8
OUTLINE
  6
CONTINUOUS
 62
     3
 10
-294.085638315697
 20
-8.1611794570186476
 30
0.0
 40
6.3760761023435499
 50
196.42201387053811
 51
266.22548466020612
  0
ARC
  8
OUTLINE
  6
CONTINUOUS
 62
     3
 10
294.08563831569518
 20
-8.1611794570186476
 30
0.0
 40
6.3760761023435499
 50
273.77451533979388
 51
343.57798612946192
  0
ARC
  8
OUTLINE
  6
CONTINUOUS
 62
     3
 10
149.2247835753906
 20
-177.25293984738579
 30
0.0
 40
107.86030027673981
 50
286.9051117848648
 51
359.4503973157191
  0
ENDSEC
  0
EOF
