  0
SECTION
  2
HEADER
  9
$ACADVER
  1
AC1009
  9
$DWGCODEPAGE
  3
dos932
  9
$INSBASE
 10
0.0
 20
0.0
 30
0.0
  9
$EXTMIN
 10
-718.29984927119403
 20
-410.79710739524671
 30
-0.0015258207003583
  9
$EXTMAX
 10
1119.8227045473429
 20
678.68042804612742
 30
0.0000000349246037
  9
$LIMMIN
 10
-2970.0
 20
-2100.0
  9
$LIMMAX
 10
2970.0
 20
2100.0
  9
$ORTHOMODE
 70
     1
  9
$REGENMODE
 70
     1
  9
$FILLMODE
 70
     1
  9
$QTEXTMODE
 70
     0
  9
$MIRRTEXT
 70
     0
  9
$LTSCALE
 40
20.0
  9
$ATTMODE
 70
     1
  9
$TEXTSIZE
 40
64.0
  9
$TRACEWID
 40
0.05
  9
$TEXTSTYLE
  7
STANDARD
  9
$CLAYER
  8
SIZE
  9
$CELTYPE
  6
CONTINUOUS
  9
$CECOLOR
 62
     7
  9
$DIMSCALE
 40
1.0
  9
$DIMASZ
 40
12.0
  9
$DIMEXO
 40
20.0
  9
$DIMDLI
 40
200.0
  9
$DIMRND
 40
0.0
  9
$DIMDLE
 40
0.0
  9
$DIMEXE
 40
20.0
  9
$DIMTP
 40
0.0
  9
$DIMTM
 40
0.0
  9
$DIMTXT
 40
64.0
  9
$DIMCEN
 40
0.09
  9
$DIMTSZ
 40
0.0
  9
$DIMTOL
 70
     0
  9
$DIMLIM
 70
     0
  9
$DIMTIH
 70
     0
  9
$DIMTOH
 70
     0
  9
$DIMSE1
 70
     0
  9
$DIMSE2
 70
     0
  9
$DIMTAD
 70
     1
  9
$DIMZIN
 70
     8
  9
$DIMBLK
  1

  9
$DIMASO
 70
     1
  9
$DIMSHO
 70
     0
  9
$DIMPOST
  1

  9
$DIMAPOST
  1

  9
$DIMALT
 70
     0
  9
$DIMALTD
 70
     2
  9
$DIMALTF
 40
25.399999999999999
  9
$DIMLFAC
 40
1.0
  9
$DIMTOFL
 70
     1
  9
$DIMTVP
 40
0.0
  9
$DIMTIX
 70
     1
  9
$DIMSOXD
 70
     0
  9
$DIMSAH
 70
     0
  9
$DIMBLK1
  1

  9
$DIMBLK2
  1

  9
$DIMSTYLE
  2
STANDARD
  9
$DIMCLRD
 70
     7
  9
$DIMCLRE
 70
     7
  9
$DIMCLRT
 70
     7
  9
$DIMTFAC
 40
1.0
  9
$DIMGAP
 40
25.0
  9
$LUNITS
 70
     2
  9
$LUPREC
 70
     4
  9
$SKETCHINC
 40
0.1
  9
$FILLETRAD
 40
3.0
  9
$AUNITS
 70
     1
  9
$AUPREC
 70
     3
  9
$MENU
  1
ACAD
  9
$ELEVATION
 40
0.0
  9
$PELEVATION
 40
0.0
  9
$THICKNESS
 40
0.0
  9
$LIMCHECK
 70
     0
  9
$CHAMFERA
 40
0.0
  9
$CHAMFERB
 40
0.0
  9
$SKPOLY
 70
     0
  9
$TDCREATE
 40
2453019.62301037
  9
$TDUPDATE
 40
2458949.45409691
  9
$TDINDWG
 40
1.7130715394
  9
$TDUSRTIMER
 40
1.7130715394
  9
$USRTIMER
 70
     1
  9
$ANGBASE
 50
0.0
  9
$ANGDIR
 70
     0
  9
$PDMODE
 70
     3
  9
$PDSIZE
 40
-2.0
  9
$PLINEWID
 40
0.0
  9
$SPLFRAME
 70
     0
  9
$SPLINETYPE
 70
     6
  9
$SPLINESEGS
 70
     8
  9
$SURFTAB1
 70
     6
  9
$SURFTAB2
 70
     6
  9
$SURFTYPE
 70
     6
  9
$SURFU
 70
     6
  9
$SURFV
 70
     6
  9
$UCSNAME
  2

  9
$UCSORG
 10
0.0
 20
0.0
 30
0.0
  9
$UCSXDIR
 10
1.0
 20
0.0
 30
0.0
  9
$UCSYDIR
 10
0.0
 20
1.0
 30
0.0
  9
$PUCSNAME
  2

  9
$PUCSORG
 10
0.0
 20
0.0
 30
0.0
  9
$PUCSXDIR
 10
1.0
 20
0.0
 30
0.0
  9
$PUCSYDIR
 10
0.0
 20
1.0
 30
0.0
  9
$USERI1
 70
     0
  9
$USERI2
 70
     0
  9
$USERI3
 70
     0
  9
$USERI4
 70
     0
  9
$USERI5
 70
     0
  9
$USERR1
 40
20.0
  9
$USERR2
 40
0.0
  9
$USERR3
 40
0.0
  9
$USERR4
 40
0.0
  9
$USERR5
 40
0.0
  9
$WORLDVIEW
 70
     1
  9
$SHADEDGE
 70
     3
  9
$SHADEDIF
 70
    70
  9
$TILEMODE
 70
     1
  9
$MAXACTVP
 70
    48
  9
$PINSBASE
 10
0.0
 20
0.0
 30
0.0
  9
$PLIMCHECK
 70
     0
  9
$PEXTMIN
 10
-100000000000000000000.0
 20
-100000000000000000000.0
 30
-100000000000000000000.0
  9
$PEXTMAX
 10
100000000000000000000.0
 20
100000000000000000000.0
 30
100000000000000000000.0
  9
$PLIMMIN
 10
0.0
 20
0.0
  9
$PLIMMAX
 10
12.0
 20
9.0
  9
$UNITMODE
 70
     0
  9
$VISRETAIN
 70
     0
  9
$PLINEGEN
 70
     0
  9
$PSLTSCALE
 70
     0
  9
$TREEDEPTH
 70
  3020
  9
$ATTDIA
 70
     0
  9
$ATTREQ
 70
     1
  9
$BLIPMODE
 70
     1
  9
$COORDS
 70
     1
  9
$DRAGMODE
 70
     2
  9
$OSMODE
 70
     0
  9
$HANDLING
 70
     0
  9
$HANDSEED
  5
FB9D
  0
ENDSEC
  0
SECTION
  2
TABLES
  0
TABLE
  2
LTYPE
 70
     2
  0
LTYPE
  2
CONTINUOUS
 70
     0
  3
実線
 72
    65
 73
     0
 40
0.0
  0
LTYPE
  2
DASHDOT
 70
     0
  3
____ _ ____ _ ____ _ ____ _ ____ _ ____ _ ____
 72
    65
 73
     4
 40
5.5
 49
4.0
 49
-0.6
 49
0.3
 49
-0.6
  0
ENDTAB
  0
TABLE
  2
LAYER
 70
    12
  0
LAYER
  2
0
 70
     0
 62
     7
  6
CONTINUOUS
  0
LAYER
  2
BASIS
 70
     0
 62
     6
  6
DASHDOT
  0
LAYER
  2
OUTLINE
 70
     0
 62
     3
  6
CONTINUOUS
  0
LAYER
  2
DETAIL
 70
     0
 62
     5
  6
CONTINUOUS
  0
LAYER
  2
SIZE
 70
     0
 62
    30
  6
CONTINUOUS
  0
LAYER
  2
ARRANGE
 70
     0
 62
     1
  6
CONTINUOUS
  0
LAYER
  2
DEFPOINTS
 70
     0
 62
     7
  6
CONTINUOUS
  0
LAYER
  2
ETC
 70
     0
 62
    61
  6
CONTINUOUS
  0
LAYER
  2
FIX
 70
     0
 62
    11
  6
CONTINUOUS
  0
LAYER
  2
NOTE
 70
     0
 62
     4
  6
CONTINUOUS
  0
LAYER
  2
SERVICESPACE
 70
    64
 62
     2
  6
DASHDOT
  0
LAYER
  2
SYMBOLLINE
 70
    64
 62
    15
  6
CONTINUOUS
  0
ENDTAB
  0
TABLE
  2
STYLE
 70
     1
  0
STYLE
  2
STANDARD
 70
     0
 40
64.0
 41
0.9
 50
0.0
 71
     0
 42
64.0
  3
SIMPLEX.shx
  4
BIGFONT.shx
  0
ENDTAB
  0
TABLE
  2
APPID
 70
    19
  0
APPID
  2
ACAD
 70
     0
  0
APPID
  2
AUTOCAD_POSTSCRIPT_FIGURE
 70
     0
  0
APPID
  2
ACAD_EXEMPT_FROM_CAD_STANDARDS
 70
     0
  0
APPID
  2
ACAD_PSEXT
 70
     0
  0
APPID
  2
ACAUTHENVIRON
 70
     0
  0
APPID
  2
GENIUS_GENOENT_13
 70
     0
  0
APPID
  2
GENIUS_GENCFG_13
 70
     0
  0
APPID
  2
GENIUS_GENCFG0_13
 70
     0
  0
APPID
  2
GENIUS_GENCFG1_13
 70
     0
  0
APPID
  2
GENIUS_GENCFG2_13
 70
     0
  0
APPID
  2
GENIUS_GENCFG3_13
 70
     0
  0
APPID
  2
GENIUS_GENCFG4_13
 70
     0
  0
APPID
  2
GENIUS_GEVCFG0_13
 70
     0
  0
APPID
  2
CONTENTBLOCKICON
 70
     0
  0
APPID
  2
CONTENTBLOCKDESCRIPTION
 70
     0
  0
APPID
  2
ACAD_NAV_VCDISPLAY
 70
     0
  0
APPID
  2
ACAD_MLEADERVER
 70
     0
  0
APPID
  2
ACDBDYNAMICBLOCKTRUENAME
 70
     0
  0
APPID
  2
ACDBDYNAMICBLOCKGUID
 70
     0
  0
ENDTAB
  0
TABLE
  2
DIMSTYLE
 70
     1
  0
DIMSTYLE
  2
STANDARD
 70
     0
  3

  4

  5
_ORIGIN
  6

  7

 40
1.0
 41
12.0
 42
20.0
 43
200.0
 44
20.0
 45
0.0
 46
0.0
 47
0.0
 48
0.0
140
64.0
141
0.09
142
0.0
143
25.399999999999999
144
1.0
145
0.0
146
1.0
147
25.0
 71
     0
 72
     0
 73
     0
 74
     0
 75
     0
 76
     0
 77
     1
 78
     8
170
     0
171
     2
172
     1
173
     0
174
     1
175
     0
176
     7
177
     7
178
     7
  0
ENDTAB
  0
TABLE
  2
VIEW
 70
     1
  0
VIEW
  2
ALL
 70
     0
 40
4282.6198079999986
 10
0.0
 20
41.309904000000003
 41
5940.0
 11
0.0
 21
0.0
 31
1.0
 12
0.0
 22
0.0
 32
0.0
 42
50.0
 43
0.0
 44
0.0
 50
0.0
 71
     0
  0
ENDTAB
  0
TABLE
  2
UCS
 70
     0
  0
ENDTAB
  0
TABLE
  2
VPORT
 70
     1
  0
VPORT
  2
*ACTIVE
 70
     0
 10
0.0
 20
0.0
 11
1.0
 21
1.0
 12
200.76142763807451
 22
133.94166032544041
 13
0.0
 23
0.0
 14
1.0
 24
1.0
 15
0.0
 25
0.0
 16
0.0
 26
0.0
 36
1.0
 17
0.0
 27
0.0
 37
0.0
 40
1096.7005909249631
 41
1.747787610619469
 42
50.0
 43
0.0
 44
0.0
 50
0.0
 51
0.0
 71
     0
 72
  1000
 73
     1
 74
     3
 75
     0
 76
     0
 77
     0
 78
     0
  0
ENDTAB
  0
ENDSEC
  0
SECTION
  2
BLOCKS
  0
BLOCK
  8
0
  2
_ORIGIN
 70
     0
 10
0.0
 20
0.0
 30
0.0
  3
_ORIGIN
  1
_ORIGIN
  0
CIRCLE
  8
0
  6
CONTINUOUS
 62
     7
 10
0.0
 20
0.0
 30
0.0
 40
0.5
  0
LINE
  8
0
  6
CONTINUOUS
 62
     7
 10
0.0
 20
0.0
 30
0.0
 11
-1.0
 21
0.0
 31
0.0
  0
ENDBLK
  8
0
  0
ENDSEC
  0
SECTION
  2
ENTITIES
  0
POINT
  8
ARRANGE
  6
CONTINUOUS
 62
     1
 10
0.0
 20
-0.0000000000000639
 30
0.0
 50
359.99829045418988
  0
CIRCLE
  8
ARRANGE
  6
CONTINUOUS
 62
     1
 10
0.0
 20
0.0
 30
0.0
 40
39.999999999999993
  0
TEXT
  8
ETC
  6
CONTINUOUS
 62
    61
 10
491.70080710425918
 20
614.51412067233753
 30
0.0
 40
64.0
  1
EWG-45DTA2_2
 41
0.9
  0
TEXT
  8
ETC
  6
CONTINUOUS
 62
    61
 10
487.51481310425879
 20
496.558810657506
 30
0.0
 40
64.0
  1
産業扇
 41
0.9
  0
TEXT
  8
ETC
  6
CONTINUOUS
 62
    61
 10
538.21621135281475
 20
388.41003777128083
 30
0.0
 40
40.0
  1
EWG-45DTA2
 41
0.9
  0
CIRCLE
  8
FIX
  6
CONTINUOUS
 62
    11
 10
-280.45234248788358
 20
280.4523424878837
 30
0.0
 40
7.0
  0
CIRCLE
  8
FIX
  6
CONTINUOUS
 62
    11
 10
-280.45234248788358
 20
-280.4523424878837
 30
0.0
 40
7.0
  0
CIRCLE
  8
FIX
  6
CONTINUOUS
 62
    11
 10
280.45234248788358
 20
-280.4523424878837
 30
0.0
 40
7.0
  0
CIRCLE
  8
FIX
  6
CONTINUOUS
 62
    11
 10
280.45234248788358
 20
280.45234248788358
 30
0.0
 40
7.0
  0
LINE
  8
SIZE
  6
CONTINUOUS
 62
    30
 10
-310.0
 20
289.93537964458801
 30
0.0
 11
-310.0
 21
496.98818270582802
 31
0.0
  0
LINE
  8
SIZE
  6
CONTINUOUS
 62
    30
 10
310.0
 20
289.93537964458801
 30
0.0
 11
310.0
 21
496.98818270582802
 31
0.0
  0
LINE
  8
SIZE
  6
CONTINUOUS
 62
    30
 10
-298.0
 20
476.98818270582802
 30
0.0
 11
298.0
 21
476.98818270582802
 31
0.0
  0
CIRCLE
  8
SIZE
  6
CONTINUOUS
 62
    30
 10
-310.0
 20
476.98818270582802
 30
0.0
 40
6.0
  0
LINE
  8
SIZE
  6
CONTINUOUS
 62
    30
 10
-310.0
 20
476.98818270582802
 30
0.0
 11
-298.0
 21
476.98818270582802
 31
0.0
  0
CIRCLE
  8
SIZE
  6
CONTINUOUS
 62
    30
 10
310.0
 20
476.98818270582802
 30
0.0
 40
6.0
  0
LINE
  8
SIZE
  6
CONTINUOUS
 62
    30
 10
310.0
 20
476.98818270582802
 30
0.0
 11
298.0
 21
476.98818270582802
 31
0.0
  0
TEXT
  8
SIZE
  6
CONTINUOUS
 62
    30
 10
-74.05714285714285
 20
501.98818270582802
 30
0.0
 40
64.0
  1
620
 41
0.9
 72
     1
 11
0.0
 21
501.98818270582802
 31
0.0
  0
POINT
  8
DEFPOINTS
  6
CONTINUOUS
 62
    30
 10
-310.0
 20
269.93537964458801
 30
0.0
  0
POINT
  8
DEFPOINTS
  6
CONTINUOUS
 62
    30
 10
310.0
 20
269.93537964458801
 30
0.0
  0
POINT
  8
DEFPOINTS
  6
CONTINUOUS
 62
    30
 10
310.0
 20
476.98818270582802
 30
0.0
  0
LINE
  8
SIZE
  6
CONTINUOUS
 62
    30
 10
-280.45234248788358
 20
331.51018772463698
 30
0.0
 11
-280.45234248788358
 21
391.28524152930049
 31
0.0
  0
LINE
  8
SIZE
  6
CONTINUOUS
 62
    30
 10
280.45234248788358
 20
331.51018772463698
 30
0.0
 11
280.45234248788358
 21
391.28524152930049
 31
0.0
  0
LINE
  8
SIZE
  6
CONTINUOUS
 62
    30
 10
-268.45234248788358
 20
371.28524152930049
 30
0.0
 11
268.45234248788358
 21
371.28524152930049
 31
0.0
  0
CIRCLE
  8
SIZE
  6
CONTINUOUS
 62
    30
 10
-280.45234248788358
 20
371.28524152930049
 30
0.0
 40
6.0
  0
LINE
  8
SIZE
  6
CONTINUOUS
 62
    30
 10
-280.45234248788358
 20
371.28524152930049
 30
0.0
 11
-268.45234248788358
 21
371.28524152930049
 31
0.0
  0
CIRCLE
  8
SIZE
  6
CONTINUOUS
 62
    30
 10
280.45234248788358
 20
371.28524152930049
 30
0.0
 40
6.0
  0
LINE
  8
SIZE
  6
CONTINUOUS
 62
    30
 10
280.45234248788358
 20
371.28524152930049
 30
0.0
 11
268.45234248788358
 21
371.28524152930049
 31
0.0
  0
TEXT
  8
SIZE
  6
CONTINUOUS
 62
    30
 10
-74.057142856880233
 20
396.28524152930049
 30
0.0
 40
64.0
  1
560
 41
0.9
 72
     1
 11
0.0000000002626166
 21
396.28524152930049
 31
0.0
  0
POINT
  8
DEFPOINTS
  6
CONTINUOUS
 62
    30
 10
-280.45234248788358
 20
311.51018772463698
 30
0.0
  0
POINT
  8
DEFPOINTS
  6
CONTINUOUS
 62
    30
 10
280.45234248788358
 20
311.51018772463698
 30
0.0
  0
POINT
  8
DEFPOINTS
  6
CONTINUOUS
 62
    30
 10
280.45234248788358
 20
371.28524152930049
 30
0.0
  0
LINE
  8
SIZE
  6
CONTINUOUS
 62
    30
 10
-289.93537964458801
 20
310.0
 30
0.0
 11
-648.9145453029131
 21
310.0
 31
0.0
  0
LINE
  8
SIZE
  6
CONTINUOUS
 62
    30
 10
-289.93537964458801
 20
-310.0
 30
0.0
 11
-648.91454530291333
 21
-309.99999999999989
 31
0.0
  0
LINE
  8
SIZE
  6
CONTINUOUS
 62
    30
 10
-628.9145453029131
 20
298.0
 30
0.0
 11
-628.91454530291333
 21
-297.99999999999989
 31
0.0
  0
CIRCLE
  8
SIZE
  6
CONTINUOUS
 62
    30
 10
-628.9145453029131
 20
310.0
 30
0.0
 40
6.0
  0
LINE
  8
SIZE
  6
CONTINUOUS
 62
    30
 10
-628.9145453029131
 20
310.0
 30
0.0
 11
-628.9145453029131
 21
298.0
 31
0.0
  0
CIRCLE
  8
SIZE
  6
CONTINUOUS
 62
    30
 10
-628.91454530291333
 20
-309.99999999999989
 30
0.0
 40
6.0
  0
LINE
  8
SIZE
  6
CONTINUOUS
 62
    30
 10
-628.91454530291333
 20
-309.99999999999989
 30
0.0
 11
-628.91454530291333
 21
-297.99999999999989
 31
0.0
  0
TEXT
  8
SIZE
  6
CONTINUOUS
 62
    30
 10
-653.91454530291333
 20
-80.859766315696021
 30
0.0
 40
64.0
  1
620
 50
90.0
 41
0.9
 72
     1
 11
-653.91454530291333
 21
-6.8026234585531711
 31
0.0
  0
POINT
  8
DEFPOINTS
  6
CONTINUOUS
 62
    30
 10
-269.93537964458801
 20
310.0
 30
0.0
  0
POINT
  8
DEFPOINTS
  6
CONTINUOUS
 62
    30
 10
-269.93537964458801
 20
-310.0
 30
0.0
  0
POINT
  8
DEFPOINTS
  6
CONTINUOUS
 62
    30
 10
-628.91454530291333
 20
-309.99999999999989
 30
0.0
  0
LINE
  8
SIZE
  6
CONTINUOUS
 62
    30
 10
-331.51018772463698
 20
280.4523424878837
 30
0.0
 11
-537.69626911128114
 21
280.45234248788381
 31
0.0
  0
LINE
  8
SIZE
  6
CONTINUOUS
 62
    30
 10
-331.51018772463698
 20
-280.4523424878837
 30
0.0
 11
-537.69626911128137
 21
-280.45234248788358
 31
0.0
  0
LINE
  8
SIZE
  6
CONTINUOUS
 62
    30
 10
-517.69626911128114
 20
268.45234248788381
 30
0.0
 11
-517.69626911128137
 21
-268.45234248788358
 31
0.0
  0
CIRCLE
  8
SIZE
  6
CONTINUOUS
 62
    30
 10
-517.69626911128114
 20
280.45234248788381
 30
0.0
 40
6.0
  0
LINE
  8
SIZE
  6
CONTINUOUS
 62
    30
 10
-517.69626911128114
 20
280.45234248788381
 30
0.0
 11
-517.69626911128114
 21
268.45234248788381
 31
0.0
  0
CIRCLE
  8
SIZE
  6
CONTINUOUS
 62
    30
 10
-517.69626911128137
 20
-280.45234248788358
 30
0.0
 40
6.0
  0
LINE
  8
SIZE
  6
CONTINUOUS
 62
    30
 10
-517.69626911128137
 20
-280.45234248788358
 30
0.0
 11
-517.69626911128137
 21
-268.45234248788358
 31
0.0
  0
TEXT
  8
SIZE
  6
CONTINUOUS
 62
    30
 10
-542.69626911128125
 20
-74.05714285714285
 30
0.0
 40
64.0
  1
560
 50
90.0
 41
0.9
 72
     1
 11
-542.69626911128125
 21
0.0
 31
0.0
  0
POINT
  8
DEFPOINTS
  6
CONTINUOUS
 62
    30
 10
-311.51018772463698
 20
280.4523424878837
 30
0.0
  0
POINT
  8
DEFPOINTS
  6
CONTINUOUS
 62
    30
 10
-311.51018772463698
 20
-280.4523424878837
 30
0.0
  0
POINT
  8
DEFPOINTS
  6
CONTINUOUS
 62
    30
 10
-517.69626911128137
 20
-280.45234248788358
 30
0.0
  0
LINE
  8
SIZE
  6
CONTINUOUS
 62
    30
 10
-20.0
 20
65.305331179321513
 30
0.0
 11
-393.98015678251647
 21
65.305331179321612
 31
0.0
  0
LINE
  8
SIZE
  6
CONTINUOUS
 62
    30
 10
-20.0
 20
-65.305331179321513
 30
0.0
 11
-393.98015678251647
 21
-65.305331179321399
 31
0.0
  0
LINE
  8
SIZE
  6
CONTINUOUS
 62
    30
 10
-373.98015678251647
 20
53.305331179321612
 30
0.0
 11
-373.98015678251647
 21
-53.305331179321399
 31
0.0
  0
CIRCLE
  8
SIZE
  6
CONTINUOUS
 62
    30
 10
-373.98015678251647
 20
65.305331179321612
 30
0.0
 40
6.0
  0
LINE
  8
SIZE
  6
CONTINUOUS
 62
    30
 10
-373.98015678251647
 20
65.305331179321612
 30
0.0
 11
-373.98015678251647
 21
53.305331179321612
 31
0.0
  0
CIRCLE
  8
SIZE
  6
CONTINUOUS
 62
    30
 10
-373.98015678251647
 20
-65.305331179321399
 30
0.0
 40
6.0
  0
LINE
  8
SIZE
  6
CONTINUOUS
 62
    30
 10
-373.98015678251647
 20
-65.305331179321399
 30
0.0
 11
-373.98015678251647
 21
-53.305331179321399
 31
0.0
  0
TEXT
  8
SIZE
  6
CONTINUOUS
 62
    30
 10
-409.64682344918322
 20
-96.548571428571307
 30
0.0
 40
64.0
  1
φ131
 50
90.0
 41
0.9
 72
     1
 11
-409.64682344918322
 21
0.0000000000001137
 31
0.0
  0
POINT
  8
DEFPOINTS
  6
CONTINUOUS
 62
    30
 10
0.0
 20
65.305331179321513
 30
0.0
  0
POINT
  8
DEFPOINTS
  6
CONTINUOUS
 62
    30
 10
0.0
 20
-65.305331179321513
 30
0.0
  0
POINT
  8
DEFPOINTS
  6
CONTINUOUS
 62
    30
 10
-373.98015678251647
 20
-65.305331179321399
 30
0.0
  0
TEXT
  8
NOTE
  6
CONTINUOUS
 62
     4
 10
-627.91141437069962
 20
370.58713025583108
 30
0.0
 40
64.0
  1
4-φ14
 41
0.9
  0
TEXT
  8
NOTE
  6
CONTINUOUS
 62
     4
 10
392.46029096261623
 20
-386.75435664972338
 30
0.0
 40
64.0
  1
EL
 41
0.9
  0
LINE
  8
SIZE
  6
CONTINUOUS
 62
    30
 10
596.0646672298069
 20
195.9545943536707
 30
0.0
 11
268.3093553080721
 21
88.205951084193103
 31
0.0
  0
LINE
  8
SIZE
  6
CONTINUOUS
 62
    30
 10
-268.30935530807221
 20
-88.205951084193089
 30
0.0
 11
-279.709141905347
 21
-91.953599084818734
 31
0.0
  0
TEXT
  8
SIZE
  6
CONTINUOUS
 62
    30
 10
360.74446909593939
 20
144.9100186436014
 30
0.0
 40
64.0
  1
φ540
 50
18.19813522114498
 41
0.9
 72
     1
 11
469.40072077739302
 21
180.63045787242211
 31
0.0
  0
LINE
  8
SIZE
  6
CONTINUOUS
 62
    30
 10
-256.90956871079737
 20
-84.458303083567387
 30
0.0
 11
256.90956871079737
 21
84.458303083567372
 31
0.0
  0
CIRCLE
  8
SIZE
  6
CONTINUOUS
 62
    30
 10
-256.90956871079737
 20
-84.458303083567387
 30
0.0
 40
6.0
  0
LINE
  8
SIZE
  6
CONTINUOUS
 62
    30
 10
-256.90956871079737
 20
-84.458303083567387
 30
0.0
 11
-268.3093553080721
 21
-88.205951084193089
 31
0.0
  0
CIRCLE
  8
SIZE
  6
CONTINUOUS
 62
    30
 10
256.90956871079737
 20
84.458303083567372
 30
0.0
 40
6.0
  0
LINE
  8
SIZE
  6
CONTINUOUS
 62
    30
 10
256.90956871079737
 20
84.458303083567372
 30
0.0
 11
268.3093553080721
 21
88.205951084193103
 31
0.0
  0
POINT
  8
DEFPOINTS
  6
CONTINUOUS
 62
    30
 10
256.90956871079737
 20
84.458303083567372
 30
0.0
  0
POINT
  8
DEFPOINTS
  6
CONTINUOUS
 62
    30
 10
-256.90956871079737
 20
-84.458303083567387
 30
0.0
  0
LINE
  8
SIZE
  6
CONTINUOUS
 62
    30
 10
604.52464989543432
 20
-72.068259807121549
 30
0.0
 11
238.67825318793481
 21
-28.4539701797658
 31
0.0
  0
LINE
  8
SIZE
  6
CONTINUOUS
 62
    30
 10
-238.67825318793501
 20
28.4539701797658
 30
0.0
 11
-250.59387853863521
 21
29.874488571674419
 31
0.0
  0
TEXT
  8
SIZE
  6
CONTINUOUS
 62
    30
 10
372.40012325721523
 20
-19.218565328797791
 30
0.0
 40
64.0
  1
φ456
 50
353.20158308038378
 41
0.9
 72
     1
 11
484.61126941695193
 21
-32.595789956600242
 31
0.0
  0
LINE
  8
SIZE
  6
CONTINUOUS
 62
    30
 10
-226.7626278372347
 20
27.033451787857189
 30
0.0
 11
226.7626278372347
 21
-27.033451787857189
 31
0.0
  0
CIRCLE
  8
SIZE
  6
CONTINUOUS
 62
    30
 10
-226.7626278372347
 20
27.033451787857189
 30
0.0
 40
6.0
  0
LINE
  8
SIZE
  6
CONTINUOUS
 62
    30
 10
-226.7626278372347
 20
27.033451787857189
 30
0.0
 11
-238.67825318793501
 21
28.453970179765861
 31
0.0
  0
CIRCLE
  8
SIZE
  6
CONTINUOUS
 62
    30
 10
226.7626278372347
 20
-27.033451787857189
 30
0.0
 40
6.0
  0
LINE
  8
SIZE
  6
CONTINUOUS
 62
    30
 10
226.7626278372347
 20
-27.033451787857189
 30
0.0
 11
238.67825318793481
 21
-28.453970179765861
 31
0.0
  0
POINT
  8
DEFPOINTS
  6
CONTINUOUS
 62
    30
 10
226.7626278372347
 20
-27.033451787857189
 30
0.0
  0
POINT
  8
DEFPOINTS
  6
CONTINUOUS
 62
    30
 10
-226.7626278372347
 20
27.033451787857189
 30
0.0
  0
LINE
  8
SIZE
  6
CONTINUOUS
 62
    30
 10
572.65441533483227
 20
-260.30770865723252
 30
0.0
 11
216.08630716673679
 21
-98.224915384416278
 31
0.0
  0
LINE
  8
SIZE
  6
CONTINUOUS
 62
    30
 10
-216.0863071667369
 20
98.224915384416278
 30
0.0
 11
-227.01063125496049
 21
103.1907127237624
 31
0.0
  0
TEXT
  8
SIZE
  6
CONTINUOUS
 62
    30
 10
364.97632795297437
 20
-138.4432085737505
 30
0.0
 40
64.0
  1
φ450
 50
335.55519552600771
 41
0.9
 72
     1
 11
469.1007426910146
 21
-185.7743512139177
 31
0.0
  0
LINE
  8
SIZE
  6
CONTINUOUS
 62
    30
 10
-205.1619830785132
 20
93.259118045070196
 30
0.0
 11
205.1619830785132
 21
-93.259118045070181
 31
0.0
  0
CIRCLE
  8
SIZE
  6
CONTINUOUS
 62
    30
 10
-205.1619830785132
 20
93.259118045070196
 30
0.0
 40
6.0
  0
LINE
  8
SIZE
  6
CONTINUOUS
 62
    30
 10
-205.1619830785132
 20
93.259118045070196
 30
0.0
 11
-216.0863071667369
 21
98.224915384416278
 31
0.0
  0
CIRCLE
  8
SIZE
  6
CONTINUOUS
 62
    30
 10
205.1619830785132
 20
-93.259118045070181
 30
0.0
 40
6.0
  0
LINE
  8
SIZE
  6
CONTINUOUS
 62
    30
 10
205.1619830785132
 20
-93.259118045070181
 30
0.0
 11
216.08630716673679
 21
-98.224915384416278
 31
0.0
  0
POINT
  8
DEFPOINTS
  6
CONTINUOUS
 62
    30
 10
205.1619830785132
 20
-93.259118045070181
 30
0.0
  0
POINT
  8
DEFPOINTS
  6
CONTINUOUS
 62
    30
 10
-205.1619830785132
 20
93.259118045070196
 30
0.0
  0
LINE
  8
DETAIL
  6
CONTINUOUS
 62
     4
 10
-283.82610848968199
 20
286.51758690474048
 30
0.0
 11
-281.06270985004988
 21
280.95446482730239
 31
0.0
  0
LINE
  8
DETAIL
  6
CONTINUOUS
 62
     4
 10
-281.06270985004988
 20
280.95446482730239
 30
0.0
 11
-286.23744948948581
 21
284.39056275286413
 31
0.0
  0
LINE
  8
DETAIL
  6
CONTINUOUS
 62
     4
 10
-281.06270985004988
 20
280.95446482730239
 30
0.0
 11
-289.00084812911808
 21
289.95368483030222
 31
0.0
  0
LINE
  8
NOTE
  6
CONTINUOUS
 62
     4
 10
-289.00084812911808
 20
289.95368483030222
 30
0.0
 11
-337.16630272955138
 21
344.55735980491801
 31
0.0
  0
LINE
  8
NOTE
  6
CONTINUOUS
 62
     4
 10
-337.16630272955138
 20
344.55735980491801
 30
0.0
 11
-635.03486497458528
 21
344.71881465409842
 31
0.0
  0
LINE
  8
DETAIL
  6
CONTINUOUS
 62
     4
 10
238.33353509612991
 20
-245.07822795474081
 30
0.0
 11
235.72020028305249
 21
-239.44305444856039
 31
0.0
  0
LINE
  8
DETAIL
  6
CONTINUOUS
 62
     4
 10
235.72020028305249
 20
-239.44305444856039
 30
0.0
 11
240.80100675797391
 21
-243.01658279662141
 31
0.0
  0
LINE
  8
DETAIL
  6
CONTINUOUS
 62
     4
 10
235.72020028305249
 20
-239.44305444856039
 30
0.0
 11
243.38675445657529
 21
-248.467485318656
 31
0.0
  0
LINE
  8
NOTE
  6
CONTINUOUS
 62
     4
 10
243.38675445657529
 20
-248.467485318656
 30
0.0
 11
379.35221803316722
 21
-410.69696577399827
 31
0.0
  0
LINE
  8
NOTE
  6
CONTINUOUS
 62
     4
 10
379.35221803316722
 20
-410.69696577399827
 30
0.0
 11
479.19892602486652
 21
-410.60958936236602
 31
0.0
  0
LINE
  8
NOTE
  6
CONTINUOUS
 62
     4
 10
244.94773641204259
 20
280.45234248788358
 30
0.0
 11
315.95694856372478
 21
280.45234248788358
 31
0.0
  0
LINE
  8
NOTE
  6
CONTINUOUS
 62
     4
 10
280.45234248788358
 20
244.9477364120423
 30
0.0
 11
280.45234248788358
 21
315.9569485645012
 31
0.0
  0
LINE
  8
NOTE
  6
CONTINUOUS
 62
     4
 10
-244.94773641204259
 20
280.45234248788358
 30
0.0
 11
-315.95694856372478
 21
280.45234248788358
 31
0.0
  0
LINE
  8
NOTE
  6
CONTINUOUS
 62
     4
 10
-280.45234248788398
 20
244.9477364120423
 30
0.0
 11
-280.45234248788398
 21
315.9569485645012
 31
0.0
  0
LINE
  8
NOTE
  6
CONTINUOUS
 62
     4
 10
-280.45234248788398
 20
-244.94773641126611
 30
0.0
 11
-280.45234248788398
 21
-315.95694856372512
 31
0.0
  0
LINE
  8
NOTE
  6
CONTINUOUS
 62
     4
 10
-244.94773641204259
 20
-280.4523424878837
 30
0.0
 11
-315.95694856372478
 21
-280.4523424878837
 31
0.0
  0
LINE
  8
NOTE
  6
CONTINUOUS
 62
     4
 10
244.94773641204259
 20
-280.4523424878837
 30
0.0
 11
315.95694856372478
 21
-280.4523424878837
 31
0.0
  0
LINE
  8
NOTE
  6
CONTINUOUS
 62
     4
 10
280.45234248788358
 20
-244.94773641126611
 30
0.0
 11
280.45234248788358
 21
-315.95694856372512
 31
0.0
  0
LINE
  8
OUTLINE
  6
CONTINUOUS
 62
     3
 10
-309.99999999999972
 20
269.93537964458801
 30
0.0
 11
-309.99999999999972
 21
-269.93537964458812
 31
0.0
  0
LINE
  8
OUTLINE
  6
CONTINUOUS
 62
     3
 10
-269.93537964458801
 20
-310.00000000000011
 30
0.0
 11
269.93537964458818
 21
-310.00000000000011
 31
0.0
  0
LINE
  8
OUTLINE
  6
CONTINUOUS
 62
     3
 10
310.0
 20
-269.93537964458812
 30
0.0
 11
310.0
 21
269.93537964458801
 31
0.0
  0
LINE
  8
OUTLINE
  6
CONTINUOUS
 62
     3
 10
269.93537964458818
 20
309.99999999999989
 30
0.0
 11
-269.93537964458801
 21
309.99999999999989
 31
0.0
  0
ARC
  8
OUTLINE
  6
CONTINUOUS
 62
     3
 10
-269.93537964458801
 20
-269.93537964458812
 30
0.0
 40
40.064620355411762
 50
180.0
 51
270.0
  0
ARC
  8
OUTLINE
  6
CONTINUOUS
 62
     3
 10
-269.93537964458801
 20
269.93537964458801
 30
0.0
 40
40.064620355411932
 50
90.0
 51
180.0
  0
ARC
  8
OUTLINE
  6
CONTINUOUS
 62
     3
 10
269.93537964458818
 20
-269.93537964458812
 30
0.0
 40
40.064620355411932
 50
270.0
 51
0.0
  0
ARC
  8
OUTLINE
  6
CONTINUOUS
 62
     3
 10
269.93537964458818
 20
269.93537964458801
 30
0.0
 40
40.064620355411932
 50
0.0
 51
90.0
  0
LINE
  8
DETAIL
  6
CONTINUOUS
 62
     5
 10
-258.5742914102766
 20
-275.89216139817921
 30
0.0
 11
-252.12237774908269
 21
-301.69981604217861
 31
0.0
  0
LINE
  8
DETAIL
  6
CONTINUOUS
 62
     5
 10
-255.4088117242363
 20
-274.09989725498741
 30
0.0
 11
-249.23154117145691
 21
-298.80897946455281
 31
0.0
  0
LINE
  8
DETAIL
  6
CONTINUOUS
 62
     5
 10
-271.53141770029168
 20
-261.0433025374511
 30
0.0
 11
-261.04330253667439
 21
-271.5314177002918
 31
0.0
  0
LINE
  8
DETAIL
  6
CONTINUOUS
 62
     5
 10
-269.73915355710011
 20
-257.87782285063452
 30
0.0
 11
-257.87782285063417
 21
-269.73915355710028
 31
0.0
  0
LINE
  8
DETAIL
  6
CONTINUOUS
 62
     5
 10
-252.12237774908269
 20
301.69981604217861
 30
0.0
 11
-258.5742914102766
 21
275.89216139740262
 31
0.0
  0
LINE
  8
DETAIL
  6
CONTINUOUS
 62
     5
 10
-249.23154117145691
 20
298.80897946455269
 30
0.0
 11
-255.4088117242363
 21
274.09989725421087
 31
0.0
  0
LINE
  8
DETAIL
  6
CONTINUOUS
 62
     5
 10
-52.392228517639069
 20
-56.849645073599667
 30
0.0
 11
-56.64172322818763
 21
-52.600150362274803
 31
0.0
  0
LINE
  8
DETAIL
  6
CONTINUOUS
 62
     5
 10
-261.04330253667439
 20
271.53141769951532
 30
0.0
 11
-271.53141770029168
 21
261.04330253667439
 31
0.0
  0
LINE
  8
DETAIL
  6
CONTINUOUS
 62
     5
 10
-257.87782285063417
 20
269.73915355632357
 30
0.0
 11
-269.73915355710011
 21
257.87782285063417
 31
0.0
  0
LINE
  8
DETAIL
  6
CONTINUOUS
 62
     5
 10
-301.69981604217838
 20
-252.1223777490828
 30
0.0
 11
-275.89216139817898
 21
-258.57429141027671
 31
0.0
  0
LINE
  8
DETAIL
  6
CONTINUOUS
 62
     5
 10
-298.80897946455269
 20
-249.23154117145691
 30
0.0
 11
-274.09989725498741
 21
-255.40881172423639
 31
0.0
  0
LINE
  8
DETAIL
  6
CONTINUOUS
 62
     5
 10
-52.483460369663362
 20
52.136482962016707
 30
0.0
 11
-56.732955080211703
 21
56.385977672565161
 31
0.0
  0
LINE
  8
DETAIL
  6
CONTINUOUS
 62
     5
 10
56.641723228187402
 20
-56.849645073599667
 30
0.0
 11
52.392228517639069
 21
-52.600150362274803
 31
0.0
  0
LINE
  8
DETAIL
  6
CONTINUOUS
 62
     5
 10
241.91084286253161
 20
-402.65225060690523
 30
0.0
 11
244.91568938918749
 21
-402.65225060690523
 31
0.0
  0
LINE
  8
DETAIL
  6
CONTINUOUS
 62
     5
 10
56.732955080211923
 20
52.136482962016707
 30
0.0
 11
52.483460369663362
 21
56.385977672565161
 31
0.0
  0
LINE
  8
DETAIL
  6
CONTINUOUS
 62
     5
 10
241.91084286253161
 20
-379.45324182522461
 30
0.0
 11
241.91084286253161
 21
-402.65225060690523
 31
0.0
  0
LINE
  8
DETAIL
  6
CONTINUOUS
 62
     5
 10
244.91568938918749
 20
-379.45324182522461
 30
0.0
 11
244.91568938918749
 21
-402.65225060690523
 31
0.0
  0
LINE
  8
DETAIL
  6
CONTINUOUS
 62
     5
 10
-56.732955080211703
 20
52.136482962016707
 30
0.0
 11
-52.483460369663362
 21
56.385977672565161
 31
0.0
  0
LINE
  8
DETAIL
  6
CONTINUOUS
 62
     5
 10
255.40881172345959
 20
274.09989725421087
 30
0.0
 11
249.23154117145691
 21
298.80897946455269
 31
0.0
  0
LINE
  8
DETAIL
  6
CONTINUOUS
 62
     5
 10
258.57429141027683
 20
275.89216139740262
 30
0.0
 11
252.12237774908269
 21
301.69981604217861
 31
0.0
  0
LINE
  8
DETAIL
  6
CONTINUOUS
 62
     5
 10
249.23154117145691
 20
-298.80897946455281
 30
0.0
 11
255.40881172345959
 21
-274.09989725498741
 31
0.0
  0
LINE
  8
DETAIL
  6
CONTINUOUS
 62
     5
 10
252.12237774908269
 20
-301.69981604217861
 30
0.0
 11
258.57429141027683
 21
-275.89216139817921
 31
0.0
  0
LINE
  8
DETAIL
  6
CONTINUOUS
 62
     5
 10
-56.64172322818763
 20
-56.849645073599667
 30
0.0
 11
-52.392228517639069
 21
-52.600150362274803
 31
0.0
  0
LINE
  8
DETAIL
  6
CONTINUOUS
 62
     5
 10
52.483460369663362
 20
52.136482962016707
 30
0.0
 11
56.732955080211923
 21
56.385977672565161
 31
0.0
  0
LINE
  8
DETAIL
  6
CONTINUOUS
 62
     5
 10
52.392228517639069
 20
-56.849645073599667
 30
0.0
 11
56.641723228187402
 21
-52.600150362274803
 31
0.0
  0
LINE
  8
DETAIL
  6
CONTINUOUS
 62
     5
 10
275.89216139740279
 20
-258.57429141027671
 30
0.0
 11
301.69981604217878
 21
-252.1223777490828
 31
0.0
  0
LINE
  8
DETAIL
  6
CONTINUOUS
 62
     5
 10
274.09989725421087
 20
-255.40881172423639
 30
0.0
 11
298.80897946455269
 21
-249.23154117145691
 31
0.0
  0
LINE
  8
DETAIL
  6
CONTINUOUS
 62
     5
 10
269.73915355710028
 20
257.87782285063417
 30
0.0
 11
257.87782285063417
 21
269.73915355632357
 31
0.0
  0
LINE
  8
DETAIL
  6
CONTINUOUS
 62
     5
 10
271.53141769951537
 20
261.04330253667439
 30
0.0
 11
261.04330253667439
 21
271.53141769951532
 31
0.0
  0
LINE
  8
DETAIL
  6
CONTINUOUS
 62
     5
 10
298.80897946455269
 20
249.23154117145671
 30
0.0
 11
274.09989725421087
 21
255.40881172345971
 31
0.0
  0
LINE
  8
DETAIL
  6
CONTINUOUS
 62
     5
 10
301.69981604217878
 20
252.12237774830609
 30
0.0
 11
275.89216139740279
 21
258.57429140950012
 31
0.0
  0
LINE
  8
DETAIL
  6
CONTINUOUS
 62
     5
 10
257.87782285063417
 20
-269.73915355710028
 30
0.0
 11
269.73915355710028
 21
-257.87782285063452
 31
0.0
  0
LINE
  8
DETAIL
  6
CONTINUOUS
 62
     5
 10
261.04330253667439
 20
-271.5314177002918
 30
0.0
 11
271.53141769951537
 21
-261.0433025374511
 31
0.0
  0
LINE
  8
DETAIL
  6
CONTINUOUS
 62
     5
 10
-274.09989725498741
 20
255.40881172345971
 30
0.0
 11
-298.80897946455269
 21
249.23154117145671
 31
0.0
  0
LINE
  8
DETAIL
  6
CONTINUOUS
 62
     5
 10
-275.89216139817898
 20
258.57429140950012
 30
0.0
 11
-301.69981604217838
 21
252.12237774830609
 31
0.0
  0
LINE
  8
DETAIL
  6
CONTINUOUS
 62
     5
 10
-281.26125903695652
 20
300.89089949310602
 30
0.0
 11
-300.89089949388239
 21
281.26125903617981
 31
0.0
  0
LINE
  8
DETAIL
  6
CONTINUOUS
 62
     5
 10
-300.89089949388239
 20
-281.26125903695629
 30
0.0
 11
-281.26125903695652
 21
-300.8908994938825
 31
0.0
  0
LINE
  8
DETAIL
  6
CONTINUOUS
 62
     5
 10
-252.83062686776631
 20
257.08012157831467
 30
0.0
 11
-257.08012157831467
 21
252.8306268669896
 31
0.0
  0
LINE
  8
DETAIL
  6
CONTINUOUS
 62
     5
 10
-230.16665507610401
 20
267.11244612600967
 30
0.0
 11
-235.1747326205307
 21
264.22103120704821
 31
0.0
  0
LINE
  8
DETAIL
  6
CONTINUOUS
 62
     5
 10
-248.4804647260523
 20
216.10234013670461
 30
0.0
 11
-234.41614978742891
 21
230.16665507610421
 31
0.0
  0
LINE
  8
DETAIL
  6
CONTINUOUS
 62
     5
 10
-230.16665507610401
 20
234.4161497866526
 30
0.0
 11
-216.1023401367045
 21
248.48046472605211
 31
0.0
  0
LINE
  8
DETAIL
  6
CONTINUOUS
 62
     5
 10
-206.9957690273134
 20
246.255049940389
 30
0.0
 11
-224.50066212818871
 21
228.75015683873701
 31
0.0
  0
LINE
  8
DETAIL
  6
CONTINUOUS
 62
     5
 10
-228.75015683951389
 20
224.50066212818871
 30
0.0
 11
-246.255049940389
 21
206.99576902653689
 31
0.0
  0
LINE
  8
DETAIL
  6
CONTINUOUS
 62
     5
 10
-230.16665507610401
 20
255.5467864517162
 30
0.0
 11
-225.15857753167771
 21
258.43820137067792
 31
0.0
  0
LINE
  8
DETAIL
  6
CONTINUOUS
 62
     5
 10
-252.83062686776631
 20
-257.08012157831467
 30
0.0
 11
-257.08012157831467
 21
-252.83062686776631
 31
0.0
  0
LINE
  8
DETAIL
  6
CONTINUOUS
 62
     5
 10
-309.99999999999972
 20
269.93537964458801
 30
0.0
 11
-309.99999999999972
 21
-269.93537964458812
 31
0.0
  0
LINE
  8
DETAIL
  6
CONTINUOUS
 62
     5
 10
-306.99515347334409
 20
269.93537964458801
 30
0.0
 11
-306.99515347334409
 21
227.89090657524631
 31
0.0
  0
LINE
  8
DETAIL
  6
CONTINUOUS
 62
     5
 10
-306.99515347334409
 20
227.89090657524631
 30
0.0
 11
-306.99515347334409
 21
-227.8909065760229
 31
0.0
  0
LINE
  8
DETAIL
  6
CONTINUOUS
 62
     5
 10
-306.99515347334409
 20
-227.8909065760229
 30
0.0
 11
-306.99515347334409
 21
-269.93537964458812
 31
0.0
  0
LINE
  8
DETAIL
  6
CONTINUOUS
 62
     5
 10
-303.82456339745272
 20
274.17876785167368
 30
0.0
 11
-303.82456339745272
 21
254.2471251043568
 31
0.0
  0
LINE
  8
DETAIL
  6
CONTINUOUS
 62
     5
 10
-303.82456339745272
 20
-254.24712510435691
 30
0.0
 11
-303.82456339745272
 21
-274.17876785167368
 31
0.0
  0
LINE
  8
DETAIL
  6
CONTINUOUS
 62
     5
 10
-296.97899838449138
 20
171.07997595206069
 30
0.0
 11
-296.97899838449138
 21
-171.07997595206069
 31
0.0
  0
LINE
  8
DETAIL
  6
CONTINUOUS
 62
     5
 10
-266.33769383328939
 20
-233.05806999506589
 30
0.0
 11
-261.32961628886301
 21
-235.9494849132511
 31
0.0
  0
LINE
  8
DETAIL
  6
CONTINUOUS
 62
     5
 10
-256.32153874443628
 20
-227.2752401579192
 30
0.0
 11
-261.32961628886301
 21
-224.38382523973411
 31
0.0
  0
LINE
  8
DETAIL
  6
CONTINUOUS
 62
     5
 10
-216.1023401367045
 20
-248.48046472682881
 30
0.0
 11
-230.16665507610401
 21
-234.41614978742919
 31
0.0
  0
LINE
  8
DETAIL
  6
CONTINUOUS
 62
     5
 10
-234.41614978742891
 20
-230.16665507610429
 30
0.0
 11
-248.4804647260523
 21
-216.10234013748121
 31
0.0
  0
LINE
  8
DETAIL
  6
CONTINUOUS
 62
     5
 10
-246.255049940389
 20
-206.9957690273134
 30
0.0
 11
-228.75015683951389
 21
-224.5006621289653
 31
0.0
  0
LINE
  8
DETAIL
  6
CONTINUOUS
 62
     5
 10
-224.50066212818871
 20
-228.75015683951369
 30
0.0
 11
-206.9957690273134
 21
-246.25504994116559
 31
0.0
  0
LINE
  8
DETAIL
  6
CONTINUOUS
 62
     5
 10
-266.33769383328939
 20
-227.2752401579192
 30
0.0
 11
-266.33769383328939
 21
-233.05806999506589
 31
0.0
  0
LINE
  8
DETAIL
  6
CONTINUOUS
 62
     5
 10
-269.93537964458818
 20
-310.00000000000011
 30
0.0
 11
240.6573962302289
 21
-310.00000000000011
 31
0.0
  0
LINE
  8
DETAIL
  6
CONTINUOUS
 62
     5
 10
249.87398966009161
 20
-310.00000000000011
 30
0.0
 11
269.93537964458818
 21
-310.00000000000011
 31
0.0
  0
LINE
  8
DETAIL
  6
CONTINUOUS
 62
     5
 10
-269.93537964458818
 20
-306.99515347334409
 30
0.0
 11
-227.89090657524619
 21
-306.99515347334409
 31
0.0
  0
LINE
  8
DETAIL
  6
CONTINUOUS
 62
     5
 10
-227.89090657524619
 20
-306.99515347334409
 30
0.0
 11
227.89090657524639
 21
-306.99515347334409
 31
0.0
  0
LINE
  8
DETAIL
  6
CONTINUOUS
 62
     5
 10
227.89090657524639
 20
-306.99515347334409
 30
0.0
 11
240.5924504572765
 21
-306.99515347334409
 31
0.0
  0
LINE
  8
DETAIL
  6
CONTINUOUS
 62
     5
 10
249.810834936394
 20
-306.99515347334409
 30
0.0
 11
269.93537964458818
 21
-306.99515347334409
 31
0.0
  0
LINE
  8
DETAIL
  6
CONTINUOUS
 62
     5
 10
-274.17876785167368
 20
-303.82456339745278
 30
0.0
 11
-254.2471251043568
 21
-303.82456339745278
 31
0.0
  0
LINE
  8
DETAIL
  6
CONTINUOUS
 62
     5
 10
254.24712510435691
 20
-303.82456339745278
 30
0.0
 11
274.17876785167368
 21
-303.82456339745278
 31
0.0
  0
LINE
  8
DETAIL
  6
CONTINUOUS
 62
     5
 10
-171.07997595206069
 20
-296.97899838449121
 30
0.0
 11
171.07997595206069
 21
-296.97899838449121
 31
0.0
  0
LINE
  8
DETAIL
  6
CONTINUOUS
 62
     5
 10
-256.32153874443628
 20
-233.05806999506589
 30
0.0
 11
-256.32153874443628
 21
-227.2752401579192
 31
0.0
  0
LINE
  8
DETAIL
  6
CONTINUOUS
 62
     5
 10
-235.1747326205307
 20
264.22103120704821
 30
0.0
 11
-235.1747326205307
 21
258.43820137067792
 31
0.0
  0
LINE
  8
DETAIL
  6
CONTINUOUS
 62
     5
 10
-225.15857753167771
 20
258.43820137067792
 30
0.0
 11
-225.15857753167771
 21
264.22103120704821
 31
0.0
  0
LINE
  8
DETAIL
  6
CONTINUOUS
 62
     5
 10
-213.16867623313419
 20
-262.7461145262302
 30
0.0
 11
-213.16867623313419
 21
-255.562955911335
 31
0.0
  0
LINE
  8
DETAIL
  6
CONTINUOUS
 62
     5
 10
-213.16867623313419
 20
255.56295591055849
 30
0.0
 11
-213.16867623313419
 21
262.74611452545338
 31
0.0
  0
LINE
  8
DETAIL
  6
CONTINUOUS
 62
     5
 10
218.11371781828689
 20
-213.86422310773821
 30
0.0
 11
218.4876386831227
 21
-213.80022401906049
 31
0.0
  0
LINE
  8
DETAIL
  6
CONTINUOUS
 62
     5
 10
218.4876386831227
 20
-213.80022401906049
 30
0.0
 11
219.42282811907151
 21
-213.7365137815431
 31
0.0
  0
LINE
  8
DETAIL
  6
CONTINUOUS
 62
     5
 10
219.42282811907151
 20
-213.7365137815431
 30
0.0
 11
220.32508830922569
 21
-213.77531401760791
 31
0.0
  0
LINE
  8
DETAIL
  6
CONTINUOUS
 62
     5
 10
220.32508830922569
 20
-213.77531401760791
 30
0.0
 11
221.1851474300386
 21
-213.91454418471909
 31
0.0
  0
LINE
  8
DETAIL
  6
CONTINUOUS
 62
     5
 10
221.1851474300386
 20
-213.91454418471909
 30
0.0
 11
221.9928114643524
 21
-214.15431837620079
 31
0.0
  0
LINE
  8
DETAIL
  6
CONTINUOUS
 62
     5
 10
221.9928114643524
 20
-214.15431837620079
 30
0.0
 11
222.7401515601307
 21
-214.49040392175431
 31
0.0
  0
LINE
  8
DETAIL
  6
CONTINUOUS
 62
     5
 10
222.7401515601307
 20
-214.49040392175431
 30
0.0
 11
223.41442500336851
 21
-214.9180818519994
 31
0.0
  0
LINE
  8
DETAIL
  6
CONTINUOUS
 62
     5
 10
223.41442500336851
 20
-214.9180818519994
 30
0.0
 11
224.019879365919
 21
-215.43892515750591
 31
0.0
  0
LINE
  8
DETAIL
  6
CONTINUOUS
 62
     5
 10
-201.12844121861991
 20
266.93053311793199
 30
0.0
 11
-201.12844121861991
 21
260.42003231017759
 31
0.0
  0
LINE
  8
DETAIL
  6
CONTINUOUS
 62
     5
 10
-201.12844121861991
 20
-260.42003231017782
 30
0.0
 11
-201.12844121861991
 21
-266.93053311793221
 31
0.0
  0
LINE
  8
DETAIL
  6
CONTINUOUS
 62
     5
 10
262.74611452623031
 20
-213.16867623313419
 30
0.0
 11
255.56295591133471
 21
-213.16867623313419
 31
0.0
  0
LINE
  8
DETAIL
  6
CONTINUOUS
 62
     5
 10
-255.56295591133471
 20
-213.16867623313419
 30
0.0
 11
-262.74611452623031
 21
-213.16867623313419
 31
0.0
  0
LINE
  8
DETAIL
  6
CONTINUOUS
 62
     5
 10
-266.93053311793238
 20
-201.12844121861971
 30
0.0
 11
-260.42003231017787
 21
-201.12844121861971
 31
0.0
  0
LINE
  8
DETAIL
  6
CONTINUOUS
 62
     5
 10
260.42003231017748
 20
-201.12844121861971
 30
0.0
 11
266.93053311793238
 21
-201.12844121861971
 31
0.0
  0
LINE
  8
DETAIL
  6
CONTINUOUS
 62
     5
 10
240.43247411852079
 20
-259.55510403899763
 30
0.0
 11
256.29875796248029
 21
-264.2608258042855
 31
0.0
  0
LINE
  8
DETAIL
  6
CONTINUOUS
 62
     5
 10
256.64052184726529
 20
-263.10850038544288
 30
0.0
 11
243.8228193684738
 21
-259.30694596155342
 31
0.0
  0
LINE
  8
DETAIL
  6
CONTINUOUS
 62
     5
 10
-95.654281098546107
 20
-88.915490019436277
 30
0.0
 11
-95.654281098546107
 21
88.915490019436092
 31
0.0
  0
LINE
  8
DETAIL
  6
CONTINUOUS
 62
     5
 10
-89.644588045234059
 20
88.915490019436092
 30
0.0
 11
-89.644588045234059
 21
-88.915490019436277
 31
0.0
  0
LINE
  8
DETAIL
  6
CONTINUOUS
 62
     5
 10
-87.340872374797982
 20
75.016697207799481
 30
0.0
 11
-87.340872374797982
 21
-75.016697207799623
 31
0.0
  0
LINE
  8
DETAIL
  6
CONTINUOUS
 62
     5
 10
-54.535182122327797
 20
62.052860909919673
 30
0.0
 11
-61.045682930082187
 21
58.294021516123678
 31
0.0
  0
LINE
  8
DETAIL
  6
CONTINUOUS
 62
     5
 10
-54.535182122327797
 20
60.318011959474518
 30
0.0
 11
-59.543259666754238
 21
57.426597040512888
 31
0.0
  0
LINE
  8
DETAIL
  6
CONTINUOUS
 62
     5
 10
261.32961628886301
 20
235.9494849124745
 30
0.0
 11
256.32153874443679
 21
233.0580699942893
 31
0.0
  0
LINE
  8
DETAIL
  6
CONTINUOUS
 62
     5
 10
0.0
 20
81.481421647818991
 30
0.0
 11
-4.0064620355412899
 21
79.385240912699871
 31
0.0
  0
LINE
  8
DETAIL
  6
CONTINUOUS
 62
     5
 10
225.15857753167771
 20
-264.22103120782458
 30
0.0
 11
230.16665507610449
 21
-267.11244612600967
 31
0.0
  0
LINE
  8
DETAIL
  6
CONTINUOUS
 62
     5
 10
235.1747326205307
 20
-258.43820137067797
 30
0.0
 11
230.16665507610449
 21
-255.5467864524928
 31
0.0
  0
LINE
  8
DETAIL
  6
CONTINUOUS
 62
     5
 10
-61.045682930082187
 20
58.294021516123678
 30
0.0
 11
-61.045682930082187
 21
50.776342728531802
 31
0.0
  0
LINE
  8
DETAIL
  6
CONTINUOUS
 62
     5
 10
-61.045682930082187
 20
-50.776342728531922
 30
0.0
 11
-61.045682930082187
 21
-58.294021516900273
 31
0.0
  0
LINE
  8
DETAIL
  6
CONTINUOUS
 62
     5
 10
-59.543259666754238
 20
57.426597040512888
 30
0.0
 11
-59.543259666754238
 21
51.643767204142591
 31
0.0
  0
LINE
  8
DETAIL
  6
CONTINUOUS
 62
     5
 10
-59.543259666754238
 20
-51.643767204142762
 30
0.0
 11
-59.543259666754238
 21
-57.426597041289433
 31
0.0
  0
LINE
  8
DETAIL
  6
CONTINUOUS
 62
     5
 10
-95.679672276865631
 20
-89.456544984859363
 30
0.0
 11
-95.769542337879329
 21
-89.71372607446375
 31
0.0
  0
LINE
  8
DETAIL
  6
CONTINUOUS
 62
     5
 10
-95.769542337879329
 20
-89.71372607446375
 30
0.0
 11
-95.937449140574472
 21
-90.207531347760209
 31
0.0
  0
LINE
  8
DETAIL
  6
CONTINUOUS
 62
     5
 10
-95.937449140574472
 20
-90.207531347760209
 30
0.0
 11
-96.101701837146493
 21
-90.703486450539117
 31
0.0
  0
LINE
  8
DETAIL
  6
CONTINUOUS
 62
     5
 10
-96.101701837146493
 20
-90.703486450539117
 30
0.0
 11
-96.262658067225175
 21
-91.200375076054286
 31
0.0
  0
LINE
  8
DETAIL
  6
CONTINUOUS
 62
     5
 10
-96.262658067225175
 20
-91.200375076054286
 30
0.0
 11
-96.52486266701726
 21
-92.029702910120193
 31
0.0
  0
LINE
  8
DETAIL
  6
CONTINUOUS
 62
     5
 10
2.1247473552741671
 20
79.249141539442192
 30
0.0
 11
-2.1247473552741671
 21
74.999646828893802
 31
0.0
  0
LINE
  8
DETAIL
  6
CONTINUOUS
 62
     5
 10
-54.535182122327797
 20
48.752352285181082
 30
0.0
 11
-49.527104577901348
 21
51.643767204142591
 31
0.0
  0
LINE
  8
DETAIL
  6
CONTINUOUS
 62
     5
 10
-54.535182122327797
 20
47.01750333473592
 30
0.0
 11
-48.0246813145734
 21
50.776342728531802
 31
0.0
  0
LINE
  8
DETAIL
  6
CONTINUOUS
 62
     5
 10
261.32961628886301
 20
224.3838252389576
 30
0.0
 11
266.33769383328968
 21
227.27524015791909
 31
0.0
  0
LINE
  8
DETAIL
  6
CONTINUOUS
 62
     5
 10
0.0
 20
72.767366720516932
 30
0.0
 11
4.0064620355412899
 21
74.863547455636123
 31
0.0
  0
LINE
  8
DETAIL
  6
CONTINUOUS
 62
     5
 10
-4.0064620355412899
 20
-79.385240912699885
 30
0.0
 11
0.0
 21
-81.481421647819104
 31
0.0
  0
LINE
  8
DETAIL
  6
CONTINUOUS
 62
     5
 10
-61.045682930082187
 20
-58.294021516900273
 30
0.0
 11
-54.535182122327797
 21
-62.052860910696211
 31
0.0
  0
LINE
  8
DETAIL
  6
CONTINUOUS
 62
     5
 10
-59.543259666754238
 20
-57.426597041289433
 30
0.0
 11
-54.535182122327797
 21
-60.318011959474518
 31
0.0
  0
LINE
  8
DETAIL
  6
CONTINUOUS
 62
     5
 10
-49.527104577901348
 20
-57.426597041289433
 30
0.0
 11
-49.527104577901348
 21
-51.643767204142762
 31
0.0
  0
LINE
  8
DETAIL
  6
CONTINUOUS
 62
     5
 10
-49.527104577901348
 20
51.643767204142591
 30
0.0
 11
-49.527104577901348
 21
57.426597040512888
 31
0.0
  0
LINE
  8
DETAIL
  6
CONTINUOUS
 62
     5
 10
-48.0246813145734
 20
-58.294021516900273
 30
0.0
 11
-48.0246813145734
 21
-50.776342728531922
 31
0.0
  0
LINE
  8
DETAIL
  6
CONTINUOUS
 62
     5
 10
-48.0246813145734
 20
50.776342728531802
 30
0.0
 11
-48.0246813145734
 21
58.294021516123678
 31
0.0
  0
LINE
  8
DETAIL
  6
CONTINUOUS
 62
     5
 10
-89.612629337691487
 20
-75.690761826627124
 30
0.0
 11
-89.644588045234059
 21
-75.753645399807056
 31
0.0
  0
LINE
  8
DETAIL
  6
CONTINUOUS
 62
     5
 10
-303.82456339745272
 20
-254.24712510435691
 30
0.0
 11
-262.74611452623031
 21
-213.16867623313419
 31
0.0
  0
LINE
  8
DETAIL
  6
CONTINUOUS
 62
     5
 10
213.16867623235771
 20
262.74611452545338
 30
0.0
 11
254.24712510435691
 21
303.82456339745272
 31
0.0
  0
LINE
  8
DETAIL
  6
CONTINUOUS
 62
     5
 10
54.535182122327797
 20
62.052860909919673
 30
0.0
 11
48.0246813145734
 21
58.294021516123678
 31
0.0
  0
LINE
  8
DETAIL
  6
CONTINUOUS
 62
     5
 10
54.535182122327797
 20
60.318011959474518
 30
0.0
 11
49.527104577901348
 21
57.426597040512888
 31
0.0
  0
LINE
  8
DETAIL
  6
CONTINUOUS
 62
     5
 10
54.535182122327797
 20
48.752352285181082
 30
0.0
 11
59.543259666754473
 21
51.643767204142591
 31
0.0
  0
LINE
  8
DETAIL
  6
CONTINUOUS
 62
     5
 10
54.535182122327797
 20
47.01750333473592
 30
0.0
 11
61.045682930082179
 21
50.776342728531802
 31
0.0
  0
LINE
  8
DETAIL
  6
CONTINUOUS
 62
     5
 10
4.0064620355412899
 20
-74.863547455636123
 30
0.0
 11
0.0
 21
-72.767366720517018
 31
0.0
  0
LINE
  8
DETAIL
  6
CONTINUOUS
 62
     5
 10
-49.527104577901348
 20
-51.643767204142762
 30
0.0
 11
-54.535182122327797
 21
-48.75235228595767
 31
0.0
  0
LINE
  8
DETAIL
  6
CONTINUOUS
 62
     5
 10
-48.0246813145734
 20
-50.776342728531922
 30
0.0
 11
-54.535182122327797
 21
-47.017503334735977
 31
0.0
  0
LINE
  8
DETAIL
  6
CONTINUOUS
 62
     5
 10
2.1247473552741671
 20
-79.249141539442235
 30
0.0
 11
-2.1247473552741671
 21
-74.999646828893844
 31
0.0
  0
LINE
  8
DETAIL
  6
CONTINUOUS
 62
     5
 10
-4.0064620355412899
 20
79.385240912699871
 30
0.0
 11
-4.0064620355412899
 21
74.863547455636123
 31
0.0
  0
LINE
  8
DETAIL
  6
CONTINUOUS
 62
     5
 10
-4.0064620355412899
 20
-74.863547455636123
 30
0.0
 11
-4.0064620355412899
 21
-79.385240912699885
 31
0.0
  0
LINE
  8
DETAIL
  6
CONTINUOUS
 62
     5
 10
4.0064620355412899
 20
-79.385240912699885
 30
0.0
 11
4.0064620355412899
 21
-74.863547455636123
 31
0.0
  0
LINE
  8
DETAIL
  6
CONTINUOUS
 62
     5
 10
4.0064620355412899
 20
74.863547455636123
 30
0.0
 11
4.0064620355412899
 21
79.385240912699871
 31
0.0
  0
LINE
  8
DETAIL
  6
CONTINUOUS
 62
     5
 10
-257.08012157831467
 20
-252.83062686776631
 30
0.0
 11
-97.414479441309368
 21
-93.164984730761091
 31
0.0
  0
LINE
  8
DETAIL
  6
CONTINUOUS
 62
     5
 10
93.164984729984553
 20
97.414479440532887
 30
0.0
 11
252.83062686699009
 21
257.08012157831467
 31
0.0
  0
LINE
  8
DETAIL
  6
CONTINUOUS
 62
     5
 10
257.08012157831467
 20
252.8306268669896
 30
0.0
 11
97.414479441309368
 21
93.164984729984496
 31
0.0
  0
LINE
  8
DETAIL
  6
CONTINUOUS
 62
     5
 10
-93.164984729984553
 20
-97.414479441309481
 30
0.0
 11
-252.83062686776631
 21
-257.08012157831467
 31
0.0
  0
LINE
  8
DETAIL
  6
CONTINUOUS
 62
     5
 10
61.260941237955649
 20
46.163430382988217
 30
0.0
 11
58.257442430000992
 21
43.900131691149738
 31
0.0
  0
LINE
  8
DETAIL
  6
CONTINUOUS
 62
     5
 10
-61.260941237955883
 20
-46.163430382988338
 30
0.0
 11
-58.257442430000992
 21
-43.900131691926219
 31
0.0
  0
LINE
  8
DETAIL
  6
CONTINUOUS
 62
     5
 10
-54.535182122327797
 20
-47.017503334735977
 30
0.0
 11
-61.045682930082187
 21
-50.776342728531922
 31
0.0
  0
LINE
  8
DETAIL
  6
CONTINUOUS
 62
     5
 10
-54.535182122327797
 20
-48.75235228595767
 30
0.0
 11
-59.543259666754238
 21
-51.643767204142762
 31
0.0
  0
LINE
  8
DETAIL
  6
CONTINUOUS
 62
     5
 10
48.0246813145734
 20
-58.294021516900273
 30
0.0
 11
54.535182122327797
 21
-62.052860910696211
 31
0.0
  0
LINE
  8
DETAIL
  6
CONTINUOUS
 62
     5
 10
49.527104577901348
 20
-57.426597041289433
 30
0.0
 11
54.535182122327797
 21
-60.318011959474518
 31
0.0
  0
LINE
  8
DETAIL
  6
CONTINUOUS
 62
     5
 10
59.543259666754473
 20
-51.643767204142762
 30
0.0
 11
54.535182122327797
 21
-48.75235228595767
 31
0.0
  0
LINE
  8
DETAIL
  6
CONTINUOUS
 62
     5
 10
61.045682930082179
 20
-50.776342728531922
 30
0.0
 11
54.535182122327797
 21
-47.017503334735977
 31
0.0
  0
LINE
  8
DETAIL
  6
CONTINUOUS
 62
     5
 10
222.3979198844097
 20
-239.59723358893439
 30
0.0
 11
222.91615841114049
 21
-240.03811150560409
 31
0.0
  0
LINE
  8
DETAIL
  6
CONTINUOUS
 62
     5
 10
222.91615841114049
 20
-240.03811150560409
 30
0.0
 11
223.4960985783525
 21
-240.39353845239251
 31
0.0
  0
LINE
  8
DETAIL
  6
CONTINUOUS
 62
     5
 10
223.4960985783525
 20
-240.39353845239251
 30
0.0
 11
224.14195558475171
 21
-240.66493884069089
 31
0.0
  0
LINE
  8
DETAIL
  6
CONTINUOUS
 62
     5
 10
224.14195558475171
 20
-240.66493884069089
 30
0.0
 11
224.8410838357693
 21
-240.84803943554891
 31
0.0
  0
LINE
  8
DETAIL
  6
CONTINUOUS
 62
     5
 10
224.8410838357693
 20
-240.84803943554891
 30
0.0
 11
225.58561506080079
 21
-240.93884877354091
 31
0.0
  0
LINE
  8
DETAIL
  6
CONTINUOUS
 62
     5
 10
225.58561506080079
 20
-240.93884877354091
 30
0.0
 11
226.36543248122121
 21
-240.93794596157849
 31
0.0
  0
LINE
  8
DETAIL
  6
CONTINUOUS
 62
     5
 10
226.36543248122121
 20
-240.93794596157849
 30
0.0
 11
227.17130401898541
 21
-240.84361069008509
 31
0.0
  0
LINE
  8
DETAIL
  6
CONTINUOUS
 62
     5
 10
227.17130401898541
 20
-240.84361069008509
 30
0.0
 11
227.9927073071847
 21
-240.65874974044161
 31
0.0
  0
LINE
  8
DETAIL
  6
CONTINUOUS
 62
     5
 10
227.9927073071847
 20
-240.65874974044161
 30
0.0
 11
228.81950939459759
 21
-240.38400022474369
 31
0.0
  0
LINE
  8
DETAIL
  6
CONTINUOUS
 62
     5
 10
228.81950939459759
 20
-240.38400022474369
 30
0.0
 11
229.6413099600006
 21
-240.02445083816119
 31
0.0
  0
LINE
  8
DETAIL
  6
CONTINUOUS
 62
     5
 10
229.6413099600006
 20
-240.02445083816119
 30
0.0
 11
230.44758328689679
 21
-239.58306416525781
 31
0.0
  0
LINE
  8
DETAIL
  6
CONTINUOUS
 62
     5
 10
230.44758328689679
 20
-239.58306416525781
 30
0.0
 11
231.22857261842731
 21
-239.0668556483952
 31
0.0
  0
LINE
  8
DETAIL
  6
CONTINUOUS
 62
     5
 10
231.22857261842731
 20
-239.0668556483952
 30
0.0
 11
231.97388727449899
 21
-238.480964790272
 31
0.0
  0
LINE
  8
DETAIL
  6
CONTINUOUS
 62
     5
 10
231.97388727449899
 20
-238.480964790272
 30
0.0
 11
232.67490330442959
 21
-237.83398199443971
 31
0.0
  0
LINE
  8
DETAIL
  6
CONTINUOUS
 62
     5
 10
232.67490330442959
 20
-237.83398199443971
 30
0.0
 11
233.32188610026171
 21
-237.13296596450891
 31
0.0
  0
LINE
  8
DETAIL
  6
CONTINUOUS
 62
     5
 10
233.32188610026171
 20
-237.13296596450891
 30
0.0
 11
233.9077769583848
 21
-236.387651308437
 31
0.0
  0
LINE
  8
DETAIL
  6
CONTINUOUS
 62
     5
 10
233.9077769583848
 20
-236.387651308437
 30
0.0
 11
234.42398547524749
 21
-235.60666197690691
 31
0.0
  0
LINE
  8
DETAIL
  6
CONTINUOUS
 62
     5
 10
234.42398547524749
 20
-235.60666197690691
 30
0.0
 11
234.86537214815121
 21
-234.8003886500108
 31
0.0
  0
LINE
  8
DETAIL
  6
CONTINUOUS
 62
     5
 10
234.86537214815121
 20
-234.8003886500108
 30
0.0
 11
235.22492153473351
 21
-233.97858808460759
 31
0.0
  0
LINE
  8
DETAIL
  6
CONTINUOUS
 62
     5
 10
235.22492153473351
 20
-233.97858808460759
 30
0.0
 11
235.49967105043129
 21
-233.15178599719471
 31
0.0
  0
LINE
  8
DETAIL
  6
CONTINUOUS
 62
     5
 10
235.49967105043129
 20
-233.15178599719471
 30
0.0
 11
235.684532000075
 21
-232.33038270899559
 31
0.0
  0
LINE
  8
DETAIL
  6
CONTINUOUS
 62
     5
 10
235.684532000075
 20
-232.33038270899559
 30
0.0
 11
235.77886727156849
 21
-231.52451117123141
 31
0.0
  0
LINE
  8
DETAIL
  6
CONTINUOUS
 62
     5
 10
235.77886727156849
 20
-231.52451117123141
 30
0.0
 11
235.77977008353059
 21
-230.74469375081091
 31
0.0
  0
LINE
  8
DETAIL
  6
CONTINUOUS
 62
     5
 10
235.77977008353059
 20
-230.74469375081091
 30
0.0
 11
235.68896074553851
 21
-230.0001625257793
 31
0.0
  0
LINE
  8
DETAIL
  6
CONTINUOUS
 62
     5
 10
235.68896074553851
 20
-230.0001625257793
 30
0.0
 11
235.50586015068049
 21
-229.3010342747618
 31
0.0
  0
LINE
  8
DETAIL
  6
CONTINUOUS
 62
     5
 10
235.50586015068049
 20
-229.3010342747618
 30
0.0
 11
235.23445976238261
 21
-228.65517726836231
 31
0.0
  0
LINE
  8
DETAIL
  6
CONTINUOUS
 62
     5
 10
235.23445976238261
 20
-228.65517726836231
 30
0.0
 11
234.879032815594
 21
-228.0752371011508
 31
0.0
  0
LINE
  8
DETAIL
  6
CONTINUOUS
 62
     5
 10
234.879032815594
 20
-228.0752371011508
 30
0.0
 11
234.4381548989243
 21
-227.55699857441991
 31
0.0
  0
LINE
  8
DETAIL
  6
CONTINUOUS
 62
     5
 10
223.16998042396449
 20
-216.2888240994603
 30
0.0
 11
222.63242748526659
 21
-215.82639312755009
 31
0.0
  0
LINE
  8
DETAIL
  6
CONTINUOUS
 62
     5
 10
222.63242748526659
 20
-215.82639312755009
 30
0.0
 11
222.03377349338169
 21
-215.446679077006
 31
0.0
  0
LINE
  8
DETAIL
  6
CONTINUOUS
 62
     5
 10
222.03377349338169
 20
-215.446679077006
 30
0.0
 11
221.37024724013489
 21
-215.1482853689246
 31
0.0
  0
LINE
  8
DETAIL
  6
CONTINUOUS
 62
     5
 10
221.37024724013489
 20
-215.1482853689246
 30
0.0
 11
220.6531623500521
 21
-214.93540174079229
 31
0.0
  0
LINE
  8
DETAIL
  6
CONTINUOUS
 62
     5
 10
220.6531623500521
 20
-214.93540174079229
 30
0.0
 11
219.88955845722671
 21
-214.81178617169479
 31
0.0
  0
LINE
  8
DETAIL
  6
CONTINUOUS
 62
     5
 10
219.88955845722671
 20
-214.81178617169479
 30
0.0
 11
219.08848632555669
 21
-214.77733736414069
 31
0.0
  0
LINE
  8
DETAIL
  6
CONTINUOUS
 62
     5
 10
219.08848632555669
 20
-214.77733736414069
 30
0.0
 11
219.0307644086358
 21
-214.78126969808781
 31
0.0
  0
LINE
  8
DETAIL
  6
CONTINUOUS
 62
     5
 10
254.24712510435691
 20
-303.82456339745278
 30
0.0
 11
249.53305991992579
 21
-299.11049821379828
 31
0.0
  0
LINE
  8
DETAIL
  6
CONTINUOUS
 62
     5
 10
213.16867623235771
 20
-262.7461145262302
 30
0.0
 11
239.76365545703879
 21
-289.34109375091123
 31
0.0
  0
LINE
  8
DETAIL
  6
CONTINUOUS
 62
     5
 10
-262.74611452623031
 20
213.16867623235771
 30
0.0
 11
-303.82456339745272
 21
254.2471251043568
 31
0.0
  0
LINE
  8
DETAIL
  6
CONTINUOUS
 62
     5
 10
1.5227356050143039
 20
-50.10108778595135
 30
0.0
 11
-1.522735626754866
 21
-47.05561655418235
 31
0.0
  0
LINE
  8
DETAIL
  6
CONTINUOUS
 62
     5
 10
216.86056153646149
 20
-239.7258681889019
 30
0.0
 11
211.0011108094825
 21
-233.86641746192291
 31
0.0
  0
LINE
  8
DETAIL
  6
CONTINUOUS
 62
     5
 10
102.64456189770929
 20
-124.5470023750735
 30
0.0
 11
105.1234338123254
 21
-127.0258742896896
 31
0.0
  0
LINE
  8
DETAIL
  6
CONTINUOUS
 62
     5
 10
211.5677101048957
 20
-233.29981816728659
 30
0.0
 11
208.8633482309049
 21
-230.59545629329631
 31
0.0
  0
LINE
  8
DETAIL
  6
CONTINUOUS
 62
     5
 10
214.9982432228278
 20
-236.73035128521869
 30
0.0
 11
218.87950331975819
 21
-240.61161138214919
 31
0.0
  0
LINE
  8
DETAIL
  6
CONTINUOUS
 62
     5
 10
209.71324717285981
 20
-229.74555735056541
 30
0.0
 11
212.41760904684949
 21
-232.44991922455591
 31
0.0
  0
LINE
  8
DETAIL
  6
CONTINUOUS
 62
     5
 10
215.84814216478159
 20
-235.8804523424879
 30
0.0
 11
219.72940226171229
 21
-239.7617124394184
 31
0.0
  0
LINE
  8
DETAIL
  6
CONTINUOUS
 62
     5
 10
216.41474145941831
 20
-235.31385304785161
 30
0.0
 11
223.30084808300469
 21
-242.19995967143811
 31
0.0
  0
LINE
  8
DETAIL
  6
CONTINUOUS
 62
     5
 10
213.83410728344069
 20
-231.03342098796529
 30
0.0
 11
222.3979198844097
 21
-239.59723358893439
 31
0.0
  0
LINE
  8
DETAIL
  6
CONTINUOUS
 62
     5
 10
1.5227356050143039
 20
-47.055616576699151
 30
0.0
 11
-1.522735626754866
 21
-50.101087807691897
 31
0.0
  0
LINE
  8
DETAIL
  6
CONTINUOUS
 62
     5
 10
-254.2471251043568
 20
-303.82456339745278
 30
0.0
 11
-213.16867623313419
 21
-262.7461145262302
 31
0.0
  0
LINE
  8
DETAIL
  6
CONTINUOUS
 62
     5
 10
262.74611452623031
 20
213.16867623235771
 30
0.0
 11
303.82456339745272
 21
254.2471251043568
 31
0.0
  0
LINE
  8
DETAIL
  6
CONTINUOUS
 62
     5
 10
-54.535182122327797
 20
-60.318011959474518
 30
0.0
 11
-49.527104577901348
 21
-57.426597041289433
 31
0.0
  0
LINE
  8
DETAIL
  6
CONTINUOUS
 62
     5
 10
-54.535182122327797
 20
-62.052860910696211
 30
0.0
 11
-48.0246813145734
 21
-58.294021516900273
 31
0.0
  0
LINE
  8
DETAIL
  6
CONTINUOUS
 62
     5
 10
-83.843891088602504
 20
-14.78394016633484
 30
0.0
 11
-71.838004012748797
 21
-12.666978348223671
 31
0.0
  0
LINE
  8
DETAIL
  6
CONTINUOUS
 62
     5
 10
71.838004012748797
 20
12.666978347447071
 30
0.0
 11
83.843891088602732
 21
14.78394016633473
 31
0.0
  0
LINE
  8
DETAIL
  6
CONTINUOUS
 62
     5
 10
-83.843891088602504
 20
14.78394016633473
 30
0.0
 11
-71.838004012748797
 21
12.666978347447071
 31
0.0
  0
LINE
  8
DETAIL
  6
CONTINUOUS
 62
     5
 10
71.838004012748797
 20
-12.666978348223671
 30
0.0
 11
83.843891088602732
 21
-14.78394016633484
 31
0.0
  0
LINE
  8
DETAIL
  6
CONTINUOUS
 62
     5
 10
-61.045682930082187
 20
50.776342728531802
 30
0.0
 11
-54.535182122327797
 21
47.01750333473592
 31
0.0
  0
LINE
  8
DETAIL
  6
CONTINUOUS
 62
     5
 10
-59.543259666754238
 20
51.643767204142591
 30
0.0
 11
-54.535182122327797
 21
48.752352285181082
 31
0.0
  0
LINE
  8
DETAIL
  6
CONTINUOUS
 62
     5
 10
-61.260941237955883
 20
46.163430382988217
 30
0.0
 11
-58.257442430000992
 21
43.900131691149738
 31
0.0
  0
LINE
  8
DETAIL
  6
CONTINUOUS
 62
     5
 10
61.260941237955649
 20
-46.163430382988338
 30
0.0
 11
58.257442430000992
 21
-43.900131691926219
 31
0.0
  0
LINE
  8
DETAIL
  6
CONTINUOUS
 62
     5
 10
252.83062686699009
 20
-257.08012157831467
 30
0.0
 11
235.46655806797639
 21
-239.71605277930161
 31
0.0
  0
LINE
  8
DETAIL
  6
CONTINUOUS
 62
     5
 10
233.11146539497329
 20
-237.36096010629799
 30
0.0
 11
113.94990669534511
 21
-118.19940140667001
 31
0.0
  0
LINE
  8
DETAIL
  6
CONTINUOUS
 62
     5
 10
111.4710347807293
 20
-115.720529492054
 30
0.0
 11
93.164984729984553
 21
-97.414479441309481
 31
0.0
  0
LINE
  8
DETAIL
  6
CONTINUOUS
 62
     5
 10
-97.414479441309368
 20
93.164984729984496
 30
0.0
 11
-257.08012157831467
 21
252.8306268669896
 31
0.0
  0
LINE
  8
DETAIL
  6
CONTINUOUS
 62
     5
 10
257.04453026677197
 20
-252.86621817853259
 30
0.0
 11
260.61273126999032
 21
-256.43441918252762
 31
0.0
  0
LINE
  8
DETAIL
  6
CONTINUOUS
 62
     5
 10
-252.83062686776631
 20
257.08012157831467
 30
0.0
 11
-93.164984729984553
 21
97.414479440532887
 31
0.0
  0
LINE
  8
DETAIL
  6
CONTINUOUS
 62
     5
 10
97.414479441309368
 20
-93.164984730761091
 30
0.0
 11
115.7205294920539
 21
-111.47103478150569
 31
0.0
  0
LINE
  8
DETAIL
  6
CONTINUOUS
 62
     5
 10
118.19940140667021
 20
-113.9499066961216
 30
0.0
 11
235.77835783206211
 21
-231.52886312151381
 31
0.0
  0
LINE
  8
DETAIL
  6
CONTINUOUS
 62
     5
 10
238.40925442762159
 20
-234.15975971707309
 30
0.0
 11
257.08012157831467
 21
-252.83062686776631
 31
0.0
  0
LINE
  8
DETAIL
  6
CONTINUOUS
 62
     5
 10
261.46263021272102
 20
-255.5845202397966
 30
0.0
 11
252.78657851117691
 21
-246.908468539029
 31
0.0
  0
LINE
  8
DETAIL
  6
CONTINUOUS
 62
     5
 10
234.4381548989243
 20
-227.55699857441991
 30
0.0
 11
223.16998042396449
 21
-216.2888240994603
 31
0.0
  0
LINE
  8
DETAIL
  6
CONTINUOUS
 62
     5
 10
243.6147524270207
 20
-236.6034438648233
 30
0.0
 11
249.45780765460651
 21
-242.4464990924096
 31
0.0
  0
LINE
  8
DETAIL
  6
CONTINUOUS
 62
     5
 10
253.3531778058134
 20
-246.34186924439271
 30
0.0
 11
257.07148567812578
 21
-250.06017711592841
 31
0.0
  0
LINE
  8
DETAIL
  6
CONTINUOUS
 62
     5
 10
117.80109303350009
 20
-109.3904712392832
 30
0.0
 11
120.279964948116
 21
-111.8693431546756
 31
0.0
  0
LINE
  8
DETAIL
  6
CONTINUOUS
 62
     5
 10
224.019879365919
 20
-215.43892515750591
 30
0.0
 11
237.04088098142779
 21
-228.45992677301479
 31
0.0
  0
LINE
  8
DETAIL
  6
CONTINUOUS
 62
     5
 10
250.30770659656079
 20
-241.5966001504552
 30
0.0
 11
244.4646513689747
 21
-235.7535449228688
 31
0.0
  0
LINE
  8
DETAIL
  6
CONTINUOUS
 62
     5
 10
254.20307674776791
 20
-245.49197030166201
 30
0.0
 11
257.92138462007978
 21
-249.2102781739741
 31
0.0
  0
LINE
  8
DETAIL
  6
CONTINUOUS
 62
     5
 10
117.4115560177581
 20
-107.86773563504531
 30
0.0
 11
121.8027005523538
 21
-112.258880169641
 31
0.0
  0
LINE
  8
DETAIL
  6
CONTINUOUS
 62
     5
 10
250.87430589119751
 20
-241.03000085581891
 30
0.0
 11
254.76967604318091
 21
-244.92537100702569
 31
0.0
  0
LINE
  8
DETAIL
  6
CONTINUOUS
 62
     5
 10
223.93637253639889
 20
-240.15566912008609
 30
0.0
 11
224.50513065176409
 21
-240.76424769999139
 31
0.0
  0
LINE
  8
DETAIL
  6
CONTINUOUS
 62
     5
 10
208.8633482309049
 20
-230.59545629329631
 30
0.0
 11
208.34250492539849
 21
-229.9900019307461
 31
0.0
  0
LINE
  8
DETAIL
  6
CONTINUOUS
 62
     5
 10
208.34250492539849
 20
-229.9900019307461
 30
0.0
 11
207.91482699437691
 21
-229.31572848673159
 31
0.0
  0
LINE
  8
DETAIL
  6
CONTINUOUS
 62
     5
 10
207.91482699437691
 20
-229.31572848673159
 30
0.0
 11
207.57874144959959
 21
-228.56838839095329
 31
0.0
  0
LINE
  8
DETAIL
  6
CONTINUOUS
 62
     5
 10
207.57874144959959
 20
-228.56838839095329
 30
0.0
 11
207.3389672581186
 21
-227.7607243574158
 31
0.0
  0
LINE
  8
DETAIL
  6
CONTINUOUS
 62
     5
 10
207.3389672581186
 20
-227.7607243574158
 30
0.0
 11
207.19973709100739
 21
-226.90066523582689
 31
0.0
  0
LINE
  8
DETAIL
  6
CONTINUOUS
 62
     5
 10
207.19973709100739
 20
-226.90066523582689
 30
0.0
 11
207.16093685494229
 21
-225.99840504567271
 31
0.0
  0
LINE
  8
DETAIL
  6
CONTINUOUS
 62
     5
 10
207.16093685494229
 20
-225.99840504567271
 30
0.0
 11
207.22464709168321
 21
-225.06321560972319
 31
0.0
  0
LINE
  8
DETAIL
  6
CONTINUOUS
 62
     5
 10
207.22464709168321
 20
-225.06321560972319
 30
0.0
 11
207.38851656705609
 21
-224.1057923631765
 31
0.0
  0
LINE
  8
DETAIL
  6
CONTINUOUS
 62
     5
 10
207.38851656705609
 20
-224.1057923631765
 30
0.0
 11
207.61161060855849
 21
-223.28614225773009
 31
0.0
  0
LINE
  8
DETAIL
  6
CONTINUOUS
 62
     5
 10
48.0246813145734
 20
58.294021516123678
 30
0.0
 11
48.0246813145734
 21
50.776342728531802
 31
0.0
  0
LINE
  8
DETAIL
  6
CONTINUOUS
 62
     5
 10
48.0246813145734
 20
-50.776342728531922
 30
0.0
 11
48.0246813145734
 21
-58.294021516900273
 31
0.0
  0
LINE
  8
DETAIL
  6
CONTINUOUS
 62
     5
 10
49.527104577901348
 20
57.426597040512888
 30
0.0
 11
49.527104577901348
 21
51.643767204142591
 31
0.0
  0
LINE
  8
DETAIL
  6
CONTINUOUS
 62
     5
 10
49.527104577901348
 20
-51.643767204142762
 30
0.0
 11
49.527104577901348
 21
-57.426597041289433
 31
0.0
  0
LINE
  8
DETAIL
  6
CONTINUOUS
 62
     5
 10
59.543259666754473
 20
-57.426597041289433
 30
0.0
 11
59.543259666754473
 21
-51.643767204142762
 31
0.0
  0
LINE
  8
DETAIL
  6
CONTINUOUS
 62
     5
 10
59.543259666754473
 20
51.643767204142591
 30
0.0
 11
59.543259666754473
 21
57.426597040512888
 31
0.0
  0
LINE
  8
DETAIL
  6
CONTINUOUS
 62
     5
 10
61.045682930082179
 20
-58.294021516900273
 30
0.0
 11
61.045682930082179
 21
-50.776342728531922
 31
0.0
  0
LINE
  8
DETAIL
  6
CONTINUOUS
 62
     5
 10
61.045682930082179
 20
50.776342728531802
 30
0.0
 11
61.045682930082179
 21
58.294021516123678
 31
0.0
  0
LINE
  8
DETAIL
  6
CONTINUOUS
 62
     5
 10
-2.1247473552741671
 20
-79.249141539442235
 30
0.0
 11
2.1247473552741671
 21
-74.999646828893844
 31
0.0
  0
LINE
  8
DETAIL
  6
CONTINUOUS
 62
     5
 10
-261.32961628886301
 20
-224.38382523973411
 30
0.0
 11
-266.33769383328939
 21
-227.2752401579192
 31
0.0
  0
LINE
  8
DETAIL
  6
CONTINUOUS
 62
     5
 10
54.535182122327797
 20
-47.017503334735977
 30
0.0
 11
48.0246813145734
 21
-50.776342728531922
 31
0.0
  0
LINE
  8
DETAIL
  6
CONTINUOUS
 62
     5
 10
54.535182122327797
 20
-48.75235228595767
 30
0.0
 11
49.527104577901348
 21
-51.643767204142762
 31
0.0
  0
LINE
  8
DETAIL
  6
CONTINUOUS
 62
     5
 10
-261.32961628886301
 20
-235.9494849132511
 30
0.0
 11
-256.32153874443628
 21
-233.05806999506589
 31
0.0
  0
LINE
  8
DETAIL
  6
CONTINUOUS
 62
     5
 10
0.0
 20
-72.767366720517018
 30
0.0
 11
-4.0064620355412899
 21
-74.863547455636123
 31
0.0
  0
LINE
  8
DETAIL
  6
CONTINUOUS
 62
     5
 10
0.0
 20
-81.481421647819104
 30
0.0
 11
4.0064620355412899
 21
-79.385240912699885
 31
0.0
  0
LINE
  8
DETAIL
  6
CONTINUOUS
 62
     5
 10
-49.527104577901348
 20
57.426597040512888
 30
0.0
 11
-54.535182122327797
 21
60.318011959474518
 31
0.0
  0
LINE
  8
DETAIL
  6
CONTINUOUS
 62
     5
 10
-48.0246813145734
 20
58.294021516123678
 30
0.0
 11
-54.535182122327797
 21
62.052860909919673
 31
0.0
  0
LINE
  8
DETAIL
  6
CONTINUOUS
 62
     5
 10
262.74611452623031
 20
-213.16867623313419
 30
0.0
 11
303.82456339745272
 21
-254.24712510435691
 31
0.0
  0
LINE
  8
DETAIL
  6
CONTINUOUS
 62
     5
 10
-213.16867623313419
 20
262.74611452545338
 30
0.0
 11
-254.2471251043568
 21
303.82456339745272
 31
0.0
  0
LINE
  8
DETAIL
  6
CONTINUOUS
 62
     5
 10
237.04088098142779
 20
-228.45992677301479
 30
0.0
 11
237.51304734240031
 21
-229.0087966159472
 31
0.0
  0
LINE
  8
DETAIL
  6
CONTINUOUS
 62
     5
 10
237.51304734240031
 20
-229.0087966159472
 30
0.0
 11
237.90075537328289
 21
-229.62005384959491
 31
0.0
  0
LINE
  8
DETAIL
  6
CONTINUOUS
 62
     5
 10
237.90075537328289
 20
-229.62005384959491
 30
0.0
 11
238.20543105388811
 21
-230.29754907607921
 31
0.0
  0
LINE
  8
DETAIL
  6
CONTINUOUS
 62
     5
 10
238.20543105388811
 20
-230.29754907607921
 30
0.0
 11
238.4227964424488
 21
-231.02973049058869
 31
0.0
  0
LINE
  8
DETAIL
  6
CONTINUOUS
 62
     5
 10
238.4227964424488
 20
-231.02973049058869
 30
0.0
 11
238.54901444467831
 21
-231.80941025487479
 31
0.0
  0
LINE
  8
DETAIL
  6
CONTINUOUS
 62
     5
 10
238.54901444467831
 20
-231.80941025487479
 30
0.0
 11
238.5841884901881
 21
-232.62734706282961
 31
0.0
  0
LINE
  8
DETAIL
  6
CONTINUOUS
 62
     5
 10
238.5841884901881
 20
-232.62734706282961
 30
0.0
 11
238.5264324810712
 21
-233.47513561643569
 31
0.0
  0
LINE
  8
DETAIL
  6
CONTINUOUS
 62
     5
 10
238.5264324810712
 20
-233.47513561643569
 30
0.0
 11
238.37787791025789
 21
-234.34308005550341
 31
0.0
  0
LINE
  8
DETAIL
  6
CONTINUOUS
 62
     5
 10
238.37787791025789
 20
-234.34308005550341
 30
0.0
 11
238.13867210374309
 21
-235.2219249713342
 31
0.0
  0
LINE
  8
DETAIL
  6
CONTINUOUS
 62
     5
 10
238.13867210374309
 20
-235.2219249713342
 30
0.0
 11
237.81288146287471
 21
-236.10194370367319
 31
0.0
  0
LINE
  8
DETAIL
  6
CONTINUOUS
 62
     5
 10
237.81288146287471
 20
-236.10194370367319
 30
0.0
 11
237.40268030158629
 21
-236.97343524216359
 31
0.0
  0
LINE
  8
DETAIL
  6
CONTINUOUS
 62
     5
 10
237.40268030158629
 20
-236.97343524216359
 30
0.0
 11
236.91389220578341
 21
-237.82706722686001
 31
0.0
  0
LINE
  8
DETAIL
  6
CONTINUOUS
 62
     5
 10
236.91389220578341
 20
-237.82706722686001
 30
0.0
 11
236.3506234488739
 21
-238.65311702571049
 31
0.0
  0
LINE
  8
DETAIL
  6
CONTINUOUS
 62
     5
 10
236.3506234488739
 20
-238.65311702571049
 30
0.0
 11
235.72020028305249
 21
-239.44305444856039
 31
0.0
  0
LINE
  8
DETAIL
  6
CONTINUOUS
 62
     5
 10
235.72020028305249
 20
-239.44305444856039
 30
0.0
 11
235.0284814765503
 21
-240.1875601673367
 31
0.0
  0
LINE
  8
DETAIL
  6
CONTINUOUS
 62
     5
 10
235.0284814765503
 20
-240.1875601673367
 30
0.0
 11
234.2839757585505
 21
-240.87927897306241
 31
0.0
  0
LINE
  8
DETAIL
  6
CONTINUOUS
 62
     5
 10
234.2839757585505
 20
-240.87927897306241
 30
0.0
 11
233.49403833570051
 21
-241.5097021388838
 31
0.0
  0
LINE
  8
DETAIL
  6
CONTINUOUS
 62
     5
 10
233.49403833570051
 20
-241.5097021388838
 30
0.0
 11
232.66798853685009
 21
-242.07297089579339
 31
0.0
  0
LINE
  8
DETAIL
  6
CONTINUOUS
 62
     5
 10
232.66798853685009
 20
-242.07297089579339
 30
0.0
 11
231.81435655215341
 21
-242.56175899159689
 31
0.0
  0
LINE
  8
DETAIL
  6
CONTINUOUS
 62
     5
 10
231.81435655215341
 20
-242.56175899159689
 30
0.0
 11
230.94286501366309
 21
-242.9719601528848
 31
0.0
  0
LINE
  8
DETAIL
  6
CONTINUOUS
 62
     5
 10
230.94286501366309
 20
-242.9719601528848
 30
0.0
 11
230.062846281324
 21
-243.29775079375341
 31
0.0
  0
LINE
  8
DETAIL
  6
CONTINUOUS
 62
     5
 10
230.062846281324
 20
-243.29775079375341
 30
0.0
 11
229.18400136549349
 21
-243.5369566002681
 31
0.0
  0
LINE
  8
DETAIL
  6
CONTINUOUS
 62
     5
 10
229.18400136549349
 20
-243.5369566002681
 30
0.0
 11
228.31605692642529
 21
-243.68551117108109
 31
0.0
  0
LINE
  8
DETAIL
  6
CONTINUOUS
 62
     5
 10
228.31605692642529
 20
-243.68551117108109
 30
0.0
 11
227.46826837281949
 21
-243.74326718097461
 31
0.0
  0
LINE
  8
DETAIL
  6
CONTINUOUS
 62
     5
 10
227.46826837281949
 20
-243.74326718097461
 30
0.0
 11
226.65033156408819
 21
-243.70809313468831
 31
0.0
  0
LINE
  8
DETAIL
  6
CONTINUOUS
 62
     5
 10
226.65033156408819
 20
-243.70809313468831
 30
0.0
 11
225.8706518005786
 21
-243.58187513245929
 31
0.0
  0
LINE
  8
DETAIL
  6
CONTINUOUS
 62
     5
 10
225.8706518005786
 20
-243.58187513245929
 30
0.0
 11
225.1384703860692
 21
-243.36450974467451
 31
0.0
  0
LINE
  8
DETAIL
  6
CONTINUOUS
 62
     5
 10
225.1384703860692
 20
-243.36450974467451
 30
0.0
 11
224.46097515958471
 21
-243.05983406329281
 31
0.0
  0
LINE
  8
DETAIL
  6
CONTINUOUS
 62
     5
 10
224.46097515958471
 20
-243.05983406329281
 30
0.0
 11
223.84971792593731
 21
-242.6721260324104
 31
0.0
  0
LINE
  8
DETAIL
  6
CONTINUOUS
 62
     5
 10
223.84971792593731
 20
-242.6721260324104
 30
0.0
 11
223.30084808300469
 21
-242.19995967143811
 31
0.0
  0
LINE
  8
DETAIL
  6
CONTINUOUS
 62
     5
 10
87.340872374798209
 20
-75.016697207799623
 30
0.0
 11
87.340872374798209
 21
75.016697207799481
 31
0.0
  0
LINE
  8
DETAIL
  6
CONTINUOUS
 62
     5
 10
89.644588045234258
 20
-88.915490019436277
 30
0.0
 11
89.644588045234258
 21
88.915490019436092
 31
0.0
  0
LINE
  8
DETAIL
  6
CONTINUOUS
 62
     5
 10
54.535182122327797
 20
-60.318011959474518
 30
0.0
 11
59.543259666754473
 21
-57.426597041289433
 31
0.0
  0
LINE
  8
DETAIL
  6
CONTINUOUS
 62
     5
 10
54.535182122327797
 20
-62.052860910696211
 30
0.0
 11
61.045682930082179
 21
-58.294021516900273
 31
0.0
  0
LINE
  8
DETAIL
  6
CONTINUOUS
 62
     5
 10
-4.0064620355412899
 20
74.863547455636123
 30
0.0
 11
0.0
 21
72.767366720516932
 31
0.0
  0
LINE
  8
DETAIL
  6
CONTINUOUS
 62
     5
 10
4.0064620355412899
 20
79.385240912699871
 30
0.0
 11
0.0
 21
81.481421647818991
 31
0.0
  0
LINE
  8
DETAIL
  6
CONTINUOUS
 62
     5
 10
48.0246813145734
 20
50.776342728531802
 30
0.0
 11
54.535182122327797
 21
47.01750333473592
 31
0.0
  0
LINE
  8
DETAIL
  6
CONTINUOUS
 62
     5
 10
49.527104577901348
 20
51.643767204142591
 30
0.0
 11
54.535182122327797
 21
48.752352285181082
 31
0.0
  0
LINE
  8
DETAIL
  6
CONTINUOUS
 62
     5
 10
59.543259666754473
 20
57.426597040512888
 30
0.0
 11
54.535182122327797
 21
60.318011959474518
 31
0.0
  0
LINE
  8
DETAIL
  6
CONTINUOUS
 62
     5
 10
-2.1247473552741671
 20
79.249141539442192
 30
0.0
 11
2.1247473552741671
 21
74.999646828893802
 31
0.0
  0
LINE
  8
DETAIL
  6
CONTINUOUS
 62
     5
 10
95.654281098546079
 20
88.915490019436092
 30
0.0
 11
95.654281098546079
 21
-88.915490019436277
 31
0.0
  0
LINE
  8
DETAIL
  6
CONTINUOUS
 62
     5
 10
61.045682930082179
 20
58.294021516123678
 30
0.0
 11
54.535182122327797
 21
62.052860909919673
 31
0.0
  0
LINE
  8
DETAIL
  6
CONTINUOUS
 62
     5
 10
-235.1747326205307
 20
258.43820137067792
 30
0.0
 11
-230.16665507610401
 21
255.5467864517162
 31
0.0
  0
LINE
  8
DETAIL
  6
CONTINUOUS
 62
     5
 10
117.4115560177581
 20
-107.86773563504531
 30
0.0
 11
114.7643931816758
 21
-110.51489847112749
 31
0.0
  0
LINE
  8
DETAIL
  6
CONTINUOUS
 62
     5
 10
117.80109303350009
 20
-109.3904712392832
 30
0.0
 11
102.6446226849007
 21
-124.5469415878825
 31
0.0
  0
LINE
  8
DETAIL
  6
CONTINUOUS
 62
     5
 10
120.279964948116
 20
-111.8693431546756
 30
0.0
 11
105.1234945995168
 21
-127.02581350249849
 31
0.0
  0
LINE
  8
DETAIL
  6
CONTINUOUS
 62
     5
 10
121.8027005523538
 20
-112.258880169641
 30
0.0
 11
119.1555377162715
 21
-114.90604300572321
 31
0.0
  0
LINE
  8
DETAIL
  6
CONTINUOUS
 62
     5
 10
-225.15857753167771
 20
264.22103120704821
 30
0.0
 11
-230.16665507610401
 21
267.11244612600967
 31
0.0
  0
LINE
  8
DETAIL
  6
CONTINUOUS
 62
     5
 10
201.12844121861991
 20
-266.93053311793221
 30
0.0
 11
201.12844121861991
 21
-260.42003231017782
 31
0.0
  0
LINE
  8
DETAIL
  6
CONTINUOUS
 62
     5
 10
201.12844121861991
 20
260.42003231017759
 30
0.0
 11
201.12844121861991
 21
266.93053311793199
 31
0.0
  0
LINE
  8
DETAIL
  6
CONTINUOUS
 62
     5
 10
213.16867623235771
 20
262.74611452545338
 30
0.0
 11
213.16867623235771
 21
255.56295591055849
 31
0.0
  0
LINE
  8
DETAIL
  6
CONTINUOUS
 62
     5
 10
213.16867623235771
 20
-255.562955911335
 30
0.0
 11
213.16867623235771
 21
-262.7461145262302
 31
0.0
  0
LINE
  8
DETAIL
  6
CONTINUOUS
 62
     5
 10
225.15857753167771
 20
-258.43820137067797
 30
0.0
 11
225.15857753167771
 21
-264.22103120782458
 31
0.0
  0
LINE
  8
DETAIL
  6
CONTINUOUS
 62
     5
 10
235.1747326205307
 20
-264.22103120782458
 30
0.0
 11
235.1747326205307
 21
-258.43820137067797
 31
0.0
  0
LINE
  8
DETAIL
  6
CONTINUOUS
 62
     5
 10
208.2583256011319
 20
-224.83375487533041
 30
0.0
 11
208.20176043676361
 21
-225.66406325293369
 31
0.0
  0
LINE
  8
DETAIL
  6
CONTINUOUS
 62
     5
 10
208.20176043676361
 20
-225.66406325293369
 30
0.0
 11
208.23620924509419
 21
-226.46513538460391
 31
0.0
  0
LINE
  8
DETAIL
  6
CONTINUOUS
 62
     5
 10
208.23620924509419
 20
-226.46513538460391
 30
0.0
 11
208.3598248141914
 21
-227.2287392774293
 31
0.0
  0
LINE
  8
DETAIL
  6
CONTINUOUS
 62
     5
 10
208.3598248141914
 20
-227.2287392774293
 30
0.0
 11
208.57270844154729
 21
-227.9458241667356
 31
0.0
  0
LINE
  8
DETAIL
  6
CONTINUOUS
 62
     5
 10
208.57270844154729
 20
-227.9458241667356
 30
0.0
 11
208.87110215040519
 21
-228.60935041998209
 31
0.0
  0
LINE
  8
DETAIL
  6
CONTINUOUS
 62
     5
 10
208.87110215040519
 20
-228.60935041998209
 30
0.0
 11
209.2508162009492
 21
-229.20800441186711
 31
0.0
  0
LINE
  8
DETAIL
  6
CONTINUOUS
 62
     5
 10
209.2508162009492
 20
-229.20800441186711
 30
0.0
 11
209.71324717285981
 21
-229.74555735056541
 31
0.0
  0
LINE
  8
DETAIL
  6
CONTINUOUS
 62
     5
 10
266.93053311793238
 20
201.1284412186196
 30
0.0
 11
260.42003231017748
 21
201.1284412186196
 31
0.0
  0
LINE
  8
DETAIL
  6
CONTINUOUS
 62
     5
 10
-260.42003231017787
 20
201.1284412186196
 30
0.0
 11
-266.93053311793238
 21
201.1284412186196
 31
0.0
  0
LINE
  8
DETAIL
  6
CONTINUOUS
 62
     5
 10
-262.74611452623031
 20
213.16867623235771
 30
0.0
 11
-255.56295591133471
 21
213.16867623235771
 31
0.0
  0
LINE
  8
DETAIL
  6
CONTINUOUS
 62
     5
 10
255.56295591133471
 20
213.16867623235771
 30
0.0
 11
262.74611452623031
 21
213.16867623235771
 31
0.0
  0
LINE
  8
DETAIL
  6
CONTINUOUS
 62
     5
 10
256.32153874443679
 20
233.0580699942893
 30
0.0
 11
256.32153874443679
 21
227.27524015791909
 31
0.0
  0
LINE
  8
DETAIL
  6
CONTINUOUS
 62
     5
 10
266.33769383328968
 20
227.27524015791909
 30
0.0
 11
266.33769383328968
 21
233.0580699942893
 31
0.0
  0
LINE
  8
DETAIL
  6
CONTINUOUS
 62
     5
 10
296.97899838449092
 20
-171.07997595206069
 30
0.0
 11
296.97899838449092
 21
171.07997595206069
 31
0.0
  0
LINE
  8
DETAIL
  6
CONTINUOUS
 62
     5
 10
303.82456339745272
 20
-274.17876785167368
 30
0.0
 11
303.82456339745272
 21
-254.24712510435691
 31
0.0
  0
LINE
  8
DETAIL
  6
CONTINUOUS
 62
     5
 10
303.82456339745272
 20
254.2471251043568
 30
0.0
 11
303.82456339745272
 21
274.17876785167368
 31
0.0
  0
LINE
  8
DETAIL
  6
CONTINUOUS
 62
     5
 10
211.0011108094825
 20
-233.86641746192291
 30
0.0
 11
213.83410728344069
 21
-231.03342098796529
 31
0.0
  0
LINE
  8
DETAIL
  6
CONTINUOUS
 62
     5
 10
306.99515347334432
 20
-269.93537964458812
 30
0.0
 11
306.99515347334432
 21
-227.8909065760229
 31
0.0
  0
LINE
  8
DETAIL
  6
CONTINUOUS
 62
     5
 10
306.99515347334432
 20
-227.8909065760229
 30
0.0
 11
306.99515347334432
 21
227.89090657524631
 31
0.0
  0
LINE
  8
DETAIL
  6
CONTINUOUS
 62
     5
 10
306.99515347334432
 20
227.89090657524631
 30
0.0
 11
306.99515347334432
 21
269.93537964458801
 31
0.0
  0
LINE
  8
DETAIL
  6
CONTINUOUS
 62
     5
 10
309.99999999999972
 20
-269.93537964458812
 30
0.0
 11
309.99999999999972
 21
269.93537964458801
 31
0.0
  0
LINE
  8
DETAIL
  6
CONTINUOUS
 62
     5
 10
213.75555345891709
 20
-236.62086011135739
 30
0.0
 11
216.58854993287491
 21
-233.78786363739971
 31
0.0
  0
LINE
  8
DETAIL
  6
CONTINUOUS
 62
     5
 10
214.9982432228278
 20
-236.73035128521869
 30
0.0
 11
215.84814216478159
 21
-235.8804523424879
 31
0.0
  0
LINE
  8
DETAIL
  6
CONTINUOUS
 62
     5
 10
216.41474145941831
 20
-235.31385304785161
 30
0.0
 11
217.26464040137279
 21
-234.46395410589739
 31
0.0
  0
LINE
  8
DETAIL
  6
CONTINUOUS
 62
     5
 10
206.99576902653709
 20
-246.25504994116559
 30
0.0
 11
215.19275615801939
 21
-238.05806280968321
 31
0.0
  0
LINE
  8
DETAIL
  6
CONTINUOUS
 62
     5
 10
218.02575263197721
 20
-235.2250663357253
 30
0.0
 11
218.64913880905689
 21
-234.60168015864559
 31
0.0
  0
LINE
  8
DETAIL
  6
CONTINUOUS
 62
     5
 10
228.75015683951349
 20
-224.5006621289653
 30
0.0
 11
230.06598764571501
 21
-223.18483132198739
 31
0.0
  0
LINE
  8
DETAIL
  6
CONTINUOUS
 62
     5
 10
230.91588658844631
 20
-222.33493238003291
 30
0.0
 11
246.255049940389
 21
-206.9957690273134
 31
0.0
  0
LINE
  8
DETAIL
  6
CONTINUOUS
 62
     5
 10
217.12667617920869
 20
-238.85878424160009
 30
0.0
 11
217.97657512116331
 21
-238.0088852988691
 31
0.0
  0
LINE
  8
DETAIL
  6
CONTINUOUS
 62
     5
 10
216.86056153646149
 20
-239.7258681889019
 30
0.0
 11
217.42716083187429
 21
-239.15926889426561
 31
0.0
  0
LINE
  8
DETAIL
  6
CONTINUOUS
 62
     5
 10
218.2770597738288
 20
-238.30936995153479
 30
0.0
 11
218.8436590684648
 21
-237.74277065689861
 31
0.0
  0
LINE
  8
DETAIL
  6
CONTINUOUS
 62
     5
 10
218.12829168809441
 20
-239.86039975048519
 30
0.0
 11
218.9781906300484
 21
-239.01050080775451
 31
0.0
  0
LINE
  8
DETAIL
  6
CONTINUOUS
 62
     5
 10
219.72940226171229
 20
-239.7617124394184
 30
0.0
 11
218.87950331975819
 21
-240.61161138214919
 31
0.0
  0
LINE
  8
DETAIL
  6
CONTINUOUS
 62
     5
 10
248.4804647260523
 20
-216.10234013748121
 30
0.0
 11
236.5818795355851
 21
-228.00092532717201
 31
0.0
  0
LINE
  8
DETAIL
  6
CONTINUOUS
 62
     5
 10
235.43955597590531
 20
-229.14324888685181
 30
0.0
 11
234.41614978665231
 21
-230.16665507610429
 31
0.0
  0
LINE
  8
DETAIL
  6
CONTINUOUS
 62
     5
 10
224.1733539947902
 20
-240.40945086874299
 30
0.0
 11
223.9841701968414
 21
-240.59863466591511
 31
0.0
  0
LINE
  8
DETAIL
  6
CONTINUOUS
 62
     5
 10
222.84184663716201
 20
-241.74095822559531
 30
0.0
 11
216.1023401367045
 21
-248.48046472682881
 31
0.0
  0
LINE
  8
DETAIL
  6
CONTINUOUS
 62
     5
 10
230.16665507610449
 20
-255.5467864524928
 30
0.0
 11
225.15857753167771
 21
-258.43820137067797
 31
0.0
  0
LINE
  8
DETAIL
  6
CONTINUOUS
 62
     5
 10
230.16665507610449
 20
-267.11244612600967
 30
0.0
 11
235.1747326205307
 21
-264.22103120782458
 31
0.0
  0
LINE
  8
DETAIL
  6
CONTINUOUS
 62
     5
 10
171.07997595206069
 20
296.97899838449109
 30
0.0
 11
-171.07997595206069
 21
296.97899838449109
 31
0.0
  0
LINE
  8
DETAIL
  6
CONTINUOUS
 62
     5
 10
274.17876785167368
 20
303.82456339745272
 30
0.0
 11
254.24712510435691
 21
303.82456339745272
 31
0.0
  0
LINE
  8
DETAIL
  6
CONTINUOUS
 62
     5
 10
-254.2471251043568
 20
303.82456339745272
 30
0.0
 11
-274.17876785167368
 21
303.82456339745272
 31
0.0
  0
LINE
  8
DETAIL
  6
CONTINUOUS
 62
     5
 10
269.93537964458818
 20
306.99515347334398
 30
0.0
 11
227.89090657524639
 21
306.99515347334398
 31
0.0
  0
LINE
  8
DETAIL
  6
CONTINUOUS
 62
     5
 10
227.89090657524639
 20
306.99515347334398
 30
0.0
 11
-227.89090657524619
 21
306.99515347334398
 31
0.0
  0
LINE
  8
DETAIL
  6
CONTINUOUS
 62
     5
 10
-227.89090657524619
 20
306.99515347334398
 30
0.0
 11
-269.93537964458818
 21
306.99515347334398
 31
0.0
  0
LINE
  8
DETAIL
  6
CONTINUOUS
 62
     5
 10
269.93537964458818
 20
309.99999999999989
 30
0.0
 11
-269.93537964458818
 21
309.99999999999989
 31
0.0
  0
LINE
  8
DETAIL
  6
CONTINUOUS
 62
     5
 10
246.255049940389
 20
206.99576902653689
 30
0.0
 11
228.75015683951349
 21
224.50066212818871
 31
0.0
  0
LINE
  8
DETAIL
  6
CONTINUOUS
 62
     5
 10
224.50066212818891
 20
228.75015683873701
 30
0.0
 11
206.99576902653709
 21
246.255049940389
 31
0.0
  0
LINE
  8
DETAIL
  6
CONTINUOUS
 62
     5
 10
250.87430589119751
 20
-241.03000085581891
 30
0.0
 11
248.07690072878239
 21
-243.82740601823409
 31
0.0
  0
LINE
  8
DETAIL
  6
CONTINUOUS
 62
     5
 10
254.76967604318091
 20
-244.92537100702569
 30
0.0
 11
251.97227087998891
 21
-247.72277616944061
 31
0.0
  0
LINE
  8
DETAIL
  6
CONTINUOUS
 62
     5
 10
256.36323655944187
 20
-249.35192799724479
 30
0.0
 11
257.21313550139638
 21
-248.50202905529039
 31
0.0
  0
LINE
  8
DETAIL
  6
CONTINUOUS
 62
     5
 10
257.07148567812578
 20
-250.06017711592841
 30
0.0
 11
257.92138462007978
 21
-249.2102781739741
 31
0.0
  0
LINE
  8
DETAIL
  6
CONTINUOUS
 62
     5
 10
257.08012157831467
 20
-252.83062686776631
 30
0.0
 11
252.83062686699009
 21
-257.08012157831467
 31
0.0
  0
LINE
  8
DETAIL
  6
CONTINUOUS
 62
     5
 10
256.32153874443679
 20
227.27524015791909
 30
0.0
 11
261.32961628886301
 21
224.3838252389576
 31
0.0
  0
LINE
  8
DETAIL
  6
CONTINUOUS
 62
     5
 10
266.33769383328968
 20
233.0580699942893
 30
0.0
 11
261.32961628886301
 21
235.9494849124745
 31
0.0
  0
LINE
  8
DETAIL
  6
CONTINUOUS
 62
     5
 10
216.1023401367045
 20
248.48046472605211
 30
0.0
 11
230.16665507610449
 21
234.4161497866526
 31
0.0
  0
LINE
  8
DETAIL
  6
CONTINUOUS
 62
     5
 10
234.41614978665231
 20
230.16665507610421
 30
0.0
 11
248.4804647260523
 21
216.10234013670461
 31
0.0
  0
LINE
  8
DETAIL
  6
CONTINUOUS
 62
     5
 10
252.83062686699009
 20
257.08012157831467
 30
0.0
 11
257.08012157831467
 21
252.8306268669896
 31
0.0
  0
LINE
  8
DETAIL
  6
CONTINUOUS
 62
     5
 10
281.26125903617981
 20
-300.8908994938825
 30
0.0
 11
300.89089949310602
 21
-281.26125903695629
 31
0.0
  0
LINE
  8
DETAIL
  6
CONTINUOUS
 62
     5
 10
300.89089949310602
 20
281.26125903617981
 30
0.0
 11
281.26125903617981
 21
300.89089949310602
 31
0.0
  0
ARC
  8
DETAIL
  6
CONTINUOUS
 62
     5
 10
-269.93537964458818
 20
-269.93537964458812
 30
0.0
 40
40.064620355411762
 50
180.0
 51
270.0
  0
ARC
  8
DETAIL
  6
CONTINUOUS
 62
     5
 10
-269.93537964458818
 20
-269.93537964458812
 30
0.0
 40
37.059773828755972
 50
180.0
 51
270.0
  0
ARC
  8
DETAIL
  6
CONTINUOUS
 62
     5
 10
-266.93053311793238
 20
-171.07997595206069
 30
0.0
 40
30.048465266558988
 50
180.0
 51
270.0
  0
ARC
  8
DETAIL
  6
CONTINUOUS
 62
     5
 10
-171.07997595206069
 20
-266.93053311793221
 30
0.0
 40
30.048465266558988
 50
180.0
 51
270.0
  0
ARC
  8
DETAIL
  6
CONTINUOUS
 62
     5
 10
-260.42003231017787
 20
-221.16075139632571
 30
0.0
 40
20.03231017770603
 50
45.000000000006622
 51
90.0
  0
ARC
  8
DETAIL
  6
CONTINUOUS
 62
     5
 10
-221.16075139632559
 20
-260.42003231017782
 30
0.0
 40
20.032310177706041
 50
0.0
 51
45.000000000006622
  0
ARC
  8
DETAIL
  6
CONTINUOUS
 62
     5
 10
-227.89090657524619
 20
-291.97092084006448
 30
0.0
 40
15.024232633279491
 50
181.94750657439889
 51
270.0
  0
ARC
  8
DETAIL
  6
CONTINUOUS
 62
     5
 10
-291.97092084006448
 20
-227.8909065760229
 30
0.0
 40
15.024232633279549
 50
180.0
 51
268.05249548289532
  0
ARC
  8
DETAIL
  6
CONTINUOUS
 62
     5
 10
-223.1848313219873
 20
-255.562955911335
 30
0.0
 40
10.01615508885288
 50
0.0
 51
45.000000000006622
  0
ARC
  8
DETAIL
  6
CONTINUOUS
 62
     5
 10
-255.56295591133471
 20
-223.18483132198739
 30
0.0
 40
10.016155088853001
 50
45.000000000006622
 51
90.0
  0
ARC
  8
DETAIL
  6
CONTINUOUS
 62
     5
 10
-274.17876785167368
 20
-293.80840830859972
 30
0.0
 40
10.016155088853001
 50
225.00000000000659
 51
270.0
  0
ARC
  8
DETAIL
  6
CONTINUOUS
 62
     5
 10
-293.80840830859972
 20
-274.17876785167368
 30
0.0
 40
10.016155088853001
 50
180.0
 51
225.00000000000659
  0
CIRCLE
  8
DETAIL
  6
CONTINUOUS
 62
     5
 10
-261.32961628886301
 20
-230.16665507610429
 30
0.0
 40
5.0080775444264409
  0
ARC
  8
DETAIL
  6
CONTINUOUS
 62
     5
 10
-101.6639741518579
 20
-88.915490019436277
 30
0.0
 40
12.0193861066236
 50
314.99999999999329
 51
0.0
  0
ARC
  8
DETAIL
  6
CONTINUOUS
 62
     5
 10
-18.089047471390359
 20
-81.142238214198869
 30
0.0
 40
10.016155088852949
 50
41.761551624189117
 51
77.432548182493505
  0
ARC
  8
DETAIL
  6
CONTINUOUS
 62
     5
 10
-81.020288274235782
 20
-18.627650115565299
 30
0.0
 40
10.01615508885299
 50
12.94805201590159
 51
35.275643061194138
  0
ARC
  8
DETAIL
  6
CONTINUOUS
 62
     5
 10
-70.461732966474983
 20
-44.118257538039643
 30
0.0
 40
10.01615508885298
 50
351.2593886005036
 51
32.051947984094348
  0
ARC
  8
DETAIL
  6
CONTINUOUS
 62
     5
 10
-44.118257538039643
 20
-70.461732966475054
 30
0.0
 40
10.016155088852949
 50
57.94805201588904
 51
100.95159221520289
  0
ARC
  8
DETAIL
  6
CONTINUOUS
 62
     5
 10
-66.083239323364751
 20
-39.764024681043509
 30
0.0
 40
8.0129240710823897
 50
211.03642988169679
 51
307.00000000000267
  0
ARC
  8
DETAIL
  6
CONTINUOUS
 62
     5
 10
-81.631663974151934
 20
-75.016697207799623
 30
0.0
 40
8.0129240710824092
 50
180.0
 51
253.79293060260039
  0
CIRCLE
  8
DETAIL
  6
CONTINUOUS
 62
     5
 10
-54.535182122327797
 20
-54.535182123104327
 30
0.0
 40
6.5105008077544548
  0
ARC
  8
DETAIL
  6
CONTINUOUS
 62
     5
 10
-16.68241872076737
 20
-76.836666556962484
 30
0.0
 40
6.5105008077544548
 50
257.75032539681018
 51
77.750325396796853
  0
ARC
  8
DETAIL
  6
CONTINUOUS
 62
     5
 10
-42.535476561620953
 20
-66.127979370778178
 30
0.0
 40
6.5105008077543776
 50
57.249674603203793
 51
237.2496746031884
  0
ARC
  8
DETAIL
  6
CONTINUOUS
 62
     5
 10
-101.6639741518579
 20
-88.915490019436277
 30
0.0
 40
6.0096930533118016
 50
314.99999999999329
 51
0.0
  0
ARC
  8
DETAIL
  6
CONTINUOUS
 62
     5
 10
-81.631663974151934
 20
-75.016697207799623
 30
0.0
 40
5.7092084006462196
 50
180.0
 51
253.79293060260039
  0
ARC
  8
DETAIL
  6
CONTINUOUS
 62
     5
 10
-72.707647551990448
 20
-7.7349847547307036
 30
0.0
 40
5.0080775444265049
 50
280.00000000000517
 51
6.0725566384009069
  0
ARC
  8
DETAIL
  6
CONTINUOUS
 62
     5
 10
-55.243506126134889
 20
-47.899760256127081
 30
0.0
 40
5.008077544426496
 50
40.927443361602847
 51
127.0000000000027
  0
ARC
  8
DETAIL
  6
CONTINUOUS
 62
     5
 10
-269.93537964458818
 20
269.93537964458801
 30
0.0
 40
40.064620355411932
 50
90.0
 51
180.0
  0
ARC
  8
DETAIL
  6
CONTINUOUS
 62
     5
 10
-269.93537964458818
 20
269.93537964458801
 30
0.0
 40
37.059773828756043
 50
90.0
 51
180.0
  0
ARC
  8
DETAIL
  6
CONTINUOUS
 62
     5
 10
-171.07997595206069
 20
266.93053311793199
 30
0.0
 40
30.048465266558988
 50
90.0
 51
180.0
  0
ARC
  8
DETAIL
  6
CONTINUOUS
 62
     5
 10
-266.93053311793238
 20
171.07997595206069
 30
0.0
 40
30.048465266558988
 50
90.0
 51
180.0
  0
ARC
  8
DETAIL
  6
CONTINUOUS
 62
     5
 10
-221.16075139632559
 20
260.42003231017759
 30
0.0
 40
20.032310177706041
 50
314.99999999999329
 51
0.0
  0
ARC
  8
DETAIL
  6
CONTINUOUS
 62
     5
 10
-260.42003231017787
 20
221.16075139632559
 30
0.0
 40
20.032310177705948
 50
270.0
 51
314.99999999999329
  0
ARC
  8
DETAIL
  6
CONTINUOUS
 62
     5
 10
-291.97092084006448
 20
227.89090657524631
 30
0.0
 40
15.02423263327946
 50
91.947506574392463
 51
180.0
  0
ARC
  8
DETAIL
  6
CONTINUOUS
 62
     5
 10
-227.89090657524619
 20
291.97092084006448
 30
0.0
 40
15.0242326332795
 50
90.0
 51
178.0524954828953
  0
ARC
  8
DETAIL
  6
CONTINUOUS
 62
     5
 10
-255.56295591133471
 20
223.18483132121079
 30
0.0
 40
10.01615508885304
 50
270.0
 51
314.99999999999329
  0
ARC
  8
DETAIL
  6
CONTINUOUS
 62
     5
 10
-223.1848313219873
 20
255.56295591055849
 30
0.0
 40
10.01615508885298
 50
314.99999999999329
 51
0.0
  0
ARC
  8
DETAIL
  6
CONTINUOUS
 62
     5
 10
-293.80840830859972
 20
274.17876785167368
 30
0.0
 40
10.01615508885298
 50
134.99999999999341
 51
180.0
  0
ARC
  8
DETAIL
  6
CONTINUOUS
 62
     5
 10
-274.17876785167368
 20
293.80840830859972
 30
0.0
 40
10.016155088853029
 50
90.0
 51
134.99999999999341
  0
CIRCLE
  8
DETAIL
  6
CONTINUOUS
 62
     5
 10
-230.16665507610401
 20
261.32961628886301
 30
0.0
 40
5.0080775444264987
  0
ARC
  8
DETAIL
  6
CONTINUOUS
 62
     5
 10
-101.6639741518579
 20
88.915490019436092
 30
0.0
 40
12.01938610662364
 50
0.0
 51
45.000000000006622
  0
ARC
  8
DETAIL
  6
CONTINUOUS
 62
     5
 10
-18.089047471390359
 20
81.142238214198869
 30
0.0
 40
10.016155088852949
 50
282.56745181750648
 51
318.23844837581089
  0
ARC
  8
DETAIL
  6
CONTINUOUS
 62
     5
 10
-44.118257538039643
 20
70.46173296569863
 30
0.0
 40
10.01615508885298
 50
259.04840778479712
 51
302.051947984111
  0
ARC
  8
DETAIL
  6
CONTINUOUS
 62
     5
 10
-70.461732966474983
 20
44.118257538039529
 30
0.0
 40
10.01615508885296
 50
327.94805201590572
 51
8.7406113994963732
  0
ARC
  8
DETAIL
  6
CONTINUOUS
 62
     5
 10
-81.020288274235782
 20
18.627650114788711
 30
0.0
 40
10.016155088853001
 50
324.72435693880578
 51
347.05194798409838
  0
ARC
  8
DETAIL
  6
CONTINUOUS
 62
     5
 10
-66.083239323364751
 20
39.764024680266971
 30
0.0
 40
8.0129240710823986
 50
52.999999999997272
 51
148.96357011830321
  0
ARC
  8
DETAIL
  6
CONTINUOUS
 62
     5
 10
-81.631663974151934
 20
75.016697207799481
 30
0.0
 40
8.0129240710823524
 50
106.20706939739959
 51
180.0
  0
CIRCLE
  8
DETAIL
  6
CONTINUOUS
 62
     5
 10
-54.535182122327797
 20
54.535182122327797
 30
0.0
 40
6.5105008077544548
  0
ARC
  8
DETAIL
  6
CONTINUOUS
 62
     5
 10
-42.535476561620953
 20
66.127979370001569
 30
0.0
 40
6.5105008077544069
 50
122.7503253968116
 51
302.75032539679631
  0
ARC
  8
DETAIL
  6
CONTINUOUS
 62
     5
 10
-16.68241872076737
 20
76.836666556185804
 30
0.0
 40
6.5105008077544566
 50
282.24967460320312
 51
102.2496746031898
  0
ARC
  8
DETAIL
  6
CONTINUOUS
 62
     5
 10
-101.6639741518579
 20
88.915490019436092
 30
0.0
 40
6.0096930533118211
 50
0.0
 51
45.000000000006622
  0
ARC
  8
DETAIL
  6
CONTINUOUS
 62
     5
 10
-81.631663974151934
 20
75.016697207799481
 30
0.0
 40
5.7092084006461468
 50
106.20706939739959
 51
180.0
  0
ARC
  8
DETAIL
  6
CONTINUOUS
 62
     5
 10
-72.707647551990448
 20
7.7349847539541088
 30
0.0
 40
5.0080775444264862
 50
353.9274433615991
 51
79.999999999994827
  0
ARC
  8
DETAIL
  6
CONTINUOUS
 62
     5
 10
-55.243506126134889
 20
47.899760255350493
 30
0.0
 40
5.0080775444265244
 50
232.99999999999719
 51
319.07255663839709
  0
ARC
  8
DETAIL
  6
CONTINUOUS
 62
     5
 10
0.0
 20
-205.83198707592899
 30
0.0
 40
300.48465266558969
 50
73.792930602600379
 51
106.20706939739959
  0
ARC
  8
DETAIL
  6
CONTINUOUS
 62
     5
 10
0.0
 20
-205.83198707592899
 30
0.0
 40
298.18093699515362
 50
73.792930602600379
 51
106.20706939739959
  0
ARC
  8
DETAIL
  6
CONTINUOUS
 62
     5
 10
101.6639741518577
 20
-88.915490019436277
 30
0.0
 40
12.019386106623619
 50
180.0
 51
225.00000000000659
  0
ARC
  8
DETAIL
  6
CONTINUOUS
 62
     5
 10
18.089047470614101
 20
-81.142238214198869
 30
0.0
 40
10.01615508885301
 50
102.56745181750649
 51
138.23844837581089
  0
ARC
  8
DETAIL
  6
CONTINUOUS
 62
     5
 10
81.020288273459514
 20
-18.627650115565299
 30
0.0
 40
10.016155088852971
 50
144.72435693880581
 51
167.0519479840984
  0
ARC
  8
DETAIL
  6
CONTINUOUS
 62
     5
 10
70.461732966474983
 20
-44.118257538039643
 30
0.0
 40
10.016155088852971
 50
147.9480520159056
 51
188.7406113994964
  0
ARC
  8
DETAIL
  6
CONTINUOUS
 62
     5
 10
44.118257538039643
 20
-70.461732966475054
 30
0.0
 40
10.01615508885296
 50
79.048407784797092
 51
116.39503209850081
  0
ARC
  8
DETAIL
  6
CONTINUOUS
 62
     5
 10
66.083239323364751
 20
-39.764024681043509
 30
0.0
 40
8.0129240710823701
 50
232.99999999999719
 51
328.96357011830321
  0
ARC
  8
DETAIL
  6
CONTINUOUS
 62
     5
 10
81.631663974151934
 20
-75.016697207799623
 30
0.0
 40
8.0129240710823986
 50
286.20706939739961
 51
0.0
  0
CIRCLE
  8
DETAIL
  6
CONTINUOUS
 62
     5
 10
54.535182122327797
 20
-54.535182123104327
 30
0.0
 40
6.5105008077544548
  0
ARC
  8
DETAIL
  6
CONTINUOUS
 62
     5
 10
16.68241872076737
 20
-76.836666556962484
 30
0.0
 40
6.5105008077544646
 50
102.2496746032032
 51
282.24967460318982
  0
ARC
  8
DETAIL
  6
CONTINUOUS
 62
     5
 10
42.535476561620953
 20
-66.127979370778178
 30
0.0
 40
6.5105008077544104
 50
302.7503253968116
 51
121.1167713114985
  0
ARC
  8
DETAIL
  6
CONTINUOUS
 62
     5
 10
101.6639741518577
 20
-88.915490019436277
 30
0.0
 40
6.0096930533118211
 50
180.0
 51
225.00000000000659
  0
ARC
  8
DETAIL
  6
CONTINUOUS
 62
     5
 10
81.631663974151934
 20
-75.016697207799623
 30
0.0
 40
5.7092084006461219
 50
286.20706939739961
 51
0.0
  0
ARC
  8
DETAIL
  6
CONTINUOUS
 62
     5
 10
55.243506126135117
 20
-47.899760256127081
 30
0.0
 40
5.008077544426496
 50
52.999999999997272
 51
139.07255663839709
  0
ARC
  8
DETAIL
  6
CONTINUOUS
 62
     5
 10
72.707647551990448
 20
-7.7349847547307036
 30
0.0
 40
5.0080775444265146
 50
173.9274433615991
 51
259.99999999999483
  0
CIRCLE
  8
DETAIL
  6
CONTINUOUS
 62
     5
 10
0.0
 20
-48.578352180936967
 30
0.0
 40
4.7075928917608962
  0
ARC
  8
DETAIL
  6
CONTINUOUS
 62
     5
 10
171.07997595206069
 20
-266.93053311793221
 30
0.0
 40
30.048465266558988
 50
270.0
 51
0.0
  0
ARC
  8
DETAIL
  6
CONTINUOUS
 62
     5
 10
221.16075139632559
 20
-260.42003231017782
 30
0.0
 40
20.03231017770598
 50
134.99999999999341
 51
180.0
  0
ARC
  8
DETAIL
  6
CONTINUOUS
 62
     5
 10
227.89090657524639
 20
-291.97092084006448
 30
0.0
 40
15.0242326332795
 50
270.0
 51
326.13334613859172
  0
ARC
  8
DETAIL
  6
CONTINUOUS
 62
     5
 10
223.18483132121059
 20
-255.562955911335
 30
0.0
 40
10.01615508885307
 50
134.99999999999341
 51
180.0
  0
CIRCLE
  8
DETAIL
  6
CONTINUOUS
 62
     5
 10
230.16665507610449
 20
-261.32961628963949
 30
0.0
 40
5.0080775444264916
  0
ARC
  8
DETAIL
  6
CONTINUOUS
 62
     5
 10
269.93537964458818
 20
-269.93537964458812
 30
0.0
 40
40.064620355411932
 50
270.0
 51
0.0
  0
ARC
  8
DETAIL
  6
CONTINUOUS
 62
     5
 10
269.93537964458818
 20
-269.93537964458812
 30
0.0
 40
37.059773828756008
 50
270.0
 51
0.0
  0
ARC
  8
DETAIL
  6
CONTINUOUS
 62
     5
 10
293.80840830859961
 20
-274.17876785167368
 30
0.0
 40
10.016155088853029
 50
314.99999999999329
 51
0.0
  0
ARC
  8
DETAIL
  6
CONTINUOUS
 62
     5
 10
274.17876785167368
 20
-293.80840830859972
 30
0.0
 40
10.016155088853001
 50
270.0
 51
314.99999999999329
  0
ARC
  8
DETAIL
  6
CONTINUOUS
 62
     5
 10
242.1982541896534
 20
-253.6014227085696
 30
0.0
 40
6.2100161550888089
 50
183.63371126819459
 51
253.48036702229959
  0
ARC
  8
DETAIL
  6
CONTINUOUS
 62
     5
 10
240.7817559530624
 20
-239.43644033878101
 30
0.0
 40
5.2084006462035903
 50
45.000000000006622
 51
111.72980697999969
  0
ARC
  8
DETAIL
  6
CONTINUOUS
 62
     5
 10
257.77973479603253
 20
-259.26741565648518
 30
0.0
 40
5.2084006462035166
 50
253.48036702229959
 51
45.000000000006622
  0
ARC
  8
DETAIL
  6
CONTINUOUS
 62
     5
 10
257.77973479603253
 20
-259.26741565648518
 30
0.0
 40
4.0064620355411824
 50
253.48036702229959
 51
45.000000000006622
  0
ARC
  8
DETAIL
  6
CONTINUOUS
 62
     5
 10
240.7817559530624
 20
-239.43644033878101
 30
0.0
 40
4.0064620355412384
 50
45.000000000006622
 51
104.12544180580259
  0
ARC
  8
DETAIL
  6
CONTINUOUS
 62
     5
 10
266.93053311793238
 20
-171.07997595206069
 30
0.0
 40
30.048465266558988
 50
270.0
 51
0.0
  0
ARC
  8
DETAIL
  6
CONTINUOUS
 62
     5
 10
260.42003231017748
 20
-221.16075139632571
 30
0.0
 40
20.032310177705991
 50
90.0
 51
134.99999999999341
  0
ARC
  8
DETAIL
  6
CONTINUOUS
 62
     5
 10
291.97092084006482
 20
-227.8909065760229
 30
0.0
 40
15.02423263327943
 50
271.94750657439238
 51
0.0
  0
ARC
  8
DETAIL
  6
CONTINUOUS
 62
     5
 10
255.56295591133471
 20
-223.18483132198739
 30
0.0
 40
10.01615508885294
 50
90.0
 51
134.99999999999341
  0
ARC
  8
DETAIL
  6
CONTINUOUS
 62
     5
 10
0.0
 20
0.0
 30
0.0
 40
270.43618739903059
 50
45.636636730197132
 51
134.3633632698029
  0
ARC
  8
DETAIL
  6
CONTINUOUS
 62
     5
 10
0.0
 20
0.0
 30
0.0
 40
270.43618739903059
 50
315.63663673020579
 51
44.363363269794242
  0
ARC
  8
DETAIL
  6
CONTINUOUS
 62
     5
 10
0.0
 20
0.0
 30
0.0
 40
270.43618739903059
 50
225.6366367301971
 51
312.6636220772034
  0
ARC
  8
DETAIL
  6
CONTINUOUS
 62
     5
 10
0.0
 20
0.0
 30
0.0
 40
270.4361873990307
 50
135.63663673020579
 51
224.36336326979421
  0
ARC
  8
DETAIL
  6
CONTINUOUS
 62
     5
 10
0.0
 20
0.0
 30
0.0
 40
85.13731825525042
 50
189.99999999999861
 51
211.03642988169679
  0
ARC
  8
DETAIL
  6
CONTINUOUS
 62
     5
 10
0.0
 20
0.0
 30
0.0
 40
85.137318255250335
 50
328.96357011830321
 51
350.00000000000142
  0
ARC
  8
DETAIL
  6
CONTINUOUS
 62
     5
 10
0.0
 20
0.0
 30
0.0
 40
85.137318255250335
 50
9.9999999999986073
 51
31.036429881696819
  0
ARC
  8
DETAIL
  6
CONTINUOUS
 62
     5
 10
0.0
 20
0.0
 30
0.0
 40
85.137318255250378
 50
148.96357011830321
 51
170.00000000000139
  0
ARC
  8
DETAIL
  6
CONTINUOUS
 62
     5
 10
0.0
 20
0.0
 30
0.0
 40
85.13731825525042
 50
237.2496746031884
 51
257.75032539679682
  0
ARC
  8
DETAIL
  6
CONTINUOUS
 62
     5
 10
0.0
 20
0.0
 30
0.0
 40
85.137318255250406
 50
282.24967460320312
 51
296.02577465430539
  0
ARC
  8
DETAIL
  6
CONTINUOUS
 62
     5
 10
0.0
 20
0.0
 30
0.0
 40
85.137318255250378
 50
57.249674603188431
 51
77.750325396796853
  0
ARC
  8
DETAIL
  6
CONTINUOUS
 62
     5
 10
0.0
 20
0.0
 30
0.0
 40
85.13731825525042
 50
102.2496746032032
 51
122.7503253968116
  0
ARC
  8
DETAIL
  6
CONTINUOUS
 62
     5
 10
0.0
 20
0.0
 30
0.0
 40
73.117932148626736
 50
57.94805201588904
 51
77.432548182493505
  0
ARC
  8
DETAIL
  6
CONTINUOUS
 62
     5
 10
0.0
 20
0.0
 30
0.0
 40
73.117932148626863
 50
12.94805201590159
 51
32.051947984094348
  0
ARC
  8
DETAIL
  6
CONTINUOUS
 62
     5
 10
0.0
 20
0.0
 30
0.0
 40
73.117932148626792
 50
327.94805201590572
 51
347.05194798409838
  0
ARC
  8
DETAIL
  6
CONTINUOUS
 62
     5
 10
0.0
 20
0.0
 30
0.0
 40
73.117932148626821
 50
282.56745181750648
 51
295.5986354721968
  0
ARC
  8
DETAIL
  6
CONTINUOUS
 62
     5
 10
0.0
 20
0.0
 30
0.0
 40
73.117932148626792
 50
237.948052015889
 51
257.43254818249352
  0
ARC
  8
DETAIL
  6
CONTINUOUS
 62
     5
 10
0.0
 20
0.0
 30
0.0
 40
73.117932148626863
 50
192.9480520159016
 51
212.05194798409471
  0
ARC
  8
DETAIL
  6
CONTINUOUS
 62
     5
 10
0.0
 20
0.0
 30
0.0
 40
73.117932148626792
 50
147.9480520159056
 51
167.0519479840984
  0
ARC
  8
DETAIL
  6
CONTINUOUS
 62
     5
 10
0.0
 20
0.0
 30
0.0
 40
73.117932148626821
 50
102.56745181750649
 51
122.051947984111
  0
ARC
  8
DETAIL
  6
CONTINUOUS
 62
     5
 10
0.0
 20
0.0
 30
0.0
 40
72.116316639741498
 50
237.2496746031884
 51
257.75032539679682
  0
ARC
  8
DETAIL
  6
CONTINUOUS
 62
     5
 10
0.0
 20
0.0
 30
0.0
 40
72.116316639741541
 50
282.24967460320312
 51
295.56714125029032
  0
ARC
  8
DETAIL
  6
CONTINUOUS
 62
     5
 10
0.0
 20
0.0
 30
0.0
 40
72.11631663974147
 50
57.249674603188431
 51
77.750325396796853
  0
ARC
  8
DETAIL
  6
CONTINUOUS
 62
     5
 10
0.0
 20
0.0
 30
0.0
 40
72.116316639741541
 50
102.2496746032032
 51
122.7503253968116
  0
ARC
  8
DETAIL
  6
CONTINUOUS
 62
     5
 10
0.0
 20
0.0
 30
0.0
 40
68.109854604200322
 50
173.9274433615991
 51
186.0725566384009
  0
ARC
  8
DETAIL
  6
CONTINUOUS
 62
     5
 10
0.0
 20
0.0
 30
0.0
 40
68.109854604200322
 50
303.17792305750709
 51
319.07255663839709
  0
ARC
  8
DETAIL
  6
CONTINUOUS
 62
     5
 10
0.0
 20
0.0
 30
0.0
 40
68.109854604200322
 50
220.92744336160291
 51
295.41782884320662
  0
ARC
  8
DETAIL
  6
CONTINUOUS
 62
     5
 10
0.0
 20
0.0
 30
0.0
 40
68.109854604200294
 50
353.9274433615991
 51
6.0725566384009069
  0
ARC
  8
DETAIL
  6
CONTINUOUS
 62
     5
 10
0.0
 20
0.0
 30
0.0
 40
68.109854604200294
 50
40.927443361602847
 51
139.07255663839709
  0
ARC
  8
DETAIL
  6
CONTINUOUS
 62
     5
 10
0.0
 20
0.0
 30
0.0
 40
66.106623586429691
 50
303.31353650259331
 51
295.31853368080039
  0
CIRCLE
  8
DETAIL
  6
CONTINUOUS
 62
     5
 10
0.0
 20
0.0
 30
0.0
 40
65.305331179321513
  0
CIRCLE
  8
DETAIL
  6
CONTINUOUS
 62
     5
 10
0.0
 20
0.0
 30
0.0
 40
34.355411954765742
  0
CIRCLE
  8
DETAIL
  6
CONTINUOUS
 62
     5
 10
0.0
 20
0.0
 30
0.0
 40
22.035541195476579
  0
CIRCLE
  8
DETAIL
  6
CONTINUOUS
 62
     5
 10
0.0
 20
0.0
 30
0.0
 40
16.62681744749597
  0
ARC
  8
DETAIL
  6
CONTINUOUS
 62
     5
 10
18.089047470614101
 20
81.142238214198869
 30
0.0
 40
10.01615508885296
 50
221.76155162418911
 51
257.43254818249352
  0
ARC
  8
DETAIL
  6
CONTINUOUS
 62
     5
 10
44.118257538039643
 20
70.46173296569863
 30
0.0
 40
10.01615508885301
 50
237.948052015889
 51
280.95159221520288
  0
ARC
  8
DETAIL
  6
CONTINUOUS
 62
     5
 10
42.535476561620953
 20
66.127979370001569
 30
0.0
 40
6.5105008077544264
 50
237.2496746031884
 51
57.249674603188431
  0
ARC
  8
DETAIL
  6
CONTINUOUS
 62
     5
 10
16.68241872076737
 20
76.836666556185804
 30
0.0
 40
6.5105008077544477
 50
77.750325396810197
 51
257.75032539679682
  0
ARC
  8
DETAIL
  6
CONTINUOUS
 62
     5
 10
70.461732966474983
 20
44.118257538039529
 30
0.0
 40
10.01615508885301
 50
171.25938860050371
 51
212.05194798409471
  0
ARC
  8
DETAIL
  6
CONTINUOUS
 62
     5
 10
81.020288273459514
 20
18.627650114788711
 30
0.0
 40
10.01615508885296
 50
192.9480520159016
 51
215.2756430611941
  0
ARC
  8
DETAIL
  6
CONTINUOUS
 62
     5
 10
66.083239323364751
 20
39.764024680266971
 30
0.0
 40
8.0129240710824412
 50
31.036429881696819
 51
127.0000000000027
  0
ARC
  8
DETAIL
  6
CONTINUOUS
 62
     5
 10
72.707647551990448
 20
7.7349847539541088
 30
0.0
 40
5.0080775444265084
 50
100.0000000000052
 51
186.0725566384009
  0
ARC
  8
DETAIL
  6
CONTINUOUS
 62
     5
 10
101.6639741518577
 20
88.915490019436092
 30
0.0
 40
12.01938610662363
 50
134.99999999999341
 51
180.0
  0
ARC
  8
DETAIL
  6
CONTINUOUS
 62
     5
 10
81.631663974151934
 20
75.016697207799481
 30
0.0
 40
8.0129240710824092
 50
0.0
 51
73.792930602600379
  0
CIRCLE
  8
DETAIL
  6
CONTINUOUS
 62
     5
 10
54.535182122327797
 20
54.535182122327797
 30
0.0
 40
6.5105008077544548
  0
ARC
  8
DETAIL
  6
CONTINUOUS
 62
     5
 10
101.6639741518577
 20
88.915490019436092
 30
0.0
 40
6.0096930533117856
 50
134.99999999999341
 51
180.0
  0
ARC
  8
DETAIL
  6
CONTINUOUS
 62
     5
 10
81.631663974151934
 20
75.016697207799481
 30
0.0
 40
5.7092084006462196
 50
0.0
 51
73.792930602600379
  0
ARC
  8
DETAIL
  6
CONTINUOUS
 62
     5
 10
55.243506126135117
 20
47.899760255350493
 30
0.0
 40
5.0080775444264818
 50
220.92744336160291
 51
307.00000000000267
  0
ARC
  8
DETAIL
  6
CONTINUOUS
 62
     5
 10
0.0
 20
205.83198707592871
 30
0.0
 40
300.48465266558969
 50
281.26676481200468
 51
286.20706939739961
  0
ARC
  8
DETAIL
  6
CONTINUOUS
 62
     5
 10
0.0
 20
205.83198707592871
 30
0.0
 40
300.48465266558958
 50
253.79293060260039
 51
279.13589515549228
  0
ARC
  8
DETAIL
  6
CONTINUOUS
 62
     5
 10
0.0
 20
205.83198707592871
 30
0.0
 40
298.1809369951535
 50
280.95754992429261
 51
286.20706939739961
  0
ARC
  8
DETAIL
  6
CONTINUOUS
 62
     5
 10
0.0
 20
205.83198707592871
 30
0.0
 40
298.1809369951535
 50
253.79293060260039
 51
278.85984899739373
  0
ARC
  8
DETAIL
  6
CONTINUOUS
 62
     5
 10
171.07997595206069
 20
266.93053311793199
 30
0.0
 40
30.048465266558988
 50
0.0
 51
90.0
  0
ARC
  8
DETAIL
  6
CONTINUOUS
 62
     5
 10
221.16075139632559
 20
260.42003231017759
 30
0.0
 40
20.03231017770597
 50
180.0
 51
225.00000000000659
  0
ARC
  8
DETAIL
  6
CONTINUOUS
 62
     5
 10
227.89090657524639
 20
291.97092084006448
 30
0.0
 40
15.024232633279469
 50
1.947506574398957
 51
90.0
  0
ARC
  8
DETAIL
  6
CONTINUOUS
 62
     5
 10
223.18483132121059
 20
255.56295591055849
 30
0.0
 40
10.016155088853029
 50
180.0
 51
225.00000000000659
  0
ARC
  8
DETAIL
  6
CONTINUOUS
 62
     5
 10
266.93053311793238
 20
171.07997595206069
 30
0.0
 40
30.048465266558999
 50
0.0
 51
90.0
  0
ARC
  8
DETAIL
  6
CONTINUOUS
 62
     5
 10
260.42003231017748
 20
221.16075139632559
 30
0.0
 40
20.03231017770603
 50
225.00000000000659
 51
270.0
  0
ARC
  8
DETAIL
  6
CONTINUOUS
 62
     5
 10
291.97092084006482
 20
227.89090657524631
 30
0.0
 40
15.0242326332795
 50
0.0
 51
88.052495482895324
  0
ARC
  8
DETAIL
  6
CONTINUOUS
 62
     5
 10
255.56295591133471
 20
223.18483132121079
 30
0.0
 40
10.016155088853029
 50
225.00000000000659
 51
270.0
  0
CIRCLE
  8
DETAIL
  6
CONTINUOUS
 62
     5
 10
261.32961628886301
 20
230.16665507610421
 30
0.0
 40
5.0080775444264951
  0
ARC
  8
DETAIL
  6
CONTINUOUS
 62
     5
 10
269.93537964458818
 20
269.93537964458801
 30
0.0
 40
40.064620355411932
 50
0.0
 51
90.0
  0
ARC
  8
DETAIL
  6
CONTINUOUS
 62
     5
 10
269.93537964458818
 20
269.93537964458801
 30
0.0
 40
37.059773828756008
 50
0.0
 51
90.0
  0
ARC
  8
DETAIL
  6
CONTINUOUS
 62
     5
 10
274.17876785167368
 20
293.80840830859972
 30
0.0
 40
10.01615508885301
 50
45.000000000006622
 51
90.0
  0
ARC
  8
DETAIL
  6
CONTINUOUS
 62
     5
 10
293.80840830859961
 20
274.17876785167368
 30
0.0
 40
10.01615508885304
 50
0.0
 51
45.000000000006622
  0
LINE
  8
DETAIL
  6
CONTINUOUS
 62
     5
 10
-261.04330253667439
 20
271.53141769951532
 30
0.0
 11
-260.95427167261602
 21
271.62210036818561
 31
0.0
  0
LINE
  8
DETAIL
  6
CONTINUOUS
 62
     5
 10
-260.95427167261602
 20
271.62210036818561
 30
0.0
 11
-260.86601259268832
 21
271.71354437289858
 31
0.0
  0
LINE
  8
DETAIL
  6
CONTINUOUS
 62
     5
 10
-260.86601259268832
 20
271.71354437289858
 30
0.0
 11
-260.86601259268832
 21
271.71354437289858
 31
0.0
  0
LINE
  8
DETAIL
  6
CONTINUOUS
 62
     5
 10
-260.86601259268832
 20
271.71354437289858
 30
0.0
 11
-260.77913748068448
 21
271.80634697733541
 31
0.0
  0
LINE
  8
DETAIL
  6
CONTINUOUS
 62
     5
 10
-260.77913748068448
 20
271.80634697733541
 30
0.0
 11
-260.69362011904758
 21
271.90044915572241
 31
0.0
  0
LINE
  8
DETAIL
  6
CONTINUOUS
 62
     5
 10
-260.69362011904758
 20
271.90044915572241
 30
0.0
 11
-260.69362011904758
 21
271.90044915572241
 31
0.0
  0
LINE
  8
DETAIL
  6
CONTINUOUS
 62
     5
 10
-260.69362011904758
 20
271.90044915572241
 30
0.0
 11
-260.60932049167241
 21
271.99566764914931
 31
0.0
  0
LINE
  8
DETAIL
  6
CONTINUOUS
 62
     5
 10
-260.60932049167241
 20
271.99566764914931
 30
0.0
 11
-260.52628178961959
 21
272.09197855560751
 31
0.0
  0
LINE
  8
DETAIL
  6
CONTINUOUS
 62
     5
 10
-260.52628178961959
 20
272.09197855560751
 30
0.0
 11
-260.52628178961959
 21
272.09197855560751
 31
0.0
  0
LINE
  8
DETAIL
  6
CONTINUOUS
 62
     5
 10
-260.52628178961959
 20
272.09197855560751
 30
0.0
 11
-260.44456939891347
 21
272.18940252777452
 31
0.0
  0
LINE
  8
DETAIL
  6
CONTINUOUS
 62
     5
 10
-260.44456939891347
 20
272.18940252777452
 30
0.0
 11
-260.36415427827143
 21
272.28797908017498
 31
0.0
  0
LINE
  8
DETAIL
  6
CONTINUOUS
 62
     5
 10
-260.36415427827143
 20
272.28797908017498
 30
0.0
 11
-260.36415427827143
 21
272.28797908017498
 31
0.0
  0
LINE
  8
DETAIL
  6
CONTINUOUS
 62
     5
 10
-260.36415427827143
 20
272.28797908017498
 30
0.0
 11
-260.28503240509991
 21
272.38769374172279
 31
0.0
  0
LINE
  8
DETAIL
  6
CONTINUOUS
 62
     5
 10
-260.28503240509991
 20
272.38769374172279
 30
0.0
 11
-260.20739425887052
 21
272.48829723704557
 31
0.0
  0
LINE
  8
DETAIL
  6
CONTINUOUS
 62
     5
 10
-260.20739425887052
 20
272.48829723704557
 30
0.0
 11
-260.20739425887052
 21
272.48829723704557
 31
0.0
  0
LINE
  8
DETAIL
  6
CONTINUOUS
 62
     5
 10
-260.20739425887052
 20
272.48829723704557
 30
0.0
 11
-260.1314035572093
 21
272.58957731168601
 31
0.0
  0
LINE
  8
DETAIL
  6
CONTINUOUS
 62
     5
 10
-260.1314035572093
 20
272.58957731168601
 30
0.0
 11
-260.05692246828522
 21
272.69170459913988
 31
0.0
  0
LINE
  8
DETAIL
  6
CONTINUOUS
 62
     5
 10
-260.05692246828522
 20
272.69170459913988
 30
0.0
 11
-260.05692246828522
 21
272.69170459913988
 31
0.0
  0
LINE
  8
DETAIL
  6
CONTINUOUS
 62
     5
 10
-260.05692246828522
 20
272.69170459913988
 30
0.0
 11
-259.98378548599089
 21
272.79488525269028
 31
0.0
  0
LINE
  8
DETAIL
  6
CONTINUOUS
 62
     5
 10
-259.98378548599089
 20
272.79488525269028
 30
0.0
 11
-259.91201795656548
 21
272.89908461682148
 31
0.0
  0
LINE
  8
DETAIL
  6
CONTINUOUS
 62
     5
 10
-259.91201795656548
 20
272.89908461682148
 30
0.0
 11
-259.91201795656548
 21
272.89908461682148
 31
0.0
  0
LINE
  8
DETAIL
  6
CONTINUOUS
 62
     5
 10
-259.91201795656548
 20
272.89908461682148
 30
0.0
 11
-259.84168015561931
 21
273.00422396112532
 31
0.0
  0
LINE
  8
DETAIL
  6
CONTINUOUS
 62
     5
 10
-259.84168015561931
 20
273.00422396112532
 30
0.0
 11
-259.77278122390021
 21
273.11028906442448
 31
0.0
  0
LINE
  8
DETAIL
  6
CONTINUOUS
 62
     5
 10
-259.77278122390021
 20
273.11028906442448
 30
0.0
 11
-259.77278122390021
 21
273.11028906442448
 31
0.0
  0
LINE
  8
DETAIL
  6
CONTINUOUS
 62
     5
 10
-259.77278122390021
 20
273.11028906442448
 30
0.0
 11
-259.70532094021632
 21
273.21727752581899
 31
0.0
  0
LINE
  8
DETAIL
  6
CONTINUOUS
 62
     5
 10
-259.70532094021632
 20
273.21727752581899
 30
0.0
 11
-259.63931277047891
 21
273.32516971628229
 31
0.0
  0
LINE
  8
DETAIL
  6
CONTINUOUS
 62
     5
 10
-259.63931277047891
 20
273.32516971628229
 30
0.0
 11
-259.63931277047891
 21
273.32516971628229
 31
0.0
  0
LINE
  8
DETAIL
  6
CONTINUOUS
 62
     5
 10
-259.63931277047891
 20
273.32516971628229
 30
0.0
 11
-259.57477269898851
 21
273.43394280057493
 31
0.0
  0
LINE
  8
DETAIL
  6
CONTINUOUS
 62
     5
 10
-259.57477269898851
 20
273.43394280057493
 30
0.0
 11
-259.51171309649021
 21
273.54357834673061
 31
0.0
  0
LINE
  8
DETAIL
  6
CONTINUOUS
 62
     5
 10
-259.51171309649021
 20
273.54357834673061
 30
0.0
 11
-259.51171309649021
 21
273.54357834673061
 31
0.0
  0
LINE
  8
DETAIL
  6
CONTINUOUS
 62
     5
 10
-259.51171309649021
 20
273.54357834673061
 30
0.0
 11
-259.45014505084248
 21
273.65405872214569
 31
0.0
  0
LINE
  8
DETAIL
  6
CONTINUOUS
 62
     5
 10
-259.45014505084248
 20
273.65405872214569
 30
0.0
 11
-259.39007813190648
 21
273.76536508839672
 31
0.0
  0
LINE
  8
DETAIL
  6
CONTINUOUS
 62
     5
 10
-259.39007813190648
 20
273.76536508839672
 30
0.0
 11
-259.39007813190648
 21
273.76536508839672
 31
0.0
  0
LINE
  8
DETAIL
  6
CONTINUOUS
 62
     5
 10
-259.39007813190648
 20
273.76536508839672
 30
0.0
 11
-259.33152196089048
 21
273.87747704682653
 31
0.0
  0
LINE
  8
DETAIL
  6
CONTINUOUS
 62
     5
 10
-259.33152196089048
 20
273.87747704682653
 30
0.0
 11
-259.27448788239172
 21
273.99036916366839
 31
0.0
  0
LINE
  8
DETAIL
  6
CONTINUOUS
 62
     5
 10
-259.27448788239172
 20
273.99036916366839
 30
0.0
 11
-259.27448788239172
 21
273.99036916366839
 31
0.0
  0
LINE
  8
DETAIL
  6
CONTINUOUS
 62
     5
 10
-259.27448788239172
 20
273.99036916366839
 30
0.0
 11
-259.21898575182922
 21
274.10401987497971
 31
0.0
  0
LINE
  8
DETAIL
  6
CONTINUOUS
 62
     5
 10
-259.21898575182922
 20
274.10401987497971
 30
0.0
 11
-259.16501774452883
 21
274.21842813122362
 31
0.0
  0
LINE
  8
DETAIL
  6
CONTINUOUS
 62
     5
 10
-259.16501774452883
 20
274.21842813122362
 30
0.0
 11
-259.16501774452883
 21
274.21842813122362
 31
0.0
  0
LINE
  8
DETAIL
  6
CONTINUOUS
 62
     5
 10
-259.16501774452883
 20
274.21842813122362
 30
0.0
 11
-259.11259136503918
 21
274.33357875583607
 31
0.0
  0
LINE
  8
DETAIL
  6
CONTINUOUS
 62
     5
 10
-259.11259136503918
 20
274.33357875583607
 30
0.0
 11
-259.06174311490207
 21
274.44937954973938
 31
0.0
  0
LINE
  8
DETAIL
  6
CONTINUOUS
 62
     5
 10
-259.06174311490207
 20
274.44937954973938
 30
0.0
 11
-259.06174311490207
 21
274.44937954973938
 31
0.0
  0
LINE
  8
DETAIL
  6
CONTINUOUS
 62
     5
 10
-259.06174311490207
 20
274.44937954973938
 30
0.0
 11
-259.01248966793838
 21
274.56579095213942
 31
0.0
  0
LINE
  8
DETAIL
  6
CONTINUOUS
 62
     5
 10
-259.01248966793838
 20
274.56579095213942
 30
0.0
 11
-258.96473939009428
 21
274.68306097789349
 31
0.0
  0
LINE
  8
DETAIL
  6
CONTINUOUS
 62
     5
 10
-258.96473939009428
 20
274.68306097789349
 30
0.0
 11
-258.96473939009428
 21
274.68306097789349
 31
0.0
  0
LINE
  8
DETAIL
  6
CONTINUOUS
 62
     5
 10
-258.96473939009428
 20
274.68306097789349
 30
0.0
 11
-258.91841686965898
 21
274.80139563081809
 31
0.0
  0
LINE
  8
DETAIL
  6
CONTINUOUS
 62
     5
 10
-258.91841686965898
 20
274.80139563081809
 30
0.0
 11
-258.8736198921581
 21
274.92054529491702
 31
0.0
  0
LINE
  8
DETAIL
  6
CONTINUOUS
 62
     5
 10
-258.8736198921581
 20
274.92054529491702
 30
0.0
 11
-258.8736198921581
 21
274.92054529491702
 31
0.0
  0
LINE
  8
DETAIL
  6
CONTINUOUS
 62
     5
 10
-258.8736198921581
 20
274.92054529491702
 30
0.0
 11
-258.83046422101671
 21
275.04021835460208
 31
0.0
  0
LINE
  8
DETAIL
  6
CONTINUOUS
 62
     5
 10
-258.83046422101671
 20
275.04021835460208
 30
0.0
 11
-258.78896433400769
 21
275.16041081573462
 31
0.0
  0
LINE
  8
DETAIL
  6
CONTINUOUS
 62
     5
 10
-258.78896433400769
 20
275.16041081573462
 30
0.0
 11
-258.78896433400769
 21
275.16041081573462
 31
0.0
  0
LINE
  8
DETAIL
  6
CONTINUOUS
 62
     5
 10
-258.78896433400769
 20
275.16041081573462
 30
0.0
 11
-258.74910128611788
 21
275.28116791863317
 31
0.0
  0
LINE
  8
DETAIL
  6
CONTINUOUS
 62
     5
 10
-258.74910128611788
 20
275.28116791863317
 30
0.0
 11
-258.7108237268435
 21
275.40244421999148
 31
0.0
  0
LINE
  8
DETAIL
  6
CONTINUOUS
 62
     5
 10
-258.7108237268435
 20
275.40244421999148
 30
0.0
 11
-258.7108237268435
 21
275.40244421999148
 31
0.0
  0
LINE
  8
DETAIL
  6
CONTINUOUS
 62
     5
 10
-258.7108237268435
 20
275.40244421999148
 30
0.0
 11
-258.67412993121138
 21
275.5241903838596
 31
0.0
  0
LINE
  8
DETAIL
  6
CONTINUOUS
 62
     5
 10
-258.67412993121138
 20
275.5241903838596
 30
0.0
 11
-258.63924908186641
 21
275.64643218733238
 31
0.0
  0
LINE
  8
DETAIL
  6
CONTINUOUS
 62
     5
 10
-258.63924908186641
 20
275.64643218733238
 30
0.0
 11
-258.63924908186641
 21
275.64643218733238
 31
0.0
  0
LINE
  8
DETAIL
  6
CONTINUOUS
 62
     5
 10
-258.63924908186641
 20
275.64643218733238
 30
0.0
 11
-258.6062452821127
 21
275.76916174362708
 31
0.0
  0
LINE
  8
DETAIL
  6
CONTINUOUS
 62
     5
 10
-258.6062452821127
 20
275.76916174362708
 30
0.0
 11
-258.5742914102766
 21
275.89216139740262
 31
0.0
  0
LINE
  8
DETAIL
  6
CONTINUOUS
 62
     5
 10
-275.89216139817898
 20
258.57429140950012
 30
0.0
 11
-275.76916221378269
 21
258.60624515469772
 31
0.0
  0
LINE
  8
DETAIL
  6
CONTINUOUS
 62
     5
 10
-275.76916221378269
 20
258.60624515469772
 30
0.0
 11
-275.64643312468411
 21
258.63924881982172
 31
0.0
  0
LINE
  8
DETAIL
  6
CONTINUOUS
 62
     5
 10
-275.64643312468411
 20
258.63924881982172
 30
0.0
 11
-275.64643312468411
 21
258.63924881982172
 31
0.0
  0
LINE
  8
DETAIL
  6
CONTINUOUS
 62
     5
 10
-275.64643312468411
 20
258.63924881982172
 30
0.0
 11
-275.52419178454812
 21
258.67412952021323
 31
0.0
  0
LINE
  8
DETAIL
  6
CONTINUOUS
 62
     5
 10
-275.52419178454812
 20
258.67412952021323
 30
0.0
 11
-275.40244608050563
 21
258.71082315286839
 31
0.0
  0
LINE
  8
DETAIL
  6
CONTINUOUS
 62
     5
 10
-275.40244608050563
 20
258.71082315286839
 30
0.0
 11
-275.40244608050563
 21
258.71082315286839
 31
0.0
  0
LINE
  8
DETAIL
  6
CONTINUOUS
 62
     5
 10
-275.40244608050563
 20
258.71082315286839
 30
0.0
 11
-275.28117023565648
 21
258.74910053687938
 31
0.0
  0
LINE
  8
DETAIL
  6
CONTINUOUS
 62
     5
 10
-275.28117023565648
 20
258.74910053687938
 30
0.0
 11
-275.16041358350623
 21
258.78896339806118
 31
0.0
  0
LINE
  8
DETAIL
  6
CONTINUOUS
 62
     5
 10
-275.16041358350623
 20
258.78896339806118
 30
0.0
 11
-275.16041358350623
 21
258.78896339806118
 31
0.0
  0
LINE
  8
DETAIL
  6
CONTINUOUS
 62
     5
 10
-275.16041358350623
 20
258.78896339806118
 30
0.0
 11
-275.04022156638831
 21
258.8304630867724
 31
0.0
  0
LINE
  8
DETAIL
  6
CONTINUOUS
 62
     5
 10
-275.04022156638831
 20
258.8304630867724
 30
0.0
 11
-274.92054895154678
 21
258.87361854482242
 31
0.0
  0
LINE
  8
DETAIL
  6
CONTINUOUS
 62
     5
 10
-274.92054895154678
 20
258.87361854482242
 30
0.0
 11
-274.92054895154678
 21
258.87361854482242
 31
0.0
  0
LINE
  8
DETAIL
  6
CONTINUOUS
 62
     5
 10
-274.92054895154678
 20
258.87361854482242
 30
0.0
 11
-274.80139973494261
 21
258.91841529375199
 31
0.0
  0
LINE
  8
DETAIL
  6
CONTINUOUS
 62
     5
 10
-274.80139973494261
 20
258.91841529375199
 30
0.0
 11
-274.68306550249031
 21
258.96473758257372
 31
0.0
  0
LINE
  8
DETAIL
  6
CONTINUOUS
 62
     5
 10
-274.68306550249031
 20
258.96473758257372
 30
0.0
 11
-274.68306550249031
 21
258.96473758257372
 31
0.0
  0
LINE
  8
DETAIL
  6
CONTINUOUS
 62
     5
 10
-274.68306550249031
 20
258.96473758257372
 30
0.0
 11
-274.56579584490783
 21
259.01248763661681
 31
0.0
  0
LINE
  8
DETAIL
  6
CONTINUOUS
 62
     5
 10
-274.56579584490783
 20
259.01248763661681
 30
0.0
 11
-274.44938478216568
 21
259.06174085900471
 31
0.0
  0
LINE
  8
DETAIL
  6
CONTINUOUS
 62
     5
 10
-274.44938478216568
 20
259.06174085900471
 30
0.0
 11
-274.44938478216568
 21
259.06174085900471
 31
0.0
  0
LINE
  8
DETAIL
  6
CONTINUOUS
 62
     5
 10
-274.44938478216568
 20
259.06174085900471
 30
0.0
 11
-274.3335843289592
 21
259.11258887252922
 31
0.0
  0
LINE
  8
DETAIL
  6
CONTINUOUS
 62
     5
 10
-274.3335843289592
 20
259.11258887252922
 30
0.0
 11
-274.21843404962527
 21
259.16501500086281
 31
0.0
  0
LINE
  8
DETAIL
  6
CONTINUOUS
 62
     5
 10
-274.21843404962527
 20
259.16501500086281
 30
0.0
 11
-274.21843404962527
 21
259.16501500086281
 31
0.0
  0
LINE
  8
DETAIL
  6
CONTINUOUS
 62
     5
 10
-274.21843404962527
 20
259.16501500086281
 30
0.0
 11
-274.10402613653582
 21
259.21898274478252
 31
0.0
  0
LINE
  8
DETAIL
  6
CONTINUOUS
 62
     5
 10
-274.10402613653582
 20
259.21898274478252
 30
0.0
 11
-273.99037574455127
 21
259.27448461260587
 31
0.0
  0
LINE
  8
DETAIL
  6
CONTINUOUS
 62
     5
 10
-273.99037574455127
 20
259.27448461260587
 30
0.0
 11
-273.99037574455127
 21
259.27448461260587
 31
0.0
  0
LINE
  8
DETAIL
  6
CONTINUOUS
 62
     5
 10
-273.99037574455127
 20
259.27448461260587
 30
0.0
 11
-273.87748391925578
 21
259.33151843177512
 31
0.0
  0
LINE
  8
DETAIL
  6
CONTINUOUS
 62
     5
 10
-273.87748391925578
 20
259.33151843177512
 30
0.0
 11
-273.76537230662461
 21
259.39007429869292
 31
0.0
  0
LINE
  8
DETAIL
  6
CONTINUOUS
 62
     5
 10
-273.76537230662461
 20
259.39007429869292
 30
0.0
 11
-273.76537230662461
 21
259.39007429869292
 31
0.0
  0
LINE
  8
DETAIL
  6
CONTINUOUS
 62
     5
 10
-273.76537230662461
 20
259.39007429869292
 30
0.0
 11
-273.65406636171627
 21
259.45014085615708
 31
0.0
  0
LINE
  8
DETAIL
  6
CONTINUOUS
 62
     5
 10
-273.65406636171627
 20
259.45014085615708
 30
0.0
 11
-273.54358617552703
 21
259.51170866358268
 31
0.0
  0
LINE
  8
DETAIL
  6
CONTINUOUS
 62
     5
 10
-273.54358617552703
 20
259.51170866358268
 30
0.0
 11
-273.54358617552703
 21
259.51170866358268
 31
0.0
  0
LINE
  8
DETAIL
  6
CONTINUOUS
 62
     5
 10
-273.54358617552703
 20
259.51170866358268
 30
0.0
 11
-273.4339503277165
 21
259.57476830579282
 31
0.0
  0
LINE
  8
DETAIL
  6
CONTINUOUS
 62
     5
 10
-273.4339503277165
 20
259.57476830579282
 30
0.0
 11
-273.32517671666187
 21
259.63930855262328
 31
0.0
  0
LINE
  8
DETAIL
  6
CONTINUOUS
 62
     5
 10
-273.32517671666187
 20
259.63930855262328
 30
0.0
 11
-273.32517671666187
 21
259.63930855262328
 31
0.0
  0
LINE
  8
DETAIL
  6
CONTINUOUS
 62
     5
 10
-273.32517671666187
 20
259.63930855262328
 30
0.0
 11
-273.21728408750442
 21
259.70531686244072
 31
0.0
  0
LINE
  8
DETAIL
  6
CONTINUOUS
 62
     5
 10
-273.21728408750442
 20
259.70531686244072
 30
0.0
 11
-273.1102952537201
 21
259.77277726271478
 31
0.0
  0
LINE
  8
DETAIL
  6
CONTINUOUS
 62
     5
 10
-273.1102952537201
 20
259.77277726271478
 30
0.0
 11
-273.1102952537201
 21
259.77277726271478
 31
0.0
  0
LINE
  8
DETAIL
  6
CONTINUOUS
 62
     5
 10
-273.1102952537201
 20
259.77277726271478
 30
0.0
 11
-273.0042297608195
 21
259.84167633308738
 31
0.0
  0
LINE
  8
DETAIL
  6
CONTINUOUS
 62
     5
 10
-273.0042297608195
 20
259.84167633308738
 30
0.0
 11
-272.89909001411007
 21
259.91201429278271
 31
0.0
  0
LINE
  8
DETAIL
  6
CONTINUOUS
 62
     5
 10
-272.89909001411007
 20
259.91201429278271
 30
0.0
 11
-272.89909001411007
 21
259.91201429278271
 31
0.0
  0
LINE
  8
DETAIL
  6
CONTINUOUS
 62
     5
 10
-272.89909001411007
 20
259.91201429278271
 30
0.0
 11
-272.79489025696762
 21
259.98378198906153
 31
0.0
  0
LINE
  8
DETAIL
  6
CONTINUOUS
 62
     5
 10
-272.79489025696762
 20
259.98378198906153
 30
0.0
 11
-272.69170922524057
 21
260.05691914175299
 31
0.0
  0
LINE
  8
DETAIL
  6
CONTINUOUS
 62
     5
 10
-272.69170922524057
 20
260.05691914175299
 30
0.0
 11
-272.69170922524057
 21
260.05691914175299
 31
0.0
  0
LINE
  8
DETAIL
  6
CONTINUOUS
 62
     5
 10
-272.69170922524057
 20
260.05691914175299
 30
0.0
 11
-272.58958157047232
 21
260.13140040636608
 31
0.0
  0
LINE
  8
DETAIL
  6
CONTINUOUS
 62
     5
 10
-272.58958157047232
 20
260.13140040636608
 30
0.0
 11
-272.4883011145198
 21
260.20739130855202
 31
0.0
  0
LINE
  8
DETAIL
  6
CONTINUOUS
 62
     5
 10
-272.4883011145198
 20
260.20739130855202
 30
0.0
 11
-272.4883011145198
 21
260.20739130855202
 31
0.0
  0
LINE
  8
DETAIL
  6
CONTINUOUS
 62
     5
 10
-272.4883011145198
 20
260.20739130855202
 30
0.0
 11
-272.38769720428382
 21
260.28502969612151
 31
0.0
  0
LINE
  8
DETAIL
  6
CONTINUOUS
 62
     5
 10
-272.38769720428382
 20
260.28502969612151
 30
0.0
 11
-272.28798211653361
 21
260.3641518353661
 31
0.0
  0
LINE
  8
DETAIL
  6
CONTINUOUS
 62
     5
 10
-272.28798211653361
 20
260.3641518353661
 30
0.0
 11
-272.28798211653361
 21
260.3641518353661
 31
0.0
  0
LINE
  8
DETAIL
  6
CONTINUOUS
 62
     5
 10
-272.28798211653361
 20
260.3641518353661
 30
0.0
 11
-272.18940515257009
 21
260.44456722778091
 31
0.0
  0
LINE
  8
DETAIL
  6
CONTINUOUS
 62
     5
 10
-272.18940515257009
 20
260.44456722778091
 30
0.0
 11
-272.09198078194942
 21
260.52627989717962
 31
0.0
  0
LINE
  8
DETAIL
  6
CONTINUOUS
 62
     5
 10
-272.09198078194942
 20
260.52627989717962
 30
0.0
 11
-272.09198078194942
 21
260.52627989717962
 31
0.0
  0
LINE
  8
DETAIL
  6
CONTINUOUS
 62
     5
 10
-272.09198078194942
 20
260.52627989717962
 30
0.0
 11
-271.99566948350622
 21
260.60931888969378
 31
0.0
  0
LINE
  8
DETAIL
  6
CONTINUOUS
 62
     5
 10
-271.99566948350622
 20
260.60931888969378
 30
0.0
 11
-271.90045060493532
 21
260.69361881839842
 31
0.0
  0
LINE
  8
DETAIL
  6
CONTINUOUS
 62
     5
 10
-271.90045060493532
 20
260.69361881839842
 30
0.0
 11
-271.90045060493532
 21
260.69361881839842
 31
0.0
  0
LINE
  8
DETAIL
  6
CONTINUOUS
 62
     5
 10
-271.90045060493532
 20
260.69361881839842
 30
0.0
 11
-271.80634805022208
 21
260.77913649058002
 31
0.0
  0
LINE
  8
DETAIL
  6
CONTINUOUS
 62
     5
 10
-271.80634805022208
 20
260.77913649058002
 30
0.0
 11
-271.71354507965981
 21
260.86601192342772
 31
0.0
  0
LINE
  8
DETAIL
  6
CONTINUOUS
 62
     5
 10
-271.71354507965981
 20
260.86601192342772
 30
0.0
 11
-271.71354507965981
 21
260.86601192342772
 31
0.0
  0
LINE
  8
DETAIL
  6
CONTINUOUS
 62
     5
 10
-271.71354507965981
 20
260.86601192342772
 30
0.0
 11
-271.6221007190959
 21
260.95427133496838
 31
0.0
  0
LINE
  8
DETAIL
  6
CONTINUOUS
 62
     5
 10
-271.6221007190959
 20
260.95427133496838
 30
0.0
 11
-271.53141770029168
 21
261.04330253667439
 31
0.0
  0
LINE
  8
DETAIL
  6
CONTINUOUS
 62
     5
 10
-269.73915355710011
 20
257.87782285063417
 30
0.0
 11
-269.82983657590398
 21
257.78879164892828
 31
0.0
  0
LINE
  8
DETAIL
  6
CONTINUOUS
 62
     5
 10
-269.82983657590398
 20
257.78879164892828
 30
0.0
 11
-269.92128093646812
 21
257.70053223738762
 31
0.0
  0
LINE
  8
DETAIL
  6
CONTINUOUS
 62
     5
 10
-269.92128093646812
 20
257.70053223738762
 30
0.0
 11
-269.92128093646812
 21
257.70053223738762
 31
0.0
  0
LINE
  8
DETAIL
  6
CONTINUOUS
 62
     5
 10
-269.92128093646812
 20
257.70053223738762
 30
0.0
 11
-270.01408390703028
 21
257.61365680453969
 31
0.0
  0
LINE
  8
DETAIL
  6
CONTINUOUS
 62
     5
 10
-270.01408390703028
 20
257.61365680453969
 30
0.0
 11
-270.10818646174329
 21
257.52813913235809
 31
0.0
  0
LINE
  8
DETAIL
  6
CONTINUOUS
 62
     5
 10
-270.10818646174329
 20
257.52813913235809
 30
0.0
 11
-270.10818646174329
 21
257.52813913235809
 31
0.0
  0
LINE
  8
DETAIL
  6
CONTINUOUS
 62
     5
 10
-270.10818646174329
 20
257.52813913235809
 30
0.0
 11
-270.20340534031448
 21
257.44383920365362
 31
0.0
  0
LINE
  8
DETAIL
  6
CONTINUOUS
 62
     5
 10
-270.20340534031448
 20
257.44383920365362
 30
0.0
 11
-270.29971663875739
 21
257.36080021113958
 31
0.0
  0
LINE
  8
DETAIL
  6
CONTINUOUS
 62
     5
 10
-270.29971663875739
 20
257.36080021113958
 30
0.0
 11
-270.29971663875739
 21
257.36080021113958
 31
0.0
  0
LINE
  8
DETAIL
  6
CONTINUOUS
 62
     5
 10
-270.29971663875739
 20
257.36080021113958
 30
0.0
 11
-270.39714100937857
 21
257.27908754174092
 31
0.0
  0
LINE
  8
DETAIL
  6
CONTINUOUS
 62
     5
 10
-270.39714100937857
 20
257.27908754174092
 30
0.0
 11
-270.49571797334221
 21
257.19867214932611
 31
0.0
  0
LINE
  8
DETAIL
  6
CONTINUOUS
 62
     5
 10
-270.49571797334221
 20
257.19867214932611
 30
0.0
 11
-270.49571797334221
 21
257.19867214932611
 31
0.0
  0
LINE
  8
DETAIL
  6
CONTINUOUS
 62
     5
 10
-270.49571797334221
 20
257.19867214932611
 30
0.0
 11
-270.59543306109191
 21
257.11955001008101
 31
0.0
  0
LINE
  8
DETAIL
  6
CONTINUOUS
 62
     5
 10
-270.59543306109191
 20
257.11955001008101
 30
0.0
 11
-270.69603697132811
 21
257.04191162251192
 31
0.0
  0
LINE
  8
DETAIL
  6
CONTINUOUS
 62
     5
 10
-270.69603697132811
 20
257.04191162251192
 30
0.0
 11
-270.69603697132811
 21
257.04191162251192
 31
0.0
  0
LINE
  8
DETAIL
  6
CONTINUOUS
 62
     5
 10
-270.69603697132811
 20
257.04191162251192
 30
0.0
 11
-270.79731742728092
 21
256.96592072032558
 31
0.0
  0
LINE
  8
DETAIL
  6
CONTINUOUS
 62
     5
 10
-270.79731742728092
 20
256.96592072032558
 30
0.0
 11
-270.89944508204889
 21
256.89143945571283
 31
0.0
  0
LINE
  8
DETAIL
  6
CONTINUOUS
 62
     5
 10
-270.89944508204889
 20
256.89143945571283
 30
0.0
 11
-270.89944508204889
 21
256.89143945571283
 31
0.0
  0
LINE
  8
DETAIL
  6
CONTINUOUS
 62
     5
 10
-270.89944508204889
 20
256.89143945571283
 30
0.0
 11
-271.00262611377639
 21
256.81830230302103
 31
0.0
  0
LINE
  8
DETAIL
  6
CONTINUOUS
 62
     5
 10
-271.00262611377639
 20
256.81830230302103
 30
0.0
 11
-271.10682587091861
 21
256.74653460674227
 31
0.0
  0
LINE
  8
DETAIL
  6
CONTINUOUS
 62
     5
 10
-271.10682587091861
 20
256.74653460674227
 30
0.0
 11
-271.10682587091861
 21
256.74653460674227
 31
0.0
  0
LINE
  8
DETAIL
  6
CONTINUOUS
 62
     5
 10
-271.10682587091861
 20
256.74653460674227
 30
0.0
 11
-271.21196561762781
 21
256.67619664704728
 31
0.0
  0
LINE
  8
DETAIL
  6
CONTINUOUS
 62
     5
 10
-271.21196561762781
 20
256.67619664704728
 30
0.0
 11
-271.31803111052841
 21
256.60729757667468
 31
0.0
  0
LINE
  8
DETAIL
  6
CONTINUOUS
 62
     5
 10
-271.31803111052841
 20
256.60729757667468
 30
0.0
 11
-271.31803111052841
 21
256.60729757667468
 31
0.0
  0
LINE
  8
DETAIL
  6
CONTINUOUS
 62
     5
 10
-271.31803111052841
 20
256.60729757667468
 30
0.0
 11
-271.42501994431251
 21
256.53983717640062
 31
0.0
  0
LINE
  8
DETAIL
  6
CONTINUOUS
 62
     5
 10
-271.42501994431251
 20
256.53983717640062
 30
0.0
 11
-271.53291257347013
 21
256.47382886658329
 31
0.0
  0
LINE
  8
DETAIL
  6
CONTINUOUS
 62
     5
 10
-271.53291257347013
 20
256.47382886658329
 30
0.0
 11
-271.53291257347013
 21
256.47382886658329
 31
0.0
  0
LINE
  8
DETAIL
  6
CONTINUOUS
 62
     5
 10
-271.53291257347013
 20
256.47382886658329
 30
0.0
 11
-271.64168618452481
 21
256.40928861975237
 31
0.0
  0
LINE
  8
DETAIL
  6
CONTINUOUS
 62
     5
 10
-271.64168618452481
 20
256.40928861975237
 30
0.0
 11
-271.75132203233562
 21
256.34622897754252
 31
0.0
  0
LINE
  8
DETAIL
  6
CONTINUOUS
 62
     5
 10
-271.75132203233562
 20
256.34622897754252
 30
0.0
 11
-271.75132203233562
 21
256.34622897754252
 31
0.0
  0
LINE
  8
DETAIL
  6
CONTINUOUS
 62
     5
 10
-271.75132203233562
 20
256.34622897754252
 30
0.0
 11
-271.86180221852447
 21
256.28466117011698
 31
0.0
  0
LINE
  8
DETAIL
  6
CONTINUOUS
 62
     5
 10
-271.86180221852447
 20
256.28466117011698
 30
0.0
 11
-271.97310816343293
 21
256.22459461265288
 31
0.0
  0
LINE
  8
DETAIL
  6
CONTINUOUS
 62
     5
 10
-271.97310816343293
 20
256.22459461265288
 30
0.0
 11
-271.97310816343293
 21
256.22459461265288
 31
0.0
  0
LINE
  8
DETAIL
  6
CONTINUOUS
 62
     5
 10
-271.97310816343293
 20
256.22459461265288
 30
0.0
 11
-272.08521977606392
 21
256.16603874573502
 31
0.0
  0
LINE
  8
DETAIL
  6
CONTINUOUS
 62
     5
 10
-272.08521977606392
 20
256.16603874573502
 30
0.0
 11
-272.19811160135941
 21
256.10900492656572
 31
0.0
  0
LINE
  8
DETAIL
  6
CONTINUOUS
 62
     5
 10
-272.19811160135941
 20
256.10900492656572
 30
0.0
 11
-272.19811160135941
 21
256.10900492656572
 31
0.0
  0
LINE
  8
DETAIL
  6
CONTINUOUS
 62
     5
 10
-272.19811160135941
 20
256.10900492656572
 30
0.0
 11
-272.31176199334391
 21
256.05350305874231
 31
0.0
  0
LINE
  8
DETAIL
  6
CONTINUOUS
 62
     5
 10
-272.31176199334391
 20
256.05350305874231
 30
0.0
 11
-272.42616990643398
 21
255.9995353148224
 31
0.0
  0
LINE
  8
DETAIL
  6
CONTINUOUS
 62
     5
 10
-272.42616990643398
 20
255.9995353148224
 30
0.0
 11
-272.42616990643398
 21
255.9995353148224
 31
0.0
  0
LINE
  8
DETAIL
  6
CONTINUOUS
 62
     5
 10
-272.42616990643398
 20
255.9995353148224
 30
0.0
 11
-272.54132018576752
 21
255.9471091864888
 31
0.0
  0
LINE
  8
DETAIL
  6
CONTINUOUS
 62
     5
 10
-272.54132018576752
 20
255.9471091864888
 30
0.0
 11
-272.65712063897428
 21
255.89626117296439
 31
0.0
  0
LINE
  8
DETAIL
  6
CONTINUOUS
 62
     5
 10
-272.65712063897428
 20
255.89626117296439
 30
0.0
 11
-272.65712063897428
 21
255.89626117296439
 31
0.0
  0
LINE
  8
DETAIL
  6
CONTINUOUS
 62
     5
 10
-272.65712063897428
 20
255.89626117296439
 30
0.0
 11
-272.77353170171608
 21
255.84700795057691
 31
0.0
  0
LINE
  8
DETAIL
  6
CONTINUOUS
 62
     5
 10
-272.77353170171608
 20
255.84700795057691
 30
0.0
 11
-272.89080135929879
 21
255.79925789653359
 31
0.0
  0
LINE
  8
DETAIL
  6
CONTINUOUS
 62
     5
 10
-272.89080135929879
 20
255.79925789653359
 30
0.0
 11
-272.89080135929879
 21
255.79925789653359
 31
0.0
  0
LINE
  8
DETAIL
  6
CONTINUOUS
 62
     5
 10
-272.89080135929879
 20
255.79925789653359
 30
0.0
 11
-273.00913559175092
 21
255.75293560771181
 31
0.0
  0
LINE
  8
DETAIL
  6
CONTINUOUS
 62
     5
 10
-273.00913559175092
 20
255.75293560771181
 30
0.0
 11
-273.12828480835537
 21
255.70813885878209
 31
0.0
  0
LINE
  8
DETAIL
  6
CONTINUOUS
 62
     5
 10
-273.12828480835537
 20
255.70813885878209
 30
0.0
 11
-273.12828480835537
 21
255.70813885878209
 31
0.0
  0
LINE
  8
DETAIL
  6
CONTINUOUS
 62
     5
 10
-273.12828480835537
 20
255.70813885878209
 30
0.0
 11
-273.24795742319628
 21
255.6649834007321
 31
0.0
  0
LINE
  8
DETAIL
  6
CONTINUOUS
 62
     5
 10
-273.24795742319628
 20
255.6649834007321
 30
0.0
 11
-273.36814944031431
 21
255.62348371202091
 31
0.0
  0
LINE
  8
DETAIL
  6
CONTINUOUS
 62
     5
 10
-273.36814944031431
 20
255.62348371202091
 30
0.0
 11
-273.36814944031431
 21
255.62348371202091
 31
0.0
  0
LINE
  8
DETAIL
  6
CONTINUOUS
 62
     5
 10
-273.36814944031431
 20
255.62348371202091
 30
0.0
 11
-273.48890609246502
 21
255.58362085083911
 31
0.0
  0
LINE
  8
DETAIL
  6
CONTINUOUS
 62
     5
 10
-273.48890609246502
 20
255.58362085083911
 30
0.0
 11
-273.61018193731411
 21
255.54534346682789
 31
0.0
  0
LINE
  8
DETAIL
  6
CONTINUOUS
 62
     5
 10
-273.61018193731411
 20
255.54534346682789
 30
0.0
 11
-273.61018193731411
 21
255.54534346682789
 31
0.0
  0
LINE
  8
DETAIL
  6
CONTINUOUS
 62
     5
 10
-273.61018193731411
 20
255.54534346682789
 30
0.0
 11
-273.73192764135638
 21
255.50864983417301
 31
0.0
  0
LINE
  8
DETAIL
  6
CONTINUOUS
 62
     5
 10
-273.73192764135638
 20
255.50864983417301
 30
0.0
 11
-273.85416898149242
 21
255.4737691337817
 31
0.0
  0
LINE
  8
DETAIL
  6
CONTINUOUS
 62
     5
 10
-273.85416898149242
 20
255.4737691337817
 30
0.0
 11
-273.85416898149242
 21
255.4737691337817
 31
0.0
  0
LINE
  8
DETAIL
  6
CONTINUOUS
 62
     5
 10
-273.85416898149242
 20
255.4737691337817
 30
0.0
 11
-273.97689807059101
 21
255.4407654686577
 31
0.0
  0
LINE
  8
DETAIL
  6
CONTINUOUS
 62
     5
 10
-273.97689807059101
 20
255.4407654686577
 30
0.0
 11
-274.09989725498741
 21
255.40881172345971
 31
0.0
  0
LINE
  8
DETAIL
  6
CONTINUOUS
 62
     5
 10
-255.4088117242363
 20
274.09989725421087
 30
0.0
 11
-255.4407655960722
 21
273.97689760043568
 31
0.0
  0
LINE
  8
DETAIL
  6
CONTINUOUS
 62
     5
 10
-255.4407655960722
 20
273.97689760043568
 30
0.0
 11
-255.473769395825
 21
273.85416804414069
 31
0.0
  0
LINE
  8
DETAIL
  6
CONTINUOUS
 62
     5
 10
-255.473769395825
 20
273.85416804414069
 30
0.0
 11
-255.473769395825
 21
273.85416804414069
 31
0.0
  0
LINE
  8
DETAIL
  6
CONTINUOUS
 62
     5
 10
-255.473769395825
 20
273.85416804414069
 30
0.0
 11
-255.5086502451675
 21
273.73192624066792
 31
0.0
  0
LINE
  8
DETAIL
  6
CONTINUOUS
 62
     5
 10
-255.5086502451675
 20
273.73192624066792
 30
0.0
 11
-255.54534404079479
 21
273.61018007679968
 31
0.0
  0
LINE
  8
DETAIL
  6
CONTINUOUS
 62
     5
 10
-255.54534404079479
 20
273.61018007679968
 30
0.0
 11
-255.54534404079479
 21
273.61018007679968
 31
0.0
  0
LINE
  8
DETAIL
  6
CONTINUOUS
 62
     5
 10
-255.54534404079479
 20
273.61018007679968
 30
0.0
 11
-255.58362160006141
 21
273.48890377544109
 31
0.0
  0
LINE
  8
DETAIL
  6
CONTINUOUS
 62
     5
 10
-255.58362160006141
 20
273.48890377544109
 30
0.0
 11
-255.62348464793899
 21
273.36814667254288
 31
0.0
  0
LINE
  8
DETAIL
  6
CONTINUOUS
 62
     5
 10
-255.62348464793899
 20
273.36814667254288
 30
0.0
 11
-255.62348464793899
 21
273.36814667254288
 31
0.0
  0
LINE
  8
DETAIL
  6
CONTINUOUS
 62
     5
 10
-255.62348464793899
 20
273.36814667254288
 30
0.0
 11
-255.66498453493179
 21
273.24795421141027
 31
0.0
  0
LINE
  8
DETAIL
  6
CONTINUOUS
 62
     5
 10
-255.66498453493179
 20
273.24795421141027
 30
0.0
 11
-255.70814020605121
 21
273.12828115172528
 31
0.0
  0
LINE
  8
DETAIL
  6
CONTINUOUS
 62
     5
 10
-255.70814020605121
 20
273.12828115172528
 30
0.0
 11
-255.70814020605121
 21
273.12828115172528
 31
0.0
  0
LINE
  8
DETAIL
  6
CONTINUOUS
 62
     5
 10
-255.70814020605121
 20
273.12828115172528
 30
0.0
 11
-255.7529371835235
 21
273.00913148762652
 31
0.0
  0
LINE
  8
DETAIL
  6
CONTINUOUS
 62
     5
 10
-255.7529371835235
 20
273.00913148762652
 30
0.0
 11
-255.79925970392401
 21
272.89079683470192
 31
0.0
  0
LINE
  8
DETAIL
  6
CONTINUOUS
 62
     5
 10
-255.79925970392401
 20
272.89079683470192
 30
0.0
 11
-255.79925970392401
 21
272.89079683470192
 31
0.0
  0
LINE
  8
DETAIL
  6
CONTINUOUS
 62
     5
 10
-255.79925970392401
 20
272.89079683470192
 30
0.0
 11
-255.84700998172551
 21
272.77352680894768
 31
0.0
  0
LINE
  8
DETAIL
  6
CONTINUOUS
 62
     5
 10
-255.84700998172551
 20
272.77352680894768
 30
0.0
 11
-255.8962634286415
 21
272.65711540654752
 31
0.0
  0
LINE
  8
DETAIL
  6
CONTINUOUS
 62
     5
 10
-255.8962634286415
 20
272.65711540654752
 30
0.0
 11
-255.8962634286415
 21
272.65711540654752
 31
0.0
  0
LINE
  8
DETAIL
  6
CONTINUOUS
 62
     5
 10
-255.8962634286415
 20
272.65711540654752
 30
0.0
 11
-255.94711167872791
 21
272.54131461264421
 31
0.0
  0
LINE
  8
DETAIL
  6
CONTINUOUS
 62
     5
 10
-255.94711167872791
 20
272.54131461264421
 30
0.0
 11
-255.99953805816611
 21
272.42616398803159
 31
0.0
  0
LINE
  8
DETAIL
  6
CONTINUOUS
 62
     5
 10
-255.99953805816611
 20
272.42616398803159
 30
0.0
 11
-255.99953805816611
 21
272.42616398803159
 31
0.0
  0
LINE
  8
DETAIL
  6
CONTINUOUS
 62
     5
 10
-255.99953805816611
 20
272.42616398803159
 30
0.0
 11
-256.05350606541629
 21
272.31175573178803
 31
0.0
  0
LINE
  8
DETAIL
  6
CONTINUOUS
 62
     5
 10
-256.05350606541629
 20
272.31175573178803
 30
0.0
 11
-256.10900819593257
 21
272.19810502047682
 31
0.0
  0
LINE
  8
DETAIL
  6
CONTINUOUS
 62
     5
 10
-256.10900819593257
 20
272.19810502047682
 30
0.0
 11
-256.10900819593257
 21
272.19810502047682
 31
0.0
  0
LINE
  8
DETAIL
  6
CONTINUOUS
 62
     5
 10
-256.10900819593257
 20
272.19810502047682
 30
0.0
 11
-256.16604227439137
 21
272.08521290363478
 31
0.0
  0
LINE
  8
DETAIL
  6
CONTINUOUS
 62
     5
 10
-256.16604227439137
 20
272.08521290363478
 30
0.0
 11
-256.22459844537588
 21
271.97310094520498
 31
0.0
  0
LINE
  8
DETAIL
  6
CONTINUOUS
 62
     5
 10
-256.22459844537588
 20
271.97310094520498
 30
0.0
 11
-256.22459844537588
 21
271.97310094520498
 31
0.0
  0
LINE
  8
DETAIL
  6
CONTINUOUS
 62
     5
 10
-256.22459844537588
 20
271.97310094520498
 30
0.0
 11
-256.28466536429158
 21
271.86179457895372
 31
0.0
  0
LINE
  8
DETAIL
  6
CONTINUOUS
 62
     5
 10
-256.28466536429158
 20
271.86179457895372
 30
0.0
 11
-256.34623340993181
 21
271.75131420353893
 31
0.0
  0
LINE
  8
DETAIL
  6
CONTINUOUS
 62
     5
 10
-256.34623340993181
 20
271.75131420353893
 30
0.0
 11
-256.34623340993181
 21
271.75131420353893
 31
0.0
  0
LINE
  8
DETAIL
  6
CONTINUOUS
 62
     5
 10
-256.34623340993181
 20
271.75131420353893
 30
0.0
 11
-256.40929301243727
 21
271.64167865738352
 31
0.0
  0
LINE
  8
DETAIL
  6
CONTINUOUS
 62
     5
 10
-256.40929301243727
 20
271.64167865738352
 30
0.0
 11
-256.47383308394848
 21
271.53290557309111
 31
0.0
  0
LINE
  8
DETAIL
  6
CONTINUOUS
 62
     5
 10
-256.47383308394848
 20
271.53290557309111
 30
0.0
 11
-256.47383308394848
 21
271.53290557309111
 31
0.0
  0
LINE
  8
DETAIL
  6
CONTINUOUS
 62
     5
 10
-256.47383308394848
 20
271.53290557309111
 30
0.0
 11
-256.53984125371721
 21
271.42501338262758
 31
0.0
  0
LINE
  8
DETAIL
  6
CONTINUOUS
 62
     5
 10
-256.53984125371721
 20
271.42501338262758
 30
0.0
 11
-256.60730153744112
 21
271.31802492123262
 31
0.0
  0
LINE
  8
DETAIL
  6
CONTINUOUS
 62
     5
 10
-256.60730153744112
 20
271.31802492123262
 30
0.0
 11
-256.60730153744112
 21
271.31802492123262
 31
0.0
  0
LINE
  8
DETAIL
  6
CONTINUOUS
 62
     5
 10
-256.60730153744112
 20
271.31802492123262
 30
0.0
 11
-256.67620046920661
 21
271.21195981793329
 31
0.0
  0
LINE
  8
DETAIL
  6
CONTINUOUS
 62
     5
 10
-256.67620046920661
 20
271.21195981793329
 30
0.0
 11
-256.74653827020228
 21
271.10682047362991
 31
0.0
  0
LINE
  8
DETAIL
  6
CONTINUOUS
 62
     5
 10
-256.74653827020228
 20
271.10682047362991
 30
0.0
 11
-256.74653827020228
 21
271.10682047362991
 31
0.0
  0
LINE
  8
DETAIL
  6
CONTINUOUS
 62
     5
 10
-256.74653827020228
 20
271.10682047362991
 30
0.0
 11
-256.81830579967959
 21
271.00262110949848
 31
0.0
  0
LINE
  8
DETAIL
  6
CONTINUOUS
 62
     5
 10
-256.81830579967959
 20
271.00262110949848
 30
0.0
 11
-256.8914427820248
 21
270.89944045594802
 31
0.0
  0
LINE
  8
DETAIL
  6
CONTINUOUS
 62
     5
 10
-256.8914427820248
 20
270.89944045594802
 30
0.0
 11
-256.8914427820248
 21
270.89944045594802
 31
0.0
  0
LINE
  8
DETAIL
  6
CONTINUOUS
 62
     5
 10
-256.8914427820248
 20
270.89944045594802
 30
0.0
 11
-256.96592387099668
 21
270.79731316849438
 31
0.0
  0
LINE
  8
DETAIL
  6
CONTINUOUS
 62
     5
 10
-256.96592387099668
 20
270.79731316849438
 30
0.0
 11
-257.04191457270031
 21
270.69603309385388
 31
0.0
  0
LINE
  8
DETAIL
  6
CONTINUOUS
 62
     5
 10
-257.04191457270031
 20
270.69603309385388
 30
0.0
 11
-257.04191457270031
 21
270.69603309385388
 31
0.0
  0
LINE
  8
DETAIL
  6
CONTINUOUS
 62
     5
 10
-257.04191457270031
 20
270.69603309385388
 30
0.0
 11
-257.11955271896448
 21
270.59542959853138
 31
0.0
  0
LINE
  8
DETAIL
  6
CONTINUOUS
 62
     5
 10
-257.11955271896448
 20
270.59542959853138
 30
0.0
 11
-257.19867459216471
 21
270.49571493698318
 31
0.0
  0
LINE
  8
DETAIL
  6
CONTINUOUS
 62
     5
 10
-257.19867459216471
 20
270.49571493698318
 30
0.0
 11
-257.19867459216471
 21
270.49571493698318
 31
0.0
  0
LINE
  8
DETAIL
  6
CONTINUOUS
 62
     5
 10
-257.19867459216471
 20
270.49571493698318
 30
0.0
 11
-257.27908971282858
 21
270.39713838458272
 31
0.0
  0
LINE
  8
DETAIL
  6
CONTINUOUS
 62
     5
 10
-257.27908971282858
 20
270.39713838458272
 30
0.0
 11
-257.36080210355112
 21
270.29971441241571
 31
0.0
  0
LINE
  8
DETAIL
  6
CONTINUOUS
 62
     5
 10
-257.36080210355112
 20
270.29971441241571
 30
0.0
 11
-257.36080210355112
 21
270.29971441241571
 31
0.0
  0
LINE
  8
DETAIL
  6
CONTINUOUS
 62
     5
 10
-257.36080210355112
 20
270.29971441241571
 30
0.0
 11
-257.44384080561582
 21
270.20340350595762
 31
0.0
  0
LINE
  8
DETAIL
  6
CONTINUOUS
 62
     5
 10
-257.44384080561582
 20
270.20340350595762
 30
0.0
 11
-257.52814043299901
 21
270.10818501253073
 31
0.0
  0
LINE
  8
DETAIL
  6
CONTINUOUS
 62
     5
 10
-257.52814043299901
 20
270.10818501253073
 30
0.0
 11
-257.52814043299901
 21
270.10818501253073
 31
0.0
  0
LINE
  8
DETAIL
  6
CONTINUOUS
 62
     5
 10
-257.52814043299901
 20
270.10818501253073
 30
0.0
 11
-257.61365779464091
 21
270.01408283414372
 31
0.0
  0
LINE
  8
DETAIL
  6
CONTINUOUS
 62
     5
 10
-257.61365779464091
 20
270.01408283414372
 30
0.0
 11
-257.70053290664708
 21
269.92128022970678
 31
0.0
  0
LINE
  8
DETAIL
  6
CONTINUOUS
 62
     5
 10
-257.70053290664708
 20
269.92128022970678
 30
0.0
 11
-257.70053290664708
 21
269.92128022970678
 31
0.0
  0
LINE
  8
DETAIL
  6
CONTINUOUS
 62
     5
 10
-257.70053290664708
 20
269.92128022970678
 30
0.0
 11
-257.78879198657552
 21
269.82983622499358
 31
0.0
  0
LINE
  8
DETAIL
  6
CONTINUOUS
 62
     5
 10
-257.78879198657552
 20
269.82983622499358
 30
0.0
 11
-257.87782285063417
 21
269.73915355632357
 31
0.0
  0
LINE
  8
DETAIL
  6
CONTINUOUS
 62
     5
 10
258.57429141027683
 20
275.89216139740262
 30
0.0
 11
258.60624515545919
 21
275.76916221320812
 31
0.0
  0
LINE
  8
DETAIL
  6
CONTINUOUS
 62
     5
 10
258.60624515545919
 20
275.76916221320812
 30
0.0
 11
258.6392488205563
 21
275.64643312428552
 31
0.0
  0
LINE
  8
DETAIL
  6
CONTINUOUS
 62
     5
 10
258.6392488205563
 20
275.64643312428552
 30
0.0
 11
258.6392488205563
 21
275.64643312428552
 31
0.0
  0
LINE
  8
DETAIL
  6
CONTINUOUS
 62
     5
 10
258.6392488205563
 20
275.64643312428552
 30
0.0
 11
258.67412952090137
 21
275.52419178428039
 31
0.0
  0
LINE
  8
DETAIL
  6
CONTINUOUS
 62
     5
 10
258.67412952090137
 20
275.52419178428039
 30
0.0
 11
258.71082315349548
 21
275.40244608032981
 31
0.0
  0
LINE
  8
DETAIL
  6
CONTINUOUS
 62
     5
 10
258.71082315349548
 20
275.40244608032981
 30
0.0
 11
258.71082315349548
 21
275.40244608032981
 31
0.0
  0
LINE
  8
DETAIL
  6
CONTINUOUS
 62
     5
 10
258.71082315349548
 20
275.40244608032981
 30
0.0
 11
258.74910053743662
 21
275.28117023554262
 31
0.0
  0
LINE
  8
DETAIL
  6
CONTINUOUS
 62
     5
 10
258.74910053743662
 20
275.28117023554262
 30
0.0
 11
258.7889633985435
 21
275.16041358342812
 31
0.0
  0
LINE
  8
DETAIL
  6
CONTINUOUS
 62
     5
 10
258.7889633985435
 20
275.16041358342812
 30
0.0
 11
258.7889633985435
 21
275.16041358342812
 31
0.0
  0
LINE
  8
DETAIL
  6
CONTINUOUS
 62
     5
 10
258.7889633985435
 20
275.16041358342812
 30
0.0
 11
258.83046308717729
 21
275.04022156632249
 31
0.0
  0
LINE
  8
DETAIL
  6
CONTINUOUS
 62
     5
 10
258.83046308717729
 20
275.04022156632249
 30
0.0
 11
258.87361854515098
 21
274.92054895147407
 31
0.0
  0
LINE
  8
DETAIL
  6
CONTINUOUS
 62
     5
 10
258.87361854515098
 20
274.92054895147407
 30
0.0
 11
258.87361854515098
 21
274.92054895147407
 31
0.0
  0
LINE
  8
DETAIL
  6
CONTINUOUS
 62
     5
 10
258.87361854515098
 20
274.92054895147407
 30
0.0
 11
258.91841529400858
 21
274.80139973484711
 31
0.0
  0
LINE
  8
DETAIL
  6
CONTINUOUS
 62
     5
 10
258.91841529400858
 20
274.80139973484711
 30
0.0
 11
258.96473758276687
 21
274.68306550236048
 31
0.0
  0
LINE
  8
DETAIL
  6
CONTINUOUS
 62
     5
 10
258.96473758276687
 20
274.68306550236048
 30
0.0
 11
258.96473758276687
 21
274.68306550236048
 31
0.0
  0
LINE
  8
DETAIL
  6
CONTINUOUS
 62
     5
 10
258.96473758276687
 20
274.68306550236048
 30
0.0
 11
259.01248763675738
 21
274.56579584473519
 31
0.0
  0
LINE
  8
DETAIL
  6
CONTINUOUS
 62
     5
 10
259.01248763675738
 20
274.56579584473519
 30
0.0
 11
259.06174085910362
 21
274.44938478194558
 31
0.0
  0
LINE
  8
DETAIL
  6
CONTINUOUS
 62
     5
 10
259.06174085910362
 20
274.44938478194558
 30
0.0
 11
259.06174085910362
 21
274.44938478194558
 31
0.0
  0
LINE
  8
DETAIL
  6
CONTINUOUS
 62
     5
 10
259.06174085910362
 20
274.44938478194558
 30
0.0
 11
259.11258887259532
 21
274.33358432868772
 31
0.0
  0
LINE
  8
DETAIL
  6
CONTINUOUS
 62
     5
 10
259.11258887259532
 20
274.33358432868772
 30
0.0
 11
259.1650150009043
 21
274.21843404930291
 31
0.0
  0
LINE
  8
DETAIL
  6
CONTINUOUS
 62
     5
 10
259.1650150009043
 20
274.21843404930291
 30
0.0
 11
259.1650150009043
 21
274.21843404930291
 31
0.0
  0
LINE
  8
DETAIL
  6
CONTINUOUS
 62
     5
 10
259.1650150009043
 20
274.21843404930291
 30
0.0
 11
259.21898274480708
 21
274.10402613616287
 31
0.0
  0
LINE
  8
DETAIL
  6
CONTINUOUS
 62
     5
 10
259.21898274480708
 20
274.10402613616287
 30
0.0
 11
259.27448461261861
 21
273.99037574413228
 31
0.0
  0
LINE
  8
DETAIL
  6
CONTINUOUS
 62
     5
 10
259.27448461261861
 20
273.99037574413228
 30
0.0
 11
259.27448461261861
 21
273.99037574413228
 31
0.0
  0
LINE
  8
DETAIL
  6
CONTINUOUS
 62
     5
 10
259.27448461261861
 20
273.99037574413228
 30
0.0
 11
259.33151843178052
 21
273.87748391879683
 31
0.0
  0
LINE
  8
DETAIL
  6
CONTINUOUS
 62
     5
 10
259.33151843178052
 20
273.87748391879683
 30
0.0
 11
259.39007429869463
 21
273.76537230613428
 31
0.0
  0
LINE
  8
DETAIL
  6
CONTINUOUS
 62
     5
 10
259.39007429869463
 20
273.76537230613428
 30
0.0
 11
259.39007429869463
 21
273.76537230613428
 31
0.0
  0
LINE
  8
DETAIL
  6
CONTINUOUS
 62
     5
 10
259.39007429869463
 20
273.76537230613428
 30
0.0
 11
259.45014085615747
 21
273.65406636120542
 31
0.0
  0
LINE
  8
DETAIL
  6
CONTINUOUS
 62
     5
 10
259.45014085615747
 20
273.65406636120542
 30
0.0
 11
259.51170866358302
 21
273.54358617500912
 31
0.0
  0
LINE
  8
DETAIL
  6
CONTINUOUS
 62
     5
 10
259.51170866358302
 20
273.54358617500912
 30
0.0
 11
259.51170866358302
 21
273.54358617500912
 31
0.0
  0
LINE
  8
DETAIL
  6
CONTINUOUS
 62
     5
 10
259.51170866358302
 20
273.54358617500912
 30
0.0
 11
259.57476830579321
 21
273.43395032720582
 31
0.0
  0
LINE
  8
DETAIL
  6
CONTINUOUS
 62
     5
 10
259.57476830579321
 20
273.43395032720582
 30
0.0
 11
259.63930855262362
 21
273.32517671617188
 31
0.0
  0
LINE
  8
DETAIL
  6
CONTINUOUS
 62
     5
 10
259.63930855262362
 20
273.32517671617188
 30
0.0
 11
259.63930855262362
 21
273.32517671617188
 31
0.0
  0
LINE
  8
DETAIL
  6
CONTINUOUS
 62
     5
 10
259.63930855262362
 20
273.32517671617188
 30
0.0
 11
259.7053168624409
 21
273.21728408704553
 31
0.0
  0
LINE
  8
DETAIL
  6
CONTINUOUS
 62
     5
 10
259.7053168624409
 20
273.21728408704553
 30
0.0
 11
259.77277726271478
 21
273.11029525330127
 31
0.0
  0
LINE
  8
DETAIL
  6
CONTINUOUS
 62
     5
 10
259.77277726271478
 20
273.11029525330127
 30
0.0
 11
259.77277726271478
 21
273.11029525330127
 31
0.0
  0
LINE
  8
DETAIL
  6
CONTINUOUS
 62
     5
 10
259.77277726271478
 20
273.11029525330127
 30
0.0
 11
259.84167633308772
 21
273.00422976044678
 31
0.0
  0
LINE
  8
DETAIL
  6
CONTINUOUS
 62
     5
 10
259.84167633308772
 20
273.00422976044678
 30
0.0
 11
259.91201429278289
 21
272.89909001378783
 31
0.0
  0
LINE
  8
DETAIL
  6
CONTINUOUS
 62
     5
 10
259.91201429278289
 20
272.89909001378783
 30
0.0
 11
259.91201429278289
 21
272.89909001378783
 31
0.0
  0
LINE
  8
DETAIL
  6
CONTINUOUS
 62
     5
 10
259.91201429278289
 20
272.89909001378783
 30
0.0
 11
259.98378198906153
 21
272.79489025669699
 31
0.0
  0
LINE
  8
DETAIL
  6
CONTINUOUS
 62
     5
 10
259.98378198906153
 20
272.79489025669699
 30
0.0
 11
260.05691914175333
 21
272.69170922502047
 31
0.0
  0
LINE
  8
DETAIL
  6
CONTINUOUS
 62
     5
 10
260.05691914175333
 20
272.69170922502047
 30
0.0
 11
260.05691914175333
 21
272.69170922502047
 31
0.0
  0
LINE
  8
DETAIL
  6
CONTINUOUS
 62
     5
 10
260.05691914175333
 20
272.69170922502047
 30
0.0
 11
260.13140040636591
 21
272.58958157030008
 31
0.0
  0
LINE
  8
DETAIL
  6
CONTINUOUS
 62
     5
 10
260.13140040636591
 20
272.58958157030008
 30
0.0
 11
260.20739130855208
 21
272.48830111438951
 31
0.0
  0
LINE
  8
DETAIL
  6
CONTINUOUS
 62
     5
 10
260.20739130855208
 20
272.48830111438951
 30
0.0
 11
260.20739130855208
 21
272.48830111438951
 31
0.0
  0
LINE
  8
DETAIL
  6
CONTINUOUS
 62
     5
 10
260.20739130855208
 20
272.48830111438951
 30
0.0
 11
260.28502969612123
 21
272.38769720418799
 31
0.0
  0
LINE
  8
DETAIL
  6
CONTINUOUS
 62
     5
 10
260.28502969612123
 20
272.38769720418799
 30
0.0
 11
260.36415183536627
 21
272.28798211646091
 31
0.0
  0
LINE
  8
DETAIL
  6
CONTINUOUS
 62
     5
 10
260.36415183536627
 20
272.28798211646091
 30
0.0
 11
260.36415183536627
 21
272.28798211646091
 31
0.0
  0
LINE
  8
DETAIL
  6
CONTINUOUS
 62
     5
 10
260.36415183536627
 20
272.28798211646091
 30
0.0
 11
260.44456722778091
 21
272.18940515250478
 31
0.0
  0
LINE
  8
DETAIL
  6
CONTINUOUS
 62
     5
 10
260.44456722778091
 20
272.18940515250478
 30
0.0
 11
260.52627989717962
 21
272.09198078187143
 31
0.0
  0
LINE
  8
DETAIL
  6
CONTINUOUS
 62
     5
 10
260.52627989717962
 20
272.09198078187143
 30
0.0
 11
260.52627989717962
 21
272.09198078187143
 31
0.0
  0
LINE
  8
DETAIL
  6
CONTINUOUS
 62
     5
 10
260.52627989717962
 20
272.09198078187143
 30
0.0
 11
260.60931888969372
 21
271.99566948339208
 31
0.0
  0
LINE
  8
DETAIL
  6
CONTINUOUS
 62
     5
 10
260.60931888969372
 20
271.99566948339208
 30
0.0
 11
260.69361881839842
 21
271.90045060475899
 31
0.0
  0
LINE
  8
DETAIL
  6
CONTINUOUS
 62
     5
 10
260.69361881839842
 20
271.90045060475899
 30
0.0
 11
260.69361881839842
 21
271.90045060475899
 31
0.0
  0
LINE
  8
DETAIL
  6
CONTINUOUS
 62
     5
 10
260.69361881839842
 20
271.90045060475899
 30
0.0
 11
260.77913649058002
 21
271.80634804995452
 31
0.0
  0
LINE
  8
DETAIL
  6
CONTINUOUS
 62
     5
 10
260.77913649058002
 20
271.80634804995452
 30
0.0
 11
260.866011923428
 21
271.71354507926122
 31
0.0
  0
LINE
  8
DETAIL
  6
CONTINUOUS
 62
     5
 10
260.866011923428
 20
271.71354507926122
 30
0.0
 11
260.866011923428
 21
271.71354507926122
 31
0.0
  0
LINE
  8
DETAIL
  6
CONTINUOUS
 62
     5
 10
260.866011923428
 20
271.71354507926122
 30
0.0
 11
260.95427133496861
 21
271.62210071852121
 31
0.0
  0
LINE
  8
DETAIL
  6
CONTINUOUS
 62
     5
 10
260.95427133496861
 20
271.62210071852121
 30
0.0
 11
261.04330253667439
 21
271.53141769951532
 31
0.0
  0
LINE
  8
DETAIL
  6
CONTINUOUS
 62
     5
 10
271.53141769951537
 20
261.04330253667439
 30
0.0
 11
271.622100368372
 21
260.95427167261602
 31
0.0
  0
LINE
  8
DETAIL
  6
CONTINUOUS
 62
     5
 10
271.622100368372
 20
260.95427167261602
 30
0.0
 11
271.71354437323572
 21
260.86601259268741
 31
0.0
  0
LINE
  8
DETAIL
  6
CONTINUOUS
 62
     5
 10
271.71354437323572
 20
260.86601259268741
 30
0.0
 11
271.71354437323572
 21
260.86601259268741
 31
0.0
  0
LINE
  8
DETAIL
  6
CONTINUOUS
 62
     5
 10
271.71354437323572
 20
260.86601259268741
 30
0.0
 11
271.80634697775957
 21
260.77913748068141
 31
0.0
  0
LINE
  8
DETAIL
  6
CONTINUOUS
 62
     5
 10
271.80634697775957
 20
260.77913748068141
 30
0.0
 11
271.90044915618159
 21
260.69362011903922
 31
0.0
  0
LINE
  8
DETAIL
  6
CONTINUOUS
 62
     5
 10
271.90044915618159
 20
260.69362011903922
 30
0.0
 11
271.90044915618159
 21
260.69362011903922
 31
0.0
  0
LINE
  8
DETAIL
  6
CONTINUOUS
 62
     5
 10
271.90044915618159
 20
260.69362011903922
 30
0.0
 11
271.99566764960917
 21
260.60932049165598
 31
0.0
  0
LINE
  8
DETAIL
  6
CONTINUOUS
 62
     5
 10
271.99566764960917
 20
260.60932049165598
 30
0.0
 11
272.0919785560402
 21
260.52628178959128
 31
0.0
  0
LINE
  8
DETAIL
  6
CONTINUOUS
 62
     5
 10
272.0919785560402
 20
260.52628178959128
 30
0.0
 11
272.0919785560402
 21
260.52628178959128
 31
0.0
  0
LINE
  8
DETAIL
  6
CONTINUOUS
 62
     5
 10
272.0919785560402
 20
260.52628178959128
 30
0.0
 11
272.18940252815878
 21
260.44456939886891
 31
0.0
  0
LINE
  8
DETAIL
  6
CONTINUOUS
 62
     5
 10
272.18940252815878
 20
260.44456939886891
 30
0.0
 11
272.28797908049711
 21
260.36415427820492
 31
0.0
  0
LINE
  8
DETAIL
  6
CONTINUOUS
 62
     5
 10
272.28797908049711
 20
260.36415427820492
 30
0.0
 11
272.28797908049711
 21
260.36415427820492
 31
0.0
  0
LINE
  8
DETAIL
  6
CONTINUOUS
 62
     5
 10
272.28797908049711
 20
260.36415427820492
 30
0.0
 11
272.38769374197892
 21
260.28503240500493
 31
0.0
  0
LINE
  8
DETAIL
  6
CONTINUOUS
 62
     5
 10
272.38769374197892
 20
260.28503240500493
 30
0.0
 11
272.48829723723861
 21
260.20739425874069
 31
0.0
  0
LINE
  8
DETAIL
  6
CONTINUOUS
 62
     5
 10
272.48829723723861
 20
260.20739425874069
 30
0.0
 11
272.48829723723861
 21
260.20739425874069
 31
0.0
  0
LINE
  8
DETAIL
  6
CONTINUOUS
 62
     5
 10
272.48829723723861
 20
260.20739425874069
 30
0.0
 11
272.58957731182699
 21
260.13140355703678
 31
0.0
  0
LINE
  8
DETAIL
  6
CONTINUOUS
 62
     5
 10
272.58957731182699
 20
260.13140355703678
 30
0.0
 11
272.69170459923879
 21
260.05692246806422
 31
0.0
  0
LINE
  8
DETAIL
  6
CONTINUOUS
 62
     5
 10
272.69170459923879
 20
260.05692246806422
 30
0.0
 11
272.69170459923879
 21
260.05692246806422
 31
0.0
  0
LINE
  8
DETAIL
  6
CONTINUOUS
 62
     5
 10
272.69170459923879
 20
260.05692246806422
 30
0.0
 11
272.79488525275679
 21
259.98378548571651
 31
0.0
  0
LINE
  8
DETAIL
  6
CONTINUOUS
 62
     5
 10
272.79488525275679
 20
259.98378548571651
 30
0.0
 11
272.89908461686332
 21
259.91201795623448
 31
0.0
  0
LINE
  8
DETAIL
  6
CONTINUOUS
 62
     5
 10
272.89908461686332
 20
259.91201795623448
 30
0.0
 11
272.89908461686332
 21
259.91201795623448
 31
0.0
  0
LINE
  8
DETAIL
  6
CONTINUOUS
 62
     5
 10
272.89908461686332
 20
259.91201795623448
 30
0.0
 11
273.00422396114908
 21
259.84168015523068
 31
0.0
  0
LINE
  8
DETAIL
  6
CONTINUOUS
 62
     5
 10
273.00422396114908
 20
259.84168015523068
 30
0.0
 11
273.11028906443681
 21
259.77278122345359
 31
0.0
  0
LINE
  8
DETAIL
  6
CONTINUOUS
 62
     5
 10
273.11028906443681
 20
259.77278122345359
 30
0.0
 11
273.11028906443681
 21
259.77278122345359
 31
0.0
  0
LINE
  8
DETAIL
  6
CONTINUOUS
 62
     5
 10
273.11028906443681
 20
259.77278122345359
 30
0.0
 11
273.21727752582427
 21
259.70532093971309
 31
0.0
  0
LINE
  8
DETAIL
  6
CONTINUOUS
 62
     5
 10
273.21727752582427
 20
259.70532093971309
 30
0.0
 11
273.32516971628388
 21
259.63931276992253
 31
0.0
  0
LINE
  8
DETAIL
  6
CONTINUOUS
 62
     5
 10
273.32516971628388
 20
259.63931276992253
 30
0.0
 11
273.32516971628388
 21
259.63931276992253
 31
0.0
  0
LINE
  8
DETAIL
  6
CONTINUOUS
 62
     5
 10
273.32516971628388
 20
259.63931276992253
 30
0.0
 11
273.43394280057532
 21
259.57477269838341
 31
0.0
  0
LINE
  8
DETAIL
  6
CONTINUOUS
 62
     5
 10
273.43394280057532
 20
259.57477269838341
 30
0.0
 11
273.54357834673078
 21
259.51171309584299
 31
0.0
  0
LINE
  8
DETAIL
  6
CONTINUOUS
 62
     5
 10
273.54357834673078
 20
259.51171309584299
 30
0.0
 11
273.54357834673078
 21
259.51171309584299
 31
0.0
  0
LINE
  8
DETAIL
  6
CONTINUOUS
 62
     5
 10
273.54357834673078
 20
259.51171309584299
 30
0.0
 11
273.65405872214592
 21
259.45014505016059
 31
0.0
  0
LINE
  8
DETAIL
  6
CONTINUOUS
 62
     5
 10
273.65405872214592
 20
259.45014505016059
 30
0.0
 11
273.76536508839638
 21
259.39007813119792
 31
0.0
  0
LINE
  8
DETAIL
  6
CONTINUOUS
 62
     5
 10
273.76536508839638
 20
259.39007813119792
 30
0.0
 11
273.76536508839638
 21
259.39007813119792
 31
0.0
  0
LINE
  8
DETAIL
  6
CONTINUOUS
 62
     5
 10
273.76536508839638
 20
259.39007813119792
 30
0.0
 11
273.87747704682653
 21
259.33152196016363
 31
0.0
  0
LINE
  8
DETAIL
  6
CONTINUOUS
 62
     5
 10
273.87747704682653
 20
259.33152196016363
 30
0.0
 11
273.99036916366839
 21
259.27448788165538
 31
0.0
  0
LINE
  8
DETAIL
  6
CONTINUOUS
 62
     5
 10
273.99036916366839
 20
259.27448788165538
 30
0.0
 11
273.99036916366839
 21
259.27448788165538
 31
0.0
  0
LINE
  8
DETAIL
  6
CONTINUOUS
 62
     5
 10
273.99036916366839
 20
259.27448788165538
 30
0.0
 11
274.10401987497949
 21
259.21898575109338
 31
0.0
  0
LINE
  8
DETAIL
  6
CONTINUOUS
 62
     5
 10
274.10401987497949
 20
259.21898575109338
 30
0.0
 11
274.21842813122362
 21
259.16501774380248
 31
0.0
  0
LINE
  8
DETAIL
  6
CONTINUOUS
 62
     5
 10
274.21842813122362
 20
259.16501774380248
 30
0.0
 11
274.21842813122362
 21
259.16501774380248
 31
0.0
  0
LINE
  8
DETAIL
  6
CONTINUOUS
 62
     5
 10
274.21842813122362
 20
259.16501774380248
 30
0.0
 11
274.33357875583602
 21
259.11259136433267
 31
0.0
  0
LINE
  8
DETAIL
  6
CONTINUOUS
 62
     5
 10
274.33357875583602
 20
259.11259136433267
 30
0.0
 11
274.44937954973938
 21
259.06174311422558
 31
0.0
  0
LINE
  8
DETAIL
  6
CONTINUOUS
 62
     5
 10
274.44937954973938
 20
259.06174311422558
 30
0.0
 11
274.44937954973938
 21
259.06174311422558
 31
0.0
  0
LINE
  8
DETAIL
  6
CONTINUOUS
 62
     5
 10
274.44937954973938
 20
259.06174311422558
 30
0.0
 11
274.56579095213942
 21
259.01248966730282
 31
0.0
  0
LINE
  8
DETAIL
  6
CONTINUOUS
 62
     5
 10
274.56579095213942
 20
259.01248966730282
 30
0.0
 11
274.68306097789332
 21
258.96473938951112
 31
0.0
  0
LINE
  8
DETAIL
  6
CONTINUOUS
 62
     5
 10
274.68306097789332
 20
258.96473938951112
 30
0.0
 11
274.68306097789332
 21
258.96473938951112
 31
0.0
  0
LINE
  8
DETAIL
  6
CONTINUOUS
 62
     5
 10
274.68306097789332
 20
258.96473938951112
 30
0.0
 11
274.80139563081838
 21
258.91841686913801
 31
0.0
  0
LINE
  8
DETAIL
  6
CONTINUOUS
 62
     5
 10
274.80139563081838
 20
258.91841686913801
 30
0.0
 11
274.92054529491702
 21
258.87361989170358
 31
0.0
  0
LINE
  8
DETAIL
  6
CONTINUOUS
 62
     5
 10
274.92054529491702
 20
258.87361989170358
 30
0.0
 11
274.92054529491702
 21
258.87361989170358
 31
0.0
  0
LINE
  8
DETAIL
  6
CONTINUOUS
 62
     5
 10
274.92054529491702
 20
258.87361989170358
 30
0.0
 11
275.04021835460162
 21
258.83046422062421
 31
0.0
  0
LINE
  8
DETAIL
  6
CONTINUOUS
 62
     5
 10
275.04021835460162
 20
258.83046422062421
 30
0.0
 11
275.16041081573462
 21
258.78896433366373
 31
0.0
  0
LINE
  8
DETAIL
  6
CONTINUOUS
 62
     5
 10
275.16041081573462
 20
258.78896433366373
 30
0.0
 11
275.16041081573462
 21
258.78896433366373
 31
0.0
  0
LINE
  8
DETAIL
  6
CONTINUOUS
 62
     5
 10
275.16041081573462
 20
258.78896433366373
 30
0.0
 11
275.28116791863317
 21
258.74910128580109
 31
0.0
  0
LINE
  8
DETAIL
  6
CONTINUOUS
 62
     5
 10
275.28116791863317
 20
258.74910128580109
 30
0.0
 11
275.40244421999159
 21
258.71082372652631
 31
0.0
  0
LINE
  8
DETAIL
  6
CONTINUOUS
 62
     5
 10
275.40244421999159
 20
258.71082372652631
 30
0.0
 11
275.40244421999159
 21
258.71082372652631
 31
0.0
  0
LINE
  8
DETAIL
  6
CONTINUOUS
 62
     5
 10
275.40244421999159
 20
258.71082372652631
 30
0.0
 11
275.52419038385978
 21
258.67412993085941
 31
0.0
  0
LINE
  8
DETAIL
  6
CONTINUOUS
 62
     5
 10
275.52419038385978
 20
258.67412993085941
 30
0.0
 11
275.64643218733238
 21
258.63924908142661
 31
0.0
  0
LINE
  8
DETAIL
  6
CONTINUOUS
 62
     5
 10
275.64643218733238
 20
258.63924908142661
 30
0.0
 11
275.64643218733238
 21
258.63924908142661
 31
0.0
  0
LINE
  8
DETAIL
  6
CONTINUOUS
 62
     5
 10
275.64643218733238
 20
258.63924908142661
 30
0.0
 11
275.76916174362742
 21
258.60624528152272
 31
0.0
  0
LINE
  8
DETAIL
  6
CONTINUOUS
 62
     5
 10
275.76916174362742
 20
258.60624528152272
 30
0.0
 11
275.89216139740279
 21
258.57429140950012
 31
0.0
  0
LINE
  8
DETAIL
  6
CONTINUOUS
 62
     5
 10
274.09989725421087
 20
255.40881172345971
 30
0.0
 11
273.97689760043539
 21
255.4407655952958
 31
0.0
  0
LINE
  8
DETAIL
  6
CONTINUOUS
 62
     5
 10
273.97689760043539
 20
255.4407655952958
 30
0.0
 11
273.85416804414098
 21
255.47376939504969
 31
0.0
  0
LINE
  8
DETAIL
  6
CONTINUOUS
 62
     5
 10
273.85416804414098
 20
255.47376939504969
 30
0.0
 11
273.85416804414098
 21
255.47376939504969
 31
0.0
  0
LINE
  8
DETAIL
  6
CONTINUOUS
 62
     5
 10
273.85416804414098
 20
255.47376939504969
 30
0.0
 11
273.73192624066792
 21
255.50865024439489
 31
0.0
  0
LINE
  8
DETAIL
  6
CONTINUOUS
 62
     5
 10
273.73192624066792
 20
255.50865024439489
 30
0.0
 11
273.61018007679991
 21
255.54534404002669
 31
0.0
  0
LINE
  8
DETAIL
  6
CONTINUOUS
 62
     5
 10
273.61018007679991
 20
255.54534404002669
 30
0.0
 11
273.61018007679991
 21
255.54534404002669
 31
0.0
  0
LINE
  8
DETAIL
  6
CONTINUOUS
 62
     5
 10
273.61018007679991
 20
255.54534404002669
 30
0.0
 11
273.48890377544171
 21
255.58362159930101
 31
0.0
  0
LINE
  8
DETAIL
  6
CONTINUOUS
 62
     5
 10
273.48890377544171
 20
255.58362159930101
 30
0.0
 11
273.36814667254322
 21
255.62348464719079
 31
0.0
  0
LINE
  8
DETAIL
  6
CONTINUOUS
 62
     5
 10
273.36814667254322
 20
255.62348464719079
 30
0.0
 11
273.36814667254322
 21
255.62348464719079
 31
0.0
  0
LINE
  8
DETAIL
  6
CONTINUOUS
 62
     5
 10
273.36814667254322
 20
255.62348464719079
 30
0.0
 11
273.24795421141039
 21
255.66498453419999
 31
0.0
  0
LINE
  8
DETAIL
  6
CONTINUOUS
 62
     5
 10
273.24795421141039
 20
255.66498453419999
 30
0.0
 11
273.12828115172562
 21
255.70814020534121
 31
0.0
  0
LINE
  8
DETAIL
  6
CONTINUOUS
 62
     5
 10
273.12828115172562
 20
255.70814020534121
 30
0.0
 11
273.12828115172562
 21
255.70814020534121
 31
0.0
  0
LINE
  8
DETAIL
  6
CONTINUOUS
 62
     5
 10
273.12828115172562
 20
255.70814020534121
 30
0.0
 11
273.00913148762652
 21
255.75293718284209
 31
0.0
  0
LINE
  8
DETAIL
  6
CONTINUOUS
 62
     5
 10
273.00913148762652
 20
255.75293718284209
 30
0.0
 11
272.89079683470192
 21
255.79925970327781
 31
0.0
  0
LINE
  8
DETAIL
  6
CONTINUOUS
 62
     5
 10
272.89079683470192
 20
255.79925970327781
 30
0.0
 11
272.89079683470192
 21
255.79925970327781
 31
0.0
  0
LINE
  8
DETAIL
  6
CONTINUOUS
 62
     5
 10
272.89079683470192
 20
255.79925970327781
 30
0.0
 11
272.77352680894802
 21
255.84700998112149
 31
0.0
  0
LINE
  8
DETAIL
  6
CONTINUOUS
 62
     5
 10
272.77352680894802
 20
255.84700998112149
 30
0.0
 11
272.65711540654752
 21
255.8962634280854
 31
0.0
  0
LINE
  8
DETAIL
  6
CONTINUOUS
 62
     5
 10
272.65711540654752
 20
255.8962634280854
 30
0.0
 11
272.65711540654752
 21
255.8962634280854
 31
0.0
  0
LINE
  8
DETAIL
  6
CONTINUOUS
 62
     5
 10
272.65711540654752
 20
255.8962634280854
 30
0.0
 11
272.5413146126441
 21
255.9471116782224
 31
0.0
  0
LINE
  8
DETAIL
  6
CONTINUOUS
 62
     5
 10
272.5413146126441
 20
255.9471116782224
 30
0.0
 11
272.4261639880317
 21
255.99953805771219
 31
0.0
  0
LINE
  8
DETAIL
  6
CONTINUOUS
 62
     5
 10
272.4261639880317
 20
255.99953805771219
 30
0.0
 11
272.4261639880317
 21
255.99953805771219
 31
0.0
  0
LINE
  8
DETAIL
  6
CONTINUOUS
 62
     5
 10
272.4261639880317
 20
255.99953805771219
 30
0.0
 11
272.31175573178803
 21
256.05350606501281
 31
0.0
  0
LINE
  8
DETAIL
  6
CONTINUOUS
 62
     5
 10
272.31175573178803
 20
256.05350606501281
 30
0.0
 11
272.19810502047648
 21
256.10900819557492
 31
0.0
  0
LINE
  8
DETAIL
  6
CONTINUOUS
 62
     5
 10
272.19810502047648
 20
256.10900819557492
 30
0.0
 11
272.19810502047648
 21
256.10900819557492
 31
0.0
  0
LINE
  8
DETAIL
  6
CONTINUOUS
 62
     5
 10
272.19810502047648
 20
256.10900819557492
 30
0.0
 11
272.08521290363461
 21
256.16604227407367
 31
0.0
  0
LINE
  8
DETAIL
  6
CONTINUOUS
 62
     5
 10
272.08521290363461
 20
256.16604227407367
 30
0.0
 11
271.97310094520498
 21
256.22459844508973
 31
0.0
  0
LINE
  8
DETAIL
  6
CONTINUOUS
 62
     5
 10
271.97310094520498
 20
256.22459844508973
 30
0.0
 11
271.97310094520498
 21
256.22459844508973
 31
0.0
  0
LINE
  8
DETAIL
  6
CONTINUOUS
 62
     5
 10
271.97310094520498
 20
256.22459844508973
 30
0.0
 11
271.861794578954
 21
256.28466536402578
 31
0.0
  0
LINE
  8
DETAIL
  6
CONTINUOUS
 62
     5
 10
271.861794578954
 20
256.28466536402578
 30
0.0
 11
271.75131420353893
 21
256.34623340967352
 31
0.0
  0
LINE
  8
DETAIL
  6
CONTINUOUS
 62
     5
 10
271.75131420353893
 20
256.34623340967352
 30
0.0
 11
271.75131420353893
 21
256.34623340967352
 31
0.0
  0
LINE
  8
DETAIL
  6
CONTINUOUS
 62
     5
 10
271.75131420353893
 20
256.34623340967352
 30
0.0
 11
271.64167865738392
 21
256.40929301217187
 31
0.0
  0
LINE
  8
DETAIL
  6
CONTINUOUS
 62
     5
 10
271.64167865738392
 20
256.40929301217187
 30
0.0
 11
271.53290557309242
 21
256.47383308366398
 31
0.0
  0
LINE
  8
DETAIL
  6
CONTINUOUS
 62
     5
 10
271.53290557309242
 20
256.47383308366398
 30
0.0
 11
271.53290557309242
 21
256.47383308366398
 31
0.0
  0
LINE
  8
DETAIL
  6
CONTINUOUS
 62
     5
 10
271.53290557309242
 20
256.47383308366398
 30
0.0
 11
271.42501338263241
 21
256.53984125340469
 31
0.0
  0
LINE
  8
DETAIL
  6
CONTINUOUS
 62
     5
 10
271.42501338263241
 20
256.53984125340469
 30
0.0
 11
271.3180249212453
 21
256.60730153709602
 31
0.0
  0
LINE
  8
DETAIL
  6
CONTINUOUS
 62
     5
 10
271.3180249212453
 20
256.60730153709602
 30
0.0
 11
271.3180249212453
 21
256.60730153709602
 31
0.0
  0
LINE
  8
DETAIL
  6
CONTINUOUS
 62
     5
 10
271.3180249212453
 20
256.60730153709602
 30
0.0
 11
271.21195981795768
 21
256.67620046882689
 31
0.0
  0
LINE
  8
DETAIL
  6
CONTINUOUS
 62
     5
 10
271.21195981795768
 20
256.67620046882689
 30
0.0
 11
271.10682047367141
 21
256.74653826979062
 31
0.0
  0
LINE
  8
DETAIL
  6
CONTINUOUS
 62
     5
 10
271.10682047367141
 20
256.74653826979062
 30
0.0
 11
271.10682047367141
 21
256.74653826979062
 31
0.0
  0
LINE
  8
DETAIL
  6
CONTINUOUS
 62
     5
 10
271.10682047367141
 20
256.74653826979062
 30
0.0
 11
271.00262110956533
 21
256.81830579924042
 31
0.0
  0
LINE
  8
DETAIL
  6
CONTINUOUS
 62
     5
 10
271.00262110956533
 20
256.81830579924042
 30
0.0
 11
270.89944045604688
 21
256.89144278156732
 31
0.0
  0
LINE
  8
DETAIL
  6
CONTINUOUS
 62
     5
 10
270.89944045604688
 20
256.89144278156732
 30
0.0
 11
270.89944045604688
 21
256.89144278156732
 31
0.0
  0
LINE
  8
DETAIL
  6
CONTINUOUS
 62
     5
 10
270.89944045604688
 20
256.89144278156732
 30
0.0
 11
270.79731316863558
 21
256.96592387053352
 31
0.0
  0
LINE
  8
DETAIL
  6
CONTINUOUS
 62
     5
 10
270.79731316863558
 20
256.96592387053352
 30
0.0
 11
270.69603309404721
 21
257.04191457224721
 31
0.0
  0
LINE
  8
DETAIL
  6
CONTINUOUS
 62
     5
 10
270.69603309404721
 20
257.04191457224721
 30
0.0
 11
270.69603309404721
 21
257.04191457224721
 31
0.0
  0
LINE
  8
DETAIL
  6
CONTINUOUS
 62
     5
 10
270.69603309404721
 20
257.04191457224721
 30
0.0
 11
270.59542959878792
 21
257.11955271853981
 31
0.0
  0
LINE
  8
DETAIL
  6
CONTINUOUS
 62
     5
 10
270.59542959878792
 20
257.11955271853981
 30
0.0
 11
270.4957149373115
 21
257.19867459178289
 31
0.0
  0
LINE
  8
DETAIL
  6
CONTINUOUS
 62
     5
 10
270.4957149373115
 20
257.19867459178289
 30
0.0
 11
270.4957149373115
 21
257.19867459178289
 31
0.0
  0
LINE
  8
DETAIL
  6
CONTINUOUS
 62
     5
 10
270.4957149373115
 20
257.19867459178289
 30
0.0
 11
270.39713838498773
 21
257.27908971250167
 31
0.0
  0
LINE
  8
DETAIL
  6
CONTINUOUS
 62
     5
 10
270.39713838498773
 20
257.27908971250167
 30
0.0
 11
270.29971441289831
 21
257.36080210328493
 31
0.0
  0
LINE
  8
DETAIL
  6
CONTINUOUS
 62
     5
 10
270.29971441289831
 20
257.36080210328493
 30
0.0
 11
270.29971441289831
 21
257.36080210328493
 31
0.0
  0
LINE
  8
DETAIL
  6
CONTINUOUS
 62
     5
 10
270.29971441289831
 20
257.36080210328493
 30
0.0
 11
270.20340350651509
 21
257.44384080541317
 31
0.0
  0
LINE
  8
DETAIL
  6
CONTINUOUS
 62
     5
 10
270.20340350651509
 20
257.44384080541317
 30
0.0
 11
270.10818501315748
 21
257.52814043285781
 31
0.0
  0
LINE
  8
DETAIL
  6
CONTINUOUS
 62
     5
 10
270.10818501315748
 20
257.52814043285781
 30
0.0
 11
270.10818501315748
 21
257.52814043285781
 31
0.0
  0
LINE
  8
DETAIL
  6
CONTINUOUS
 62
     5
 10
270.10818501315748
 20
257.52814043285781
 30
0.0
 11
270.01408283483192
 21
257.61365779455627
 31
0.0
  0
LINE
  8
DETAIL
  6
CONTINUOUS
 62
     5
 10
270.01408283483192
 20
257.61365779455627
 30
0.0
 11
269.9212802304412
 21
257.70053290660587
 31
0.0
  0
LINE
  8
DETAIL
  6
CONTINUOUS
 62
     5
 10
269.9212802304412
 20
257.70053290660587
 30
0.0
 11
269.9212802304412
 21
257.70053290660587
 31
0.0
  0
LINE
  8
DETAIL
  6
CONTINUOUS
 62
     5
 10
269.9212802304412
 20
257.70053290660587
 30
0.0
 11
269.82983622575489
 21
257.78879198656051
 31
0.0
  0
LINE
  8
DETAIL
  6
CONTINUOUS
 62
     5
 10
269.82983622575489
 20
257.78879198656051
 30
0.0
 11
269.73915355710028
 21
257.87782285063417
 31
0.0
  0
LINE
  8
DETAIL
  6
CONTINUOUS
 62
     5
 10
257.87782285063417
 20
269.73915355632357
 30
0.0
 11
257.78879164892828
 21
269.82983657532952
 31
0.0
  0
LINE
  8
DETAIL
  6
CONTINUOUS
 62
     5
 10
257.78879164892828
 20
269.82983657532952
 30
0.0
 11
257.70053223738768
 21
269.92128093606942
 31
0.0
  0
LINE
  8
DETAIL
  6
CONTINUOUS
 62
     5
 10
257.70053223738768
 20
269.92128093606942
 30
0.0
 11
257.70053223738768
 21
269.92128093606942
 31
0.0
  0
LINE
  8
DETAIL
  6
CONTINUOUS
 62
     5
 10
257.70053223738768
 20
269.92128093606942
 30
0.0
 11
257.61365680453969
 21
270.01408390676278
 31
0.0
  0
LINE
  8
DETAIL
  6
CONTINUOUS
 62
     5
 10
257.61365680453969
 20
270.01408390676278
 30
0.0
 11
257.52813913235809
 21
270.10818646156741
 31
0.0
  0
LINE
  8
DETAIL
  6
CONTINUOUS
 62
     5
 10
257.52813913235809
 20
270.10818646156741
 30
0.0
 11
257.52813913235809
 21
270.10818646156741
 31
0.0
  0
LINE
  8
DETAIL
  6
CONTINUOUS
 62
     5
 10
257.52813913235809
 20
270.10818646156741
 30
0.0
 11
257.4438392036534
 21
270.20340534020062
 31
0.0
  0
LINE
  8
DETAIL
  6
CONTINUOUS
 62
     5
 10
257.4438392036534
 20
270.20340534020062
 30
0.0
 11
257.36080021113929
 21
270.29971663867991
 31
0.0
  0
LINE
  8
DETAIL
  6
CONTINUOUS
 62
     5
 10
257.36080021113929
 20
270.29971663867991
 30
0.0
 11
257.36080021113929
 21
270.29971663867991
 31
0.0
  0
LINE
  8
DETAIL
  6
CONTINUOUS
 62
     5
 10
257.36080021113929
 20
270.29971663867991
 30
0.0
 11
257.27908754174109
 21
270.39714100931309
 31
0.0
  0
LINE
  8
DETAIL
  6
CONTINUOUS
 62
     5
 10
257.27908754174109
 20
270.39714100931309
 30
0.0
 11
257.19867214932611
 21
270.49571797326922
 31
0.0
  0
LINE
  8
DETAIL
  6
CONTINUOUS
 62
     5
 10
257.19867214932611
 20
270.49571797326922
 30
0.0
 11
257.19867214932611
 21
270.49571797326922
 31
0.0
  0
LINE
  8
DETAIL
  6
CONTINUOUS
 62
     5
 10
257.19867214932611
 20
270.49571797326922
 30
0.0
 11
257.11955001008101
 21
270.59543306099607
 31
0.0
  0
LINE
  8
DETAIL
  6
CONTINUOUS
 62
     5
 10
257.11955001008101
 20
270.59543306099607
 30
0.0
 11
257.04191162251192
 21
270.69603697119783
 31
0.0
  0
LINE
  8
DETAIL
  6
CONTINUOUS
 62
     5
 10
257.04191162251192
 20
270.69603697119783
 30
0.0
 11
257.04191162251192
 21
270.69603697119783
 31
0.0
  0
LINE
  8
DETAIL
  6
CONTINUOUS
 62
     5
 10
257.04191162251192
 20
270.69603697119783
 30
0.0
 11
256.96592072032558
 21
270.79731742710811
 31
0.0
  0
LINE
  8
DETAIL
  6
CONTINUOUS
 62
     5
 10
256.96592072032558
 20
270.79731742710811
 30
0.0
 11
256.891439455713
 21
270.89944508182862
 31
0.0
  0
LINE
  8
DETAIL
  6
CONTINUOUS
 62
     5
 10
256.891439455713
 20
270.89944508182862
 30
0.0
 11
256.891439455713
 21
270.89944508182862
 31
0.0
  0
LINE
  8
DETAIL
  6
CONTINUOUS
 62
     5
 10
256.891439455713
 20
270.89944508182862
 30
0.0
 11
256.81830230302131
 21
271.00262611350502
 31
0.0
  0
LINE
  8
DETAIL
  6
CONTINUOUS
 62
     5
 10
256.81830230302131
 20
271.00262611350502
 30
0.0
 11
256.74653460674273
 21
271.10682587059569
 31
0.0
  0
LINE
  8
DETAIL
  6
CONTINUOUS
 62
     5
 10
256.74653460674273
 20
271.10682587059569
 30
0.0
 11
256.74653460674273
 21
271.10682587059569
 31
0.0
  0
LINE
  8
DETAIL
  6
CONTINUOUS
 62
     5
 10
256.74653460674273
 20
271.10682587059569
 30
0.0
 11
256.67619664704739
 21
271.21196561725509
 31
0.0
  0
LINE
  8
DETAIL
  6
CONTINUOUS
 62
     5
 10
256.67619664704739
 20
271.21196561725509
 30
0.0
 11
256.60729757667451
 21
271.31803111010959
 31
0.0
  0
LINE
  8
DETAIL
  6
CONTINUOUS
 62
     5
 10
256.60729757667451
 20
271.31803111010959
 30
0.0
 11
256.60729757667451
 21
271.31803111010959
 31
0.0
  0
LINE
  8
DETAIL
  6
CONTINUOUS
 62
     5
 10
256.60729757667451
 20
271.31803111010959
 30
0.0
 11
256.53983717640062
 21
271.42501994385378
 31
0.0
  0
LINE
  8
DETAIL
  6
CONTINUOUS
 62
     5
 10
256.53983717640062
 20
271.42501994385378
 30
0.0
 11
256.47382886658329
 21
271.53291257298002
 31
0.0
  0
LINE
  8
DETAIL
  6
CONTINUOUS
 62
     5
 10
256.47382886658329
 20
271.53291257298002
 30
0.0
 11
256.47382886658329
 21
271.53291257298002
 31
0.0
  0
LINE
  8
DETAIL
  6
CONTINUOUS
 62
     5
 10
256.47382886658329
 20
271.53291257298002
 30
0.0
 11
256.40928861975249
 21
271.64168618401402
 31
0.0
  0
LINE
  8
DETAIL
  6
CONTINUOUS
 62
     5
 10
256.40928861975249
 20
271.64168618401402
 30
0.0
 11
256.34622897754281
 21
271.75132203181732
 31
0.0
  0
LINE
  8
DETAIL
  6
CONTINUOUS
 62
     5
 10
256.34622897754281
 20
271.75132203181732
 30
0.0
 11
256.34622897754281
 21
271.75132203181732
 31
0.0
  0
LINE
  8
DETAIL
  6
CONTINUOUS
 62
     5
 10
256.34622897754281
 20
271.75132203181732
 30
0.0
 11
256.28466117011732
 21
271.86180221801402
 31
0.0
  0
LINE
  8
DETAIL
  6
CONTINUOUS
 62
     5
 10
256.28466117011732
 20
271.86180221801402
 30
0.0
 11
256.22459461265288
 21
271.97310816294271
 31
0.0
  0
LINE
  8
DETAIL
  6
CONTINUOUS
 62
     5
 10
256.22459461265288
 20
271.97310816294271
 30
0.0
 11
256.22459461265288
 21
271.97310816294271
 31
0.0
  0
LINE
  8
DETAIL
  6
CONTINUOUS
 62
     5
 10
256.22459461265288
 20
271.97310816294271
 30
0.0
 11
256.16603874573491
 21
272.08521977560508
 31
0.0
  0
LINE
  8
DETAIL
  6
CONTINUOUS
 62
     5
 10
256.16603874573491
 20
272.08521977560508
 30
0.0
 11
256.1090049265656
 21
272.19811160094048
 31
0.0
  0
LINE
  8
DETAIL
  6
CONTINUOUS
 62
     5
 10
256.1090049265656
 20
272.19811160094048
 30
0.0
 11
256.1090049265656
 21
272.19811160094048
 31
0.0
  0
LINE
  8
DETAIL
  6
CONTINUOUS
 62
     5
 10
256.1090049265656
 20
272.19811160094048
 30
0.0
 11
256.05350305874231
 21
272.31176199297101
 31
0.0
  0
LINE
  8
DETAIL
  6
CONTINUOUS
 62
     5
 10
256.05350305874231
 20
272.31176199297101
 30
0.0
 11
255.9995353148222
 21
272.42616990611111
 31
0.0
  0
LINE
  8
DETAIL
  6
CONTINUOUS
 62
     5
 10
255.9995353148222
 20
272.42616990611111
 30
0.0
 11
255.9995353148222
 21
272.42616990611111
 31
0.0
  0
LINE
  8
DETAIL
  6
CONTINUOUS
 62
     5
 10
255.9995353148222
 20
272.42616990611111
 30
0.0
 11
255.94710918648869
 21
272.54132018549632
 31
0.0
  0
LINE
  8
DETAIL
  6
CONTINUOUS
 62
     5
 10
255.94710918648869
 20
272.54132018549632
 30
0.0
 11
255.89626117296461
 21
272.65712063875372
 31
0.0
  0
LINE
  8
DETAIL
  6
CONTINUOUS
 62
     5
 10
255.89626117296461
 20
272.65712063875372
 30
0.0
 11
255.89626117296461
 21
272.65712063875372
 31
0.0
  0
LINE
  8
DETAIL
  6
CONTINUOUS
 62
     5
 10
255.89626117296461
 20
272.65712063875372
 30
0.0
 11
255.84700795057671
 21
272.77353170154367
 31
0.0
  0
LINE
  8
DETAIL
  6
CONTINUOUS
 62
     5
 10
255.84700795057671
 20
272.77353170154367
 30
0.0
 11
255.79925789653359
 21
272.89080135916862
 31
0.0
  0
LINE
  8
DETAIL
  6
CONTINUOUS
 62
     5
 10
255.79925789653359
 20
272.89080135916862
 30
0.0
 11
255.79925789653359
 21
272.89080135916862
 31
0.0
  0
LINE
  8
DETAIL
  6
CONTINUOUS
 62
     5
 10
255.79925789653359
 20
272.89080135916862
 30
0.0
 11
255.75293560771181
 21
273.00913559165519
 31
0.0
  0
LINE
  8
DETAIL
  6
CONTINUOUS
 62
     5
 10
255.75293560771181
 20
273.00913559165519
 30
0.0
 11
255.70813885878241
 21
273.12828480828227
 31
0.0
  0
LINE
  8
DETAIL
  6
CONTINUOUS
 62
     5
 10
255.70813885878241
 20
273.12828480828227
 30
0.0
 11
255.70813885878241
 21
273.12828480828227
 31
0.0
  0
LINE
  8
DETAIL
  6
CONTINUOUS
 62
     5
 10
255.70813885878241
 20
273.12828480828227
 30
0.0
 11
255.66498340073241
 21
273.24795742313108
 31
0.0
  0
LINE
  8
DETAIL
  6
CONTINUOUS
 62
     5
 10
255.66498340073241
 20
273.24795742313108
 30
0.0
 11
255.6234837120212
 21
273.36814944023638
 31
0.0
  0
LINE
  8
DETAIL
  6
CONTINUOUS
 62
     5
 10
255.6234837120212
 20
273.36814944023638
 30
0.0
 11
255.6234837120212
 21
273.36814944023638
 31
0.0
  0
LINE
  8
DETAIL
  6
CONTINUOUS
 62
     5
 10
255.6234837120212
 20
273.36814944023638
 30
0.0
 11
255.5836208508392
 21
273.48890609235099
 31
0.0
  0
LINE
  8
DETAIL
  6
CONTINUOUS
 62
     5
 10
255.5836208508392
 20
273.48890609235099
 30
0.0
 11
255.5453434668282
 21
273.61018193713812
 31
0.0
  0
LINE
  8
DETAIL
  6
CONTINUOUS
 62
     5
 10
255.5453434668282
 20
273.61018193713812
 30
0.0
 11
255.5453434668282
 21
273.61018193713812
 31
0.0
  0
LINE
  8
DETAIL
  6
CONTINUOUS
 62
     5
 10
255.5453434668282
 20
273.61018193713812
 30
0.0
 11
255.50864983417321
 21
273.73192764108882
 31
0.0
  0
LINE
  8
DETAIL
  6
CONTINUOUS
 62
     5
 10
255.50864983417321
 20
273.73192764108882
 30
0.0
 11
255.4737691337821
 21
273.85416898109378
 31
0.0
  0
LINE
  8
DETAIL
  6
CONTINUOUS
 62
     5
 10
255.4737691337821
 20
273.85416898109378
 30
0.0
 11
255.4737691337821
 21
273.85416898109378
 31
0.0
  0
LINE
  8
DETAIL
  6
CONTINUOUS
 62
     5
 10
255.4737691337821
 20
273.85416898109378
 30
0.0
 11
255.4407654686577
 21
273.97689807001609
 31
0.0
  0
LINE
  8
DETAIL
  6
CONTINUOUS
 62
     5
 10
255.4407654686577
 20
273.97689807001609
 30
0.0
 11
255.40881172345959
 21
274.09989725421087
 31
0.0
  0
LINE
  8
DETAIL
  6
CONTINUOUS
 62
     5
 10
255.40881172345959
 20
-274.09989725498741
 30
0.0
 11
255.44076559548259
 21
-273.97689760101031
 31
0.0
  0
LINE
  8
DETAIL
  6
CONTINUOUS
 62
     5
 10
255.44076559548259
 20
-273.97689760101031
 30
0.0
 11
255.4737693953864
 21
-273.85416804453939
 31
0.0
  0
LINE
  8
DETAIL
  6
CONTINUOUS
 62
     5
 10
255.4737693953864
 20
-273.85416804453939
 30
0.0
 11
255.4737693953864
 21
-273.85416804453939
 31
0.0
  0
LINE
  8
DETAIL
  6
CONTINUOUS
 62
     5
 10
255.4737693953864
 20
-273.85416804453939
 30
0.0
 11
255.50865024481911
 21
-273.73192624093542
 31
0.0
  0
LINE
  8
DETAIL
  6
CONTINUOUS
 62
     5
 10
255.50865024481911
 20
-273.73192624093542
 30
0.0
 11
255.54534404048599
 21
-273.61018007697572
 31
0.0
  0
LINE
  8
DETAIL
  6
CONTINUOUS
 62
     5
 10
255.54534404048599
 20
-273.61018007697572
 30
0.0
 11
255.54534404048599
 21
-273.61018007697572
 31
0.0
  0
LINE
  8
DETAIL
  6
CONTINUOUS
 62
     5
 10
255.54534404048599
 20
-273.61018007697572
 30
0.0
 11
255.58362159976079
 21
-273.48890377555529
 31
0.0
  0
LINE
  8
DETAIL
  6
CONTINUOUS
 62
     5
 10
255.58362159976079
 20
-273.48890377555529
 30
0.0
 11
255.6234846476234
 21
-273.36814667262081
 31
0.0
  0
LINE
  8
DETAIL
  6
CONTINUOUS
 62
     5
 10
255.6234846476234
 20
-273.36814667262081
 30
0.0
 11
255.6234846476234
 21
-273.36814667262081
 31
0.0
  0
LINE
  8
DETAIL
  6
CONTINUOUS
 62
     5
 10
255.6234846476234
 20
-273.36814667262081
 30
0.0
 11
255.66498453458439
 21
-273.2479542114757
 31
0.0
  0
LINE
  8
DETAIL
  6
CONTINUOUS
 62
     5
 10
255.66498453458439
 20
-273.2479542114757
 30
0.0
 11
255.70814020566351
 21
-273.12828115179809
 31
0.0
  0
LINE
  8
DETAIL
  6
CONTINUOUS
 62
     5
 10
255.70814020566351
 20
-273.12828115179809
 30
0.0
 11
255.70814020566351
 21
-273.12828115179809
 31
0.0
  0
LINE
  8
DETAIL
  6
CONTINUOUS
 62
     5
 10
255.70814020566351
 20
-273.12828115179809
 30
0.0
 11
255.7529371830976
 21
-273.0091314877223
 31
0.0
  0
LINE
  8
DETAIL
  6
CONTINUOUS
 62
     5
 10
255.7529371830976
 20
-273.0091314877223
 30
0.0
 11
255.79925970347111
 21
-272.89079683483197
 31
0.0
  0
LINE
  8
DETAIL
  6
CONTINUOUS
 62
     5
 10
255.79925970347111
 20
-272.89079683483197
 30
0.0
 11
255.79925970347111
 21
-272.89079683483197
 31
0.0
  0
LINE
  8
DETAIL
  6
CONTINUOUS
 62
     5
 10
255.79925970347111
 20
-272.89079683483197
 30
0.0
 11
255.84700998126229
 21
-272.77352680912043
 31
0.0
  0
LINE
  8
DETAIL
  6
CONTINUOUS
 62
     5
 10
255.84700998126229
 20
-272.77352680912043
 30
0.0
 11
255.89626342818539
 21
-272.6571154067679
 31
0.0
  0
LINE
  8
DETAIL
  6
CONTINUOUS
 62
     5
 10
255.89626342818539
 20
-272.6571154067679
 30
0.0
 11
255.89626342818539
 21
-272.6571154067679
 31
0.0
  0
LINE
  8
DETAIL
  6
CONTINUOUS
 62
     5
 10
255.89626342818539
 20
-272.6571154067679
 30
0.0
 11
255.9471116782922
 21
-272.5413146129153
 31
0.0
  0
LINE
  8
DETAIL
  6
CONTINUOUS
 62
     5
 10
255.9471116782922
 20
-272.5413146129153
 30
0.0
 11
255.99953805776229
 21
-272.4261639883544
 31
0.0
  0
LINE
  8
DETAIL
  6
CONTINUOUS
 62
     5
 10
255.99953805776229
 20
-272.4261639883544
 30
0.0
 11
255.99953805776229
 21
-272.4261639883544
 31
0.0
  0
LINE
  8
DETAIL
  6
CONTINUOUS
 62
     5
 10
255.99953805776229
 20
-272.4261639883544
 30
0.0
 11
256.05350606505289
 21
-272.31175573216069
 31
0.0
  0
LINE
  8
DETAIL
  6
CONTINUOUS
 62
     5
 10
256.05350606505289
 20
-272.31175573216069
 30
0.0
 11
256.10900819561522
 21
-272.19810502089581
 31
0.0
  0
LINE
  8
DETAIL
  6
CONTINUOUS
 62
     5
 10
256.10900819561522
 20
-272.19810502089581
 30
0.0
 11
256.10900819561522
 21
-272.19810502089581
 31
0.0
  0
LINE
  8
DETAIL
  6
CONTINUOUS
 62
     5
 10
256.10900819561522
 20
-272.19810502089581
 30
0.0
 11
256.16604227412307
 21
-272.08521290409351
 31
0.0
  0
LINE
  8
DETAIL
  6
CONTINUOUS
 62
     5
 10
256.16604227412307
 20
-272.08521290409351
 30
0.0
 11
256.2245984451572
 21
-271.97310094569531
 31
0.0
  0
LINE
  8
DETAIL
  6
CONTINUOUS
 62
     5
 10
256.2245984451572
 20
-271.97310094569531
 30
0.0
 11
256.2245984451572
 21
-271.97310094569531
 31
0.0
  0
LINE
  8
DETAIL
  6
CONTINUOUS
 62
     5
 10
256.2245984451572
 20
-271.97310094569531
 30
0.0
 11
256.2846653641202
 21
-271.86179457946503
 31
0.0
  0
LINE
  8
DETAIL
  6
CONTINUOUS
 62
     5
 10
256.2846653641202
 20
-271.86179457946503
 30
0.0
 11
256.34623340980278
 21
-271.75131420405711
 31
0.0
  0
LINE
  8
DETAIL
  6
CONTINUOUS
 62
     5
 10
256.34623340980278
 20
-271.75131420405711
 30
0.0
 11
256.34623340980278
 21
-271.75131420405711
 31
0.0
  0
LINE
  8
DETAIL
  6
CONTINUOUS
 62
     5
 10
256.34623340980278
 20
-271.75131420405711
 30
0.0
 11
256.40929301234308
 21
-271.64167865789449
 31
0.0
  0
LINE
  8
DETAIL
  6
CONTINUOUS
 62
     5
 10
256.40929301234308
 20
-271.64167865789449
 30
0.0
 11
256.47383308388248
 21
-271.53290557358258
 31
0.0
  0
LINE
  8
DETAIL
  6
CONTINUOUS
 62
     5
 10
256.47383308388248
 20
-271.53290557358258
 30
0.0
 11
256.47383308388248
 21
-271.53290557358258
 31
0.0
  0
LINE
  8
DETAIL
  6
CONTINUOUS
 62
     5
 10
256.47383308388248
 20
-271.53290557358258
 30
0.0
 11
256.5398412536731
 21
-271.42501338309131
 31
0.0
  0
LINE
  8
DETAIL
  6
CONTINUOUS
 62
     5
 10
256.5398412536731
 20
-271.42501338309131
 30
0.0
 11
256.60730153741338
 21
-271.31802492166372
 31
0.0
  0
LINE
  8
DETAIL
  6
CONTINUOUS
 62
     5
 10
256.60730153741338
 20
-271.31802492166372
 30
0.0
 11
256.60730153741338
 21
-271.31802492166372
 31
0.0
  0
LINE
  8
DETAIL
  6
CONTINUOUS
 62
     5
 10
256.60730153741338
 20
-271.31802492166372
 30
0.0
 11
256.67620046919001
 21
-271.21195981833017
 31
0.0
  0
LINE
  8
DETAIL
  6
CONTINUOUS
 62
     5
 10
256.67620046919001
 20
-271.21195981833017
 30
0.0
 11
256.74653827019461
 21
-271.10682047399428
 31
0.0
  0
LINE
  8
DETAIL
  6
CONTINUOUS
 62
     5
 10
256.74653827019461
 20
-271.10682047399428
 30
0.0
 11
256.74653827019461
 21
-271.10682047399428
 31
0.0
  0
LINE
  8
DETAIL
  6
CONTINUOUS
 62
     5
 10
256.74653827019461
 20
-271.10682047399428
 30
0.0
 11
256.81830579967601
 21
-271.00262110983618
 31
0.0
  0
LINE
  8
DETAIL
  6
CONTINUOUS
 62
     5
 10
256.81830579967601
 20
-271.00262110983618
 30
0.0
 11
256.89144278202338
 21
-270.89944045626743
 31
0.0
  0
LINE
  8
DETAIL
  6
CONTINUOUS
 62
     5
 10
256.89144278202338
 20
-270.89944045626743
 30
0.0
 11
256.89144278202338
 21
-270.89944045626743
 31
0.0
  0
LINE
  8
DETAIL
  6
CONTINUOUS
 62
     5
 10
256.89144278202338
 20
-270.89944045626743
 30
0.0
 11
256.96592387099668
 21
-270.79731316880782
 31
0.0
  0
LINE
  8
DETAIL
  6
CONTINUOUS
 62
     5
 10
256.96592387099668
 20
-270.79731316880782
 30
0.0
 11
257.04191457270031
 21
-270.69603309417721
 31
0.0
  0
LINE
  8
DETAIL
  6
CONTINUOUS
 62
     5
 10
257.04191457270031
 20
-270.69603309417721
 30
0.0
 11
257.04191457270031
 21
-270.69603309417721
 31
0.0
  0
LINE
  8
DETAIL
  6
CONTINUOUS
 62
     5
 10
257.04191457270031
 20
-270.69603309417721
 30
0.0
 11
257.11955271896448
 21
-270.59542959888267
 31
0.0
  0
LINE
  8
DETAIL
  6
CONTINUOUS
 62
     5
 10
257.11955271896448
 20
-270.59542959888267
 30
0.0
 11
257.19867459216471
 21
-270.4957149373783
 31
0.0
  0
LINE
  8
DETAIL
  6
CONTINUOUS
 62
     5
 10
257.19867459216471
 20
-270.4957149373783
 30
0.0
 11
257.19867459216471
 21
-270.4957149373783
 31
0.0
  0
LINE
  8
DETAIL
  6
CONTINUOUS
 62
     5
 10
257.19867459216471
 20
-270.4957149373783
 30
0.0
 11
257.27908971282858
 21
-270.39713838503241
 31
0.0
  0
LINE
  8
DETAIL
  6
CONTINUOUS
 62
     5
 10
257.27908971282858
 20
-270.39713838503241
 30
0.0
 11
257.36080210355141
 21
-270.29971441292628
 31
0.0
  0
LINE
  8
DETAIL
  6
CONTINUOUS
 62
     5
 10
257.36080210355141
 20
-270.29971441292628
 30
0.0
 11
257.36080210355141
 21
-270.29971441292628
 31
0.0
  0
LINE
  8
DETAIL
  6
CONTINUOUS
 62
     5
 10
257.36080210355141
 20
-270.29971441292628
 30
0.0
 11
257.44384080561599
 21
-270.20340350653129
 31
0.0
  0
LINE
  8
DETAIL
  6
CONTINUOUS
 62
     5
 10
257.44384080561599
 20
-270.20340350653129
 30
0.0
 11
257.52814043299873
 21
-270.10818501316618
 31
0.0
  0
LINE
  8
DETAIL
  6
CONTINUOUS
 62
     5
 10
257.52814043299873
 20
-270.10818501316618
 30
0.0
 11
257.52814043299873
 21
-270.10818501316618
 31
0.0
  0
LINE
  8
DETAIL
  6
CONTINUOUS
 62
     5
 10
257.52814043299873
 20
-270.10818501316618
 30
0.0
 11
257.61365779464109
 21
-270.01408283483528
 31
0.0
  0
LINE
  8
DETAIL
  6
CONTINUOUS
 62
     5
 10
257.61365779464109
 20
-270.01408283483528
 30
0.0
 11
257.70053290664708
 21
-269.92128023044239
 31
0.0
  0
LINE
  8
DETAIL
  6
CONTINUOUS
 62
     5
 10
257.70053290664708
 20
-269.92128023044239
 30
0.0
 11
257.70053290664708
 21
-269.92128023044239
 31
0.0
  0
LINE
  8
DETAIL
  6
CONTINUOUS
 62
     5
 10
257.70053290664708
 20
-269.92128023044239
 30
0.0
 11
257.78879198657592
 21
-269.82983622575489
 31
0.0
  0
LINE
  8
DETAIL
  6
CONTINUOUS
 62
     5
 10
257.78879198657592
 20
-269.82983622575489
 30
0.0
 11
257.87782285063417
 21
-269.73915355710028
 31
0.0
  0
LINE
  8
DETAIL
  6
CONTINUOUS
 62
     5
 10
269.73915355710028
 20
-257.87782285063452
 30
0.0
 11
269.82983657590398
 21
-257.7887916491149
 31
0.0
  0
LINE
  8
DETAIL
  6
CONTINUOUS
 62
     5
 10
269.82983657590398
 20
-257.7887916491149
 30
0.0
 11
269.92128093646693
 21
-257.70053223772538
 31
0.0
  0
LINE
  8
DETAIL
  6
CONTINUOUS
 62
     5
 10
269.92128093646693
 20
-257.70053223772538
 30
0.0
 11
269.92128093646693
 21
-257.70053223772538
 31
0.0
  0
LINE
  8
DETAIL
  6
CONTINUOUS
 62
     5
 10
269.92128093646693
 20
-257.70053223772538
 30
0.0
 11
270.01408390702699
 21
-257.61365680496732
 31
0.0
  0
LINE
  8
DETAIL
  6
CONTINUOUS
 62
     5
 10
270.01408390702699
 20
-257.61365680496732
 30
0.0
 11
270.10818646173522
 21
-257.52813913282557
 31
0.0
  0
LINE
  8
DETAIL
  6
CONTINUOUS
 62
     5
 10
270.10818646173522
 20
-257.52813913282557
 30
0.0
 11
270.10818646173522
 21
-257.52813913282557
 31
0.0
  0
LINE
  8
DETAIL
  6
CONTINUOUS
 62
     5
 10
270.10818646173522
 20
-257.52813913282557
 30
0.0
 11
270.20340534029827
 21
-257.44383920412952
 31
0.0
  0
LINE
  8
DETAIL
  6
CONTINUOUS
 62
     5
 10
270.20340534029827
 20
-257.44383920412952
 30
0.0
 11
270.29971663872971
 21
-257.36080021160018
 31
0.0
  0
LINE
  8
DETAIL
  6
CONTINUOUS
 62
     5
 10
270.29971663872971
 20
-257.36080021160018
 30
0.0
 11
270.29971663872971
 21
-257.36080021160018
 31
0.0
  0
LINE
  8
DETAIL
  6
CONTINUOUS
 62
     5
 10
270.29971663872971
 20
-257.36080021160018
 30
0.0
 11
270.39714100933378
 21
-257.27908754216941
 31
0.0
  0
LINE
  8
DETAIL
  6
CONTINUOUS
 62
     5
 10
270.39714100933378
 20
-257.27908754216941
 30
0.0
 11
270.4957179732753
 21
-257.19867214971492
 31
0.0
  0
LINE
  8
DETAIL
  6
CONTINUOUS
 62
     5
 10
270.4957179732753
 20
-257.19867214971492
 30
0.0
 11
270.4957179732753
 21
-257.19867214971492
 31
0.0
  0
LINE
  8
DETAIL
  6
CONTINUOUS
 62
     5
 10
270.4957179732753
 20
-257.19867214971492
 30
0.0
 11
270.59543306099732
 21
-257.11955001043168
 31
0.0
  0
LINE
  8
DETAIL
  6
CONTINUOUS
 62
     5
 10
270.59543306099732
 20
-257.11955001043168
 30
0.0
 11
270.6960369711976
 21
-257.04191162283519
 31
0.0
  0
LINE
  8
DETAIL
  6
CONTINUOUS
 62
     5
 10
270.6960369711976
 20
-257.04191162283519
 30
0.0
 11
270.6960369711976
 21
-257.04191162283519
 31
0.0
  0
LINE
  8
DETAIL
  6
CONTINUOUS
 62
     5
 10
270.6960369711976
 20
-257.04191162283519
 30
0.0
 11
270.79731742710811
 21
-256.96592072063902
 31
0.0
  0
LINE
  8
DETAIL
  6
CONTINUOUS
 62
     5
 10
270.79731742710811
 20
-256.96592072063902
 30
0.0
 11
270.89944508182879
 21
-256.89143945603212
 31
0.0
  0
LINE
  8
DETAIL
  6
CONTINUOUS
 62
     5
 10
270.89944508182879
 20
-256.89143945603212
 30
0.0
 11
270.89944508182879
 21
-256.89143945603212
 31
0.0
  0
LINE
  8
DETAIL
  6
CONTINUOUS
 62
     5
 10
270.89944508182879
 20
-256.89143945603212
 30
0.0
 11
271.00262611350507
 21
-256.81830230335851
 31
0.0
  0
LINE
  8
DETAIL
  6
CONTINUOUS
 62
     5
 10
271.00262611350507
 20
-256.81830230335851
 30
0.0
 11
271.10682587059608
 21
-256.74653460710698
 31
0.0
  0
LINE
  8
DETAIL
  6
CONTINUOUS
 62
     5
 10
271.10682587059608
 20
-256.74653460710698
 30
0.0
 11
271.10682587059608
 21
-256.74653460710698
 31
0.0
  0
LINE
  8
DETAIL
  6
CONTINUOUS
 62
     5
 10
271.10682587059608
 20
-256.74653460710698
 30
0.0
 11
271.21196561725509
 21
-256.67619664744421
 31
0.0
  0
LINE
  8
DETAIL
  6
CONTINUOUS
 62
     5
 10
271.21196561725509
 20
-256.67619664744421
 30
0.0
 11
271.31803111010981
 21
-256.60729757710573
 31
0.0
  0
LINE
  8
DETAIL
  6
CONTINUOUS
 62
     5
 10
271.31803111010981
 20
-256.60729757710573
 30
0.0
 11
271.31803111010981
 21
-256.60729757710573
 31
0.0
  0
LINE
  8
DETAIL
  6
CONTINUOUS
 62
     5
 10
271.31803111010981
 20
-256.60729757710573
 30
0.0
 11
271.42501994385412
 21
-256.53983717686452
 31
0.0
  0
LINE
  8
DETAIL
  6
CONTINUOUS
 62
     5
 10
271.42501994385412
 20
-256.53983717686452
 30
0.0
 11
271.53291257298008
 21
-256.47382886707499
 31
0.0
  0
LINE
  8
DETAIL
  6
CONTINUOUS
 62
     5
 10
271.53291257298008
 20
-256.47382886707499
 30
0.0
 11
271.53291257298008
 21
-256.47382886707499
 31
0.0
  0
LINE
  8
DETAIL
  6
CONTINUOUS
 62
     5
 10
271.53291257298008
 20
-256.47382886707499
 30
0.0
 11
271.64168618401408
 21
-256.40928862026351
 31
0.0
  0
LINE
  8
DETAIL
  6
CONTINUOUS
 62
     5
 10
271.64168618401408
 20
-256.40928862026351
 30
0.0
 11
271.75132203181761
 21
-256.34622897806048
 31
0.0
  0
LINE
  8
DETAIL
  6
CONTINUOUS
 62
     5
 10
271.75132203181761
 20
-256.34622897806048
 30
0.0
 11
271.75132203181761
 21
-256.34622897806048
 31
0.0
  0
LINE
  8
DETAIL
  6
CONTINUOUS
 62
     5
 10
271.75132203181761
 20
-256.34622897806048
 30
0.0
 11
271.86180221801408
 21
-256.284661170628
 31
0.0
  0
LINE
  8
DETAIL
  6
CONTINUOUS
 62
     5
 10
271.86180221801408
 20
-256.284661170628
 30
0.0
 11
271.97310816294271
 21
-256.22459461314469
 31
0.0
  0
LINE
  8
DETAIL
  6
CONTINUOUS
 62
     5
 10
271.97310816294271
 20
-256.22459461314469
 30
0.0
 11
271.97310816294271
 21
-256.22459461314469
 31
0.0
  0
LINE
  8
DETAIL
  6
CONTINUOUS
 62
     5
 10
271.97310816294271
 20
-256.22459461314469
 30
0.0
 11
272.08521977560548
 21
-256.16603874619892
 31
0.0
  0
LINE
  8
DETAIL
  6
CONTINUOUS
 62
     5
 10
272.08521977560548
 20
-256.16603874619892
 30
0.0
 11
272.19811160094082
 21
-256.10900492699687
 31
0.0
  0
LINE
  8
DETAIL
  6
CONTINUOUS
 62
     5
 10
272.19811160094082
 20
-256.10900492699687
 30
0.0
 11
272.19811160094082
 21
-256.10900492699687
 31
0.0
  0
LINE
  8
DETAIL
  6
CONTINUOUS
 62
     5
 10
272.19811160094082
 20
-256.10900492699687
 30
0.0
 11
272.31176199297101
 21
-256.05350305913908
 31
0.0
  0
LINE
  8
DETAIL
  6
CONTINUOUS
 62
     5
 10
272.31176199297101
 20
-256.05350305913908
 30
0.0
 11
272.42616990611151
 21
-255.99953531518671
 31
0.0
  0
LINE
  8
DETAIL
  6
CONTINUOUS
 62
     5
 10
272.42616990611151
 20
-255.99953531518671
 30
0.0
 11
272.42616990611151
 21
-255.99953531518671
 31
0.0
  0
LINE
  8
DETAIL
  6
CONTINUOUS
 62
     5
 10
272.42616990611151
 20
-255.99953531518671
 30
0.0
 11
272.54132018549649
 21
-255.9471091868264
 31
0.0
  0
LINE
  8
DETAIL
  6
CONTINUOUS
 62
     5
 10
272.54132018549649
 20
-255.9471091868264
 30
0.0
 11
272.65712063875412
 21
-255.8962611732837
 31
0.0
  0
LINE
  8
DETAIL
  6
CONTINUOUS
 62
     5
 10
272.65712063875412
 20
-255.8962611732837
 30
0.0
 11
272.65712063875412
 21
-255.8962611732837
 31
0.0
  0
LINE
  8
DETAIL
  6
CONTINUOUS
 62
     5
 10
272.65712063875412
 20
-255.8962611732837
 30
0.0
 11
272.77353170154367
 21
-255.8470079508898
 31
0.0
  0
LINE
  8
DETAIL
  6
CONTINUOUS
 62
     5
 10
272.77353170154367
 20
-255.8470079508898
 30
0.0
 11
272.89080135916879
 21
-255.7992578968568
 31
0.0
  0
LINE
  8
DETAIL
  6
CONTINUOUS
 62
     5
 10
272.89080135916879
 20
-255.7992578968568
 30
0.0
 11
272.89080135916879
 21
-255.7992578968568
 31
0.0
  0
LINE
  8
DETAIL
  6
CONTINUOUS
 62
     5
 10
272.89080135916879
 20
-255.7992578968568
 30
0.0
 11
273.00913559165542
 21
-255.75293560806341
 31
0.0
  0
LINE
  8
DETAIL
  6
CONTINUOUS
 62
     5
 10
273.00913559165542
 20
-255.75293560806341
 30
0.0
 11
273.12828480828222
 21
-255.70813885917741
 31
0.0
  0
LINE
  8
DETAIL
  6
CONTINUOUS
 62
     5
 10
273.12828480828222
 20
-255.70813885917741
 30
0.0
 11
273.12828480828222
 21
-255.70813885917741
 31
0.0
  0
LINE
  8
DETAIL
  6
CONTINUOUS
 62
     5
 10
273.12828480828222
 20
-255.70813885917741
 30
0.0
 11
273.24795742313091
 21
-255.66498340118159
 31
0.0
  0
LINE
  8
DETAIL
  6
CONTINUOUS
 62
     5
 10
273.24795742313091
 20
-255.66498340118159
 30
0.0
 11
273.36814944023649
 21
-255.62348371253151
 31
0.0
  0
LINE
  8
DETAIL
  6
CONTINUOUS
 62
     5
 10
273.36814944023649
 20
-255.62348371253151
 30
0.0
 11
273.36814944023649
 21
-255.62348371253151
 31
0.0
  0
LINE
  8
DETAIL
  6
CONTINUOUS
 62
     5
 10
273.36814944023649
 20
-255.62348371253151
 30
0.0
 11
273.48890609235127
 21
-255.58362085141269
 31
0.0
  0
LINE
  8
DETAIL
  6
CONTINUOUS
 62
     5
 10
273.48890609235127
 20
-255.58362085141269
 30
0.0
 11
273.61018193713812
 21
-255.5453434674636
 31
0.0
  0
LINE
  8
DETAIL
  6
CONTINUOUS
 62
     5
 10
273.61018193713812
 20
-255.5453434674636
 30
0.0
 11
273.61018193713812
 21
-255.5453434674636
 31
0.0
  0
LINE
  8
DETAIL
  6
CONTINUOUS
 62
     5
 10
273.61018193713812
 20
-255.5453434674636
 30
0.0
 11
273.73192764108882
 21
-255.50864983486471
 31
0.0
  0
LINE
  8
DETAIL
  6
CONTINUOUS
 62
     5
 10
273.73192764108882
 20
-255.50864983486471
 30
0.0
 11
273.85416898109378
 21
-255.4737691345172
 31
0.0
  0
LINE
  8
DETAIL
  6
CONTINUOUS
 62
     5
 10
273.85416898109378
 20
-255.4737691345172
 30
0.0
 11
273.85416898109378
 21
-255.4737691345172
 31
0.0
  0
LINE
  8
DETAIL
  6
CONTINUOUS
 62
     5
 10
273.85416898109378
 20
-255.4737691345172
 30
0.0
 11
273.97689807001609
 21
-255.44076546941889
 31
0.0
  0
LINE
  8
DETAIL
  6
CONTINUOUS
 62
     5
 10
273.97689807001609
 20
-255.44076546941889
 30
0.0
 11
274.09989725421087
 21
-255.40881172423639
 31
0.0
  0
LINE
  8
DETAIL
  6
CONTINUOUS
 62
     5
 10
275.89216139740279
 20
-258.57429141027671
 30
0.0
 11
275.76916221320812
 21
-258.60624515547408
 31
0.0
  0
LINE
  8
DETAIL
  6
CONTINUOUS
 62
     5
 10
275.76916221320812
 20
-258.60624515547408
 30
0.0
 11
275.64643312428569
 21
-258.63924882059843
 31
0.0
  0
LINE
  8
DETAIL
  6
CONTINUOUS
 62
     5
 10
275.64643312428569
 20
-258.63924882059843
 30
0.0
 11
275.64643312428569
 21
-258.63924882059843
 31
0.0
  0
LINE
  8
DETAIL
  6
CONTINUOUS
 62
     5
 10
275.64643312428569
 20
-258.63924882059843
 30
0.0
 11
275.52419178428067
 21
-258.67412952098948
 31
0.0
  0
LINE
  8
DETAIL
  6
CONTINUOUS
 62
     5
 10
275.52419178428067
 20
-258.67412952098948
 30
0.0
 11
275.40244608032958
 21
-258.71082315364492
 31
0.0
  0
LINE
  8
DETAIL
  6
CONTINUOUS
 62
     5
 10
275.40244608032958
 20
-258.71082315364492
 30
0.0
 11
275.40244608032958
 21
-258.71082315364492
 31
0.0
  0
LINE
  8
DETAIL
  6
CONTINUOUS
 62
     5
 10
275.40244608032958
 20
-258.71082315364492
 30
0.0
 11
275.28117023554267
 21
-258.74910053765598
 31
0.0
  0
LINE
  8
DETAIL
  6
CONTINUOUS
 62
     5
 10
275.28117023554267
 20
-258.74910053765598
 30
0.0
 11
275.16041358342841
 21
-258.78896339883789
 31
0.0
  0
LINE
  8
DETAIL
  6
CONTINUOUS
 62
     5
 10
275.16041358342841
 20
-258.78896339883789
 30
0.0
 11
275.16041358342841
 21
-258.78896339883789
 31
0.0
  0
LINE
  8
DETAIL
  6
CONTINUOUS
 62
     5
 10
275.16041358342841
 20
-258.78896339883789
 30
0.0
 11
275.040221566323
 21
-258.83046308754888
 31
0.0
  0
LINE
  8
DETAIL
  6
CONTINUOUS
 62
     5
 10
275.040221566323
 20
-258.83046308754888
 30
0.0
 11
274.92054895147407
 21
-258.87361854559902
 31
0.0
  0
LINE
  8
DETAIL
  6
CONTINUOUS
 62
     5
 10
274.92054895147407
 20
-258.87361854559902
 30
0.0
 11
274.92054895147407
 21
-258.87361854559902
 31
0.0
  0
LINE
  8
DETAIL
  6
CONTINUOUS
 62
     5
 10
274.92054895147407
 20
-258.87361854559902
 30
0.0
 11
274.80139973484688
 21
-258.91841529452842
 31
0.0
  0
LINE
  8
DETAIL
  6
CONTINUOUS
 62
     5
 10
274.80139973484688
 20
-258.91841529452842
 30
0.0
 11
274.68306550236031
 21
-258.9647375833502
 31
0.0
  0
LINE
  8
DETAIL
  6
CONTINUOUS
 62
     5
 10
274.68306550236031
 20
-258.9647375833502
 30
0.0
 11
274.68306550236031
 21
-258.9647375833502
 31
0.0
  0
LINE
  8
DETAIL
  6
CONTINUOUS
 62
     5
 10
274.68306550236031
 20
-258.9647375833502
 30
0.0
 11
274.56579584473519
 21
-259.01248763739318
 31
0.0
  0
LINE
  8
DETAIL
  6
CONTINUOUS
 62
     5
 10
274.56579584473519
 20
-259.01248763739318
 30
0.0
 11
274.44938478194558
 21
-259.06174085978017
 31
0.0
  0
LINE
  8
DETAIL
  6
CONTINUOUS
 62
     5
 10
274.44938478194558
 20
-259.06174085978017
 30
0.0
 11
274.44938478194558
 21
-259.06174085978017
 31
0.0
  0
LINE
  8
DETAIL
  6
CONTINUOUS
 62
     5
 10
274.44938478194558
 20
-259.06174085978017
 30
0.0
 11
274.33358432868772
 21
-259.11258887330229
 31
0.0
  0
LINE
  8
DETAIL
  6
CONTINUOUS
 62
     5
 10
274.33358432868772
 20
-259.11258887330229
 30
0.0
 11
274.21843404930291
 21
-259.16501500163082
 31
0.0
  0
LINE
  8
DETAIL
  6
CONTINUOUS
 62
     5
 10
274.21843404930291
 20
-259.16501500163082
 30
0.0
 11
274.21843404930291
 21
-259.16501500163082
 31
0.0
  0
LINE
  8
DETAIL
  6
CONTINUOUS
 62
     5
 10
274.21843404930291
 20
-259.16501500163082
 30
0.0
 11
274.10402613616287
 21
-259.21898274554269
 31
0.0
  0
LINE
  8
DETAIL
  6
CONTINUOUS
 62
     5
 10
274.10402613616287
 20
-259.21898274554269
 30
0.0
 11
273.99037574413228
 21
-259.27448461335467
 31
0.0
  0
LINE
  8
DETAIL
  6
CONTINUOUS
 62
     5
 10
273.99037574413228
 20
-259.27448461335467
 30
0.0
 11
273.99037574413228
 21
-259.27448461335467
 31
0.0
  0
LINE
  8
DETAIL
  6
CONTINUOUS
 62
     5
 10
273.99037574413228
 20
-259.27448461335467
 30
0.0
 11
273.877483918797
 21
-259.33151843250738
 31
0.0
  0
LINE
  8
DETAIL
  6
CONTINUOUS
 62
     5
 10
273.877483918797
 20
-259.33151843250738
 30
0.0
 11
273.76537230613462
 21
-259.39007429940358
 31
0.0
  0
LINE
  8
DETAIL
  6
CONTINUOUS
 62
     5
 10
273.76537230613462
 20
-259.39007429940358
 30
0.0
 11
273.76537230613462
 21
-259.39007429940358
 31
0.0
  0
LINE
  8
DETAIL
  6
CONTINUOUS
 62
     5
 10
273.76537230613462
 20
-259.39007429940358
 30
0.0
 11
273.65406636120571
 21
-259.4501408568396
 31
0.0
  0
LINE
  8
DETAIL
  6
CONTINUOUS
 62
     5
 10
273.65406636120571
 20
-259.4501408568396
 30
0.0
 11
273.54358617500912
 21
-259.51170866423018
 31
0.0
  0
LINE
  8
DETAIL
  6
CONTINUOUS
 62
     5
 10
273.54358617500912
 20
-259.51170866423018
 30
0.0
 11
273.54358617500912
 21
-259.51170866423018
 31
0.0
  0
LINE
  8
DETAIL
  6
CONTINUOUS
 62
     5
 10
273.54358617500912
 20
-259.51170866423018
 30
0.0
 11
273.43395032720599
 21
-259.57476830639791
 31
0.0
  0
LINE
  8
DETAIL
  6
CONTINUOUS
 62
     5
 10
273.43395032720599
 20
-259.57476830639791
 30
0.0
 11
273.32517671617171
 21
-259.63930855318142
 31
0.0
  0
LINE
  8
DETAIL
  6
CONTINUOUS
 62
     5
 10
273.32517671617171
 20
-259.63930855318142
 30
0.0
 11
273.32517671617171
 21
-259.63930855318142
 31
0.0
  0
LINE
  8
DETAIL
  6
CONTINUOUS
 62
     5
 10
273.32517671617171
 20
-259.63930855318142
 30
0.0
 11
273.21728408704553
 21
-259.70531686294908
 31
0.0
  0
LINE
  8
DETAIL
  6
CONTINUOUS
 62
     5
 10
273.21728408704553
 20
-259.70531686294908
 30
0.0
 11
273.11029525330167
 21
-259.77277726317391
 31
0.0
  0
LINE
  8
DETAIL
  6
CONTINUOUS
 62
     5
 10
273.11029525330167
 20
-259.77277726317391
 30
0.0
 11
273.11029525330167
 21
-259.77277726317391
 31
0.0
  0
LINE
  8
DETAIL
  6
CONTINUOUS
 62
     5
 10
273.11029525330167
 20
-259.77277726317391
 30
0.0
 11
273.00422976044712
 21
-259.84167633350057
 31
0.0
  0
LINE
  8
DETAIL
  6
CONTINUOUS
 62
     5
 10
273.00422976044712
 20
-259.84167633350057
 30
0.0
 11
272.8990900137876
 21
-259.91201429315521
 31
0.0
  0
LINE
  8
DETAIL
  6
CONTINUOUS
 62
     5
 10
272.8990900137876
 20
-259.91201429315521
 30
0.0
 11
272.8990900137876
 21
-259.91201429315521
 31
0.0
  0
LINE
  8
DETAIL
  6
CONTINUOUS
 62
     5
 10
272.8990900137876
 20
-259.91201429315521
 30
0.0
 11
272.79489025669699
 21
-259.98378198940208
 31
0.0
  0
LINE
  8
DETAIL
  6
CONTINUOUS
 62
     5
 10
272.79489025669699
 20
-259.98378198940208
 30
0.0
 11
272.6917092250203
 21
-260.05691914207318
 31
0.0
  0
LINE
  8
DETAIL
  6
CONTINUOUS
 62
     5
 10
272.6917092250203
 20
-260.05691914207318
 30
0.0
 11
272.6917092250203
 21
-260.05691914207318
 31
0.0
  0
LINE
  8
DETAIL
  6
CONTINUOUS
 62
     5
 10
272.6917092250203
 20
-260.05691914207318
 30
0.0
 11
272.58958157030003
 21
-260.13140040667918
 31
0.0
  0
LINE
  8
DETAIL
  6
CONTINUOUS
 62
     5
 10
272.58958157030003
 20
-260.13140040667918
 30
0.0
 11
272.48830111438951
 21
-260.20739130887551
 31
0.0
  0
LINE
  8
DETAIL
  6
CONTINUOUS
 62
     5
 10
272.48830111438951
 20
-260.20739130887551
 30
0.0
 11
272.48830111438951
 21
-260.20739130887551
 31
0.0
  0
LINE
  8
DETAIL
  6
CONTINUOUS
 62
     5
 10
272.48830111438951
 20
-260.20739130887551
 30
0.0
 11
272.38769720418787
 21
-260.28502969647292
 31
0.0
  0
LINE
  8
DETAIL
  6
CONTINUOUS
 62
     5
 10
272.38769720418787
 20
-260.28502969647292
 30
0.0
 11
272.28798211646091
 21
-260.36415183576128
 31
0.0
  0
LINE
  8
DETAIL
  6
CONTINUOUS
 62
     5
 10
272.28798211646091
 20
-260.36415183576128
 30
0.0
 11
272.28798211646091
 21
-260.36415183576128
 31
0.0
  0
LINE
  8
DETAIL
  6
CONTINUOUS
 62
     5
 10
272.28798211646091
 20
-260.36415183576128
 30
0.0
 11
272.18940515250478
 21
-260.44456722823048
 31
0.0
  0
LINE
  8
DETAIL
  6
CONTINUOUS
 62
     5
 10
272.18940515250478
 20
-260.44456722823048
 30
0.0
 11
272.0919807818716
 21
-260.52627989769019
 31
0.0
  0
LINE
  8
DETAIL
  6
CONTINUOUS
 62
     5
 10
272.0919807818716
 20
-260.52627989769019
 30
0.0
 11
272.0919807818716
 21
-260.52627989769019
 31
0.0
  0
LINE
  8
DETAIL
  6
CONTINUOUS
 62
     5
 10
272.0919807818716
 20
-260.52627989769019
 30
0.0
 11
271.99566948339248
 21
-260.60931889026739
 31
0.0
  0
LINE
  8
DETAIL
  6
CONTINUOUS
 62
     5
 10
271.99566948339248
 20
-260.60931889026739
 30
0.0
 11
271.90045060475933
 21
-260.6936188190337
 31
0.0
  0
LINE
  8
DETAIL
  6
CONTINUOUS
 62
     5
 10
271.90045060475933
 20
-260.6936188190337
 30
0.0
 11
271.90045060475933
 21
-260.6936188190337
 31
0.0
  0
LINE
  8
DETAIL
  6
CONTINUOUS
 62
     5
 10
271.90045060475933
 20
-260.6936188190337
 30
0.0
 11
271.80634804995469
 21
-260.77913649127169
 31
0.0
  0
LINE
  8
DETAIL
  6
CONTINUOUS
 62
     5
 10
271.80634804995469
 20
-260.77913649127169
 30
0.0
 11
271.71354507926128
 21
-260.86601192416339
 31
0.0
  0
LINE
  8
DETAIL
  6
CONTINUOUS
 62
     5
 10
271.71354507926128
 20
-260.86601192416339
 30
0.0
 11
271.71354507926128
 21
-260.86601192416339
 31
0.0
  0
LINE
  8
DETAIL
  6
CONTINUOUS
 62
     5
 10
271.71354507926128
 20
-260.86601192416339
 30
0.0
 11
271.6221007185211
 21
-260.95427133572969
 31
0.0
  0
LINE
  8
DETAIL
  6
CONTINUOUS
 62
     5
 10
271.6221007185211
 20
-260.95427133572969
 30
0.0
 11
271.53141769951537
 21
-261.0433025374511
 31
0.0
  0
LINE
  8
DETAIL
  6
CONTINUOUS
 62
     5
 10
261.04330253667439
 20
-271.5314177002918
 30
0.0
 11
260.95427167261607
 21
-271.62210036894652
 31
0.0
  0
LINE
  8
DETAIL
  6
CONTINUOUS
 62
     5
 10
260.95427167261607
 20
-271.62210036894652
 30
0.0
 11
260.86601259268741
 21
-271.71354437363408
 31
0.0
  0
LINE
  8
DETAIL
  6
CONTINUOUS
 62
     5
 10
260.86601259268741
 20
-271.71354437363408
 30
0.0
 11
260.86601259268741
 21
-271.71354437363408
 31
0.0
  0
LINE
  8
DETAIL
  6
CONTINUOUS
 62
     5
 10
260.86601259268741
 20
-271.71354437363408
 30
0.0
 11
260.77913748068141
 21
-271.80634697802708
 31
0.0
  0
LINE
  8
DETAIL
  6
CONTINUOUS
 62
     5
 10
260.77913748068141
 20
-271.80634697802708
 30
0.0
 11
260.693620119039
 21
-271.90044915635792
 31
0.0
  0
LINE
  8
DETAIL
  6
CONTINUOUS
 62
     5
 10
260.693620119039
 20
-271.90044915635792
 30
0.0
 11
260.693620119039
 21
-271.90044915635792
 31
0.0
  0
LINE
  8
DETAIL
  6
CONTINUOUS
 62
     5
 10
260.693620119039
 20
-271.90044915635792
 30
0.0
 11
260.60932049165581
 21
-271.9956676497232
 31
0.0
  0
LINE
  8
DETAIL
  6
CONTINUOUS
 62
     5
 10
260.60932049165581
 20
-271.9956676497232
 30
0.0
 11
260.52628178959162
 21
-272.09197855611802
 31
0.0
  0
LINE
  8
DETAIL
  6
CONTINUOUS
 62
     5
 10
260.52628178959162
 20
-272.09197855611802
 30
0.0
 11
260.52628178959162
 21
-272.09197855611802
 31
0.0
  0
LINE
  8
DETAIL
  6
CONTINUOUS
 62
     5
 10
260.52628178959162
 20
-272.09197855611802
 30
0.0
 11
260.44456939886891
 21
-272.18940252822409
 31
0.0
  0
LINE
  8
DETAIL
  6
CONTINUOUS
 62
     5
 10
260.44456939886891
 20
-272.18940252822409
 30
0.0
 11
260.36415427820498
 21
-272.2879790805701
 31
0.0
  0
LINE
  8
DETAIL
  6
CONTINUOUS
 62
     5
 10
260.36415427820498
 20
-272.2879790805701
 30
0.0
 11
260.36415427820498
 21
-272.2879790805701
 31
0.0
  0
LINE
  8
DETAIL
  6
CONTINUOUS
 62
     5
 10
260.36415427820498
 20
-272.2879790805701
 30
0.0
 11
260.28503240500481
 21
-272.38769374207442
 31
0.0
  0
LINE
  8
DETAIL
  6
CONTINUOUS
 62
     5
 10
260.28503240500481
 20
-272.38769374207442
 30
0.0
 11
260.20739425874058
 21
-272.48829723736878
 31
0.0
  0
LINE
  8
DETAIL
  6
CONTINUOUS
 62
     5
 10
260.20739425874058
 20
-272.48829723736878
 30
0.0
 11
260.20739425874058
 21
-272.48829723736878
 31
0.0
  0
LINE
  8
DETAIL
  6
CONTINUOUS
 62
     5
 10
260.20739425874058
 20
-272.48829723736878
 30
0.0
 11
260.13140355703672
 21
-272.58957731199928
 31
0.0
  0
LINE
  8
DETAIL
  6
CONTINUOUS
 62
     5
 10
260.13140355703672
 20
-272.58957731199928
 30
0.0
 11
260.05692246806512
 21
-272.69170459945917
 31
0.0
  0
LINE
  8
DETAIL
  6
CONTINUOUS
 62
     5
 10
260.05692246806512
 20
-272.69170459945917
 30
0.0
 11
260.05692246806512
 21
-272.69170459945917
 31
0.0
  0
LINE
  8
DETAIL
  6
CONTINUOUS
 62
     5
 10
260.05692246806512
 20
-272.69170459945917
 30
0.0
 11
259.98378548571992
 21
-272.79488525302793
 31
0.0
  0
LINE
  8
DETAIL
  6
CONTINUOUS
 62
     5
 10
259.98378548571992
 20
-272.79488525302793
 30
0.0
 11
259.91201795624312
 21
-272.89908461718602
 31
0.0
  0
LINE
  8
DETAIL
  6
CONTINUOUS
 62
     5
 10
259.91201795624312
 20
-272.89908461718602
 30
0.0
 11
259.91201795624312
 21
-272.89908461718602
 31
0.0
  0
LINE
  8
DETAIL
  6
CONTINUOUS
 62
     5
 10
259.91201795624312
 20
-272.89908461718602
 30
0.0
 11
259.84168015524688
 21
-273.00422396152192
 31
0.0
  0
LINE
  8
DETAIL
  6
CONTINUOUS
 62
     5
 10
259.84168015524688
 20
-273.00422396152192
 30
0.0
 11
259.77278122348139
 21
-273.11028906485558
 31
0.0
  0
LINE
  8
DETAIL
  6
CONTINUOUS
 62
     5
 10
259.77278122348139
 20
-273.11028906485558
 30
0.0
 11
259.77278122348139
 21
-273.11028906485558
 31
0.0
  0
LINE
  8
DETAIL
  6
CONTINUOUS
 62
     5
 10
259.77278122348139
 20
-273.11028906485558
 30
0.0
 11
259.70532093975748
 21
-273.217277526283
 31
0.0
  0
LINE
  8
DETAIL
  6
CONTINUOUS
 62
     5
 10
259.70532093975748
 20
-273.217277526283
 30
0.0
 11
259.63931276998869
 21
-273.3251697167745
 31
0.0
  0
LINE
  8
DETAIL
  6
CONTINUOUS
 62
     5
 10
259.63931276998869
 20
-273.3251697167745
 30
0.0
 11
259.63931276998869
 21
-273.3251697167745
 31
0.0
  0
LINE
  8
DETAIL
  6
CONTINUOUS
 62
     5
 10
259.63931276998869
 20
-273.3251697167745
 30
0.0
 11
259.574772698478
 21
-273.43394280108629
 31
0.0
  0
LINE
  8
DETAIL
  6
CONTINUOUS
 62
     5
 10
259.574772698478
 20
-273.43394280108629
 30
0.0
 11
259.51171309597231
 21
-273.5435783472488
 31
0.0
  0
LINE
  8
DETAIL
  6
CONTINUOUS
 62
     5
 10
259.51171309597231
 20
-273.5435783472488
 30
0.0
 11
259.51171309597231
 21
-273.5435783472488
 31
0.0
  0
LINE
  8
DETAIL
  6
CONTINUOUS
 62
     5
 10
259.51171309597231
 20
-273.5435783472488
 30
0.0
 11
259.45014505033191
 21
-273.65405872265637
 31
0.0
  0
LINE
  8
DETAIL
  6
CONTINUOUS
 62
     5
 10
259.45014505033191
 20
-273.65405872265637
 30
0.0
 11
259.3900781314162
 21
-273.76536508888682
 31
0.0
  0
LINE
  8
DETAIL
  6
CONTINUOUS
 62
     5
 10
259.3900781314162
 20
-273.76536508888682
 30
0.0
 11
259.3900781314162
 21
-273.76536508888682
 31
0.0
  0
LINE
  8
DETAIL
  6
CONTINUOUS
 62
     5
 10
259.3900781314162
 20
-273.76536508888682
 30
0.0
 11
259.33152196043159
 21
-273.87747704728542
 31
0.0
  0
LINE
  8
DETAIL
  6
CONTINUOUS
 62
     5
 10
259.33152196043159
 20
-273.87747704728542
 30
0.0
 11
259.27448788197279
 21
-273.99036916408733
 31
0.0
  0
LINE
  8
DETAIL
  6
CONTINUOUS
 62
     5
 10
259.27448788197279
 20
-273.99036916408733
 30
0.0
 11
259.27448788197279
 21
-273.99036916408733
 31
0.0
  0
LINE
  8
DETAIL
  6
CONTINUOUS
 62
     5
 10
259.27448788197279
 20
-273.99036916408733
 30
0.0
 11
259.21898575145661
 21
-274.10401987535238
 31
0.0
  0
LINE
  8
DETAIL
  6
CONTINUOUS
 62
     5
 10
259.21898575145661
 20
-274.10401987535238
 30
0.0
 11
259.16501774420641
 21
-274.21842813154609
 31
0.0
  0
LINE
  8
DETAIL
  6
CONTINUOUS
 62
     5
 10
259.16501774420641
 20
-274.21842813154609
 30
0.0
 11
259.16501774420641
 21
-274.21842813154609
 31
0.0
  0
LINE
  8
DETAIL
  6
CONTINUOUS
 62
     5
 10
259.16501774420641
 20
-274.21842813154609
 30
0.0
 11
259.11259136476821
 21
-274.3335787561071
 31
0.0
  0
LINE
  8
DETAIL
  6
CONTINUOUS
 62
     5
 10
259.11259136476821
 20
-274.3335787561071
 30
0.0
 11
259.0617431146818
 21
-274.44937954995959
 31
0.0
  0
LINE
  8
DETAIL
  6
CONTINUOUS
 62
     5
 10
259.0617431146818
 20
-274.44937954995959
 30
0.0
 11
259.0617431146818
 21
-274.44937954995959
 31
0.0
  0
LINE
  8
DETAIL
  6
CONTINUOUS
 62
     5
 10
259.0617431146818
 20
-274.44937954995959
 30
0.0
 11
259.01248966776598
 21
-274.56579095231177
 31
0.0
  0
LINE
  8
DETAIL
  6
CONTINUOUS
 62
     5
 10
259.01248966776598
 20
-274.56579095231177
 30
0.0
 11
258.96473938996428
 21
-274.68306097802389
 31
0.0
  0
LINE
  8
DETAIL
  6
CONTINUOUS
 62
     5
 10
258.96473938996428
 20
-274.68306097802389
 30
0.0
 11
258.96473938996428
 21
-274.68306097802389
 31
0.0
  0
LINE
  8
DETAIL
  6
CONTINUOUS
 62
     5
 10
258.96473938996428
 20
-274.68306097802389
 30
0.0
 11
258.918416869564
 21
-274.80139563091421
 31
0.0
  0
LINE
  8
DETAIL
  6
CONTINUOUS
 62
     5
 10
258.918416869564
 20
-274.80139563091421
 30
0.0
 11
258.87361989209131
 21
-274.92054529498972
 31
0.0
  0
LINE
  8
DETAIL
  6
CONTINUOUS
 62
     5
 10
258.87361989209131
 20
-274.92054529498972
 30
0.0
 11
258.87361989209131
 21
-274.92054529498972
 31
0.0
  0
LINE
  8
DETAIL
  6
CONTINUOUS
 62
     5
 10
258.87361989209131
 20
-274.92054529498972
 30
0.0
 11
258.83046422097209
 21
-275.04021835466727
 31
0.0
  0
LINE
  8
DETAIL
  6
CONTINUOUS
 62
     5
 10
258.83046422097209
 20
-275.04021835466727
 30
0.0
 11
258.78896433397932
 21
-275.16041081581238
 31
0.0
  0
LINE
  8
DETAIL
  6
CONTINUOUS
 62
     5
 10
258.78896433397932
 20
-275.16041081581238
 30
0.0
 11
258.78896433397932
 21
-275.16041081581238
 31
0.0
  0
LINE
  8
DETAIL
  6
CONTINUOUS
 62
     5
 10
258.78896433397932
 20
-275.16041081581238
 30
0.0
 11
258.74910128610168
 21
-275.28116791874697
 31
0.0
  0
LINE
  8
DETAIL
  6
CONTINUOUS
 62
     5
 10
258.74910128610168
 20
-275.28116791874697
 30
0.0
 11
258.71082372683509
 21
-275.40244422016758
 31
0.0
  0
LINE
  8
DETAIL
  6
CONTINUOUS
 62
     5
 10
258.71082372683509
 20
-275.40244422016758
 30
0.0
 11
258.71082372683509
 21
-275.40244422016758
 31
0.0
  0
LINE
  8
DETAIL
  6
CONTINUOUS
 62
     5
 10
258.71082372683509
 20
-275.40244422016758
 30
0.0
 11
258.6741299312082
 21
-275.52419038412728
 31
0.0
  0
LINE
  8
DETAIL
  6
CONTINUOUS
 62
     5
 10
258.6741299312082
 20
-275.52419038412728
 30
0.0
 11
258.6392490818655
 21
-275.64643218773108
 31
0.0
  0
LINE
  8
DETAIL
  6
CONTINUOUS
 62
     5
 10
258.6392490818655
 20
-275.64643218773108
 30
0.0
 11
258.6392490818655
 21
-275.64643218773108
 31
0.0
  0
LINE
  8
DETAIL
  6
CONTINUOUS
 62
     5
 10
258.6392490818655
 20
-275.64643218773108
 30
0.0
 11
258.6062452821127
 21
-275.76916174420188
 31
0.0
  0
LINE
  8
DETAIL
  6
CONTINUOUS
 62
     5
 10
258.6062452821127
 20
-275.76916174420188
 30
0.0
 11
258.57429141027683
 21
-275.89216139817921
 31
0.0
  0
LINE
  8
DETAIL
  6
CONTINUOUS
 62
     5
 10
-258.5742914102766
 20
-275.89216139817921
 30
0.0
 11
-258.60624515545902
 21
-275.76916221378258
 31
0.0
  0
LINE
  8
DETAIL
  6
CONTINUOUS
 62
     5
 10
-258.60624515545902
 20
-275.76916221378258
 30
0.0
 11
-258.63924882055738
 21
-275.64643312468428
 31
0.0
  0
LINE
  8
DETAIL
  6
CONTINUOUS
 62
     5
 10
-258.63924882055738
 20
-275.64643312468428
 30
0.0
 11
-258.63924882055738
 21
-275.64643312468428
 31
0.0
  0
LINE
  8
DETAIL
  6
CONTINUOUS
 62
     5
 10
-258.63924882055738
 20
-275.64643312468428
 30
0.0
 11
-258.6741295209049
 21
-275.52419178454812
 31
0.0
  0
LINE
  8
DETAIL
  6
CONTINUOUS
 62
     5
 10
-258.6741295209049
 20
-275.52419178454812
 30
0.0
 11
-258.71082315350372
 21
-275.40244608050568
 31
0.0
  0
LINE
  8
DETAIL
  6
CONTINUOUS
 62
     5
 10
-258.71082315350372
 20
-275.40244608050568
 30
0.0
 11
-258.71082315350372
 21
-275.40244608050568
 31
0.0
  0
LINE
  8
DETAIL
  6
CONTINUOUS
 62
     5
 10
-258.71082315350372
 20
-275.40244608050568
 30
0.0
 11
-258.74910053745288
 21
-275.2811702356567
 31
0.0
  0
LINE
  8
DETAIL
  6
CONTINUOUS
 62
     5
 10
-258.74910053745288
 20
-275.2811702356567
 30
0.0
 11
-258.7889633985717
 21
-275.160413583506
 31
0.0
  0
LINE
  8
DETAIL
  6
CONTINUOUS
 62
     5
 10
-258.7889633985717
 20
-275.160413583506
 30
0.0
 11
-258.7889633985717
 21
-275.160413583506
 31
0.0
  0
LINE
  8
DETAIL
  6
CONTINUOUS
 62
     5
 10
-258.7889633985717
 20
-275.160413583506
 30
0.0
 11
-258.83046308722191
 21
-275.04022156638808
 31
0.0
  0
LINE
  8
DETAIL
  6
CONTINUOUS
 62
     5
 10
-258.83046308722191
 20
-275.04022156638808
 30
0.0
 11
-258.87361854521743
 21
-274.920548951547
 31
0.0
  0
LINE
  8
DETAIL
  6
CONTINUOUS
 62
     5
 10
-258.87361854521743
 20
-274.920548951547
 30
0.0
 11
-258.87361854521743
 21
-274.920548951547
 31
0.0
  0
LINE
  8
DETAIL
  6
CONTINUOUS
 62
     5
 10
-258.87361854521743
 20
-274.920548951547
 30
0.0
 11
-258.91841529410362
 21
-274.80139973494272
 31
0.0
  0
LINE
  8
DETAIL
  6
CONTINUOUS
 62
     5
 10
-258.91841529410362
 20
-274.80139973494272
 30
0.0
 11
-258.96473758289687
 21
-274.68306550249042
 31
0.0
  0
LINE
  8
DETAIL
  6
CONTINUOUS
 62
     5
 10
-258.96473758289687
 20
-274.68306550249042
 30
0.0
 11
-258.96473758289687
 21
-274.68306550249042
 31
0.0
  0
LINE
  8
DETAIL
  6
CONTINUOUS
 62
     5
 10
-258.96473758289687
 20
-274.68306550249042
 30
0.0
 11
-259.01248763693019
 21
-274.56579584490811
 31
0.0
  0
LINE
  8
DETAIL
  6
CONTINUOUS
 62
     5
 10
-259.01248763693019
 20
-274.56579584490811
 30
0.0
 11
-259.06174085932372
 21
-274.44938478216602
 31
0.0
  0
LINE
  8
DETAIL
  6
CONTINUOUS
 62
     5
 10
-259.06174085932372
 20
-274.44938478216602
 30
0.0
 11
-259.06174085932372
 21
-274.44938478216602
 31
0.0
  0
LINE
  8
DETAIL
  6
CONTINUOUS
 62
     5
 10
-259.06174085932372
 20
-274.44938478216602
 30
0.0
 11
-259.11258887286641
 21
-274.33358432895932
 31
0.0
  0
LINE
  8
DETAIL
  6
CONTINUOUS
 62
     5
 10
-259.11258887286641
 20
-274.33358432895932
 30
0.0
 11
-259.16501500122689
 21
-274.21843404962561
 31
0.0
  0
LINE
  8
DETAIL
  6
CONTINUOUS
 62
     5
 10
-259.16501500122689
 20
-274.21843404962561
 30
0.0
 11
-259.16501500122689
 21
-274.21843404962561
 31
0.0
  0
LINE
  8
DETAIL
  6
CONTINUOUS
 62
     5
 10
-259.16501500122689
 20
-274.21843404962561
 30
0.0
 11
-259.21898274517912
 21
-274.10402613653548
 31
0.0
  0
LINE
  8
DETAIL
  6
CONTINUOUS
 62
     5
 10
-259.21898274517912
 20
-274.10402613653548
 30
0.0
 11
-259.27448461303698
 21
-273.99037574455127
 31
0.0
  0
LINE
  8
DETAIL
  6
CONTINUOUS
 62
     5
 10
-259.27448461303698
 20
-273.99037574455127
 30
0.0
 11
-259.27448461303698
 21
-273.99037574455127
 31
0.0
  0
LINE
  8
DETAIL
  6
CONTINUOUS
 62
     5
 10
-259.27448461303698
 20
-273.99037574455127
 30
0.0
 11
-259.33151843223908
 21
-273.87748391925572
 31
0.0
  0
LINE
  8
DETAIL
  6
CONTINUOUS
 62
     5
 10
-259.33151843223908
 20
-273.87748391925572
 30
0.0
 11
-259.39007429918479
 21
-273.76537230662478
 31
0.0
  0
LINE
  8
DETAIL
  6
CONTINUOUS
 62
     5
 10
-259.39007429918479
 20
-273.76537230662478
 30
0.0
 11
-259.39007429918479
 21
-273.76537230662478
 31
0.0
  0
LINE
  8
DETAIL
  6
CONTINUOUS
 62
     5
 10
-259.39007429918479
 20
-273.76537230662478
 30
0.0
 11
-259.45014085666821
 21
-273.6540663617165
 31
0.0
  0
LINE
  8
DETAIL
  6
CONTINUOUS
 62
     5
 10
-259.45014085666821
 20
-273.6540663617165
 30
0.0
 11
-259.51170866410098
 21
-273.5435861755272
 31
0.0
  0
LINE
  8
DETAIL
  6
CONTINUOUS
 62
     5
 10
-259.51170866410098
 20
-273.5435861755272
 30
0.0
 11
-259.51170866410098
 21
-273.5435861755272
 31
0.0
  0
LINE
  8
DETAIL
  6
CONTINUOUS
 62
     5
 10
-259.51170866410098
 20
-273.5435861755272
 30
0.0
 11
-259.57476830630378
 21
-273.43395032771662
 31
0.0
  0
LINE
  8
DETAIL
  6
CONTINUOUS
 62
     5
 10
-259.57476830630378
 20
-273.43395032771662
 30
0.0
 11
-259.63930855311509
 21
-273.32517671666221
 31
0.0
  0
LINE
  8
DETAIL
  6
CONTINUOUS
 62
     5
 10
-259.63930855311509
 20
-273.32517671666221
 30
0.0
 11
-259.63930855311509
 21
-273.32517671666221
 31
0.0
  0
LINE
  8
DETAIL
  6
CONTINUOUS
 62
     5
 10
-259.63930855311509
 20
-273.32517671666221
 30
0.0
 11
-259.70531686290468
 21
-273.21728408750442
 31
0.0
  0
LINE
  8
DETAIL
  6
CONTINUOUS
 62
     5
 10
-259.70531686290468
 20
-273.21728408750442
 30
0.0
 11
-259.77277726314611
 21
-273.11029525372038
 31
0.0
  0
LINE
  8
DETAIL
  6
CONTINUOUS
 62
     5
 10
-259.77277726314611
 20
-273.11029525372038
 30
0.0
 11
-259.77277726314611
 21
-273.11029525372038
 31
0.0
  0
LINE
  8
DETAIL
  6
CONTINUOUS
 62
     5
 10
-259.77277726314611
 20
-273.11029525372038
 30
0.0
 11
-259.84167633348437
 21
-273.00422976081973
 31
0.0
  0
LINE
  8
DETAIL
  6
CONTINUOUS
 62
     5
 10
-259.84167633348437
 20
-273.00422976081973
 30
0.0
 11
-259.91201429314702
 21
-272.89909001411041
 31
0.0
  0
LINE
  8
DETAIL
  6
CONTINUOUS
 62
     5
 10
-259.91201429314702
 20
-272.89909001411041
 30
0.0
 11
-259.91201429314702
 21
-272.89909001411041
 31
0.0
  0
LINE
  8
DETAIL
  6
CONTINUOUS
 62
     5
 10
-259.91201429314702
 20
-272.89909001411041
 30
0.0
 11
-259.98378198939838
 21
-272.79489025696807
 31
0.0
  0
LINE
  8
DETAIL
  6
CONTINUOUS
 62
     5
 10
-259.98378198939838
 20
-272.79489025696807
 30
0.0
 11
-260.05691914207199
 21
-272.69170922524069
 31
0.0
  0
LINE
  8
DETAIL
  6
CONTINUOUS
 62
     5
 10
-260.05691914207199
 20
-272.69170922524069
 30
0.0
 11
-260.05691914207199
 21
-272.69170922524069
 31
0.0
  0
LINE
  8
DETAIL
  6
CONTINUOUS
 62
     5
 10
-260.05691914207199
 20
-272.69170922524069
 30
0.0
 11
-260.13140040667918
 21
-272.58958157047238
 31
0.0
  0
LINE
  8
DETAIL
  6
CONTINUOUS
 62
     5
 10
-260.13140040667918
 20
-272.58958157047238
 30
0.0
 11
-260.20739130887517
 21
-272.48830111451957
 31
0.0
  0
LINE
  8
DETAIL
  6
CONTINUOUS
 62
     5
 10
-260.20739130887517
 20
-272.48830111451957
 30
0.0
 11
-260.20739130887517
 21
-272.48830111451957
 31
0.0
  0
LINE
  8
DETAIL
  6
CONTINUOUS
 62
     5
 10
-260.20739130887517
 20
-272.48830111451957
 30
0.0
 11
-260.28502969647172
 21
-272.38769720428382
 31
0.0
  0
LINE
  8
DETAIL
  6
CONTINUOUS
 62
     5
 10
-260.28502969647172
 20
-272.38769720428382
 30
0.0
 11
-260.36415183575508
 21
-272.2879821165339
 31
0.0
  0
LINE
  8
DETAIL
  6
CONTINUOUS
 62
     5
 10
-260.36415183575508
 20
-272.2879821165339
 30
0.0
 11
-260.36415183575508
 21
-272.2879821165339
 31
0.0
  0
LINE
  8
DETAIL
  6
CONTINUOUS
 62
     5
 10
-260.36415183575508
 20
-272.2879821165339
 30
0.0
 11
-260.44456722820951
 21
-272.18940515257037
 31
0.0
  0
LINE
  8
DETAIL
  6
CONTINUOUS
 62
     5
 10
-260.44456722820951
 20
-272.18940515257037
 30
0.0
 11
-260.52627989764039
 21
-272.09198078194942
 31
0.0
  0
LINE
  8
DETAIL
  6
CONTINUOUS
 62
     5
 10
-260.52627989764039
 20
-272.09198078194942
 30
0.0
 11
-260.52627989764039
 21
-272.09198078194942
 31
0.0
  0
LINE
  8
DETAIL
  6
CONTINUOUS
 62
     5
 10
-260.52627989764039
 20
-272.09198078194942
 30
0.0
 11
-260.60931889016962
 21
-271.99566948350622
 31
0.0
  0
LINE
  8
DETAIL
  6
CONTINUOUS
 62
     5
 10
-260.60931889016962
 20
-271.99566948350622
 30
0.0
 11
-260.69361881886567
 21
-271.9004506049352
 31
0.0
  0
LINE
  8
DETAIL
  6
CONTINUOUS
 62
     5
 10
-260.69361881886567
 20
-271.9004506049352
 30
0.0
 11
-260.69361881886567
 21
-271.9004506049352
 31
0.0
  0
LINE
  8
DETAIL
  6
CONTINUOUS
 62
     5
 10
-260.69361881886567
 20
-271.9004506049352
 30
0.0
 11
-260.77913649100788
 21
-271.8063480502222
 31
0.0
  0
LINE
  8
DETAIL
  6
CONTINUOUS
 62
     5
 10
-260.77913649100788
 20
-271.8063480502222
 30
0.0
 11
-260.86601192376588
 21
-271.71354507965981
 31
0.0
  0
LINE
  8
DETAIL
  6
CONTINUOUS
 62
     5
 10
-260.86601192376588
 20
-271.71354507965981
 30
0.0
 11
-260.86601192376588
 21
-271.71354507965981
 31
0.0
  0
LINE
  8
DETAIL
  6
CONTINUOUS
 62
     5
 10
-260.86601192376588
 20
-271.71354507965981
 30
0.0
 11
-260.954271335155
 21
-271.62210071909578
 31
0.0
  0
LINE
  8
DETAIL
  6
CONTINUOUS
 62
     5
 10
-260.954271335155
 20
-271.62210071909578
 30
0.0
 11
-261.04330253667439
 21
-271.5314177002918
 31
0.0
  0
LINE
  8
DETAIL
  6
CONTINUOUS
 62
     5
 10
-271.53141770029168
 20
-261.0433025374511
 30
0.0
 11
-271.62210036894629
 21
-260.95427167319059
 31
0.0
  0
LINE
  8
DETAIL
  6
CONTINUOUS
 62
     5
 10
-271.62210036894629
 20
-260.95427167319059
 30
0.0
 11
-271.71354437363311
 21
-260.86601259308611
 31
0.0
  0
LINE
  8
DETAIL
  6
CONTINUOUS
 62
     5
 10
-271.71354437363311
 20
-260.86601259308611
 30
0.0
 11
-271.71354437363311
 21
-260.86601259308611
 31
0.0
  0
LINE
  8
DETAIL
  6
CONTINUOUS
 62
     5
 10
-271.71354437363311
 20
-260.86601259308611
 30
0.0
 11
-271.80634697802338
 21
-260.77913748094892
 31
0.0
  0
LINE
  8
DETAIL
  6
CONTINUOUS
 62
     5
 10
-271.80634697802338
 20
-260.77913748094892
 30
0.0
 11
-271.9004491563494
 21
-260.69362011921532
 31
0.0
  0
LINE
  8
DETAIL
  6
CONTINUOUS
 62
     5
 10
-271.9004491563494
 20
-260.69362011921532
 30
0.0
 11
-271.9004491563494
 21
-260.69362011921532
 31
0.0
  0
LINE
  8
DETAIL
  6
CONTINUOUS
 62
     5
 10
-271.9004491563494
 20
-260.69362011921532
 30
0.0
 11
-271.99566764970677
 21
-260.60932049177001
 31
0.0
  0
LINE
  8
DETAIL
  6
CONTINUOUS
 62
     5
 10
-271.99566764970677
 20
-260.60932049177001
 30
0.0
 11
-272.09197855608988
 21
-260.52628178966933
 31
0.0
  0
LINE
  8
DETAIL
  6
CONTINUOUS
 62
     5
 10
-272.09197855608988
 20
-260.52628178966933
 30
0.0
 11
-272.09197855608988
 21
-260.52628178966933
 31
0.0
  0
LINE
  8
DETAIL
  6
CONTINUOUS
 62
     5
 10
-272.09197855608988
 20
-260.52628178966933
 30
0.0
 11
-272.18940252817919
 21
-260.44456939893439
 31
0.0
  0
LINE
  8
DETAIL
  6
CONTINUOUS
 62
     5
 10
-272.18940252817919
 20
-260.44456939893439
 30
0.0
 11
-272.28797908050342
 21
-260.36415427827768
 31
0.0
  0
LINE
  8
DETAIL
  6
CONTINUOUS
 62
     5
 10
-272.28797908050342
 20
-260.36415427827768
 30
0.0
 11
-272.28797908050342
 21
-260.36415427827768
 31
0.0
  0
LINE
  8
DETAIL
  6
CONTINUOUS
 62
     5
 10
-272.28797908050342
 20
-260.36415427827768
 30
0.0
 11
-272.38769374197932
 21
-260.28503240510048
 31
0.0
  0
LINE
  8
DETAIL
  6
CONTINUOUS
 62
     5
 10
-272.38769374197932
 20
-260.28503240510048
 30
0.0
 11
-272.48829723723861
 21
-260.20739425887069
 31
0.0
  0
LINE
  8
DETAIL
  6
CONTINUOUS
 62
     5
 10
-272.48829723723861
 20
-260.20739425887069
 30
0.0
 11
-272.48829723723861
 21
-260.20739425887069
 31
0.0
  0
LINE
  8
DETAIL
  6
CONTINUOUS
 62
     5
 10
-272.48829723723861
 20
-260.20739425887069
 30
0.0
 11
-272.58957731182699
 21
-260.13140355720952
 31
0.0
  0
LINE
  8
DETAIL
  6
CONTINUOUS
 62
     5
 10
-272.58957731182699
 20
-260.13140355720952
 30
0.0
 11
-272.69170459923879
 21
-260.05692246828522
 31
0.0
  0
LINE
  8
DETAIL
  6
CONTINUOUS
 62
     5
 10
-272.69170459923879
 20
-260.05692246828522
 30
0.0
 11
-272.69170459923879
 21
-260.05692246828522
 31
0.0
  0
LINE
  8
DETAIL
  6
CONTINUOUS
 62
     5
 10
-272.69170459923879
 20
-260.05692246828522
 30
0.0
 11
-272.79488525275679
 21
-259.98378548599089
 31
0.0
  0
LINE
  8
DETAIL
  6
CONTINUOUS
 62
     5
 10
-272.79488525275679
 20
-259.98378548599089
 30
0.0
 11
-272.89908461686309
 21
-259.91201795656548
 31
0.0
  0
LINE
  8
DETAIL
  6
CONTINUOUS
 62
     5
 10
-272.89908461686309
 20
-259.91201795656548
 30
0.0
 11
-272.89908461686309
 21
-259.91201795656548
 31
0.0
  0
LINE
  8
DETAIL
  6
CONTINUOUS
 62
     5
 10
-272.89908461686309
 20
-259.91201795656548
 30
0.0
 11
-273.00422396114908
 21
-259.84168015561949
 31
0.0
  0
LINE
  8
DETAIL
  6
CONTINUOUS
 62
     5
 10
-273.00422396114908
 20
-259.84168015561949
 30
0.0
 11
-273.11028906443681
 21
-259.77278122390038
 31
0.0
  0
LINE
  8
DETAIL
  6
CONTINUOUS
 62
     5
 10
-273.11028906443681
 20
-259.77278122390038
 30
0.0
 11
-273.11028906443681
 21
-259.77278122390038
 31
0.0
  0
LINE
  8
DETAIL
  6
CONTINUOUS
 62
     5
 10
-273.11028906443681
 20
-259.77278122390038
 30
0.0
 11
-273.21727752582427
 21
-259.70532094021632
 31
0.0
  0
LINE
  8
DETAIL
  6
CONTINUOUS
 62
     5
 10
-273.21727752582427
 20
-259.70532094021632
 30
0.0
 11
-273.32516971628411
 21
-259.63931277047902
 31
0.0
  0
LINE
  8
DETAIL
  6
CONTINUOUS
 62
     5
 10
-273.32516971628411
 20
-259.63931277047902
 30
0.0
 11
-273.32516971628411
 21
-259.63931277047902
 31
0.0
  0
LINE
  8
DETAIL
  6
CONTINUOUS
 62
     5
 10
-273.32516971628411
 20
-259.63931277047902
 30
0.0
 11
-273.43394280057532
 21
-259.57477269898851
 31
0.0
  0
LINE
  8
DETAIL
  6
CONTINUOUS
 62
     5
 10
-273.43394280057532
 20
-259.57477269898851
 30
0.0
 11
-273.54357834673078
 21
-259.51171309649038
 31
0.0
  0
LINE
  8
DETAIL
  6
CONTINUOUS
 62
     5
 10
-273.54357834673078
 20
-259.51171309649038
 30
0.0
 11
-273.54357834673078
 21
-259.51171309649038
 31
0.0
  0
LINE
  8
DETAIL
  6
CONTINUOUS
 62
     5
 10
-273.54357834673078
 20
-259.51171309649038
 30
0.0
 11
-273.65405872214569
 21
-259.45014505084271
 31
0.0
  0
LINE
  8
DETAIL
  6
CONTINUOUS
 62
     5
 10
-273.65405872214569
 20
-259.45014505084271
 30
0.0
 11
-273.76536508839638
 21
-259.39007813190671
 31
0.0
  0
LINE
  8
DETAIL
  6
CONTINUOUS
 62
     5
 10
-273.76536508839638
 20
-259.39007813190671
 30
0.0
 11
-273.76536508839638
 21
-259.39007813190671
 31
0.0
  0
LINE
  8
DETAIL
  6
CONTINUOUS
 62
     5
 10
-273.76536508839638
 20
-259.39007813190671
 30
0.0
 11
-273.87747704682653
 21
-259.33152196089071
 31
0.0
  0
LINE
  8
DETAIL
  6
CONTINUOUS
 62
     5
 10
-273.87747704682653
 20
-259.33152196089071
 30
0.0
 11
-273.99036916366839
 21
-259.27448788239172
 31
0.0
  0
LINE
  8
DETAIL
  6
CONTINUOUS
 62
     5
 10
-273.99036916366839
 20
-259.27448788239172
 30
0.0
 11
-273.99036916366839
 21
-259.27448788239172
 31
0.0
  0
LINE
  8
DETAIL
  6
CONTINUOUS
 62
     5
 10
-273.99036916366839
 20
-259.27448788239172
 30
0.0
 11
-274.10401987497949
 21
-259.21898575182928
 31
0.0
  0
LINE
  8
DETAIL
  6
CONTINUOUS
 62
     5
 10
-274.10401987497949
 20
-259.21898575182928
 30
0.0
 11
-274.21842813122362
 21
-259.16501774452911
 31
0.0
  0
LINE
  8
DETAIL
  6
CONTINUOUS
 62
     5
 10
-274.21842813122362
 20
-259.16501774452911
 30
0.0
 11
-274.21842813122362
 21
-259.16501774452911
 31
0.0
  0
LINE
  8
DETAIL
  6
CONTINUOUS
 62
     5
 10
-274.21842813122362
 20
-259.16501774452911
 30
0.0
 11
-274.33357875583602
 21
-259.11259136503918
 31
0.0
  0
LINE
  8
DETAIL
  6
CONTINUOUS
 62
     5
 10
-274.33357875583602
 20
-259.11259136503918
 30
0.0
 11
-274.44937954973921
 21
-259.06174311490201
 31
0.0
  0
LINE
  8
DETAIL
  6
CONTINUOUS
 62
     5
 10
-274.44937954973921
 20
-259.06174311490201
 30
0.0
 11
-274.44937954973921
 21
-259.06174311490201
 31
0.0
  0
LINE
  8
DETAIL
  6
CONTINUOUS
 62
     5
 10
-274.44937954973921
 20
-259.06174311490201
 30
0.0
 11
-274.56579095213942
 21
-259.01248966793821
 31
0.0
  0
LINE
  8
DETAIL
  6
CONTINUOUS
 62
     5
 10
-274.56579095213942
 20
-259.01248966793821
 30
0.0
 11
-274.68306097789349
 21
-258.96473939009451
 31
0.0
  0
LINE
  8
DETAIL
  6
CONTINUOUS
 62
     5
 10
-274.68306097789349
 20
-258.96473939009451
 30
0.0
 11
-274.68306097789349
 21
-258.96473939009451
 31
0.0
  0
LINE
  8
DETAIL
  6
CONTINUOUS
 62
     5
 10
-274.68306097789349
 20
-258.96473939009451
 30
0.0
 11
-274.80139563081912
 21
-258.91841686965847
 31
0.0
  0
LINE
  8
DETAIL
  6
CONTINUOUS
 62
     5
 10
-274.80139563081912
 20
-258.91841686965847
 30
0.0
 11
-274.92054529492322
 21
-258.87361989215822
 31
0.0
  0
LINE
  8
DETAIL
  6
CONTINUOUS
 62
     5
 10
-274.92054529492322
 20
-258.87361989215822
 30
0.0
 11
-274.92054529492322
 21
-258.87361989215822
 31
0.0
  0
LINE
  8
DETAIL
  6
CONTINUOUS
 62
     5
 10
-274.92054529492322
 20
-258.87361989215822
 30
0.0
 11
-275.04021835462282
 21
-258.83046422101683
 31
0.0
  0
LINE
  8
DETAIL
  6
CONTINUOUS
 62
     5
 10
-275.04021835462282
 20
-258.83046422101683
 30
0.0
 11
-275.16041081578408
 21
-258.78896433400769
 31
0.0
  0
LINE
  8
DETAIL
  6
CONTINUOUS
 62
     5
 10
-275.16041081578408
 20
-258.78896433400769
 30
0.0
 11
-275.16041081578408
 21
-258.78896433400769
 31
0.0
  0
LINE
  8
DETAIL
  6
CONTINUOUS
 62
     5
 10
-275.16041081578408
 20
-258.78896433400769
 30
0.0
 11
-275.28116791873072
 21
-258.74910128611788
 31
0.0
  0
LINE
  8
DETAIL
  6
CONTINUOUS
 62
     5
 10
-275.28116791873072
 20
-258.74910128611788
 30
0.0
 11
-275.40244422015928
 21
-258.71082372684327
 31
0.0
  0
LINE
  8
DETAIL
  6
CONTINUOUS
 62
     5
 10
-275.40244422015928
 20
-258.71082372684327
 30
0.0
 11
-275.40244422015928
 21
-258.71082372684327
 31
0.0
  0
LINE
  8
DETAIL
  6
CONTINUOUS
 62
     5
 10
-275.40244422015928
 20
-258.71082372684327
 30
0.0
 11
-275.52419038412359
 21
-258.67412993121138
 31
0.0
  0
LINE
  8
DETAIL
  6
CONTINUOUS
 62
     5
 10
-275.52419038412359
 20
-258.67412993121138
 30
0.0
 11
-275.64643218772989
 21
-258.63924908186613
 31
0.0
  0
LINE
  8
DETAIL
  6
CONTINUOUS
 62
     5
 10
-275.64643218772989
 20
-258.63924908186613
 30
0.0
 11
-275.64643218772989
 21
-258.63924908186613
 31
0.0
  0
LINE
  8
DETAIL
  6
CONTINUOUS
 62
     5
 10
-275.64643218772989
 20
-258.63924908186613
 30
0.0
 11
-275.76916174420171
 21
-258.60624528211258
 31
0.0
  0
LINE
  8
DETAIL
  6
CONTINUOUS
 62
     5
 10
-275.76916174420171
 20
-258.60624528211258
 30
0.0
 11
-275.89216139817898
 21
-258.57429141027671
 31
0.0
  0
LINE
  8
DETAIL
  6
CONTINUOUS
 62
     5
 10
-274.09989725498741
 20
-255.40881172423639
 30
0.0
 11
-273.97689760101031
 21
-255.4407655960724
 31
0.0
  0
LINE
  8
DETAIL
  6
CONTINUOUS
 62
     5
 10
-273.97689760101031
 20
-255.4407655960724
 30
0.0
 11
-273.85416804453939
 21
-255.47376939582611
 31
0.0
  0
LINE
  8
DETAIL
  6
CONTINUOUS
 62
     5
 10
-273.85416804453939
 20
-255.47376939582611
 30
0.0
 11
-273.85416804453939
 21
-255.47376939582611
 31
0.0
  0
LINE
  8
DETAIL
  6
CONTINUOUS
 62
     5
 10
-273.85416804453939
 20
-255.47376939582611
 30
0.0
 11
-273.73192624093531
 21
-255.5086502451712
 31
0.0
  0
LINE
  8
DETAIL
  6
CONTINUOUS
 62
     5
 10
-273.73192624093531
 20
-255.5086502451712
 30
0.0
 11
-273.61018007697578
 21
-255.54534404080329
 31
0.0
  0
LINE
  8
DETAIL
  6
CONTINUOUS
 62
     5
 10
-273.61018007697578
 20
-255.54534404080329
 30
0.0
 11
-273.61018007697578
 21
-255.54534404080329
 31
0.0
  0
LINE
  8
DETAIL
  6
CONTINUOUS
 62
     5
 10
-273.61018007697578
 20
-255.54534404080329
 30
0.0
 11
-273.4889037755554
 21
-255.58362160007769
 31
0.0
  0
LINE
  8
DETAIL
  6
CONTINUOUS
 62
     5
 10
-273.4889037755554
 20
-255.58362160007769
 30
0.0
 11
-273.3681466726207
 21
-255.62348464796739
 31
0.0
  0
LINE
  8
DETAIL
  6
CONTINUOUS
 62
     5
 10
-273.3681466726207
 20
-255.62348464796739
 30
0.0
 11
-273.3681466726207
 21
-255.62348464796739
 31
0.0
  0
LINE
  8
DETAIL
  6
CONTINUOUS
 62
     5
 10
-273.3681466726207
 20
-255.62348464796739
 30
0.0
 11
-273.24795421147547
 21
-255.66498453497641
 31
0.0
  0
LINE
  8
DETAIL
  6
CONTINUOUS
 62
     5
 10
-273.24795421147547
 20
-255.66498453497641
 30
0.0
 11
-273.12828115179809
 21
-255.7081402061178
 31
0.0
  0
LINE
  8
DETAIL
  6
CONTINUOUS
 62
     5
 10
-273.12828115179809
 20
-255.7081402061178
 30
0.0
 11
-273.12828115179809
 21
-255.7081402061178
 31
0.0
  0
LINE
  8
DETAIL
  6
CONTINUOUS
 62
     5
 10
-273.12828115179809
 20
-255.7081402061178
 30
0.0
 11
-273.00913148772202
 21
-255.7529371836184
 31
0.0
  0
LINE
  8
DETAIL
  6
CONTINUOUS
 62
     5
 10
-273.00913148772202
 20
-255.7529371836184
 30
0.0
 11
-272.89079683483192
 21
-255.79925970405441
 31
0.0
  0
LINE
  8
DETAIL
  6
CONTINUOUS
 62
     5
 10
-272.89079683483192
 20
-255.79925970405441
 30
0.0
 11
-272.89079683483192
 21
-255.79925970405441
 31
0.0
  0
LINE
  8
DETAIL
  6
CONTINUOUS
 62
     5
 10
-272.89079683483192
 20
-255.79925970405441
 30
0.0
 11
-272.77352680912031
 21
-255.84700998189811
 31
0.0
  0
LINE
  8
DETAIL
  6
CONTINUOUS
 62
     5
 10
-272.77352680912031
 20
-255.84700998189811
 30
0.0
 11
-272.65711540676779
 21
-255.89626342886189
 31
0.0
  0
LINE
  8
DETAIL
  6
CONTINUOUS
 62
     5
 10
-272.65711540676779
 20
-255.89626342886189
 30
0.0
 11
-272.65711540676779
 21
-255.89626342886189
 31
0.0
  0
LINE
  8
DETAIL
  6
CONTINUOUS
 62
     5
 10
-272.65711540676779
 20
-255.89626342886189
 30
0.0
 11
-272.54131461291558
 21
-255.94711167899911
 31
0.0
  0
LINE
  8
DETAIL
  6
CONTINUOUS
 62
     5
 10
-272.54131461291558
 20
-255.94711167899911
 30
0.0
 11
-272.42616398835429
 21
-255.99953805848881
 31
0.0
  0
LINE
  8
DETAIL
  6
CONTINUOUS
 62
     5
 10
-272.42616398835429
 20
-255.99953805848881
 30
0.0
 11
-272.42616398835429
 21
-255.99953805848881
 31
0.0
  0
LINE
  8
DETAIL
  6
CONTINUOUS
 62
     5
 10
-272.42616398835429
 20
-255.99953805848881
 30
0.0
 11
-272.31175573216052
 21
-256.05350606578918
 31
0.0
  0
LINE
  8
DETAIL
  6
CONTINUOUS
 62
     5
 10
-272.31175573216052
 20
-256.05350606578918
 30
0.0
 11
-272.19810502089558
 21
-256.10900819635128
 31
0.0
  0
LINE
  8
DETAIL
  6
CONTINUOUS
 62
     5
 10
-272.19810502089558
 20
-256.10900819635128
 30
0.0
 11
-272.19810502089558
 21
-256.10900819635128
 31
0.0
  0
LINE
  8
DETAIL
  6
CONTINUOUS
 62
     5
 10
-272.19810502089558
 20
-256.10900819635128
 30
0.0
 11
-272.0852129040934
 21
-256.16604227485038
 31
0.0
  0
LINE
  8
DETAIL
  6
CONTINUOUS
 62
     5
 10
-272.0852129040934
 20
-256.16604227485038
 30
0.0
 11
-271.97310094569531
 21
-256.22459844586632
 31
0.0
  0
LINE
  8
DETAIL
  6
CONTINUOUS
 62
     5
 10
-271.97310094569531
 20
-256.22459844586632
 30
0.0
 11
-271.97310094569531
 21
-256.22459844586632
 31
0.0
  0
LINE
  8
DETAIL
  6
CONTINUOUS
 62
     5
 10
-271.97310094569531
 20
-256.22459844586632
 30
0.0
 11
-271.86179457946491
 21
-256.28466536480249
 31
0.0
  0
LINE
  8
DETAIL
  6
CONTINUOUS
 62
     5
 10
-271.86179457946491
 20
-256.28466536480249
 30
0.0
 11
-271.75131420405711
 21
-256.34623341045011
 31
0.0
  0
LINE
  8
DETAIL
  6
CONTINUOUS
 62
     5
 10
-271.75131420405711
 20
-256.34623341045011
 30
0.0
 11
-271.75131420405711
 21
-256.34623341045011
 31
0.0
  0
LINE
  8
DETAIL
  6
CONTINUOUS
 62
     5
 10
-271.75131420405711
 20
-256.34623341045011
 30
0.0
 11
-271.64167865789449
 21
-256.40929301294813
 31
0.0
  0
LINE
  8
DETAIL
  6
CONTINUOUS
 62
     5
 10
-271.64167865789449
 20
-256.40929301294813
 30
0.0
 11
-271.53290557358258
 21
-256.4738330844387
 31
0.0
  0
LINE
  8
DETAIL
  6
CONTINUOUS
 62
     5
 10
-271.53290557358258
 20
-256.4738330844387
 30
0.0
 11
-271.53290557358258
 21
-256.4738330844387
 31
0.0
  0
LINE
  8
DETAIL
  6
CONTINUOUS
 62
     5
 10
-271.53290557358258
 20
-256.4738330844387
 30
0.0
 11
-271.42501338309131
 21
-256.53984125417611
 31
0.0
  0
LINE
  8
DETAIL
  6
CONTINUOUS
 62
     5
 10
-271.42501338309131
 20
-256.53984125417611
 30
0.0
 11
-271.31802492166372
 21
-256.60730153786028
 31
0.0
  0
LINE
  8
DETAIL
  6
CONTINUOUS
 62
     5
 10
-271.31802492166372
 20
-256.60730153786028
 30
0.0
 11
-271.31802492166372
 21
-256.60730153786028
 31
0.0
  0
LINE
  8
DETAIL
  6
CONTINUOUS
 62
     5
 10
-271.31802492166372
 20
-256.60730153786028
 30
0.0
 11
-271.21195981833012
 21
-256.67620046957933
 31
0.0
  0
LINE
  8
DETAIL
  6
CONTINUOUS
 62
     5
 10
-271.21195981833012
 20
-256.67620046957933
 30
0.0
 11
-271.10682047399428
 21
-256.74653827052532
 31
0.0
  0
LINE
  8
DETAIL
  6
CONTINUOUS
 62
     5
 10
-271.10682047399428
 20
-256.74653827052532
 30
0.0
 11
-271.10682047399428
 21
-256.74653827052532
 31
0.0
  0
LINE
  8
DETAIL
  6
CONTINUOUS
 62
     5
 10
-271.10682047399428
 20
-256.74653827052532
 30
0.0
 11
-271.0026211098359
 21
-256.81830579995068
 31
0.0
  0
LINE
  8
DETAIL
  6
CONTINUOUS
 62
     5
 10
-271.0026211098359
 20
-256.81830579995068
 30
0.0
 11
-270.89944045626748
 21
-256.89144278224518
 31
0.0
  0
LINE
  8
DETAIL
  6
CONTINUOUS
 62
     5
 10
-270.89944045626748
 20
-256.89144278224518
 30
0.0
 11
-270.89944045626748
 21
-256.89144278224518
 31
0.0
  0
LINE
  8
DETAIL
  6
CONTINUOUS
 62
     5
 10
-270.89944045626748
 20
-256.89144278224518
 30
0.0
 11
-270.79731316880748
 21
-256.9659238711692
 31
0.0
  0
LINE
  8
DETAIL
  6
CONTINUOUS
 62
     5
 10
-270.79731316880748
 20
-256.9659238711692
 30
0.0
 11
-270.69603309417721
 21
-257.04191457283048
 31
0.0
  0
LINE
  8
DETAIL
  6
CONTINUOUS
 62
     5
 10
-270.69603309417721
 20
-257.04191457283048
 30
0.0
 11
-270.69603309417721
 21
-257.04191457283048
 31
0.0
  0
LINE
  8
DETAIL
  6
CONTINUOUS
 62
     5
 10
-270.69603309417721
 20
-257.04191457283048
 30
0.0
 11
-270.59542959888239
 21
-257.11955271905958
 31
0.0
  0
LINE
  8
DETAIL
  6
CONTINUOUS
 62
     5
 10
-270.59542959888239
 20
-257.11955271905958
 30
0.0
 11
-270.49571493737812
 21
-257.19867459223138
 31
0.0
  0
LINE
  8
DETAIL
  6
CONTINUOUS
 62
     5
 10
-270.49571493737812
 20
-257.19867459223138
 30
0.0
 11
-270.49571493737812
 21
-257.19867459223138
 31
0.0
  0
LINE
  8
DETAIL
  6
CONTINUOUS
 62
     5
 10
-270.49571493737812
 20
-257.19867459223138
 30
0.0
 11
-270.39713838503229
 21
-257.27908971287349
 31
0.0
  0
LINE
  8
DETAIL
  6
CONTINUOUS
 62
     5
 10
-270.39713838503229
 20
-257.27908971287349
 30
0.0
 11
-270.29971441292651
 21
-257.36080210357937
 31
0.0
  0
LINE
  8
DETAIL
  6
CONTINUOUS
 62
     5
 10
-270.29971441292651
 20
-257.36080210357937
 30
0.0
 11
-270.29971441292651
 21
-257.36080210357937
 31
0.0
  0
LINE
  8
DETAIL
  6
CONTINUOUS
 62
     5
 10
-270.29971441292651
 20
-257.36080210357937
 30
0.0
 11
-270.20340350653117
 21
-257.44384080563219
 31
0.0
  0
LINE
  8
DETAIL
  6
CONTINUOUS
 62
     5
 10
-270.20340350653117
 20
-257.44384080563219
 30
0.0
 11
-270.10818501316612
 21
-257.52814043300731
 31
0.0
  0
LINE
  8
DETAIL
  6
CONTINUOUS
 62
     5
 10
-270.10818501316612
 20
-257.52814043300731
 30
0.0
 11
-270.10818501316612
 21
-257.52814043300731
 31
0.0
  0
LINE
  8
DETAIL
  6
CONTINUOUS
 62
     5
 10
-270.10818501316612
 20
-257.52814043300731
 30
0.0
 11
-270.01408283483528
 21
-257.61365779464461
 31
0.0
  0
LINE
  8
DETAIL
  6
CONTINUOUS
 62
     5
 10
-270.01408283483528
 20
-257.61365779464461
 30
0.0
 11
-269.92128023044228
 21
-257.70053290664811
 31
0.0
  0
LINE
  8
DETAIL
  6
CONTINUOUS
 62
     5
 10
-269.92128023044228
 20
-257.70053290664811
 30
0.0
 11
-269.92128023044228
 21
-257.70053290664811
 31
0.0
  0
LINE
  8
DETAIL
  6
CONTINUOUS
 62
     5
 10
-269.92128023044228
 20
-257.70053290664811
 30
0.0
 11
-269.82983622575489
 21
-257.78879198657569
 31
0.0
  0
LINE
  8
DETAIL
  6
CONTINUOUS
 62
     5
 10
-269.82983622575489
 20
-257.78879198657569
 30
0.0
 11
-269.73915355710011
 21
-257.87782285063452
 31
0.0
  0
LINE
  8
DETAIL
  6
CONTINUOUS
 62
     5
 10
-257.87782285063417
 20
-269.73915355710028
 30
0.0
 11
-257.78879164911478
 21
-269.82983657609071
 31
0.0
  0
LINE
  8
DETAIL
  6
CONTINUOUS
 62
     5
 10
-257.78879164911478
 20
-269.82983657609071
 30
0.0
 11
-257.70053223772447
 21
-269.92128093680492
 31
0.0
  0
LINE
  8
DETAIL
  6
CONTINUOUS
 62
     5
 10
-257.70053223772447
 20
-269.92128093680492
 30
0.0
 11
-257.70053223772447
 21
-269.92128093680492
 31
0.0
  0
LINE
  8
DETAIL
  6
CONTINUOUS
 62
     5
 10
-257.70053223772447
 20
-269.92128093680492
 30
0.0
 11
-257.61365680496368
 21
-270.01408390745479
 31
0.0
  0
LINE
  8
DETAIL
  6
CONTINUOUS
 62
     5
 10
-257.61365680496368
 20
-270.01408390745479
 30
0.0
 11
-257.52813913281739
 21
-270.10818646220292
 31
0.0
  0
LINE
  8
DETAIL
  6
CONTINUOUS
 62
     5
 10
-257.52813913281739
 20
-270.10818646220292
 30
0.0
 11
-257.52813913281739
 21
-270.10818646220292
 31
0.0
  0
LINE
  8
DETAIL
  6
CONTINUOUS
 62
     5
 10
-257.52813913281739
 20
-270.10818646220292
 30
0.0
 11
-257.44383920411309
 21
-270.20340534077428
 31
0.0
  0
LINE
  8
DETAIL
  6
CONTINUOUS
 62
     5
 10
-257.44383920411309
 20
-270.20340534077428
 30
0.0
 11
-257.36080021157181
 21
-270.29971663919008
 31
0.0
  0
LINE
  8
DETAIL
  6
CONTINUOUS
 62
     5
 10
-257.36080021157181
 20
-270.29971663919008
 30
0.0
 11
-257.36080021157181
 21
-270.29971663919008
 31
0.0
  0
LINE
  8
DETAIL
  6
CONTINUOUS
 62
     5
 10
-257.36080021157181
 20
-270.29971663919008
 30
0.0
 11
-257.27908754212473
 21
-270.39714100976238
 31
0.0
  0
LINE
  8
DETAIL
  6
CONTINUOUS
 62
     5
 10
-257.27908754212473
 20
-270.39714100976238
 30
0.0
 11
-257.19867214964802
 21
-270.49571797366423
 31
0.0
  0
LINE
  8
DETAIL
  6
CONTINUOUS
 62
     5
 10
-257.19867214964802
 20
-270.49571797366423
 30
0.0
 11
-257.19867214964802
 21
-270.49571797366423
 31
0.0
  0
LINE
  8
DETAIL
  6
CONTINUOUS
 62
     5
 10
-257.19867214964802
 20
-270.49571797366423
 30
0.0
 11
-257.11955001033681
 21
-270.59543306134771
 31
0.0
  0
LINE
  8
DETAIL
  6
CONTINUOUS
 62
     5
 10
-257.11955001033681
 20
-270.59543306134771
 30
0.0
 11
-257.0419116227049
 21
-270.69603697152121
 31
0.0
  0
LINE
  8
DETAIL
  6
CONTINUOUS
 62
     5
 10
-257.0419116227049
 20
-270.69603697152121
 30
0.0
 11
-257.0419116227049
 21
-270.69603697152121
 31
0.0
  0
LINE
  8
DETAIL
  6
CONTINUOUS
 62
     5
 10
-257.0419116227049
 20
-270.69603697152121
 30
0.0
 11
-256.96592072046627
 21
-270.79731742742172
 31
0.0
  0
LINE
  8
DETAIL
  6
CONTINUOUS
 62
     5
 10
-256.96592072046627
 20
-270.79731742742172
 30
0.0
 11
-256.89143945581168
 21
-270.89944508214791
 31
0.0
  0
LINE
  8
DETAIL
  6
CONTINUOUS
 62
     5
 10
-256.89143945581168
 20
-270.89944508214791
 30
0.0
 11
-256.89143945581168
 21
-270.89944508214791
 31
0.0
  0
LINE
  8
DETAIL
  6
CONTINUOUS
 62
     5
 10
-256.89143945581168
 20
-270.89944508214791
 30
0.0
 11
-256.81830230308719
 21
-271.00262611384272
 31
0.0
  0
LINE
  8
DETAIL
  6
CONTINUOUS
 62
     5
 10
-256.81830230308719
 20
-271.00262611384272
 30
0.0
 11
-256.74653460678411
 21
-271.10682587096039
 31
0.0
  0
LINE
  8
DETAIL
  6
CONTINUOUS
 62
     5
 10
-256.74653460678411
 20
-271.10682587096039
 30
0.0
 11
-256.74653460678411
 21
-271.10682587096039
 31
0.0
  0
LINE
  8
DETAIL
  6
CONTINUOUS
 62
     5
 10
-256.74653460678411
 20
-271.10682587096039
 30
0.0
 11
-256.67619664707132
 21
-271.21196561765208
 31
0.0
  0
LINE
  8
DETAIL
  6
CONTINUOUS
 62
     5
 10
-256.67619664707132
 20
-271.21196561765208
 30
0.0
 11
-256.60729757668668
 21
-271.31803111054069
 31
0.0
  0
LINE
  8
DETAIL
  6
CONTINUOUS
 62
     5
 10
-256.60729757668668
 20
-271.31803111054069
 30
0.0
 11
-256.60729757668668
 21
-271.31803111054069
 31
0.0
  0
LINE
  8
DETAIL
  6
CONTINUOUS
 62
     5
 10
-256.60729757668668
 20
-271.31803111054069
 30
0.0
 11
-256.53983717640563
 21
-271.42501994431791
 31
0.0
  0
LINE
  8
DETAIL
  6
CONTINUOUS
 62
     5
 10
-256.53983717640563
 20
-271.42501994431791
 30
0.0
 11
-256.47382886658488
 21
-271.53291257347178
 31
0.0
  0
LINE
  8
DETAIL
  6
CONTINUOUS
 62
     5
 10
-256.47382886658488
 20
-271.53291257347178
 30
0.0
 11
-256.47382886658488
 21
-271.53291257347178
 31
0.0
  0
LINE
  8
DETAIL
  6
CONTINUOUS
 62
     5
 10
-256.47382886658488
 20
-271.53291257347178
 30
0.0
 11
-256.40928861975272
 21
-271.64168618452487
 31
0.0
  0
LINE
  8
DETAIL
  6
CONTINUOUS
 62
     5
 10
-256.40928861975272
 20
-271.64168618452487
 30
0.0
 11
-256.34622897754281
 21
-271.75132203233562
 31
0.0
  0
LINE
  8
DETAIL
  6
CONTINUOUS
 62
     5
 10
-256.34622897754281
 20
-271.75132203233562
 30
0.0
 11
-256.34622897754281
 21
-271.75132203233562
 31
0.0
  0
LINE
  8
DETAIL
  6
CONTINUOUS
 62
     5
 10
-256.34622897754281
 20
-271.75132203233562
 30
0.0
 11
-256.28466117011732
 21
-271.86180221852487
 31
0.0
  0
LINE
  8
DETAIL
  6
CONTINUOUS
 62
     5
 10
-256.28466117011732
 20
-271.86180221852487
 30
0.0
 11
-256.2245946126543
 21
-271.97310816343457
 31
0.0
  0
LINE
  8
DETAIL
  6
CONTINUOUS
 62
     5
 10
-256.2245946126543
 20
-271.97310816343457
 30
0.0
 11
-256.2245946126543
 21
-271.97310816343457
 31
0.0
  0
LINE
  8
DETAIL
  6
CONTINUOUS
 62
     5
 10
-256.2245946126543
 20
-271.97310816343457
 30
0.0
 11
-256.16603874574002
 21
-272.08521977606932
 31
0.0
  0
LINE
  8
DETAIL
  6
CONTINUOUS
 62
     5
 10
-256.16603874574002
 20
-272.08521977606932
 30
0.0
 11
-256.10900492657811
 21
-272.19811160137198
 31
0.0
  0
LINE
  8
DETAIL
  6
CONTINUOUS
 62
     5
 10
-256.10900492657811
 20
-272.19811160137198
 30
0.0
 11
-256.10900492657811
 21
-272.19811160137198
 31
0.0
  0
LINE
  8
DETAIL
  6
CONTINUOUS
 62
     5
 10
-256.10900492657811
 20
-272.19811160137198
 30
0.0
 11
-256.05350305876641
 21
-272.31176199336812
 31
0.0
  0
LINE
  8
DETAIL
  6
CONTINUOUS
 62
     5
 10
-256.05350305876641
 20
-272.31176199336812
 30
0.0
 11
-255.999535314864
 21
-272.42616990647548
 31
0.0
  0
LINE
  8
DETAIL
  6
CONTINUOUS
 62
     5
 10
-255.999535314864
 20
-272.42616990647548
 30
0.0
 11
-255.999535314864
 21
-272.42616990647548
 31
0.0
  0
LINE
  8
DETAIL
  6
CONTINUOUS
 62
     5
 10
-255.999535314864
 20
-272.42616990647548
 30
0.0
 11
-255.9471091865552
 21
-272.54132018583368
 31
0.0
  0
LINE
  8
DETAIL
  6
CONTINUOUS
 62
     5
 10
-255.9471091865552
 20
-272.54132018583368
 30
0.0
 11
-255.89626117306329
 21
-272.65712063907301
 31
0.0
  0
LINE
  8
DETAIL
  6
CONTINUOUS
 62
     5
 10
-255.89626117306329
 20
-272.65712063907301
 30
0.0
 11
-255.89626117306329
 21
-272.65712063907301
 31
0.0
  0
LINE
  8
DETAIL
  6
CONTINUOUS
 62
     5
 10
-255.89626117306329
 20
-272.65712063907301
 30
0.0
 11
-255.8470079507172
 21
-272.77353170185688
 31
0.0
  0
LINE
  8
DETAIL
  6
CONTINUOUS
 62
     5
 10
-255.8470079507172
 20
-272.77353170185688
 30
0.0
 11
-255.7992578967264
 21
-272.89080135949189
 31
0.0
  0
LINE
  8
DETAIL
  6
CONTINUOUS
 62
     5
 10
-255.7992578967264
 20
-272.89080135949189
 30
0.0
 11
-255.7992578967264
 21
-272.89080135949189
 31
0.0
  0
LINE
  8
DETAIL
  6
CONTINUOUS
 62
     5
 10
-255.7992578967264
 20
-272.89080135949189
 30
0.0
 11
-255.75293560796831
 21
-273.00913559200683
 31
0.0
  0
LINE
  8
DETAIL
  6
CONTINUOUS
 62
     5
 10
-255.75293560796831
 20
-273.00913559200683
 30
0.0
 11
-255.70813885911051
 21
-273.12828480867751
 31
0.0
  0
LINE
  8
DETAIL
  6
CONTINUOUS
 62
     5
 10
-255.70813885911051
 20
-273.12828480867751
 30
0.0
 11
-255.70813885911051
 21
-273.12828480867751
 31
0.0
  0
LINE
  8
DETAIL
  6
CONTINUOUS
 62
     5
 10
-255.70813885911051
 20
-273.12828480867751
 30
0.0
 11
-255.66498340113691
 21
-273.24795742358049
 31
0.0
  0
LINE
  8
DETAIL
  6
CONTINUOUS
 62
     5
 10
-255.66498340113691
 20
-273.24795742358049
 30
0.0
 11
-255.6234837125032
 21
-273.36814944074689
 31
0.0
  0
LINE
  8
DETAIL
  6
CONTINUOUS
 62
     5
 10
-255.6234837125032
 20
-273.36814944074689
 30
0.0
 11
-255.6234837125032
 21
-273.36814944074689
 31
0.0
  0
LINE
  8
DETAIL
  6
CONTINUOUS
 62
     5
 10
-255.6234837125032
 20
-273.36814944074689
 30
0.0
 11
-255.58362085139669
 21
-273.48890609292448
 31
0.0
  0
LINE
  8
DETAIL
  6
CONTINUOUS
 62
     5
 10
-255.58362085139669
 20
-273.48890609292448
 30
0.0
 11
-255.5453434674553
 21
-273.61018193777329
 31
0.0
  0
LINE
  8
DETAIL
  6
CONTINUOUS
 62
     5
 10
-255.5453434674553
 20
-273.61018193777329
 30
0.0
 11
-255.5453434674553
 21
-273.61018193777329
 31
0.0
  0
LINE
  8
DETAIL
  6
CONTINUOUS
 62
     5
 10
-255.5453434674553
 20
-273.61018193777329
 30
0.0
 11
-255.50864983486119
 21
-273.73192764178049
 31
0.0
  0
LINE
  8
DETAIL
  6
CONTINUOUS
 62
     5
 10
-255.50864983486119
 20
-273.73192764178049
 30
0.0
 11
-255.473769134516
 21
-273.85416898182928
 31
0.0
  0
LINE
  8
DETAIL
  6
CONTINUOUS
 62
     5
 10
-255.473769134516
 20
-273.85416898182928
 30
0.0
 11
-255.473769134516
 21
-273.85416898182928
 31
0.0
  0
LINE
  8
DETAIL
  6
CONTINUOUS
 62
     5
 10
-255.473769134516
 20
-273.85416898182928
 30
0.0
 11
-255.44076546941849
 21
-273.97689807077762
 31
0.0
  0
LINE
  8
DETAIL
  6
CONTINUOUS
 62
     5
 10
-255.44076546941849
 20
-273.97689807077762
 30
0.0
 11
-255.4088117242363
 21
-274.09989725498741
 31
0.0
  0
CIRCLE
  8
DETAIL
  6
CONTINUOUS
 62
     5
 10
-280.4523424878837
 20
-280.45234248788381
 30
0.0
 40
7.0113085621970876
  0
CIRCLE
  8
DETAIL
  6
CONTINUOUS
 62
     5
 10
-278.19169628432951
 20
-182.34810985460419
 30
0.0
 40
6.5105008077543971
  0
CIRCLE
  8
DETAIL
  6
CONTINUOUS
 62
     5
 10
-70.824911847390695
 20
-70.824911847390865
 30
0.0
 40
3.004846526655911
  0
CIRCLE
  8
DETAIL
  6
CONTINUOUS
 62
     5
 10
-280.4523424878837
 20
280.45234248788358
 30
0.0
 40
7.0113085621970876
  0
CIRCLE
  8
DETAIL
  6
CONTINUOUS
 62
     5
 10
-182.34810985460419
 20
278.19169628432951
 30
0.0
 40
6.5105008077544548
  0
CIRCLE
  8
DETAIL
  6
CONTINUOUS
 62
     5
 10
0.0
 20
-77.124394184168068
 30
0.0
 40
6.2600969305331091
  0
CIRCLE
  8
DETAIL
  6
CONTINUOUS
 62
     5
 10
0.0
 20
-77.124394184168068
 30
0.0
 40
5.9095315024232491
  0
ARC
  8
DETAIL
  6
CONTINUOUS
 62
     5
 10
0.0
 20
-77.124394184168068
 30
0.0
 40
4.3570274636510824
 50
156.8589589732992
 51
203.1410410267008
  0
ARC
  8
DETAIL
  6
CONTINUOUS
 62
     5
 10
0.0
 20
-77.124394184168068
 30
0.0
 40
4.3570274636510717
 50
34.762875737802418
 51
145.2371242621976
  0
ARC
  8
DETAIL
  6
CONTINUOUS
 62
     5
 10
0.0
 20
-77.124394184168068
 30
0.0
 40
4.35702746365103
 50
336.8589589732992
 51
23.14104102670079
  0
ARC
  8
DETAIL
  6
CONTINUOUS
 62
     5
 10
0.0
 20
-77.124394184168068
 30
0.0
 40
4.3570274636510904
 50
214.7628757378024
 51
325.2371242621976
  0
CIRCLE
  8
DETAIL
  6
CONTINUOUS
 62
     5
 10
70.824911847390695
 20
-70.824911847390865
 30
0.0
 40
3.004846526655911
  0
CIRCLE
  8
DETAIL
  6
CONTINUOUS
 62
     5
 10
182.34810985460419
 20
-278.19169628432962
 30
0.0
 40
6.5105008077544406
  0
CIRCLE
  8
DETAIL
  6
CONTINUOUS
 62
     5
 10
280.4523424878837
 20
-280.45234248788381
 30
0.0
 40
7.011308562197093
  0
ARC
  8
DETAIL
  6
CONTINUOUS
 62
     5
 10
0.0
 20
0.0
 30
0.0
 40
228.36833602584809
 50
225.75395510990251
 51
312.1909401853124
  0
ARC
  8
DETAIL
  6
CONTINUOUS
 62
     5
 10
0.0
 20
0.0
 30
0.0
 40
228.36833602584809
 50
315.75395510990143
 51
44.246044890098617
  0
ARC
  8
DETAIL
  6
CONTINUOUS
 62
     5
 10
0.0
 20
0.0
 30
0.0
 40
228.36833602584809
 50
45.753955109902527
 51
134.24604489009749
  0
ARC
  8
DETAIL
  6
CONTINUOUS
 62
     5
 10
0.0
 20
0.0
 30
0.0
 40
228.36833602584809
 50
135.7539551099014
 51
224.2460448900986
  0
CIRCLE
  8
DETAIL
  6
CONTINUOUS
 62
     5
 10
0.0
 20
77.124394184167954
 30
0.0
 40
6.2600969305331091
  0
CIRCLE
  8
DETAIL
  6
CONTINUOUS
 62
     5
 10
0.0
 20
77.124394184167954
 30
0.0
 40
5.9095315024232491
  0
ARC
  8
DETAIL
  6
CONTINUOUS
 62
     5
 10
0.0
 20
77.124394184167954
 30
0.0
 40
4.3570274636510344
 50
336.8589589732992
 51
23.14104102670079
  0
ARC
  8
DETAIL
  6
CONTINUOUS
 62
     5
 10
0.0
 20
77.124394184167954
 30
0.0
 40
4.3570274636510762
 50
214.7628757378024
 51
325.2371242621976
  0
ARC
  8
DETAIL
  6
CONTINUOUS
 62
     5
 10
0.0
 20
77.124394184167954
 30
0.0
 40
4.3570274636510868
 50
156.8589589732992
 51
203.1410410267008
  0
ARC
  8
DETAIL
  6
CONTINUOUS
 62
     5
 10
0.0
 20
77.124394184167954
 30
0.0
 40
4.3570274636510762
 50
34.762875737802418
 51
145.2371242621976
  0
CIRCLE
  8
DETAIL
  6
CONTINUOUS
 62
     5
 10
70.824911847390695
 20
70.824911847390752
 30
0.0
 40
3.004846526655911
  0
CIRCLE
  8
DETAIL
  6
CONTINUOUS
 62
     5
 10
278.19169628432951
 20
182.34810985460419
 30
0.0
 40
6.5105008077544424
  0
CIRCLE
  8
DETAIL
  6
CONTINUOUS
 62
     5
 10
280.4523424878837
 20
280.45234248788358
 30
0.0
 40
7.011308562197093
  0
LINE
  8
DETAIL
  6
CONTINUOUS
 62
     5
 10
-227.93567035318279
 20
263.56060101178451
 30
0.0
 11
-232.39763979980219
 21
259.09863156594162
 31
0.0
  0
LINE
  8
DETAIL
  6
CONTINUOUS
 62
     5
 10
-263.56060101256088
 20
-227.93567035318279
 30
0.0
 11
-259.09863156594128
 21
-232.39763979980219
 31
0.0
  0
LINE
  8
DETAIL
  6
CONTINUOUS
 62
     5
 10
-259.09863156594128
 20
-227.93567035318279
 30
0.0
 11
-263.56060101256088
 21
-232.39763979980219
 31
0.0
  0
LINE
  8
DETAIL
  6
CONTINUOUS
 62
     5
 10
-13.27140549273031
 20
-50.831987075928957
 30
0.0
 11
-11.76898222940213
 21
-50.831987075928957
 31
0.0
  0
LINE
  8
DETAIL
  6
CONTINUOUS
 62
     5
 10
-14.398222940226111
 20
-49.705169628432998
 30
0.0
 11
-10.642164781906329
 21
-49.705169628432998
 31
0.0
  0
LINE
  8
DETAIL
  6
CONTINUOUS
 62
     5
 10
-15.1494345718902
 20
-48.578352180936967
 30
0.0
 11
-9.8909531502422396
 21
-48.578352180936967
 31
0.0
  0
LINE
  8
DETAIL
  6
CONTINUOUS
 62
     5
 10
-12.52019386106622
 20
-48.578352180936967
 30
0.0
 11
-12.52019386106622
 21
-45.949111470113174
 31
0.0
  0
LINE
  8
DETAIL
  6
CONTINUOUS
 62
     5
 10
227.93567035318279
 20
-259.09863156594162
 30
0.0
 11
232.39763979902571
 21
-263.56060101256088
 31
0.0
  0
LINE
  8
DETAIL
  6
CONTINUOUS
 62
     5
 10
263.56060101256088
 20
232.39763979902571
 30
0.0
 11
259.09863156594167
 21
227.93567035240619
 31
0.0
  0
LINE
  8
DETAIL
  6
CONTINUOUS
 62
     5
 10
-232.39763979980219
 20
263.56060101178451
 30
0.0
 11
-227.93567035318279
 21
259.09863156594162
 31
0.0
  0
LINE
  8
DETAIL
  6
CONTINUOUS
 62
     5
 10
232.39763979902571
 20
-259.09863156594162
 30
0.0
 11
227.93567035318279
 21
-263.56060101256088
 31
0.0
  0
LINE
  8
DETAIL
  6
CONTINUOUS
 62
     5
 10
259.09863156594167
 20
232.39763979902571
 30
0.0
 11
263.56060101256088
 21
227.93567035240619
 31
0.0
  0
CIRCLE
  8
DETAIL
  6
CONTINUOUS
 62
     5
 10
-12.52019386106622
 20
-48.578352180936967
 30
0.0
 40
3.7560581583198882
  0
LINE
  8
BASIS
  6
DASHDOT
 62
     6
 10
0.0
 20
-339.51713814236518
 30
0.0
 11
0.0
 21
339.51713814158848
 31
0.0
  0
LINE
  8
BASIS
  6
DASHDOT
 62
     6
 10
-329.52929641324448
 20
0.0
 30
0.0
 11
329.52929641324482
 21
0.0
 31
0.0
  0
LINE
  8
DETAIL
  6
CONTINUOUS
 62
     5
 10
237.87781222712471
 20
-402.32569514732529
 30
0.0
 11
234.9186160711829
 21
-401.8039090234696
 31
0.0
  0
LINE
  8
DETAIL
  6
CONTINUOUS
 62
     5
 10
243.70794540804809
 20
-372.60378534048488
 30
0.0
 11
248.9487200253748
 21
-402.32569514732529
 31
0.0
  0
LINE
  8
DETAIL
  6
CONTINUOUS
 62
     5
 10
246.4848656101999
 20
-372.60378531262802
 30
0.0
 11
251.90791618131291
 21
-401.8039090234696
 31
0.0
  0
LINE
  8
DETAIL
  6
CONTINUOUS
 62
     5
 10
247.5997408378239
 20
-372.60378531262802
 30
0.0
 11
239.0742166589803
 21
-372.60378534034652
 31
0.0
  0
LINE
  8
DETAIL
  6
CONTINUOUS
 62
     5
 10
240.0673857166471
 20
-372.60378534048488
 30
0.0
 11
234.9186160711829
 21
-401.8039090234696
 31
0.0
  0
LINE
  8
DETAIL
  6
CONTINUOUS
 62
     5
 10
248.9487200253748
 20
-402.32569514732529
 30
0.0
 11
251.90791618131291
 21
-401.8039090234696
 31
0.0
  0
LINE
  8
DETAIL
  6
CONTINUOUS
 62
     5
 10
243.11858684444769
 20
-372.60378534048488
 30
0.0
 11
237.87781222712471
 21
-402.32569514732529
 31
0.0
  0
ARC
  8
DETAIL
  6
CONTINUOUS
 62
     5
 10
77.022470728188452
 20
-144.20948567300729
 30
0.0
 40
44.702619493294627
 50
39.590742045443299
 51
80.917786591414014
  0
ARC
  8
DETAIL
  6
CONTINUOUS
 62
     5
 10
68.899690776974793
 20
-160.96567875902599
 30
0.0
 40
53.964473774062142
 50
47.009059725165663
 51
84.719913332955258
  0
ARC
  8
DETAIL
  6
CONTINUOUS
 62
     5
 10
-5351.121233710649
 20
-5670.113055736465
 30
0.0
 40
7782.379959517546
 50
44.238472331161198
 51
45.452102518684683
  0
ARC
  8
DETAIL
  6
CONTINUOUS
 62
     5
 10
-203.34875049450449
 20
-310.18014607907571
 30
0.0
 40
443.84818282415353
 50
356.37939210119691
 51
6.8169388764356658
  0
ARC
  8
DETAIL
  6
CONTINUOUS
 62
     5
 10
242.39601460549559
 20
-254.9618688821862
 30
0.0
 40
4.6490047221313997
 50
213.9978468802571
 51
44.350460350566919
  0
ARC
  8
DETAIL
  6
CONTINUOUS
 62
     5
 10
-144.09940867073291
 20
-308.89715555257658
 30
0.0
 40
393.83108239524438
 50
354.86645002620929
 51
6.9179282763287642
  0
ARC
  8
DETAIL
  6
CONTINUOUS
 62
     5
 10
1577.4405799503829
 20
-360.24726203026421
 30
0.0
 40
1338.423403134515
 50
179.32983701656141
 51
180.52897064634249
  0
ARC
  8
DETAIL
  6
CONTINUOUS
 62
     5
 10
-104383.6285573538
 20
-970.73002996334685
 30
0.0
 40
104633.09045605089
 50
0.3275282793266335
 51
0.3394420359521723
  0
ARC
  8
DETAIL
  6
CONTINUOUS
 62
     5
 10
236.95305271776991
 20
-350.829148670059
 30
0.0
 40
12.89760371823408
 50
34.15942669757694
 51
165.74312279252129
  0
ARC
  8
DETAIL
  6
CONTINUOUS
 62
     5
 10
251.23797396345941
 20
-340.65029426236481
 30
0.0
 40
4.6556356756378916
 50
219.11085947184611
 51
341.70157333625627
  0
ARC
  8
DETAIL
  6
CONTINUOUS
 62
     5
 10
235.36977900253581
 20
-353.15486312889891
 30
0.0
 40
9.342949338780187
 50
36.924415413023368
 51
169.13209275438851
  0
ARC
  8
DETAIL
  6
CONTINUOUS
 62
     5
 10
249.65953073220541
 20
-342.73424686137639
 30
0.0
 40
8.3448600845508647
 50
215.17891446035699
 51
338.05809422287751
  0
LINE
  8
DETAIL
  6
CONTINUOUS
 62
     5
 10
239.36570555740059
 20
-258.45693326868798
 30
0.0
 11
227.46826837281949
 21
-243.74326718097461
 31
0.0
  0
ARC
  8
DETAIL
  6
CONTINUOUS
 62
     5
 10
261.33276141811012
 20
-258.38563872727519
 30
0.0
 40
14.670380388389949
 50
170.01565229482651
 51
187.01424841242559
  0
ARC
  8
DETAIL
  6
CONTINUOUS
 62
     5
 10
82.457098975197923
 20
18.086915978516419
 30
0.0
 40
139.21374599875489
 50
8.3134255644407276
 51
18.492303036098939
  0
ARC
  8
DETAIL
  6
CONTINUOUS
 62
     5
 10
-234.44273924034249
 20
247.4132518961608
 30
0.0
 40
118.6308055702241
 50
312.02029604503969
 51
320.27627465108287
  0
ARC
  8
DETAIL
  6
CONTINUOUS
 62
     5
 10
-201.2852076004919
 20
-732.15856542202528
 30
0.0
 40
536.92562189393414
 50
73.81529257127697
 51
76.616949957913292
  0
ARC
  8
DETAIL
  6
CONTINUOUS
 62
     5
 10
2.8033811209388659
 20
6.5545279215283472
 30
0.0
 40
229.61120448277339
 50
256.28765916640572
 51
285.32949980713448
  0
ARC
  8
DETAIL
  6
CONTINUOUS
 62
     5
 10
140.29064138049119
 20
-169.3606188888933
 30
0.0
 40
4.9206957715656152
 50
279.76343659969592
 51
98.251546978121439
  0
ARC
  8
DETAIL
  6
CONTINUOUS
 62
     5
 10
88.682154051480325
 20
-54.297759811201082
 30
0.0
 40
46.000457511118043
 50
211.2250604620497
 51
264.2567478272349
  0
ARC
  8
DETAIL
  6
CONTINUOUS
 62
     5
 10
85.484590366029806
 20
-59.636485780496088
 30
0.0
 40
48.991410063512348
 50
219.70894722333449
 51
256.28096744306703
  0
ARC
  8
DETAIL
  6
CONTINUOUS
 62
     5
 10
713.59946673848481
 20
315.3991688890797
 30
0.0
 40
772.08160098492067
 50
208.62971332897911
 51
210.6450240839082
  0
ARC
  8
DETAIL
  6
CONTINUOUS
 62
     5
 10
160.91891667533011
 20
1.88049873446905
 30
0.0
 40
146.32806343436889
 50
204.60907544783379
 51
219.36865123606881
  0
CIRCLE
  8
DETAIL
  6
CONTINUOUS
 62
     5
 10
0.0
 20
0.0
 30
0.0
 40
225.36348949919221
  0
ARC
  8
DETAIL
  6
CONTINUOUS
 62
     5
 10
102.79208875541011
 20
87.546424024049657
 30
0.0
 40
127.3578620440787
 50
267.28349176714983
 51
337.21087951474891
  0
ARC
  8
DETAIL
  6
CONTINUOUS
 62
     5
 10
-2.936176365429048
 20
-0.8784891330181708
 30
0.0
 40
226.39615061505981
 50
16.18901770533218
 51
43.871238862553263
  0
ARC
  8
DETAIL
  6
CONTINUOUS
 62
     5
 10
13.58263854154688
 20
22.67856436399336
 30
0.0
 40
198.2125428274166
 50
44.286586267083898
 51
70.168532698720014
  0
ARC
  8
DETAIL
  6
CONTINUOUS
 62
     5
 10
78.004157422361473
 20
204.41959037852089
 30
0.0
 40
5.496738963906826
 50
59.097600724675118
 51
193.5783817042896
  0
ARC
  8
DETAIL
  6
CONTINUOUS
 62
     5
 10
32.654527006969147
 20
173.66355256316771
 30
0.0
 40
49.686418700842388
 50
351.07407841952858
 51
36.372325231557603
  0
ARC
  8
DETAIL
  6
CONTINUOUS
 62
     5
 10
201.28077335097259
 20
173.58018134382851
 30
0.0
 40
119.78452993652991
 50
183.65008910567909
 51
195.93043744400541
  0
ARC
  8
DETAIL
  6
CONTINUOUS
 62
     5
 10
16.67015917328354
 20
125.10716443518611
 30
0.0
 40
71.156468301176631
 50
341.89327297366719
 51
12.660603968563819
  0
ARC
  8
DETAIL
  6
CONTINUOUS
 62
     5
 10
774.96103782727369
 20
119.9969125575598
 30
0.0
 40
690.86742763162397
 50
181.41036398217301
 51
182.99472875547431
  0
ARC
  8
DETAIL
  6
CONTINUOUS
 62
     5
 10
-127.11593396809261
 20
45.785613291249433
 30
0.0
 40
126.83620364627281
 50
23.110949397365651
 51
97.285112450322174
  0
ARC
  8
DETAIL
  6
CONTINUOUS
 62
     5
 10
-7.5497342330099571
 20
0.9389956315854207
 30
0.0
 40
216.38709114980011
 50
134.5578990557616
 51
165.77618789829839
  0
ARC
  8
DETAIL
  6
CONTINUOUS
 62
     5
 10
-25.168127197957801
 20
0.5083593609770105
 30
0.0
 40
199.4711108388943
 50
164.4126948372857
 51
190.12842093797579
  0
ARC
  8
DETAIL
  6
CONTINUOUS
 62
     5
 10
-216.03463701018879
 20
-34.656213260694358
 30
0.0
 40
5.4967389639068251
 50
179.0976007247277
 51
313.57838170432439
  0
ARC
  8
DETAIL
  6
CONTINUOUS
 62
     5
 10
-166.7243117346425
 20
-58.55212634498389
 30
0.0
 40
49.686418700842381
 50
111.07407841954139
 51
156.37232523154611
  0
ARC
  8
DETAIL
  6
CONTINUOUS
 62
     5
 10
-250.96523331275239
 20
87.52417234340578
 30
0.0
 40
119.78452993652991
 50
303.65008910564347
 51
315.93043744400308
  0
ARC
  8
DETAIL
  6
CONTINUOUS
 62
     5
 10
-116.68106218295
 20
-48.116800888399439
 30
0.0
 40
71.156468301176631
 50
101.8932729736305
 51
132.66060396855289
  0
ARC
  8
DETAIL
  6
CONTINUOUS
 62
     5
 10
-491.40089356418321
 20
611.13748942279165
 30
0.0
 40
690.86742763162385
 50
301.41036398219228
 51
302.99472875549287
  0
ARC
  8
DETAIL
  6
CONTINUOUS
 62
     5
 10
24.42138283760687
 20
-132.79377218227461
 30
0.0
 40
127.3578620440785
 50
166.86606938575059
 51
217.2108795147262
  0
ARC
  8
DETAIL
  6
CONTINUOUS
 62
     5
 10
12.143811478121281
 20
-22.050417199598431
 30
0.0
 40
199.4711108388943
 50
284.41269483727399
 51
310.12842093802271
  0
ARC
  8
DETAIL
  6
CONTINUOUS
 62
     5
 10
134.06978472767329
 20
-115.11142621818389
 30
0.0
 40
49.686418700842388
 50
231.07407841954549
 51
276.37232523152431
  0
ARC
  8
DETAIL
  6
CONTINUOUS
 62
     5
 10
49.684459961779787
 20
-261.10435368723438
 30
0.0
 40
119.78452993652991
 50
63.650089105678923
 51
75.930437444028854
  0
ARC
  8
DETAIL
  6
CONTINUOUS
 62
     5
 10
88.581771602258868
 20
-93.201133238336752
 30
0.0
 40
52.628340041098213
 50
221.0763803791011
 51
259.29291265215022
  0
ARC
  8
DETAIL
  6
CONTINUOUS
 62
     5
 10
-107.57235091761871
 20
14.64078643928633
 30
0.0
 40
18.691552453336271
 50
54.642752378602943
 51
112.96336451295841
  0
ARC
  8
DETAIL
  6
CONTINUOUS
 62
     5
 10
8.6452015596703404
 20
-177.8630585056662
 30
0.0
 40
64.245673250279353
 50
51.12645702482655
 51
68.309146285059427
  0
ARC
  8
DETAIL
  6
CONTINUOUS
 62
     5
 10
41.720662306056973
 20
-98.434804415590406
 30
0.0
 40
21.826502591352021
 50
168.78881140534949
 51
244.6923543936694
  0
ENDSEC
  0
EOF
