  0
SECTION
  2
HEADER
  9
$ACADVER
  1
AC1009
  9
$DWGCODEPAGE
  3
dos932
  9
$INSBASE
 10
0.0
 20
0.0
 30
0.0
  9
$EXTMIN
 10
-635.36680474105196
 20
-459.18272756876291
 30
-0.0015258207003583
  9
$EXTMAX
 10
1074.50410097896
 20
558.83789860973775
 30
0.0000000349246037
  9
$LIMMIN
 10
-2970.0
 20
-2100.0
  9
$LIMMAX
 10
2970.0
 20
2100.0
  9
$ORTHOMODE
 70
     1
  9
$REGENMODE
 70
     1
  9
$FILLMODE
 70
     1
  9
$QTEXTMODE
 70
     0
  9
$MIRRTEXT
 70
     0
  9
$LTSCALE
 40
20.0
  9
$ATTMODE
 70
     1
  9
$TEXTSIZE
 40
64.0
  9
$TRACEWID
 40
0.05
  9
$TEXTSTYLE
  7
STANDARD
  9
$CLAYER
  8
SIZE
  9
$CELTYPE
  6
CONTINUOUS
  9
$CECOLOR
 62
     7
  9
$DIMSCALE
 40
1.0
  9
$DIMASZ
 40
12.0
  9
$DIMEXO
 40
20.0
  9
$DIMDLI
 40
200.0
  9
$DIMRND
 40
0.0
  9
$DIMDLE
 40
0.0
  9
$DIMEXE
 40
20.0
  9
$DIMTP
 40
0.0
  9
$DIMTM
 40
0.0
  9
$DIMTXT
 40
64.0
  9
$DIMCEN
 40
0.09
  9
$DIMTSZ
 40
0.0
  9
$DIMTOL
 70
     0
  9
$DIMLIM
 70
     0
  9
$DIMTIH
 70
     0
  9
$DIMTOH
 70
     0
  9
$DIMSE1
 70
     0
  9
$DIMSE2
 70
     0
  9
$DIMTAD
 70
     1
  9
$DIMZIN
 70
     8
  9
$DIMBLK
  1

  9
$DIMASO
 70
     1
  9
$DIMSHO
 70
     0
  9
$DIMPOST
  1

  9
$DIMAPOST
  1

  9
$DIMALT
 70
     0
  9
$DIMALTD
 70
     2
  9
$DIMALTF
 40
25.399999999999999
  9
$DIMLFAC
 40
1.0
  9
$DIMTOFL
 70
     1
  9
$DIMTVP
 40
0.0
  9
$DIMTIX
 70
     1
  9
$DIMSOXD
 70
     0
  9
$DIMSAH
 70
     0
  9
$DIMBLK1
  1

  9
$DIMBLK2
  1

  9
$DIMSTYLE
  2
STANDARD
  9
$DIMCLRD
 70
     7
  9
$DIMCLRE
 70
     7
  9
$DIMCLRT
 70
     7
  9
$DIMTFAC
 40
1.0
  9
$DIMGAP
 40
25.0
  9
$LUNITS
 70
     2
  9
$LUPREC
 70
     4
  9
$SKETCHINC
 40
0.1
  9
$FILLETRAD
 40
3.0
  9
$AUNITS
 70
     1
  9
$AUPREC
 70
     3
  9
$MENU
  1
ACAD
  9
$ELEVATION
 40
0.0
  9
$PELEVATION
 40
0.0
  9
$THICKNESS
 40
0.0
  9
$LIMCHECK
 70
     0
  9
$CHAMFERA
 40
0.0
  9
$CHAMFERB
 40
0.0
  9
$SKPOLY
 70
     0
  9
$TDCREATE
 40
2453019.62301037
  9
$TDUPDATE
 40
2458949.455565752
  9
$TDINDWG
 40
1.7127937616
  9
$TDUSRTIMER
 40
1.7127937616
  9
$USRTIMER
 70
     1
  9
$ANGBASE
 50
0.0
  9
$ANGDIR
 70
     0
  9
$PDMODE
 70
     3
  9
$PDSIZE
 40
-2.0
  9
$PLINEWID
 40
0.0
  9
$SPLFRAME
 70
     0
  9
$SPLINETYPE
 70
     6
  9
$SPLINESEGS
 70
     8
  9
$SURFTAB1
 70
     6
  9
$SURFTAB2
 70
     6
  9
$SURFTYPE
 70
     6
  9
$SURFU
 70
     6
  9
$SURFV
 70
     6
  9
$UCSNAME
  2

  9
$UCSORG
 10
0.0
 20
0.0
 30
0.0
  9
$UCSXDIR
 10
1.0
 20
0.0
 30
0.0
  9
$UCSYDIR
 10
0.0
 20
1.0
 30
0.0
  9
$PUCSNAME
  2

  9
$PUCSORG
 10
0.0
 20
0.0
 30
0.0
  9
$PUCSXDIR
 10
1.0
 20
0.0
 30
0.0
  9
$PUCSYDIR
 10
0.0
 20
1.0
 30
0.0
  9
$USERI1
 70
     0
  9
$USERI2
 70
     0
  9
$USERI3
 70
     0
  9
$USERI4
 70
     0
  9
$USERI5
 70
     0
  9
$USERR1
 40
20.0
  9
$USERR2
 40
0.0
  9
$USERR3
 40
0.0
  9
$USERR4
 40
0.0
  9
$USERR5
 40
0.0
  9
$WORLDVIEW
 70
     1
  9
$SHADEDGE
 70
     3
  9
$SHADEDIF
 70
    70
  9
$TILEMODE
 70
     1
  9
$MAXACTVP
 70
    48
  9
$PINSBASE
 10
0.0
 20
0.0
 30
0.0
  9
$PLIMCHECK
 70
     0
  9
$PEXTMIN
 10
-100000000000000000000.0
 20
-100000000000000000000.0
 30
-100000000000000000000.0
  9
$PEXTMAX
 10
100000000000000000000.0
 20
100000000000000000000.0
 30
100000000000000000000.0
  9
$PLIMMIN
 10
0.0
 20
0.0
  9
$PLIMMAX
 10
12.0
 20
9.0
  9
$UNITMODE
 70
     0
  9
$VISRETAIN
 70
     0
  9
$PLINEGEN
 70
     0
  9
$PSLTSCALE
 70
     0
  9
$TREEDEPTH
 70
  3020
  9
$ATTDIA
 70
     0
  9
$ATTREQ
 70
     1
  9
$BLIPMODE
 70
     1
  9
$COORDS
 70
     1
  9
$DRAGMODE
 70
     2
  9
$OSMODE
 70
     0
  9
$HANDLING
 70
     0
  9
$HANDSEED
  5
EDFD
  0
ENDSEC
  0
SECTION
  2
TABLES
  0
TABLE
  2
LTYPE
 70
     2
  0
LTYPE
  2
CONTINUOUS
 70
     0
  3
実線
 72
    65
 73
     0
 40
0.0
  0
LTYPE
  2
DASHDOT
 70
     0
  3
____ _ ____ _ ____ _ ____ _ ____ _ ____ _ ____
 72
    65
 73
     4
 40
5.5
 49
4.0
 49
-0.6
 49
0.3
 49
-0.6
  0
ENDTAB
  0
TABLE
  2
LAYER
 70
    12
  0
LAYER
  2
0
 70
     0
 62
     7
  6
CONTINUOUS
  0
LAYER
  2
BASIS
 70
     0
 62
     6
  6
DASHDOT
  0
LAYER
  2
OUTLINE
 70
     0
 62
     3
  6
CONTINUOUS
  0
LAYER
  2
DETAIL
 70
     0
 62
     5
  6
CONTINUOUS
  0
LAYER
  2
SIZE
 70
     0
 62
    30
  6
CONTINUOUS
  0
LAYER
  2
ARRANGE
 70
     0
 62
     1
  6
CONTINUOUS
  0
LAYER
  2
DEFPOINTS
 70
     0
 62
     7
  6
CONTINUOUS
  0
LAYER
  2
ETC
 70
     0
 62
    61
  6
CONTINUOUS
  0
LAYER
  2
FIX
 70
     0
 62
    11
  6
CONTINUOUS
  0
LAYER
  2
NOTE
 70
     0
 62
     4
  6
CONTINUOUS
  0
LAYER
  2
SERVICESPACE
 70
    64
 62
     2
  6
DASHDOT
  0
LAYER
  2
SYMBOLLINE
 70
    64
 62
    15
  6
CONTINUOUS
  0
ENDTAB
  0
TABLE
  2
STYLE
 70
     1
  0
STYLE
  2
STANDARD
 70
     0
 40
64.0
 41
0.9
 50
0.0
 71
     0
 42
64.0
  3
SIMPLEX.shx
  4
BIGFONT.shx
  0
ENDTAB
  0
TABLE
  2
APPID
 70
    19
  0
APPID
  2
ACAD
 70
     0
  0
APPID
  2
AUTOCAD_POSTSCRIPT_FIGURE
 70
     0
  0
APPID
  2
ACAD_EXEMPT_FROM_CAD_STANDARDS
 70
     0
  0
APPID
  2
ACAD_PSEXT
 70
     0
  0
APPID
  2
ACAUTHENVIRON
 70
     0
  0
APPID
  2
GENIUS_GENOENT_13
 70
     0
  0
APPID
  2
GENIUS_GENCFG_13
 70
     0
  0
APPID
  2
GENIUS_GENCFG0_13
 70
     0
  0
APPID
  2
GENIUS_GENCFG1_13
 70
     0
  0
APPID
  2
GENIUS_GENCFG2_13
 70
     0
  0
APPID
  2
GENIUS_GENCFG3_13
 70
     0
  0
APPID
  2
GENIUS_GENCFG4_13
 70
     0
  0
APPID
  2
GENIUS_GEVCFG0_13
 70
     0
  0
APPID
  2
CONTENTBLOCKICON
 70
     0
  0
APPID
  2
CONTENTBLOCKDESCRIPTION
 70
     0
  0
APPID
  2
ACAD_NAV_VCDISPLAY
 70
     0
  0
APPID
  2
ACAD_MLEADERVER
 70
     0
  0
APPID
  2
ACDBDYNAMICBLOCKTRUENAME
 70
     0
  0
APPID
  2
ACDBDYNAMICBLOCKGUID
 70
     0
  0
ENDTAB
  0
TABLE
  2
DIMSTYLE
 70
     1
  0
DIMSTYLE
  2
STANDARD
 70
     0
  3

  4

  5
_ORIGIN
  6

  7

 40
1.0
 41
12.0
 42
20.0
 43
200.0
 44
20.0
 45
0.0
 46
0.0
 47
0.0
 48
0.0
140
64.0
141
0.09
142
0.0
143
25.399999999999999
144
1.0
145
0.0
146
1.0
147
25.0
 71
     0
 72
     0
 73
     0
 74
     0
 75
     0
 76
     0
 77
     1
 78
     8
170
     0
171
     2
172
     1
173
     0
174
     1
175
     0
176
     7
177
     7
178
     7
  0
ENDTAB
  0
TABLE
  2
VIEW
 70
     1
  0
VIEW
  2
ALL
 70
     0
 40
4282.6198079999986
 10
0.0
 20
41.309904000000003
 41
5940.0
 11
0.0
 21
0.0
 31
1.0
 12
0.0
 22
0.0
 32
0.0
 42
50.0
 43
0.0
 44
0.0
 50
0.0
 71
     0
  0
ENDTAB
  0
TABLE
  2
UCS
 70
     0
  0
ENDTAB
  0
TABLE
  2
VPORT
 70
     1
  0
VPORT
  2
*ACTIVE
 70
     0
 10
0.0
 20
0.0
 11
1.0
 21
1.0
 12
219.56864811895389
 22
49.827585520487503
 13
0.0
 23
0.0
 14
1.0
 24
1.0
 15
0.0
 25
0.0
 16
0.0
 26
0.0
 36
1.0
 17
0.0
 27
0.0
 37
0.0
 40
1024.7699341973639
 41
1.747787610619469
 42
50.0
 43
0.0
 44
0.0
 50
0.0
 51
0.0
 71
     0
 72
  1000
 73
     1
 74
     3
 75
     0
 76
     0
 77
     0
 78
     0
  0
ENDTAB
  0
ENDSEC
  0
SECTION
  2
BLOCKS
  0
BLOCK
  8
0
  2
_ORIGIN
 70
     0
 10
0.0
 20
0.0
 30
0.0
  3
_ORIGIN
  1
_ORIGIN
  0
CIRCLE
  8
0
  6
CONTINUOUS
 62
     7
 10
0.0
 20
0.0
 30
0.0
 40
0.5
  0
LINE
  8
0
  6
CONTINUOUS
 62
     7
 10
0.0
 20
0.0
 30
0.0
 11
-1.0
 21
0.0
 31
0.0
  0
ENDBLK
  8
0
  0
ENDSEC
  0
SECTION
  2
ENTITIES
  0
POINT
  8
ARRANGE
  6
CONTINUOUS
 62
     1
 10
0.0
 20
0.0
 30
0.0
  0
CIRCLE
  8
ARRANGE
  6
CONTINUOUS
 62
     1
 10
0.0
 20
0.0
 30
0.0
 40
40.0
  0
TEXT
  8
ETC
  6
CONTINUOUS
 62
    61
 10
344.87539504366401
 20
494.56101113953292
 30
0.0
 40
64.0
  1
EWG-50ETA2-Q_1
 41
0.9
  0
TEXT
  8
ETC
  6
CONTINUOUS
 62
    61
 10
340.68940104366362
 20
376.60570112470168
 30
0.0
 40
64.0
  1
産業扇
 41
0.9
  0
TEXT
  8
ETC
  6
CONTINUOUS
 62
    61
 10
391.39079929221953
 20
268.45692823847639
 30
0.0
 40
40.0
  1
EWG-50ETA2-Q
 41
0.9
  0
LINE
  8
SIZE
  6
CONTINUOUS
 62
    30
 10
-309.99999999999977
 20
18.497576736672041
 30
0.0
 11
-309.99999999999977
 21
264.96668498765212
 31
0.0
  0
LINE
  8
SIZE
  6
CONTINUOUS
 62
    30
 10
310.0
 20
18.497576736672041
 30
0.0
 11
310.0
 21
264.96668498765212
 31
0.0
  0
LINE
  8
SIZE
  6
CONTINUOUS
 62
    30
 10
-297.99999999999977
 20
244.9666849876522
 30
0.0
 11
298.0
 21
244.9666849876522
 31
0.0
  0
CIRCLE
  8
SIZE
  6
CONTINUOUS
 62
    30
 10
-309.99999999999977
 20
244.9666849876522
 30
0.0
 40
6.0
  0
LINE
  8
SIZE
  6
CONTINUOUS
 62
    30
 10
-309.99999999999977
 20
244.9666849876522
 30
0.0
 11
-297.99999999999977
 21
244.9666849876522
 31
0.0
  0
CIRCLE
  8
SIZE
  6
CONTINUOUS
 62
    30
 10
310.0
 20
244.9666849876522
 30
0.0
 40
6.0
  0
LINE
  8
SIZE
  6
CONTINUOUS
 62
    30
 10
310.0
 20
244.9666849876522
 30
0.0
 11
298.0
 21
244.9666849876522
 31
0.0
  0
TEXT
  8
SIZE
  6
CONTINUOUS
 62
    30
 10
-74.834492931621895
 20
269.96668498765212
 30
0.0
 40
64.0
  1
620
 41
0.9
 72
     1
 11
-0.7773500744790454
 21
269.96668498765212
 31
0.0
  0
POINT
  8
DEFPOINTS
  6
CONTINUOUS
 62
    30
 10
-309.99999999999977
 20
-1.5024232633279551
 30
0.0
  0
POINT
  8
DEFPOINTS
  6
CONTINUOUS
 62
    30
 10
310.0
 20
-1.5024232633279551
 30
0.0
  0
POINT
  8
DEFPOINTS
  6
CONTINUOUS
 62
    30
 10
310.0
 20
244.9666849876522
 30
0.0
  0
LINE
  8
SIZE
  6
CONTINUOUS
 62
    30
 10
-281.22969256213418
 20
44.796828318904488
 30
0.0
 11
-281.22969256213418
 21
151.39419561661629
 31
0.0
  0
LINE
  8
SIZE
  6
CONTINUOUS
 62
    30
 10
279.67499241363288
 20
44.796828318904147
 30
0.0
 11
279.67499241363288
 21
151.39419561661629
 31
0.0
  0
LINE
  8
SIZE
  6
CONTINUOUS
 62
    30
 10
-269.22969256213418
 20
131.39419561661629
 30
0.0
 11
267.67499241363288
 21
131.39419561661629
 31
0.0
  0
CIRCLE
  8
SIZE
  6
CONTINUOUS
 62
    30
 10
-281.22969256213418
 20
131.39419561661629
 30
0.0
 40
6.0
  0
LINE
  8
SIZE
  6
CONTINUOUS
 62
    30
 10
-281.22969256213418
 20
131.39419561661629
 30
0.0
 11
-269.22969256213418
 21
131.39419561661629
 31
0.0
  0
CIRCLE
  8
SIZE
  6
CONTINUOUS
 62
    30
 10
279.67499241363288
 20
131.39419561661629
 30
0.0
 40
6.0
  0
LINE
  8
SIZE
  6
CONTINUOUS
 62
    30
 10
279.67499241363288
 20
131.39419561661629
 30
0.0
 11
267.67499241363288
 21
131.39419561661629
 31
0.0
  0
TEXT
  8
SIZE
  6
CONTINUOUS
 62
    30
 10
-74.834492931393612
 20
156.39419561661629
 30
0.0
 40
64.0
  1
560
 41
0.9
 72
     1
 11
-0.7773500742507622
 21
156.39419561661629
 31
0.0
  0
POINT
  8
DEFPOINTS
  6
CONTINUOUS
 62
    30
 10
-281.22969256213418
 20
24.796828318904488
 30
0.0
  0
POINT
  8
DEFPOINTS
  6
CONTINUOUS
 62
    30
 10
279.67499241363288
 20
24.796828318904151
 30
0.0
  0
POINT
  8
DEFPOINTS
  6
CONTINUOUS
 62
    30
 10
279.67499241363288
 20
131.39419561661629
 30
0.0
  0
CIRCLE
  8
FIX
  6
CONTINUOUS
 62
    11
 10
-281.22969256213418
 20
0.0000000000000568
 30
0.0
 40
7.0
  0
CIRCLE
  8
FIX
  6
CONTINUOUS
 62
    11
 10
279.67499241363288
 20
0.0000000000000568
 30
0.0
 40
7.0
  0
LINE
  8
SIZE
  6
CONTINUOUS
 62
    30
 10
327.72022666242128
 20
0.0000000000000568
 30
0.0
 11
458.87747230986042
 21
0.0
 31
0.0
  0
LINE
  8
SIZE
  6
CONTINUOUS
 62
    30
 10
322.6119875671061
 20
-10.016155088853051
 30
0.0
 11
458.87747230986042
 21
-10.016155088853109
 31
0.0
  0
LINE
  8
SIZE
  6
CONTINUOUS
 62
    30
 10
438.87747230986042
 20
-22.016155088853111
 30
0.0
 11
438.87747230986042
 21
-34.016155088853111
 31
0.0
  0
LINE
  8
SIZE
  6
CONTINUOUS
 62
    30
 10
438.87747230986042
 20
12.0
 30
0.0
 11
438.87747230986042
 21
156.28571428571431
 31
0.0
  0
LINE
  8
SIZE
  6
CONTINUOUS
 62
    30
 10
438.87747230986042
 20
-10.016155088853109
 30
0.0
 11
438.87747230986042
 21
0.0
 31
0.0
  0
CIRCLE
  8
SIZE
  6
CONTINUOUS
 62
    30
 10
438.87747230986042
 20
-10.016155088853109
 30
0.0
 40
6.0
  0
LINE
  8
SIZE
  6
CONTINUOUS
 62
    30
 10
438.87747230986042
 20
-10.016155088853109
 30
0.0
 11
438.87747230986042
 21
-22.016155088853111
 31
0.0
  0
CIRCLE
  8
SIZE
  6
CONTINUOUS
 62
    30
 10
438.87747230986042
 20
0.0
 30
0.0
 40
6.0
  0
LINE
  8
SIZE
  6
CONTINUOUS
 62
    30
 10
438.87747230986042
 20
0.0
 30
0.0
 11
438.87747230986042
 21
12.0
 31
0.0
  0
TEXT
  8
SIZE
  6
CONTINUOUS
 62
    30
 10
413.87747230986042
 20
49.000000000000092
 30
0.0
 40
64.0
  1
10
 50
90.0
 41
0.9
 72
     1
 11
413.87747230986042
 21
90.142857142857224
 31
0.0
  0
POINT
  8
DEFPOINTS
  6
CONTINUOUS
 62
    30
 10
307.72022666242128
 20
0.0000000000000568
 30
0.0
  0
POINT
  8
DEFPOINTS
  6
CONTINUOUS
 62
    30
 10
302.6119875671061
 20
-10.016155088853051
 30
0.0
  0
POINT
  8
DEFPOINTS
  6
CONTINUOUS
 62
    30
 10
438.87747230986042
 20
-10.016155088853109
 30
0.0
  0
LINE
  8
SIZE
  6
CONTINUOUS
 62
    30
 10
322.6119875671061
 20
-10.016155088853051
 30
0.0
 11
458.87747230986042
 21
-10.016155088853109
 31
0.0
  0
LINE
  8
SIZE
  6
CONTINUOUS
 62
    30
 10
312.59583247825321
 20
-20.032310177706279
 30
0.0
 11
458.87747230986042
 21
-20.032310177706339
 31
0.0
  0
LINE
  8
SIZE
  6
CONTINUOUS
 62
    30
 10
438.87747230986042
 20
1.983844911146889
 30
0.0
 11
438.87747230986042
 21
13.983844911146891
 31
0.0
  0
LINE
  8
SIZE
  6
CONTINUOUS
 62
    30
 10
438.87747230986042
 20
-32.032310177706343
 30
0.0
 11
438.87747230986042
 21
-278.78084063848132
 31
0.0
  0
LINE
  8
SIZE
  6
CONTINUOUS
 62
    30
 10
438.87747230986042
 20
-10.016155088853109
 30
0.0
 11
438.87747230986042
 21
-20.032310177706339
 31
0.0
  0
CIRCLE
  8
SIZE
  6
CONTINUOUS
 62
    30
 10
438.87747230986042
 20
-10.016155088853109
 30
0.0
 40
6.0
  0
LINE
  8
SIZE
  6
CONTINUOUS
 62
    30
 10
438.87747230986042
 20
-10.016155088853109
 30
0.0
 11
438.87747230986042
 21
1.983844911146889
 31
0.0
  0
CIRCLE
  8
SIZE
  6
CONTINUOUS
 62
    30
 10
438.87747230986042
 20
-20.032310177706339
 30
0.0
 40
6.0
  0
LINE
  8
SIZE
  6
CONTINUOUS
 62
    30
 10
438.87747230986042
 20
-20.032310177706339
 30
0.0
 11
438.87747230986042
 21
-32.032310177706343
 31
0.0
  0
TEXT
  8
SIZE
  6
CONTINUOUS
 62
    30
 10
413.87747230986042
 20
-253.78084063848141
 30
0.0
 40
64.0
  1
10
 50
90.0
 41
0.9
 72
     1
 11
413.87747230986042
 21
-212.63798349562421
 31
0.0
  0
POINT
  8
DEFPOINTS
  6
CONTINUOUS
 62
    30
 10
302.6119875671061
 20
-10.016155088853051
 30
0.0
  0
POINT
  8
DEFPOINTS
  6
CONTINUOUS
 62
    30
 10
292.59583247825321
 20
-20.032310177706279
 30
0.0
  0
POINT
  8
DEFPOINTS
  6
CONTINUOUS
 62
    30
 10
438.87747230986042
 20
-20.032310177706339
 30
0.0
  0
LINE
  8
SIZE
  6
CONTINUOUS
 62
    30
 10
327.72022666242128
 20
0.0000000000000568
 30
0.0
 11
600.4362798262091
 21
0.0
 31
0.0
  0
LINE
  8
SIZE
  6
CONTINUOUS
 62
    30
 10
250.16665507610449
 20
-155.25040387722129
 30
0.0
 11
600.4362798262091
 21
-155.2504038772214
 31
0.0
  0
LINE
  8
SIZE
  6
CONTINUOUS
 62
    30
 10
580.4362798262091
 20
-12.0
 30
0.0
 11
580.4362798262091
 21
-143.2504038772214
 31
0.0
  0
LINE
  8
SIZE
  6
CONTINUOUS
 62
    30
 10
580.4362798262091
 20
-155.2504038772214
 30
0.0
 11
580.4362798262091
 21
-354.39326102007851
 31
0.0
  0
CIRCLE
  8
SIZE
  6
CONTINUOUS
 62
    30
 10
580.4362798262091
 20
0.0
 30
0.0
 40
6.0
  0
LINE
  8
SIZE
  6
CONTINUOUS
 62
    30
 10
580.4362798262091
 20
0.0
 30
0.0
 11
580.4362798262091
 21
-12.0
 31
0.0
  0
CIRCLE
  8
SIZE
  6
CONTINUOUS
 62
    30
 10
580.4362798262091
 20
-155.2504038772214
 30
0.0
 40
6.0
  0
LINE
  8
SIZE
  6
CONTINUOUS
 62
    30
 10
580.4362798262091
 20
-155.2504038772214
 30
0.0
 11
580.4362798262091
 21
-143.2504038772214
 31
0.0
  0
TEXT
  8
SIZE
  6
CONTINUOUS
 62
    30
 10
555.4362798262091
 20
-329.39326102007851
 30
0.0
 40
64.0
  1
155
 50
90.0
 41
0.9
 72
     1
 11
555.4362798262091
 21
-260.8218324486499
 31
0.0
  0
POINT
  8
DEFPOINTS
  6
CONTINUOUS
 62
    30
 10
307.72022666242128
 20
0.0000000000000568
 30
0.0
  0
POINT
  8
DEFPOINTS
  6
CONTINUOUS
 62
    30
 10
230.16665507610449
 20
-155.25040387722129
 30
0.0
  0
POINT
  8
DEFPOINTS
  6
CONTINUOUS
 62
    30
 10
580.4362798262091
 20
-155.2504038772214
 30
0.0
  0
TEXT
  8
NOTE
  6
CONTINUOUS
 62
     4
 10
-628.01975295431339
 20
89.566182407517999
 30
0.0
 40
64.0
  1
4-φ14
 41
0.9
  0
LINE
  8
SIZE
  6
CONTINUOUS
 62
    30
 10
-328.01960185989128
 20
0.0000000000000568
 30
0.0
 11
-384.5966677755473
 21
0.0000000000000568
 31
0.0
  0
LINE
  8
SIZE
  6
CONTINUOUS
 62
    30
 10
-20.00000000001819
 20
-326.12596986999893
 30
0.0
 11
-384.5966677755473
 21
-326.12596986999893
 31
0.0
  0
LINE
  8
SIZE
  6
CONTINUOUS
 62
    30
 10
-364.5966677755473
 20
-11.99999999999994
 30
0.0
 11
-364.5966677755473
 21
-314.12596986999893
 31
0.0
  0
CIRCLE
  8
SIZE
  6
CONTINUOUS
 62
    30
 10
-364.5966677755473
 20
0.0000000000000568
 30
0.0
 40
6.0
  0
LINE
  8
SIZE
  6
CONTINUOUS
 62
    30
 10
-364.5966677755473
 20
0.0000000000000568
 30
0.0
 11
-364.5966677755473
 21
-11.99999999999994
 31
0.0
  0
CIRCLE
  8
SIZE
  6
CONTINUOUS
 62
    30
 10
-364.5966677755473
 20
-326.12596986999893
 30
0.0
 40
6.0
  0
LINE
  8
SIZE
  6
CONTINUOUS
 62
    30
 10
-364.5966677755473
 20
-326.12596986999893
 30
0.0
 11
-364.5966677755473
 21
-314.12596986999893
 31
0.0
  0
TEXT
  8
SIZE
  6
CONTINUOUS
 62
    30
 10
-389.5966677755473
 20
-235.74869922071369
 30
0.0
 40
64.0
  1
326
 50
90.0
 41
0.9
 72
     1
 11
-389.5966677755473
 21
-163.06298493499949
 31
0.0
  0
POINT
  8
DEFPOINTS
  6
CONTINUOUS
 62
    30
 10
-308.01960185989128
 20
0.0000000000000568
 30
0.0
  0
POINT
  8
DEFPOINTS
  6
CONTINUOUS
 62
    30
 10
-0.0000000000181899
 20
-326.12596986999893
 30
0.0
  0
POINT
  8
DEFPOINTS
  6
CONTINUOUS
 62
    30
 10
-364.5966677755473
 20
-326.12596986999893
 30
0.0
  0
LINE
  8
NOTE
  6
CONTINUOUS
 62
     4
 10
-281.22969256213418
 20
-55.428046801112323
 30
0.0
 11
-281.22969256213418
 21
16.03525237625848
 31
0.0
  0
LINE
  8
NOTE
  6
CONTINUOUS
 62
     4
 10
279.67499241363288
 20
-55.428046801112323
 30
0.0
 11
279.67499241363288
 21
16.03525237625848
 31
0.0
  0
LINE
  8
DETAIL
  6
CONTINUOUS
 62
     4
 10
-283.93444707329559
 20
5.4966390564275676
 30
0.0
 11
-281.1710484336636
 21
-0.0664830210104697
 31
0.0
  0
LINE
  8
DETAIL
  6
CONTINUOUS
 62
     4
 10
-281.1710484336636
 20
-0.0664830210104697
 30
0.0
 11
-286.34578807309958
 21
3.3696149045512702
 31
0.0
  0
LINE
  8
DETAIL
  6
CONTINUOUS
 62
     4
 10
-281.1710484336636
 20
-0.0664830210104697
 30
0.0
 11
-289.10918671273163
 21
8.9327369819893079
 31
0.0
  0
LINE
  8
NOTE
  6
CONTINUOUS
 62
     4
 10
-289.1091867127318
 20
8.9327369819893079
 30
0.0
 11
-337.27464131316492
 21
63.536411956604979
 31
0.0
  0
LINE
  8
NOTE
  6
CONTINUOUS
 62
     4
 10
-337.27464131316492
 20
63.536411956604979
 30
0.0
 11
-635.14320355819927
 21
63.697866805785338
 31
0.0
  0
LINE
  8
NOTE
  6
CONTINUOUS
 62
     4
 10
-281.22969256213418
 20
-46.485854787462422
 30
0.0
 11
-281.22969256213418
 21
24.796828318904488
 31
0.0
  0
LINE
  8
NOTE
  6
CONTINUOUS
 62
     4
 10
279.67499241363288
 20
-46.485854787462422
 30
0.0
 11
279.67499241363288
 21
24.796828318904151
 31
0.0
  0
LINE
  8
SIZE
  6
CONTINUOUS
 62
    30
 10
-65.305331179321456
 20
-325.1922455573507
 30
0.0
 11
-65.305331179321456
 21
-459.08713494128818
 31
0.0
  0
LINE
  8
SIZE
  6
CONTINUOUS
 62
    30
 10
65.305331179321456
 20
-325.1922455573507
 30
0.0
 11
65.305331179321456
 21
-459.08713494128818
 31
0.0
  0
LINE
  8
SIZE
  6
CONTINUOUS
 62
    30
 10
-53.305331179321463
 20
-439.08713494128818
 30
0.0
 11
53.305331179321463
 21
-439.08713494128818
 31
0.0
  0
LINE
  8
SIZE
  6
CONTINUOUS
 62
    30
 10
65.305331179321456
 20
-439.08713494128818
 30
0.0
 11
300.10533117932141
 21
-439.08713494128818
 31
0.0
  0
CIRCLE
  8
SIZE
  6
CONTINUOUS
 62
    30
 10
-65.305331179321456
 20
-439.08713494128818
 30
0.0
 40
6.0
  0
LINE
  8
SIZE
  6
CONTINUOUS
 62
    30
 10
-65.305331179321456
 20
-439.08713494128818
 30
0.0
 11
-53.305331179321463
 21
-439.08713494128818
 31
0.0
  0
CIRCLE
  8
SIZE
  6
CONTINUOUS
 62
    30
 10
65.305331179321456
 20
-439.08713494128818
 30
0.0
 40
6.0
  0
LINE
  8
SIZE
  6
CONTINUOUS
 62
    30
 10
65.305331179321456
 20
-439.08713494128818
 30
0.0
 11
53.305331179321463
 21
-439.08713494128818
 31
0.0
  0
TEXT
  8
SIZE
  6
CONTINUOUS
 62
    30
 10
92.156759750750126
 20
-403.42046827462173
 30
0.0
 40
64.0
  1
φ131
 41
0.9
 72
     1
 11
188.70533117932149
 21
-403.42046827462173
 31
0.0
  0
POINT
  8
DEFPOINTS
  6
CONTINUOUS
 62
    30
 10
-65.305331179321456
 20
-305.1922455573507
 30
0.0
  0
POINT
  8
DEFPOINTS
  6
CONTINUOUS
 62
    30
 10
65.305331179321456
 20
-305.1922455573507
 30
0.0
  0
POINT
  8
DEFPOINTS
  6
CONTINUOUS
 62
    30
 10
65.305331179321456
 20
-439.08713494128818
 30
0.0
  0
LINE
  8
OUTLINE
  6
CONTINUOUS
 62
     3
 10
-89.644588045235196
 20
-301.4862681744753
 30
0.0
 11
-89.644588045235196
 21
-297.47980613893452
 31
0.0
  0
LINE
  8
OUTLINE
  6
CONTINUOUS
 62
     3
 10
89.644588045233377
 20
-301.4862681744753
 30
0.0
 11
89.644588045233377
 21
-297.47980613893452
 31
0.0
  0
ARC
  8
OUTLINE
  6
CONTINUOUS
 62
     3
 10
308.49757673667227
 20
-1.5024232633282959
 30
0.0
 40
1.5024232633281831
 50
270.0
 51
90.0
  0
LINE
  8
OUTLINE
  6
CONTINUOUS
 62
     3
 10
308.49757673667227
 20
0.0
 30
0.0
 11
-308.49757673667227
 21
0.0
 31
0.0
  0
ARC
  8
OUTLINE
  6
CONTINUOUS
 62
     3
 10
-308.49757673667227
 20
-1.5024232633282959
 30
0.0
 40
1.5024232633281831
 50
90.0
 51
270.0
  0
LINE
  8
OUTLINE
  6
CONTINUOUS
 62
     3
 10
-303.38933764135709
 20
-10.01615508885345
 30
0.0
 11
-300.17892012222768
 21
-10.01615508885345
 31
0.0
  0
ARC
  8
OUTLINE
  6
CONTINUOUS
 62
     3
 10
-303.38933764135709
 20
-6.4103392568664503
 30
0.0
 40
3.605815831986547
 50
180.0
 51
270.0
  0
LINE
  8
OUTLINE
  6
CONTINUOUS
 62
     3
 10
-306.99515347334358
 20
-6.4103392568664503
 30
0.0
 11
-306.99515347334358
 21
-3.004846526656479
 31
0.0
  0
ARC
  8
OUTLINE
  6
CONTINUOUS
 62
     3
 10
-293.37318255250369
 20
-16.42649434571922
 30
0.0
 40
3.6058158319874569
 50
180.0
 51
270.0
  0
LINE
  8
OUTLINE
  6
CONTINUOUS
 62
     3
 10
-296.97899838449172
 20
-16.42649434571922
 30
0.0
 11
-296.97899838449172
 21
-13.89004062544041
 31
0.0
  0
LINE
  8
OUTLINE
  6
CONTINUOUS
 62
     3
 10
-262.42326332794801
 20
-155.25040387722169
 30
0.0
 11
-261.32961628886278
 21
-155.25040387722169
 31
0.0
  0
ARC
  8
OUTLINE
  6
CONTINUOUS
 62
     3
 10
-262.42326332794801
 20
-153.24717285945101
 30
0.0
 40
2.0032310177707591
 50
90.0
 51
270.0
  0
LINE
  8
OUTLINE
  6
CONTINUOUS
 62
     3
 10
-262.42326332794801
 20
-151.24394184168071
 30
0.0
 11
-261.32961628886278
 21
-151.24394184168071
 31
0.0
  0
LINE
  8
OUTLINE
  6
CONTINUOUS
 62
     3
 10
-184.83871149355721
 20
-297.47980613893452
 30
0.0
 11
-180.5892167830084
 21
-297.47980613893452
 31
0.0
  0
ARC
  8
OUTLINE
  6
CONTINUOUS
 62
     3
 10
57.893376413569968
 20
-316.21001615508919
 30
0.0
 40
7.4119547657510338
 50
270.0
 51
0.0
  0
LINE
  8
OUTLINE
  6
CONTINUOUS
 62
     3
 10
57.893376413569968
 20
-323.62197092084079
 30
0.0
 11
-57.893376413570422
 21
-323.62197092084079
 31
0.0
  0
ARC
  8
OUTLINE
  6
CONTINUOUS
 62
     3
 10
-57.893376413570422
 20
-316.21001615508919
 30
0.0
 40
7.4119547657510338
 50
180.0
 51
270.0
  0
LINE
  8
OUTLINE
  6
CONTINUOUS
 62
     3
 10
184.8387114935563
 20
-297.47980613893452
 30
0.0
 11
180.5892167830084
 21
-297.47980613893452
 31
0.0
  0
LINE
  8
OUTLINE
  6
CONTINUOUS
 62
     3
 10
261.32961628886233
 20
-151.24394184168071
 30
0.0
 11
262.42326332794852
 21
-151.24394184168071
 31
0.0
  0
ARC
  8
OUTLINE
  6
CONTINUOUS
 62
     3
 10
262.42326332794852
 20
-153.24717285945101
 30
0.0
 40
2.0032310177707591
 50
270.0
 51
90.0
  0
LINE
  8
OUTLINE
  6
CONTINUOUS
 62
     3
 10
261.32961628886233
 20
-155.25040387722169
 30
0.0
 11
262.42326332794852
 21
-155.25040387722169
 31
0.0
  0
LINE
  8
OUTLINE
  6
CONTINUOUS
 62
     3
 10
296.97899838449081
 20
-13.89004062544041
 30
0.0
 11
296.97899838449081
 21
-16.42649434571922
 31
0.0
  0
ARC
  8
OUTLINE
  6
CONTINUOUS
 62
     3
 10
293.3731825525042
 20
-16.42649434571922
 30
0.0
 40
3.6058158319870022
 50
270.0
 51
0.0
  0
ARC
  8
OUTLINE
  6
CONTINUOUS
 62
     3
 10
303.38933764135658
 20
-6.4103392568664503
 30
0.0
 40
3.6058158319870022
 50
270.0
 51
0.0
  0
LINE
  8
OUTLINE
  6
CONTINUOUS
 62
     3
 10
303.38933764135658
 20
-10.01615508885345
 30
0.0
 11
300.17892012222768
 21
-10.01615508885345
 31
0.0
  0
LINE
  8
OUTLINE
  6
CONTINUOUS
 62
     3
 10
308.49757673667227
 20
-3.004846526656479
 30
0.0
 11
306.99515347334449
 21
-3.004846526655911
 31
0.0
  0
LINE
  8
OUTLINE
  6
CONTINUOUS
 62
     3
 10
306.99515347334449
 20
-3.004846526655911
 30
0.0
 11
306.99515347334449
 21
-6.4103392568664503
 31
0.0
  0
LINE
  8
OUTLINE
  6
CONTINUOUS
 62
     3
 10
293.3731825525042
 20
-20.032310177706218
 30
0.0
 11
285.96212428776062
 21
-20.032310177706218
 31
0.0
  0
LINE
  8
OUTLINE
  6
CONTINUOUS
 62
     3
 10
261.32961628886233
 20
-46.990898158752771
 30
0.0
 11
261.32961628886233
 21
-151.24394184168071
 31
0.0
  0
LINE
  8
OUTLINE
  6
CONTINUOUS
 62
     3
 10
261.32961628886233
 20
-155.25040387722169
 30
0.0
 11
261.32961628886233
 21
-189.30533117932211
 31
0.0
  0
LINE
  8
OUTLINE
  6
CONTINUOUS
 62
     3
 10
89.644588045233377
 20
-297.47980613893452
 30
0.0
 11
180.5892167830084
 21
-297.47980613893452
 31
0.0
  0
LINE
  8
OUTLINE
  6
CONTINUOUS
 62
     3
 10
65.305331179321001
 20
-316.21001615508919
 30
0.0
 11
65.305331179321001
 21
-301.4862681744753
 31
0.0
  0
LINE
  8
OUTLINE
  6
CONTINUOUS
 62
     3
 10
89.644588045233377
 20
-301.4862681744753
 30
0.0
 11
65.305331179321001
 21
-301.4862681744753
 31
0.0
  0
LINE
  8
OUTLINE
  6
CONTINUOUS
 62
     3
 10
-65.305331179321001
 20
-316.21001615508919
 30
0.0
 11
-65.305331179321001
 21
-301.4862681744753
 31
0.0
  0
LINE
  8
OUTLINE
  6
CONTINUOUS
 62
     3
 10
-65.305331179321001
 20
-301.4862681744753
 30
0.0
 11
-89.644588045235196
 21
-301.4862681744753
 31
0.0
  0
LINE
  8
OUTLINE
  6
CONTINUOUS
 62
     3
 10
-180.5892167830084
 20
-297.47980613893452
 30
0.0
 11
-89.644588045235196
 21
-297.47980613893452
 31
0.0
  0
LINE
  8
OUTLINE
  6
CONTINUOUS
 62
     3
 10
-261.32961628886278
 20
-189.30533117932211
 30
0.0
 11
-261.32961628886278
 21
-155.25040387722169
 31
0.0
  0
LINE
  8
OUTLINE
  6
CONTINUOUS
 62
     3
 10
-261.32961628886278
 20
-151.24394184168071
 30
0.0
 11
-261.32961628886278
 21
-46.990898158754128
 31
0.0
  0
LINE
  8
OUTLINE
  6
CONTINUOUS
 62
     3
 10
-285.96122778665313
 20
-20.032310177706218
 30
0.0
 11
-293.37318255250369
 21
-20.032310177706218
 31
0.0
  0
LINE
  8
OUTLINE
  6
CONTINUOUS
 62
     3
 10
-306.99515347334358
 20
-3.004846526656479
 30
0.0
 11
-308.49757673667227
 21
-3.004846526656479
 31
0.0
  0
LINE
  8
DETAIL
  6
CONTINUOUS
 62
     5
 10
-306.99515347334392
 20
-6.4103392568659956
 30
0.0
 11
-306.99515347334392
 21
-3.004846526655911
 31
0.0
  0
LINE
  8
DETAIL
  6
CONTINUOUS
 62
     5
 10
-303.82456339745249
 20
-3.004846526655911
 30
0.0
 11
-303.82456339745249
 21
-5.1082390953151844
 31
0.0
  0
LINE
  8
DETAIL
  6
CONTINUOUS
 62
     5
 10
-296.97899838449081
 20
-16.426494345718989
 30
0.0
 11
-296.97899838449081
 21
-13.89004062621666
 31
0.0
  0
LINE
  8
DETAIL
  6
CONTINUOUS
 62
     5
 10
-261.32961628886278
 20
-189.30533117932171
 30
0.0
 11
-261.32961628886278
 21
-14.52342487883686
 31
0.0
  0
LINE
  8
DETAIL
  6
CONTINUOUS
 62
     5
 10
-257.08012157831422
 20
-14.52342487883686
 30
0.0
 11
-257.08012157831422
 21
-189.30533117932171
 31
0.0
  0
LINE
  8
DETAIL
  6
CONTINUOUS
 62
     5
 10
-254.24712510435691
 20
-5.1082390953151844
 30
0.0
 11
-254.24712510435691
 21
-3.004846526655911
 31
0.0
  0
LINE
  8
DETAIL
  6
CONTINUOUS
 62
     5
 10
-242.91513920852569
 20
-3.004846526655911
 30
0.0
 11
-242.91513920852569
 21
-6.4103392568659956
 31
0.0
  0
LINE
  8
DETAIL
  6
CONTINUOUS
 62
     5
 10
-235.17473262053039
 20
-14.52342487883686
 30
0.0
 11
-235.17473262053039
 21
-18.529886914378039
 31
0.0
  0
LINE
  8
DETAIL
  6
CONTINUOUS
 62
     5
 10
-230.16665507610421
 20
-14.52342487883686
 30
0.0
 11
-230.16665507610421
 21
-18.08258347038873
 31
0.0
  0
LINE
  8
DETAIL
  6
CONTINUOUS
 62
     5
 10
-230.16665507610421
 20
-18.529886914378039
 30
0.0
 11
-230.16665507610421
 21
-189.30533117932171
 31
0.0
  0
LINE
  8
DETAIL
  6
CONTINUOUS
 62
     5
 10
-225.15857753167759
 20
-18.529886914378039
 30
0.0
 11
-225.15857753167759
 21
-14.52342487883686
 31
0.0
  0
LINE
  8
DETAIL
  6
CONTINUOUS
 62
     5
 10
-213.16867623313419
 20
-14.52342487883686
 30
0.0
 11
-213.16867623313419
 21
-10.016155088853219
 31
0.0
  0
LINE
  8
DETAIL
  6
CONTINUOUS
 62
     5
 10
-201.1284412186196
 20
-13.02100161550891
 30
0.0
 11
-201.1284412186196
 21
-16.426494345718989
 31
0.0
  0
LINE
  8
DETAIL
  6
CONTINUOUS
 62
     5
 10
-4.7075928917606689
 20
-324.12277867528292
 30
0.0
 11
4.7075928917611236
 21
-324.12277867528292
 31
0.0
  0
LINE
  8
DETAIL
  6
CONTINUOUS
 62
     5
 10
57.893376413570422
 20
-323.62197092084028
 30
0.0
 11
-57.893376413569968
 21
-323.62197092084028
 31
0.0
  0
LINE
  8
DETAIL
  6
CONTINUOUS
 62
     5
 10
89.644588045234514
 20
-301.4862681744753
 30
0.0
 11
-89.644588045233832
 21
-301.4862681744753
 31
0.0
  0
LINE
  8
DETAIL
  6
CONTINUOUS
 62
     5
 10
-184.8387114935565
 20
-297.47980613893378
 30
0.0
 11
-89.644588045233832
 21
-297.47980613893378
 31
0.0
  0
LINE
  8
DETAIL
  6
CONTINUOUS
 62
     5
 10
89.644588045234514
 20
-297.47980613893378
 30
0.0
 11
184.83871149355721
 21
-297.47980613893378
 31
0.0
  0
LINE
  8
DETAIL
  6
CONTINUOUS
 62
     5
 10
-1.4461614882966389
 20
-275.07209178898211
 30
0.0
 11
1.4460395187038559
 21
-275.07209178898211
 31
0.0
  0
LINE
  8
DETAIL
  6
CONTINUOUS
 62
     5
 10
-2.381340769107283
 20
-274.27079938187399
 30
0.0
 11
2.381354664387572
 21
-274.27079938187399
 31
0.0
  0
LINE
  8
DETAIL
  6
CONTINUOUS
 62
     5
 10
-89.644588045233832
 20
-301.4862681744753
 30
0.0
 11
-89.644588045233832
 21
-259.41841680129261
 31
0.0
  0
LINE
  8
DETAIL
  6
CONTINUOUS
 62
     5
 10
83.634894991922692
 20
-260.42003231017787
 30
0.0
 11
-83.634894991922238
 21
-260.42003231017787
 31
0.0
  0
LINE
  8
DETAIL
  6
CONTINUOUS
 62
     5
 10
-86.138933764135572
 20
-260.42003231017787
 30
0.0
 11
-83.843891088602277
 21
-260.42003231017787
 31
0.0
  0
LINE
  8
DETAIL
  6
CONTINUOUS
 62
     5
 10
83.843891088602732
 20
-260.42003231017787
 30
0.0
 11
86.1389337641358
 21
-260.42003231017787
 31
0.0
  0
LINE
  8
DETAIL
  6
CONTINUOUS
 62
     5
 10
-180.5892167830082
 20
-259.41841680129261
 30
0.0
 11
-89.644588045233832
 21
-259.41841680129261
 31
0.0
  0
LINE
  8
DETAIL
  6
CONTINUOUS
 62
     5
 10
89.644588045234514
 20
-259.41841680129261
 30
0.0
 11
180.5892167830086
 21
-259.41841680129261
 31
0.0
  0
LINE
  8
DETAIL
  6
CONTINUOUS
 62
     5
 10
-86.138933764135572
 20
-256.41357027463658
 30
0.0
 11
86.1389337641358
 21
-256.41357027463658
 31
0.0
  0
LINE
  8
DETAIL
  6
CONTINUOUS
 62
     5
 10
-61.045682930081973
 20
-249.90306946688199
 30
0.0
 11
-48.024681314573172
 21
-249.90306946688199
 31
0.0
  0
LINE
  8
DETAIL
  6
CONTINUOUS
 62
     5
 10
48.024681314573627
 20
-249.90306946688199
 30
0.0
 11
61.045682930082421
 21
-249.90306946688199
 31
0.0
  0
LINE
  8
DETAIL
  6
CONTINUOUS
 62
     5
 10
-80.020710173197585
 20
-256.41357027463658
 30
0.0
 11
-80.020710173197585
 21
-216.34894991922491
 31
0.0
  0
LINE
  8
DETAIL
  6
CONTINUOUS
 62
     5
 10
-68.280494395561618
 20
-256.41357027463658
 30
0.0
 11
-68.280494395561618
 21
-216.34894991922491
 31
0.0
  0
LINE
  8
DETAIL
  6
CONTINUOUS
 62
     5
 10
-65.305331179321229
 20
-316.21001615508919
 30
0.0
 11
-65.305331179321229
 21
-301.4862681744753
 31
0.0
  0
LINE
  8
DETAIL
  6
CONTINUOUS
 62
     5
 10
-65.305331179321229
 20
-216.34894991922491
 30
0.0
 11
-65.305331179321229
 21
-170.8756058158319
 31
0.0
  0
LINE
  8
DETAIL
  6
CONTINUOUS
 62
     5
 10
-61.045682930081973
 20
-256.41357027463658
 30
0.0
 11
-61.045682930081973
 21
-249.90306946688199
 31
0.0
  0
LINE
  8
DETAIL
  6
CONTINUOUS
 62
     5
 10
-57.790432526204768
 20
-246.69789983844879
 30
0.0
 11
-57.790432526204768
 21
-249.90306946688199
 31
0.0
  0
LINE
  8
DETAIL
  6
CONTINUOUS
 62
     5
 10
57.79043252620545
 20
-246.69789983844879
 30
0.0
 11
51.279931718450833
 21
-246.69789983844879
 31
0.0
  0
LINE
  8
DETAIL
  6
CONTINUOUS
 62
     5
 10
-51.279931718450371
 20
-246.69789983844879
 30
0.0
 11
-57.790432526204768
 21
-246.69789983844879
 31
0.0
  0
LINE
  8
DETAIL
  6
CONTINUOUS
 62
     5
 10
-54.535182122327569
 20
-256.41357027463658
 30
0.0
 11
-54.535182122327569
 21
-250.48456394492271
 31
0.0
  0
LINE
  8
DETAIL
  6
CONTINUOUS
 62
     5
 10
-53.548890562046381
 20
-246.69789983844879
 30
0.0
 11
-53.548890562046381
 21
-216.34894991922491
 31
0.0
  0
LINE
  8
DETAIL
  6
CONTINUOUS
 62
     5
 10
-51.279931718450371
 20
-246.69789983844879
 30
0.0
 11
-51.279931718450371
 21
-249.90306946688199
 31
0.0
  0
LINE
  8
DETAIL
  6
CONTINUOUS
 62
     5
 10
-48.024681314573172
 20
-256.41357027463658
 30
0.0
 11
-48.024681314573172
 21
-249.90306946688199
 31
0.0
  0
LINE
  8
DETAIL
  6
CONTINUOUS
 62
     5
 10
-46.587404266871772
 20
-256.41357027463658
 30
0.0
 11
-46.587404266871772
 21
-216.34894991922491
 31
0.0
  0
LINE
  8
DETAIL
  6
CONTINUOUS
 62
     5
 10
-34.443345093260859
 20
-256.41357027463658
 30
0.0
 11
-34.443345093260859
 21
-216.34894991922491
 31
0.0
  0
LINE
  8
DETAIL
  6
CONTINUOUS
 62
     5
 10
-80.020541949931385
 20
-216.34894991922491
 30
0.0
 11
80.020541949932067
 21
-216.34894991922491
 31
0.0
  0
LINE
  8
DETAIL
  6
CONTINUOUS
 62
     5
 10
-18.24401611073085
 20
-256.41357027463658
 30
0.0
 11
-18.24401611073085
 21
-216.34894991922491
 31
0.0
  0
LINE
  8
DETAIL
  6
CONTINUOUS
 62
     5
 10
-13.321486268174111
 20
-159.44283094473491
 30
0.0
 11
-13.321486268174111
 21
-158.2552504038774
 31
0.0
  0
LINE
  8
DETAIL
  6
CONTINUOUS
 62
     5
 10
-10.094112563924909
 20
-256.41357027463658
 30
0.0
 11
-10.094112563924909
 21
-216.34894991922491
 31
0.0
  0
LINE
  8
DETAIL
  6
CONTINUOUS
 62
     5
 10
-26.049655248174531
 20
-158.2552504038774
 30
0.0
 11
-25.786765241336749
 21
-155.25040387722129
 31
0.0
  0
LINE
  8
DETAIL
  6
CONTINUOUS
 62
     5
 10
-10.50984111788193
 20
-162.9183113691752
 30
0.0
 11
-12.85210558550261
 21
-160.57602399251121
 31
0.0
  0
LINE
  8
DETAIL
  6
CONTINUOUS
 62
     5
 10
-4.7075928917606689
 20
-324.12277867528292
 30
0.0
 11
-4.7075928917606689
 21
-323.62197092084028
 31
0.0
  0
LINE
  8
DETAIL
  6
CONTINUOUS
 62
     5
 10
4.7075928917611236
 20
-324.12277867528292
 30
0.0
 11
4.7075928917611236
 21
-323.62197092084028
 31
0.0
  0
LINE
  8
DETAIL
  6
CONTINUOUS
 62
     5
 10
10.09411256392559
 20
-256.41357027463658
 30
0.0
 11
10.09411256392559
 21
-216.34894991922491
 31
0.0
  0
LINE
  8
DETAIL
  6
CONTINUOUS
 62
     5
 10
13.321486268174789
 20
-159.44283094473491
 30
0.0
 11
13.321486268174789
 21
-158.2552504038774
 31
0.0
  0
LINE
  8
DETAIL
  6
CONTINUOUS
 62
     5
 10
10.509841117105911
 20
-162.9183113691752
 30
0.0
 11
12.852105585503301
 21
-160.57602399251121
 31
0.0
  0
LINE
  8
DETAIL
  6
CONTINUOUS
 62
     5
 10
-57.893376413569968
 20
-163.4636510500809
 30
0.0
 11
16.685763460470529
 21
-163.4636510500809
 31
0.0
  0
LINE
  8
DETAIL
  6
CONTINUOUS
 62
     5
 10
-13.02092624898842
 20
-162.96284329563829
 30
0.0
 11
13.021001615509251
 21
-162.96284329563829
 31
0.0
  0
LINE
  8
DETAIL
  6
CONTINUOUS
 62
     5
 10
14.60054768285954
 20
-158.2552504038774
 30
0.0
 11
-26.049655248174531
 21
-158.2552504038774
 31
0.0
  0
LINE
  8
DETAIL
  6
CONTINUOUS
 62
     5
 10
-262.42326332794801
 20
-155.25040387722129
 30
0.0
 11
-261.32961628886278
 21
-155.25040387722129
 31
0.0
  0
LINE
  8
DETAIL
  6
CONTINUOUS
 62
     5
 10
-230.16665507610421
 20
-155.25040387722129
 30
0.0
 11
230.16665507610449
 21
-155.25040387722129
 31
0.0
  0
LINE
  8
DETAIL
  6
CONTINUOUS
 62
     5
 10
261.32961628886318
 20
-155.25040387722129
 30
0.0
 11
262.42326332794852
 21
-155.25040387722129
 31
0.0
  0
LINE
  8
DETAIL
  6
CONTINUOUS
 62
     5
 10
18.24401611073154
 20
-256.41357027463658
 30
0.0
 11
18.24401611073154
 21
-216.34894991922491
 31
0.0
  0
LINE
  8
DETAIL
  6
CONTINUOUS
 62
     5
 10
34.443345093261541
 20
-256.41357027463658
 30
0.0
 11
34.443345093261541
 21
-216.34894991922491
 31
0.0
  0
LINE
  8
DETAIL
  6
CONTINUOUS
 62
     5
 10
-262.42326332794801
 20
-151.2439418416802
 30
0.0
 11
-261.32961628886278
 21
-151.2439418416802
 31
0.0
  0
LINE
  8
DETAIL
  6
CONTINUOUS
 62
     5
 10
-230.16665507610421
 20
-151.2439418416802
 30
0.0
 11
230.16665507610449
 21
-151.2439418416802
 31
0.0
  0
LINE
  8
DETAIL
  6
CONTINUOUS
 62
     5
 10
261.32961628886318
 20
-151.2439418416802
 30
0.0
 11
262.42326332794852
 21
-151.2439418416802
 31
0.0
  0
LINE
  8
DETAIL
  6
CONTINUOUS
 62
     5
 10
46.587404266872227
 20
-256.41357027463658
 30
0.0
 11
46.587404266872227
 21
-216.34894991922491
 31
0.0
  0
LINE
  8
DETAIL
  6
CONTINUOUS
 62
     5
 10
48.024681314573627
 20
-256.41357027463658
 30
0.0
 11
48.024681314573627
 21
-249.90306946688199
 31
0.0
  0
LINE
  8
DETAIL
  6
CONTINUOUS
 62
     5
 10
51.279931718450833
 20
-246.69789983844879
 30
0.0
 11
51.279931718450833
 21
-249.90306946688199
 31
0.0
  0
LINE
  8
DETAIL
  6
CONTINUOUS
 62
     5
 10
53.548890562047063
 20
-246.69789983844879
 30
0.0
 11
53.548890562047063
 21
-216.34894991922491
 31
0.0
  0
LINE
  8
DETAIL
  6
CONTINUOUS
 62
     5
 10
54.535182122328017
 20
-256.41357027463658
 30
0.0
 11
54.535182122328017
 21
-250.48456394492271
 31
0.0
  0
LINE
  8
DETAIL
  6
CONTINUOUS
 62
     5
 10
57.79043252620545
 20
-246.69789983844879
 30
0.0
 11
57.79043252620545
 21
-249.90306946688199
 31
0.0
  0
LINE
  8
DETAIL
  6
CONTINUOUS
 62
     5
 10
61.045682930082421
 20
-256.41357027463658
 30
0.0
 11
61.045682930082421
 21
-249.90306946688199
 31
0.0
  0
LINE
  8
DETAIL
  6
CONTINUOUS
 62
     5
 10
63.549721702295763
 20
-260.42003231017787
 30
0.0
 11
63.549721702295763
 21
-256.41357027463658
 31
0.0
  0
LINE
  8
DETAIL
  6
CONTINUOUS
 62
     5
 10
65.305331179321684
 20
-316.21001615508919
 30
0.0
 11
65.305331179321684
 21
-301.4862681744753
 31
0.0
  0
LINE
  8
DETAIL
  6
CONTINUOUS
 62
     5
 10
65.305331179321684
 20
-216.34894991922491
 30
0.0
 11
65.305331179321684
 21
-196.812960060488
 31
0.0
  0
LINE
  8
DETAIL
  6
CONTINUOUS
 62
     5
 10
68.280494395562073
 20
-256.41357027463658
 30
0.0
 11
68.280494395562073
 21
-216.34894991922491
 31
0.0
  0
LINE
  8
DETAIL
  6
CONTINUOUS
 62
     5
 10
80.02071017319804
 20
-256.41357027463658
 30
0.0
 11
80.02071017319804
 21
-216.34894991922491
 31
0.0
  0
LINE
  8
DETAIL
  6
CONTINUOUS
 62
     5
 10
86.1389337641358
 20
-260.42003231017787
 30
0.0
 11
86.1389337641358
 21
-256.41357027463658
 31
0.0
  0
LINE
  8
DETAIL
  6
CONTINUOUS
 62
     5
 10
89.644588045234514
 20
-301.4862681744753
 30
0.0
 11
89.644588045234514
 21
-259.41841680129261
 31
0.0
  0
LINE
  8
DETAIL
  6
CONTINUOUS
 62
     5
 10
262.98812737806679
 20
-61.348949919224651
 30
0.0
 11
261.32961628886318
 21
-61.348949919224651
 31
0.0
  0
LINE
  8
DETAIL
  6
CONTINUOUS
 62
     5
 10
262.98812737806679
 20
-57.843295638126158
 30
0.0
 11
261.32961628886318
 21
-57.843295638126158
 31
0.0
  0
LINE
  8
DETAIL
  6
CONTINUOUS
 62
     5
 10
293.3731825525042
 20
-20.032310177705991
 30
0.0
 11
261.32961628886318
 21
-20.032310177705991
 31
0.0
  0
LINE
  8
DETAIL
  6
CONTINUOUS
 62
     5
 10
230.16665507610449
 20
-20.032310177705991
 30
0.0
 11
-230.16665507610421
 21
-20.032310177705991
 31
0.0
  0
LINE
  8
DETAIL
  6
CONTINUOUS
 62
     5
 10
-261.32961628886278
 20
-20.032310177705991
 30
0.0
 11
-293.37318255250369
 21
-20.032310177705991
 31
0.0
  0
LINE
  8
DETAIL
  6
CONTINUOUS
 62
     5
 10
266.33769383328968
 20
-18.529886914378039
 30
0.0
 11
261.32961628886318
 21
-18.529886914378039
 31
0.0
  0
LINE
  8
DETAIL
  6
CONTINUOUS
 62
     5
 10
-225.15857753167759
 20
-18.529886914378039
 30
0.0
 11
-235.17473262053039
 21
-18.529886914378039
 31
0.0
  0
LINE
  8
DETAIL
  6
CONTINUOUS
 62
     5
 10
296.97899838449081
 20
-14.52342487883686
 30
0.0
 11
213.16867623313439
 21
-14.52342487883686
 31
0.0
  0
LINE
  8
DETAIL
  6
CONTINUOUS
 62
     5
 10
-213.16867623313419
 20
-14.52342487883686
 30
0.0
 11
-296.97899838449081
 21
-14.52342487883686
 31
0.0
  0
LINE
  8
DETAIL
  6
CONTINUOUS
 62
     5
 10
303.38933764135732
 20
-10.016155088853219
 30
0.0
 11
300.17892012222802
 21
-10.016155088853219
 31
0.0
  0
LINE
  8
DETAIL
  6
CONTINUOUS
 62
     5
 10
239.3093233765392
 20
-10.016155088853219
 30
0.0
 11
-239.30932337653871
 21
-10.016155088853219
 31
0.0
  0
LINE
  8
DETAIL
  6
CONTINUOUS
 62
     5
 10
-239.30932337653871
 20
-10.016155088853219
 30
0.0
 11
-244.927937625803
 21
-10.016155088853219
 31
0.0
  0
LINE
  8
DETAIL
  6
CONTINUOUS
 62
     5
 10
-300.17892012222728
 20
-10.016155088853219
 30
0.0
 11
-303.38933764135658
 21
-10.016155088853219
 31
0.0
  0
LINE
  8
DETAIL
  6
CONTINUOUS
 62
     5
 10
239.3093233765392
 20
-10.016155088853219
 30
0.0
 11
244.9279376258032
 21
-10.016155088853219
 31
0.0
  0
LINE
  8
DETAIL
  6
CONTINUOUS
 62
     5
 10
303.82456339745318
 20
-5.1082390953151844
 30
0.0
 11
253.84381916672331
 21
-5.1082390953151844
 31
0.0
  0
LINE
  8
DETAIL
  6
CONTINUOUS
 62
     5
 10
-303.82456339745249
 20
-5.1082390953151844
 30
0.0
 11
-253.8438191667228
 21
-5.1082390953151844
 31
0.0
  0
LINE
  8
DETAIL
  6
CONTINUOUS
 62
     5
 10
308.49757673667227
 20
-3.004846526655911
 30
0.0
 11
-308.49757673667182
 21
-3.004846526655911
 31
0.0
  0
LINE
  8
DETAIL
  6
CONTINUOUS
 62
     5
 10
308.49757673667227
 20
0.0
 30
0.0
 11
-308.49757673667182
 21
0.0
 31
0.0
  0
LINE
  8
DETAIL
  6
CONTINUOUS
 62
     5
 10
201.12844121862011
 20
-16.426494345718989
 30
0.0
 11
201.12844121862011
 21
-13.02100161550891
 31
0.0
  0
LINE
  8
DETAIL
  6
CONTINUOUS
 62
     5
 10
213.16867623313439
 20
-14.52342487883686
 30
0.0
 11
213.16867623313439
 21
-10.016155088853219
 31
0.0
  0
LINE
  8
DETAIL
  6
CONTINUOUS
 62
     5
 10
230.16665507610449
 20
-189.30533117932171
 30
0.0
 11
230.16665507610449
 21
-14.52342487883686
 31
0.0
  0
LINE
  8
DETAIL
  6
CONTINUOUS
 62
     5
 10
242.9151392085262
 20
-6.4103392568659956
 30
0.0
 11
242.9151392085262
 21
-3.004846526655911
 31
0.0
  0
LINE
  8
DETAIL
  6
CONTINUOUS
 62
     5
 10
254.24712510435711
 20
-5.1082390953151844
 30
0.0
 11
254.24712510435711
 21
-3.004846526655911
 31
0.0
  0
LINE
  8
DETAIL
  6
CONTINUOUS
 62
     5
 10
257.0801215783149
 20
-189.30533117932171
 30
0.0
 11
257.0801215783149
 21
-14.52342487883686
 31
0.0
  0
LINE
  8
DETAIL
  6
CONTINUOUS
 62
     5
 10
261.32961628886318
 20
-14.52342487883686
 30
0.0
 11
261.32961628886318
 21
-189.30533117932171
 31
0.0
  0
LINE
  8
DETAIL
  6
CONTINUOUS
 62
     5
 10
262.98813544301288
 20
-57.843295638126158
 30
0.0
 11
262.98813544301288
 21
-61.348949919224651
 31
0.0
  0
LINE
  8
DETAIL
  6
CONTINUOUS
 62
     5
 10
266.33769383328968
 20
-18.529886914378039
 30
0.0
 11
266.33769383328968
 21
-14.52342487883686
 31
0.0
  0
LINE
  8
DETAIL
  6
CONTINUOUS
 62
     5
 10
296.97899838449121
 20
-13.89004062621666
 30
0.0
 11
296.97899838449121
 21
-16.426494345718989
 31
0.0
  0
LINE
  8
DETAIL
  6
CONTINUOUS
 62
     5
 10
303.82456339745318
 20
-5.1082390953151844
 30
0.0
 11
303.82456339745318
 21
-3.004846526655911
 31
0.0
  0
LINE
  8
DETAIL
  6
CONTINUOUS
 62
     5
 10
306.99515347334432
 20
-3.004846526655911
 30
0.0
 11
306.99515347334432
 21
-6.4103392568659956
 31
0.0
  0
ARC
  8
DETAIL
  6
CONTINUOUS
 62
     5
 10
-180.5861099533879
 20
-243.27160805828359
 30
0.0
 40
54.208198169941397
 50
265.51691474170042
 51
269.9967162118943
  0
ARC
  8
DETAIL
  6
CONTINUOUS
 62
     5
 10
-57.893376413569968
 20
-316.21001615508919
 30
0.0
 40
7.4119547657512017
 50
180.0
 51
270.0
  0
ARC
  8
DETAIL
  6
CONTINUOUS
 62
     5
 10
-57.893376413569968
 20
-170.8756058158319
 30
0.0
 40
7.4119547657511484
 50
90.0
 51
180.0
  0
ARC
  8
DETAIL
  6
CONTINUOUS
 62
     5
 10
-83.634894991922238
 20
-266.42972536348952
 30
0.0
 40
6.0096930533117066
 50
90.0
 51
180.0
  0
ARC
  8
DETAIL
  6
CONTINUOUS
 62
     5
 10
-197.5226253866326
 20
-16.426494345718989
 30
0.0
 40
3.6058158319870022
 50
180.0
 51
270.0
  0
ARC
  8
DETAIL
  6
CONTINUOUS
 62
     5
 10
-293.37318255250369
 20
-16.426494345718989
 30
0.0
 40
3.605815831987115
 50
180.0
 51
270.0
  0
ARC
  8
DETAIL
  6
CONTINUOUS
 62
     5
 10
-204.13328774527531
 20
-13.02100161550891
 30
0.0
 40
3.0048465266557969
 50
0.0
 51
90.0
  0
ARC
  8
DETAIL
  6
CONTINUOUS
 62
     5
 10
-262.42326332794801
 20
-153.24717285945081
 30
0.0
 40
2.0032310177705308
 50
90.0
 51
270.0
  0
ARC
  8
DETAIL
  6
CONTINUOUS
 62
     5
 10
180.5871173316805
 20
-243.29811353540961
 30
0.0
 40
54.181692644675692
 50
270.00222011719842
 51
274.38417256849772
  0
ARC
  8
DETAIL
  6
CONTINUOUS
 62
     5
 10
57.893376413570422
 20
-316.21001615508919
 30
0.0
 40
7.4119547657511484
 50
270.0
 51
0.0
  0
ARC
  8
DETAIL
  6
CONTINUOUS
 62
     5
 10
0.0000000000002274
 20
-319.59297253634901
 30
0.0
 40
6.5330371567044363
 50
223.89739816710389
 51
316.10260183289608
  0
ARC
  8
DETAIL
  6
CONTINUOUS
 62
     5
 10
83.634894991922692
 20
-266.42972536348952
 30
0.0
 40
6.0096930533117643
 50
0.0
 51
90.0
  0
ARC
  8
DETAIL
  6
CONTINUOUS
 62
     5
 10
13.021001615509251
 20
-166.5686591276253
 30
0.0
 40
3.6058158319869991
 50
59.493559476906192
 51
90.0
  0
ARC
  8
DETAIL
  6
CONTINUOUS
 62
     5
 10
-13.021001615508791
 20
-166.5686591276253
 30
0.0
 40
3.6058158319872282
 50
90.0
 51
120.5064405230938
  0
ARC
  8
DETAIL
  6
CONTINUOUS
 62
     5
 10
197.5226253866326
 20
-16.426494345718989
 30
0.0
 40
3.6058158319872282
 50
270.0
 51
0.0
  0
ARC
  8
DETAIL
  6
CONTINUOUS
 62
     5
 10
204.13328774527579
 20
-13.02100161550891
 30
0.0
 40
3.004846526655911
 50
90.0
 51
180.0
  0
ARC
  8
DETAIL
  6
CONTINUOUS
 62
     5
 10
-11.71890145395764
 20
-159.44283094473491
 30
0.0
 40
1.6025848142165271
 50
180.0
 51
224.99971980698439
  0
ARC
  8
DETAIL
  6
CONTINUOUS
 62
     5
 10
11.718901453958321
 20
-159.44283094473491
 30
0.0
 40
1.6025848142164121
 50
315.00028019299941
 51
0.0
  0
ARC
  8
DETAIL
  6
CONTINUOUS
 62
     5
 10
11.218093699515521
 20
-163.62655702413261
 30
0.0
 40
1.0016155088853831
 50
135.00028019299711
 51
138.39087706069509
  0
ARC
  8
DETAIL
  6
CONTINUOUS
 62
     5
 10
-11.21809369951507
 20
-163.62655702413261
 30
0.0
 40
1.001615508885412
 50
41.609122939304889
 51
44.999719807002897
  0
ARC
  8
DETAIL
  6
CONTINUOUS
 62
     5
 10
293.3731825525042
 20
-16.426494345718989
 30
0.0
 40
3.6058158319872282
 50
270.0
 51
0.0
  0
ARC
  8
DETAIL
  6
CONTINUOUS
 62
     5
 10
262.42326332794852
 20
-153.24717285945081
 30
0.0
 40
2.0032310177707591
 50
270.0
 51
90.0
  0
ARC
  8
DETAIL
  6
CONTINUOUS
 62
     5
 10
-303.38933764135658
 20
-6.4103392568659956
 30
0.0
 40
3.605815831987115
 50
180.0
 51
270.0
  0
ARC
  8
DETAIL
  6
CONTINUOUS
 62
     5
 10
303.38933764135732
 20
-6.4103392568659956
 30
0.0
 40
3.605815831987115
 50
270.0
 51
0.0
  0
ARC
  8
DETAIL
  6
CONTINUOUS
 62
     5
 10
239.3093233765392
 20
-6.4103392568659956
 30
0.0
 40
3.605815831987115
 50
270.0
 51
0.0
  0
ARC
  8
DETAIL
  6
CONTINUOUS
 62
     5
 10
-239.30932337653871
 20
-6.4103392568659956
 30
0.0
 40
3.6058158319870022
 50
180.0
 51
270.0
  0
ARC
  8
DETAIL
  6
CONTINUOUS
 62
     5
 10
-308.49757673667182
 20
-1.5024232633281831
 30
0.0
 40
1.5024232633279551
 50
90.0
 51
270.0
  0
ARC
  8
DETAIL
  6
CONTINUOUS
 62
     5
 10
308.49757673667227
 20
-1.5024232633281831
 30
0.0
 40
1.5024232633279551
 50
270.0
 51
90.0
  0
LINE
  8
DETAIL
  6
CONTINUOUS
 62
     5
 10
-86.138933764135572
 20
-260.42003231017787
 30
0.0
 11
-86.138933764135572
 21
-256.41357027463658
 31
0.0
  0
LINE
  8
DETAIL
  6
CONTINUOUS
 62
     5
 10
-63.549721702295301
 20
-260.42003231017787
 30
0.0
 11
-63.549721702295301
 21
-256.41357027463658
 31
0.0
  0
LINE
  8
DETAIL
  6
CONTINUOUS
 62
     5
 10
2.504038772213562
 20
-248.40064620355409
 30
0.0
 11
-2.5040387722131068
 21
-248.40064620355409
 31
0.0
  0
LINE
  8
DETAIL
  6
CONTINUOUS
 62
     5
 10
-2.5040387722131068
 20
-248.40064620355409
 30
0.0
 11
-2.5040387722131068
 21
-256.41357027463658
 31
0.0
  0
LINE
  8
DETAIL
  6
CONTINUOUS
 62
     5
 10
2.504038772213562
 20
-248.40064620355409
 30
0.0
 11
2.504038772213562
 21
-256.41357027463658
 31
0.0
  0
CIRCLE
  8
DETAIL
  6
CONTINUOUS
 62
     5
 10
0.0000000000002274
 20
-272.43941841680129
 30
0.0
 40
3.004846526655911
  0
LINE
  8
BASIS
  6
DASHDOT
 62
     6
 10
0.0
 20
-341.04299836947081
 30
0.0
 11
0.0
 21
61.232330292185907
 31
0.0
  0
ARC
  8
DETAIL
  6
CONTINUOUS
 62
     5
 10
-152.56287754875169
 20
-193.52648886827751
 30
0.0
 40
108.84861794440459
 50
177.77750800631489
 51
252.7512713591949
  0
ARC
  8
DETAIL
  6
CONTINUOUS
 62
     5
 10
-144.83485553619769
 20
-192.55483054425889
 30
0.0
 40
112.29229267853241
 50
178.34175089505101
 51
249.13007579197571
  0
ARC
  8
DETAIL
  6
CONTINUOUS
 62
     5
 10
-160.3273189666165
 20
-192.50627723919081
 30
0.0
 40
69.912652101748208
 50
177.37579922072271
 51
253.15298014470741
  0
ARC
  8
DETAIL
  6
CONTINUOUS
 62
     5
 10
-244.7492264573298
 20
-7.4477201062127278
 30
0.0
 40
2.5746448185698729
 50
193.75309101649941
 51
266.01978658140592
  0
ARC
  8
DETAIL
  6
CONTINUOUS
 62
     5
 10
-262.80839559539999
 20
-11.43180305717951
 30
0.0
 40
15.919557472328229
 50
12.228701094142311
 51
31.970668701855359
  0
ARC
  8
DETAIL
  6
CONTINUOUS
 62
     5
 10
-244.738607169495
 20
-8.4624901770670249
 30
0.0
 40
6.0638911171625853
 50
195.40337396220201
 51
268.21078592154743
  0
ARC
  8
DETAIL
  6
CONTINUOUS
 62
     5
 10
-260.94227909114511
 20
-13.32007888585326
 30
0.0
 40
10.854604831318969
 50
17.405373693854479
 51
49.159283147787853
  0
ARC
  8
DETAIL
  6
CONTINUOUS
 62
     5
 10
-293.62757536237717
 20
-7.863136811495167
 30
0.0
 40
6.8960572695603792
 50
198.19246801218731
 51
240.92256762987591
  0
ARC
  8
DETAIL
  6
CONTINUOUS
 62
     5
 10
-310.86816753974222
 20
-13.47306734861945
 30
0.0
 40
11.23433365734534
 50
17.92125413486265
 51
48.11537761577862
  0
ARC
  8
DETAIL
  6
CONTINUOUS
 62
     5
 10
-288.40044464332101
 20
-42.509293610459451
 30
0.0
 40
22.60894873960557
 50
29.868025938932
 51
83.806462077320646
  0
ARC
  8
DETAIL
  6
CONTINUOUS
 62
     5
 10
-320.32604860575498
 20
-65.328565441143041
 30
0.0
 40
61.780652857356877
 50
17.26664048516573
 51
33.477302783974118
  0
ARC
  8
DETAIL
  6
CONTINUOUS
 62
     5
 10
152.56287754875169
 20
-193.52648886827751
 30
0.0
 40
108.84861794440459
 50
287.2487286408051
 51
2.2224919936850549
  0
ARC
  8
DETAIL
  6
CONTINUOUS
 62
     5
 10
144.83485553619769
 20
-192.55483054425889
 30
0.0
 40
112.29229267853241
 50
290.86992420802432
 51
1.65824910494903
  0
ARC
  8
DETAIL
  6
CONTINUOUS
 62
     5
 10
160.3273189666165
 20
-192.50627723919081
 30
0.0
 40
69.912652101748208
 50
286.84701985529261
 51
2.6242007792773361
  0
ARC
  8
DETAIL
  6
CONTINUOUS
 62
     5
 10
244.7492264573298
 20
-7.4477201062127278
 30
0.0
 40
2.5746448185698729
 50
273.98021341859408
 51
346.24690898350059
  0
ARC
  8
DETAIL
  6
CONTINUOUS
 62
     5
 10
262.80839559539999
 20
-11.43180305717951
 30
0.0
 40
15.919557472328229
 50
148.02933129814471
 51
167.77129890585769
  0
ARC
  8
DETAIL
  6
CONTINUOUS
 62
     5
 10
244.738607169495
 20
-8.4624901770670249
 30
0.0
 40
6.0638911171625853
 50
271.78921407845257
 51
344.59662603779799
  0
ARC
  8
DETAIL
  6
CONTINUOUS
 62
     5
 10
260.94227909114511
 20
-13.32007888585326
 30
0.0
 40
10.854604831318969
 50
130.84071685221221
 51
162.5946263061455
  0
ARC
  8
DETAIL
  6
CONTINUOUS
 62
     5
 10
293.62757536237717
 20
-7.863136811495167
 30
0.0
 40
6.8960572695603792
 50
299.07743237012409
 51
341.80753198781269
  0
ARC
  8
DETAIL
  6
CONTINUOUS
 62
     5
 10
310.86816753974222
 20
-13.47306734861945
 30
0.0
 40
11.23433365734534
 50
131.88462238422139
 51
162.07874586513731
  0
ARC
  8
DETAIL
  6
CONTINUOUS
 62
     5
 10
288.40044464332101
 20
-42.509293610459451
 30
0.0
 40
22.60894873960557
 50
96.193537922679369
 51
150.13197406106801
  0
ARC
  8
DETAIL
  6
CONTINUOUS
 62
     5
 10
320.32604860575498
 20
-65.328565441143041
 30
0.0
 40
61.780652857356877
 50
146.5226972160259
 51
162.73335951483429
  0
ARC
  8
DETAIL
  6
CONTINUOUS
 62
     5
 10
-168.14040782620941
 20
-55.503738890766947
 30
0.0
 40
142.88740642979181
 50
244.26918541920529
 51
269.8286319987098
  0
ARC
  8
DETAIL
  6
CONTINUOUS
 62
     5
 10
-152.3985193430872
 20
740.75934979338683
 30
0.0
 40
939.28903795931819
 50
269.01364139416808
 51
274.59035762797788
  0
ARC
  8
DETAIL
  6
CONTINUOUS
 62
     5
 10
-77.491513130471276
 20
-190.97005077016121
 30
0.0
 40
4.5403330991075146
 50
272.11963100519671
 51
31.39562357157979
  0
ARC
  8
DETAIL
  6
CONTINUOUS
 62
     5
 10
15.82551238288875
 20
-128.8829965894069
 30
0.0
 40
107.5474951900877
 50
201.0040160477518
 51
213.73180898067841
  0
LINE
  8
DETAIL
  6
CONTINUOUS
 62
     5
 10
-84.57602229422173
 20
-167.43160948459291
 30
0.0
 11
-81.534960446636205
 21
-167.43005011663971
 31
0.0
  0
LINE
  8
DETAIL
  6
CONTINUOUS
 62
     5
 10
-81.534960446636205
 20
-167.43005011663971
 30
0.0
 11
-72.991632675504889
 21
-155.2506558154121
 31
0.0
  0
ARC
  8
DETAIL
  6
CONTINUOUS
 62
     5
 10
-210.55622287441039
 20
-252.25407495184331
 30
0.0
 40
243.9432133461284
 50
20.952258622920908
 51
23.431241416659379
  0
ARC
  8
DETAIL
  6
CONTINUOUS
 62
     5
 10
332.56367653004372
 20
-499.54103604391571
 30
0.0
 40
459.69716090684688
 50
131.50038653410121
 51
138.2621145461959
  0
ARC
  8
DETAIL
  6
CONTINUOUS
 62
     5
 10
-9.0028431567832286
 20
-194.14293673606031
 30
0.0
 40
1.5901956345711949
 50
156.5313859566304
 51
274.77227356937641
  0
ARC
  8
DETAIL
  6
CONTINUOUS
 62
     5
 10
31.347230479872451
 20
16.361736479459719
 30
0.0
 40
215.8688594238856
 50
259.26268500874897
 51
299.81518669833861
  0
ARC
  8
DETAIL
  6
CONTINUOUS
 62
     5
 10
-57241.099868110403
 20
56731.625687033244
 30
0.0
 40
80810.520005195984
 50
315.23925368312661
 51
315.25491104372082
  0
ARC
  8
DETAIL
  6
CONTINUOUS
 62
     5
 10
88.91980804655168
 20
-187.15765388955529
 30
0.0
 40
8.546283921452476
 50
225.50288924431209
 51
264.72437156649448
  0
ARC
  8
DETAIL
  6
CONTINUOUS
 62
     5
 10
133.74231174259691
 20
162.68321345040439
 30
0.0
 40
361.24163663795912
 50
262.74680434339803
 51
268.44215007213529
  0
ARC
  8
DETAIL
  6
CONTINUOUS
 62
     5
 10
124.06743764202319
 20
-196.2666057874126
 30
0.0
 40
2.1465079370055071
 50
269.05226083565992
 51
34.221004547532893
  0
ARC
  8
DETAIL
  6
CONTINUOUS
 62
     5
 10
9.6508593915571055
 20
-259.71326732239868
 30
0.0
 40
132.96832504220271
 50
29.09340574262254
 51
35.945951184588182
  0
ARC
  8
OUTLINE
  6
CONTINUOUS
 62
     3
 10
-152.56287754875169
 20
-193.52648886827771
 30
0.0
 40
108.84861794440459
 50
177.77750800631489
 51
252.7512713591949
  0
ARC
  8
OUTLINE
  6
CONTINUOUS
 62
     3
 10
-293.62757536237717
 20
-7.8631368114954512
 30
0.0
 40
6.8960572695603792
 50
198.19246801218731
 51
240.92256762987591
  0
ARC
  8
OUTLINE
  6
CONTINUOUS
 62
     3
 10
-288.40044464332101
 20
-42.509293610459743
 30
0.0
 40
22.60894873960557
 50
29.868025938932
 51
83.806462077320646
  0
ARC
  8
OUTLINE
  6
CONTINUOUS
 62
     3
 10
-320.32604860575498
 20
-65.328565441143269
 30
0.0
 40
61.780652857356877
 50
17.26664048516573
 51
33.477302783974118
  0
ARC
  8
OUTLINE
  6
CONTINUOUS
 62
     3
 10
152.56287754875169
 20
-193.52648886827771
 30
0.0
 40
108.84861794440459
 50
287.2487286408051
 51
2.2224919936850549
  0
ARC
  8
OUTLINE
  6
CONTINUOUS
 62
     3
 10
293.62757536237751
 20
-7.8631368114954512
 30
0.0
 40
6.8960572695603792
 50
299.07743237012409
 51
341.80753198781269
  0
ARC
  8
OUTLINE
  6
CONTINUOUS
 62
     3
 10
288.40044464332101
 20
-42.509293610459743
 30
0.0
 40
22.60894873960557
 50
96.193537922679369
 51
150.13197406106801
  0
ARC
  8
OUTLINE
  6
CONTINUOUS
 62
     3
 10
320.32604860575498
 20
-65.328565441143269
 30
0.0
 40
61.780652857356877
 50
146.5226972160259
 51
162.73335951483429
  0
ENDSEC
  0
EOF
