  0
SECTION
  2
HEADER
  9
$ACADVER
  1
AC1009
  9
$DWGCODEPAGE
  3
dos932
  9
$INSBASE
 10
0.0
 20
0.0
 30
0.0
  9
$EXTMIN
 10
-718.29984927119403
 20
-409.51536911250508
 30
-0.0015258207003583
  9
$EXTMAX
 10
1246.2616085031309
 20
678.68042804612742
 30
0.0000000349246037
  9
$LIMMIN
 10
-2970.0
 20
-2100.0
  9
$LIMMAX
 10
2970.0
 20
2100.0
  9
$ORTHOMODE
 70
     1
  9
$REGENMODE
 70
     1
  9
$FILLMODE
 70
     1
  9
$QTEXTMODE
 70
     0
  9
$MIRRTEXT
 70
     0
  9
$LTSCALE
 40
20.0
  9
$ATTMODE
 70
     1
  9
$TEXTSIZE
 40
64.0
  9
$TRACEWID
 40
0.05
  9
$TEXTSTYLE
  7
STANDARD
  9
$CLAYER
  8
SIZE
  9
$CELTYPE
  6
CONTINUOUS
  9
$CECOLOR
 62
     7
  9
$DIMSCALE
 40
1.0
  9
$DIMASZ
 40
12.0
  9
$DIMEXO
 40
20.0
  9
$DIMDLI
 40
200.0
  9
$DIMRND
 40
0.0
  9
$DIMDLE
 40
0.0
  9
$DIMEXE
 40
20.0
  9
$DIMTP
 40
0.0
  9
$DIMTM
 40
0.0
  9
$DIMTXT
 40
64.0
  9
$DIMCEN
 40
0.09
  9
$DIMTSZ
 40
0.0
  9
$DIMTOL
 70
     0
  9
$DIMLIM
 70
     0
  9
$DIMTIH
 70
     0
  9
$DIMTOH
 70
     0
  9
$DIMSE1
 70
     0
  9
$DIMSE2
 70
     0
  9
$DIMTAD
 70
     1
  9
$DIMZIN
 70
     8
  9
$DIMBLK
  1

  9
$DIMASO
 70
     1
  9
$DIMSHO
 70
     0
  9
$DIMPOST
  1

  9
$DIMAPOST
  1

  9
$DIMALT
 70
     0
  9
$DIMALTD
 70
     2
  9
$DIMALTF
 40
25.399999999999999
  9
$DIMLFAC
 40
1.0
  9
$DIMTOFL
 70
     1
  9
$DIMTVP
 40
0.0
  9
$DIMTIX
 70
     1
  9
$DIMSOXD
 70
     0
  9
$DIMSAH
 70
     0
  9
$DIMBLK1
  1

  9
$DIMBLK2
  1

  9
$DIMSTYLE
  2
STANDARD
  9
$DIMCLRD
 70
     7
  9
$DIMCLRE
 70
     7
  9
$DIMCLRT
 70
     7
  9
$DIMTFAC
 40
1.0
  9
$DIMGAP
 40
25.0
  9
$LUNITS
 70
     2
  9
$LUPREC
 70
     4
  9
$SKETCHINC
 40
0.1
  9
$FILLETRAD
 40
3.0
  9
$AUNITS
 70
     1
  9
$AUPREC
 70
     3
  9
$MENU
  1
ACAD
  9
$ELEVATION
 40
0.0
  9
$PELEVATION
 40
0.0
  9
$THICKNESS
 40
0.0
  9
$LIMCHECK
 70
     0
  9
$CHAMFERA
 40
0.0
  9
$CHAMFERB
 40
0.0
  9
$SKPOLY
 70
     0
  9
$TDCREATE
 40
2453019.62301037
  9
$TDUPDATE
 40
2458949.455629491
  9
$TDINDWG
 40
1.7132220023
  9
$TDUSRTIMER
 40
1.7132220023
  9
$USRTIMER
 70
     1
  9
$ANGBASE
 50
0.0
  9
$ANGDIR
 70
     0
  9
$PDMODE
 70
     3
  9
$PDSIZE
 40
-2.0
  9
$PLINEWID
 40
0.0
  9
$SPLFRAME
 70
     0
  9
$SPLINETYPE
 70
     6
  9
$SPLINESEGS
 70
     8
  9
$SURFTAB1
 70
     6
  9
$SURFTAB2
 70
     6
  9
$SURFTYPE
 70
     6
  9
$SURFU
 70
     6
  9
$SURFV
 70
     6
  9
$UCSNAME
  2

  9
$UCSORG
 10
0.0
 20
0.0
 30
0.0
  9
$UCSXDIR
 10
1.0
 20
0.0
 30
0.0
  9
$UCSYDIR
 10
0.0
 20
1.0
 30
0.0
  9
$PUCSNAME
  2

  9
$PUCSORG
 10
0.0
 20
0.0
 30
0.0
  9
$PUCSXDIR
 10
1.0
 20
0.0
 30
0.0
  9
$PUCSYDIR
 10
0.0
 20
1.0
 30
0.0
  9
$USERI1
 70
     0
  9
$USERI2
 70
     0
  9
$USERI3
 70
     0
  9
$USERI4
 70
     0
  9
$USERI5
 70
     0
  9
$USERR1
 40
20.0
  9
$USERR2
 40
0.0
  9
$USERR3
 40
0.0
  9
$USERR4
 40
0.0
  9
$USERR5
 40
0.0
  9
$WORLDVIEW
 70
     1
  9
$SHADEDGE
 70
     3
  9
$SHADEDIF
 70
    70
  9
$TILEMODE
 70
     1
  9
$MAXACTVP
 70
    48
  9
$PINSBASE
 10
0.0
 20
0.0
 30
0.0
  9
$PLIMCHECK
 70
     0
  9
$PEXTMIN
 10
-100000000000000000000.0
 20
-100000000000000000000.0
 30
-100000000000000000000.0
  9
$PEXTMAX
 10
100000000000000000000.0
 20
100000000000000000000.0
 30
100000000000000000000.0
  9
$PLIMMIN
 10
0.0
 20
0.0
  9
$PLIMMAX
 10
12.0
 20
9.0
  9
$UNITMODE
 70
     0
  9
$VISRETAIN
 70
     0
  9
$PLINEGEN
 70
     0
  9
$PSLTSCALE
 70
     0
  9
$TREEDEPTH
 70
  3020
  9
$ATTDIA
 70
     0
  9
$ATTREQ
 70
     1
  9
$BLIPMODE
 70
     1
  9
$COORDS
 70
     1
  9
$DRAGMODE
 70
     2
  9
$OSMODE
 70
     0
  9
$HANDLING
 70
     0
  9
$HANDSEED
  5
F4B9
  0
ENDSEC
  0
SECTION
  2
TABLES
  0
TABLE
  2
LTYPE
 70
     2
  0
LTYPE
  2
CONTINUOUS
 70
     0
  3
実線
 72
    65
 73
     0
 40
0.0
  0
LTYPE
  2
DASHDOT
 70
     0
  3
____ _ ____ _ ____ _ ____ _ ____ _ ____ _ ____
 72
    65
 73
     4
 40
5.5
 49
4.0
 49
-0.6
 49
0.3
 49
-0.6
  0
ENDTAB
  0
TABLE
  2
LAYER
 70
    12
  0
LAYER
  2
0
 70
     0
 62
     7
  6
CONTINUOUS
  0
LAYER
  2
BASIS
 70
     0
 62
     6
  6
DASHDOT
  0
LAYER
  2
OUTLINE
 70
     0
 62
     3
  6
CONTINUOUS
  0
LAYER
  2
DETAIL
 70
     0
 62
     5
  6
CONTINUOUS
  0
LAYER
  2
SIZE
 70
     0
 62
    30
  6
CONTINUOUS
  0
LAYER
  2
ARRANGE
 70
     0
 62
     1
  6
CONTINUOUS
  0
LAYER
  2
DEFPOINTS
 70
     0
 62
     7
  6
CONTINUOUS
  0
LAYER
  2
ETC
 70
     0
 62
    61
  6
CONTINUOUS
  0
LAYER
  2
FIX
 70
     0
 62
    11
  6
CONTINUOUS
  0
LAYER
  2
NOTE
 70
     0
 62
     4
  6
CONTINUOUS
  0
LAYER
  2
SERVICESPACE
 70
    64
 62
     2
  6
DASHDOT
  0
LAYER
  2
SYMBOLLINE
 70
    64
 62
    15
  6
CONTINUOUS
  0
ENDTAB
  0
TABLE
  2
STYLE
 70
     1
  0
STYLE
  2
STANDARD
 70
     0
 40
64.0
 41
0.9
 50
0.0
 71
     0
 42
64.0
  3
SIMPLEX.shx
  4
BIGFONT.shx
  0
ENDTAB
  0
TABLE
  2
APPID
 70
    19
  0
APPID
  2
ACAD
 70
     0
  0
APPID
  2
AUTOCAD_POSTSCRIPT_FIGURE
 70
     0
  0
APPID
  2
ACAD_EXEMPT_FROM_CAD_STANDARDS
 70
     0
  0
APPID
  2
ACAD_PSEXT
 70
     0
  0
APPID
  2
ACAUTHENVIRON
 70
     0
  0
APPID
  2
GENIUS_GENOENT_13
 70
     0
  0
APPID
  2
GENIUS_GENCFG_13
 70
     0
  0
APPID
  2
GENIUS_GENCFG0_13
 70
     0
  0
APPID
  2
GENIUS_GENCFG1_13
 70
     0
  0
APPID
  2
GENIUS_GENCFG2_13
 70
     0
  0
APPID
  2
GENIUS_GENCFG3_13
 70
     0
  0
APPID
  2
GENIUS_GENCFG4_13
 70
     0
  0
APPID
  2
GENIUS_GEVCFG0_13
 70
     0
  0
APPID
  2
CONTENTBLOCKICON
 70
     0
  0
APPID
  2
CONTENTBLOCKDESCRIPTION
 70
     0
  0
APPID
  2
ACAD_NAV_VCDISPLAY
 70
     0
  0
APPID
  2
ACAD_MLEADERVER
 70
     0
  0
APPID
  2
ACDBDYNAMICBLOCKTRUENAME
 70
     0
  0
APPID
  2
ACDBDYNAMICBLOCKGUID
 70
     0
  0
ENDTAB
  0
TABLE
  2
DIMSTYLE
 70
     1
  0
DIMSTYLE
  2
STANDARD
 70
     0
  3

  4

  5
_ORIGIN
  6

  7

 40
1.0
 41
12.0
 42
20.0
 43
200.0
 44
20.0
 45
0.0
 46
0.0
 47
0.0
 48
0.0
140
64.0
141
0.09
142
0.0
143
25.399999999999999
144
1.0
145
0.0
146
1.0
147
25.0
 71
     0
 72
     0
 73
     0
 74
     0
 75
     0
 76
     0
 77
     1
 78
     8
170
     0
171
     2
172
     1
173
     0
174
     1
175
     0
176
     7
177
     7
178
     7
  0
ENDTAB
  0
TABLE
  2
VIEW
 70
     1
  0
VIEW
  2
ALL
 70
     0
 40
4282.6198079999986
 10
0.0
 20
41.309904000000003
 41
5940.0
 11
0.0
 21
0.0
 31
1.0
 12
0.0
 22
0.0
 32
0.0
 42
50.0
 43
0.0
 44
0.0
 50
0.0
 71
     0
  0
ENDTAB
  0
TABLE
  2
UCS
 70
     0
  0
ENDTAB
  0
TABLE
  2
VPORT
 70
     1
  0
VPORT
  2
*ACTIVE
 70
     0
 10
0.0
 20
0.0
 11
1.0
 21
1.0
 12
263.98087961596849
 22
134.5825294668112
 13
0.0
 23
0.0
 14
1.0
 24
1.0
 15
0.0
 25
0.0
 16
0.0
 26
0.0
 36
1.0
 17
0.0
 27
0.0
 37
0.0
 40
1128.291310836069
 41
1.747787610619469
 42
50.0
 43
0.0
 44
0.0
 50
0.0
 51
0.0
 71
     0
 72
  1000
 73
     1
 74
     3
 75
     0
 76
     0
 77
     0
 78
     0
  0
ENDTAB
  0
ENDSEC
  0
SECTION
  2
BLOCKS
  0
BLOCK
  8
0
  2
_ORIGIN
 70
     0
 10
0.0
 20
0.0
 30
0.0
  3
_ORIGIN
  1
_ORIGIN
  0
CIRCLE
  8
0
  6
CONTINUOUS
 62
     7
 10
0.0
 20
0.0
 30
0.0
 40
0.5
  0
LINE
  8
0
  6
CONTINUOUS
 62
     7
 10
0.0
 20
0.0
 30
0.0
 11
-1.0
 21
0.0
 31
0.0
  0
ENDBLK
  8
0
  0
ENDSEC
  0
SECTION
  2
ENTITIES
  0
POINT
  8
ARRANGE
  6
CONTINUOUS
 62
     1
 10
0.0
 20
0.0
 30
0.0
  0
CIRCLE
  8
ARRANGE
  6
CONTINUOUS
 62
     1
 10
0.0
 20
0.0
 30
0.0
 40
40.0
  0
TEXT
  8
ETC
  6
CONTINUOUS
 62
    61
 10
491.70080710425918
 20
614.5141206723373
 30
0.0
 40
64.0
  1
EWG-50ETA2-Q_2
 41
0.9
  0
TEXT
  8
ETC
  6
CONTINUOUS
 62
    61
 10
487.51481310425879
 20
496.558810657506
 30
0.0
 40
64.0
  1
産業扇
 41
0.9
  0
TEXT
  8
ETC
  6
CONTINUOUS
 62
    61
 10
538.21621135281475
 20
388.41003777128083
 30
0.0
 40
40.0
  1
EWG-50ETA2-Q
 41
0.9
  0
CIRCLE
  8
FIX
  6
CONTINUOUS
 62
    11
 10
-280.45234248788358
 20
280.4523424878837
 30
0.0
 40
7.0
  0
CIRCLE
  8
FIX
  6
CONTINUOUS
 62
    11
 10
-280.45234248788358
 20
-280.4523424878837
 30
0.0
 40
7.0
  0
CIRCLE
  8
FIX
  6
CONTINUOUS
 62
    11
 10
280.45234248788358
 20
-280.4523424878837
 30
0.0
 40
7.0
  0
CIRCLE
  8
FIX
  6
CONTINUOUS
 62
    11
 10
280.45234248788358
 20
280.45234248788358
 30
0.0
 40
7.0
  0
LINE
  8
SIZE
  6
CONTINUOUS
 62
    30
 10
-310.00000000000011
 20
289.93537964458801
 30
0.0
 11
-310.00000000000011
 21
496.98818270582802
 31
0.0
  0
LINE
  8
SIZE
  6
CONTINUOUS
 62
    30
 10
310.0
 20
289.93537964458801
 30
0.0
 11
310.0
 21
496.98818270582802
 31
0.0
  0
LINE
  8
SIZE
  6
CONTINUOUS
 62
    30
 10
-298.00000000000011
 20
476.98818270582802
 30
0.0
 11
297.99999999999989
 21
476.98818270582802
 31
0.0
  0
CIRCLE
  8
SIZE
  6
CONTINUOUS
 62
    30
 10
-310.00000000000011
 20
476.98818270582802
 30
0.0
 40
6.0
  0
LINE
  8
SIZE
  6
CONTINUOUS
 62
    30
 10
-310.00000000000011
 20
476.98818270582802
 30
0.0
 11
-298.00000000000011
 21
476.98818270582802
 31
0.0
  0
CIRCLE
  8
SIZE
  6
CONTINUOUS
 62
    30
 10
310.0
 20
476.98818270582802
 30
0.0
 40
6.0
  0
LINE
  8
SIZE
  6
CONTINUOUS
 62
    30
 10
310.0
 20
476.98818270582802
 30
0.0
 11
297.99999999999989
 21
476.98818270582802
 31
0.0
  0
TEXT
  8
SIZE
  6
CONTINUOUS
 62
    30
 10
-74.05714285714285
 20
501.98818270582802
 30
0.0
 40
64.0
  1
620
 41
0.9
 72
     1
 11
0.0
 21
501.98818270582802
 31
0.0
  0
POINT
  8
DEFPOINTS
  6
CONTINUOUS
 62
    30
 10
-310.00000000000011
 20
269.93537964458801
 30
0.0
  0
POINT
  8
DEFPOINTS
  6
CONTINUOUS
 62
    30
 10
310.0
 20
269.93537964458801
 30
0.0
  0
POINT
  8
DEFPOINTS
  6
CONTINUOUS
 62
    30
 10
310.0
 20
476.98818270582802
 30
0.0
  0
LINE
  8
SIZE
  6
CONTINUOUS
 62
    30
 10
-280.45234248788358
 20
331.51018772463698
 30
0.0
 11
-280.45234248788358
 21
391.28524152930049
 31
0.0
  0
LINE
  8
SIZE
  6
CONTINUOUS
 62
    30
 10
280.45234248788358
 20
331.51018772463698
 30
0.0
 11
280.45234248788358
 21
391.28524152930049
 31
0.0
  0
LINE
  8
SIZE
  6
CONTINUOUS
 62
    30
 10
-268.45234248788358
 20
371.28524152930049
 30
0.0
 11
268.45234248788358
 21
371.28524152930049
 31
0.0
  0
CIRCLE
  8
SIZE
  6
CONTINUOUS
 62
    30
 10
-280.45234248788358
 20
371.28524152930049
 30
0.0
 40
6.0
  0
LINE
  8
SIZE
  6
CONTINUOUS
 62
    30
 10
-280.45234248788358
 20
371.28524152930049
 30
0.0
 11
-268.45234248788358
 21
371.28524152930049
 31
0.0
  0
CIRCLE
  8
SIZE
  6
CONTINUOUS
 62
    30
 10
280.45234248788358
 20
371.28524152930049
 30
0.0
 40
6.0
  0
LINE
  8
SIZE
  6
CONTINUOUS
 62
    30
 10
280.45234248788358
 20
371.28524152930049
 30
0.0
 11
268.45234248788358
 21
371.28524152930049
 31
0.0
  0
TEXT
  8
SIZE
  6
CONTINUOUS
 62
    30
 10
-74.057142856880233
 20
396.28524152930049
 30
0.0
 40
64.0
  1
560
 41
0.9
 72
     1
 11
0.0000000002626166
 21
396.28524152930049
 31
0.0
  0
POINT
  8
DEFPOINTS
  6
CONTINUOUS
 62
    30
 10
-280.45234248788358
 20
311.51018772463698
 30
0.0
  0
POINT
  8
DEFPOINTS
  6
CONTINUOUS
 62
    30
 10
280.45234248788358
 20
311.51018772463698
 30
0.0
  0
POINT
  8
DEFPOINTS
  6
CONTINUOUS
 62
    30
 10
280.45234248788358
 20
371.28524152930049
 30
0.0
  0
LINE
  8
SIZE
  6
CONTINUOUS
 62
    30
 10
-289.93537964458801
 20
310.0
 30
0.0
 11
-648.9145453029131
 21
310.0
 31
0.0
  0
LINE
  8
SIZE
  6
CONTINUOUS
 62
    30
 10
-289.93537964458801
 20
-310.0
 30
0.0
 11
-648.91454530291333
 21
-309.99999999999989
 31
0.0
  0
LINE
  8
SIZE
  6
CONTINUOUS
 62
    30
 10
-628.9145453029131
 20
298.0
 30
0.0
 11
-628.91454530291333
 21
-297.99999999999989
 31
0.0
  0
CIRCLE
  8
SIZE
  6
CONTINUOUS
 62
    30
 10
-628.9145453029131
 20
310.0
 30
0.0
 40
6.0
  0
LINE
  8
SIZE
  6
CONTINUOUS
 62
    30
 10
-628.9145453029131
 20
310.0
 30
0.0
 11
-628.9145453029131
 21
298.0
 31
0.0
  0
CIRCLE
  8
SIZE
  6
CONTINUOUS
 62
    30
 10
-628.91454530291333
 20
-309.99999999999989
 30
0.0
 40
6.0
  0
LINE
  8
SIZE
  6
CONTINUOUS
 62
    30
 10
-628.91454530291333
 20
-309.99999999999989
 30
0.0
 11
-628.91454530291333
 21
-297.99999999999989
 31
0.0
  0
TEXT
  8
SIZE
  6
CONTINUOUS
 62
    30
 10
-653.91454530291333
 20
-80.859766315696021
 30
0.0
 40
64.0
  1
620
 50
90.0
 41
0.9
 72
     1
 11
-653.91454530291333
 21
-6.8026234585531711
 31
0.0
  0
POINT
  8
DEFPOINTS
  6
CONTINUOUS
 62
    30
 10
-269.93537964458801
 20
310.0
 30
0.0
  0
POINT
  8
DEFPOINTS
  6
CONTINUOUS
 62
    30
 10
-269.93537964458801
 20
-310.0
 30
0.0
  0
POINT
  8
DEFPOINTS
  6
CONTINUOUS
 62
    30
 10
-628.91454530291333
 20
-309.99999999999989
 30
0.0
  0
LINE
  8
SIZE
  6
CONTINUOUS
 62
    30
 10
-331.51018772463698
 20
280.4523424878837
 30
0.0
 11
-537.69626911128114
 21
280.45234248788381
 31
0.0
  0
LINE
  8
SIZE
  6
CONTINUOUS
 62
    30
 10
-331.51018772463698
 20
-280.4523424878837
 30
0.0
 11
-537.69626911128137
 21
-280.45234248788358
 31
0.0
  0
LINE
  8
SIZE
  6
CONTINUOUS
 62
    30
 10
-517.69626911128114
 20
268.45234248788381
 30
0.0
 11
-517.69626911128137
 21
-268.45234248788358
 31
0.0
  0
CIRCLE
  8
SIZE
  6
CONTINUOUS
 62
    30
 10
-517.69626911128114
 20
280.45234248788381
 30
0.0
 40
6.0
  0
LINE
  8
SIZE
  6
CONTINUOUS
 62
    30
 10
-517.69626911128114
 20
280.45234248788381
 30
0.0
 11
-517.69626911128114
 21
268.45234248788381
 31
0.0
  0
CIRCLE
  8
SIZE
  6
CONTINUOUS
 62
    30
 10
-517.69626911128137
 20
-280.45234248788358
 30
0.0
 40
6.0
  0
LINE
  8
SIZE
  6
CONTINUOUS
 62
    30
 10
-517.69626911128137
 20
-280.45234248788358
 30
0.0
 11
-517.69626911128137
 21
-268.45234248788358
 31
0.0
  0
TEXT
  8
SIZE
  6
CONTINUOUS
 62
    30
 10
-542.69626911128125
 20
-74.05714285714285
 30
0.0
 40
64.0
  1
560
 50
90.0
 41
0.9
 72
     1
 11
-542.69626911128125
 21
0.0
 31
0.0
  0
POINT
  8
DEFPOINTS
  6
CONTINUOUS
 62
    30
 10
-311.51018772463698
 20
280.4523424878837
 30
0.0
  0
POINT
  8
DEFPOINTS
  6
CONTINUOUS
 62
    30
 10
-311.51018772463698
 20
-280.4523424878837
 30
0.0
  0
POINT
  8
DEFPOINTS
  6
CONTINUOUS
 62
    30
 10
-517.69626911128137
 20
-280.45234248788358
 30
0.0
  0
LINE
  8
SIZE
  6
CONTINUOUS
 62
    30
 10
-20.0
 20
65.305331179321513
 30
0.0
 11
-393.98015678251647
 21
65.305331179321627
 31
0.0
  0
LINE
  8
SIZE
  6
CONTINUOUS
 62
    30
 10
-20.0
 20
-65.305331179321513
 30
0.0
 11
-393.98015678251647
 21
-65.305331179321399
 31
0.0
  0
LINE
  8
SIZE
  6
CONTINUOUS
 62
    30
 10
-373.98015678251647
 20
53.305331179321612
 30
0.0
 11
-373.98015678251647
 21
-53.305331179321392
 31
0.0
  0
CIRCLE
  8
SIZE
  6
CONTINUOUS
 62
    30
 10
-373.98015678251647
 20
65.305331179321627
 30
0.0
 40
6.0
  0
LINE
  8
SIZE
  6
CONTINUOUS
 62
    30
 10
-373.98015678251647
 20
65.305331179321627
 30
0.0
 11
-373.98015678251647
 21
53.305331179321612
 31
0.0
  0
CIRCLE
  8
SIZE
  6
CONTINUOUS
 62
    30
 10
-373.98015678251647
 20
-65.305331179321399
 30
0.0
 40
6.0
  0
LINE
  8
SIZE
  6
CONTINUOUS
 62
    30
 10
-373.98015678251647
 20
-65.305331179321399
 30
0.0
 11
-373.98015678251647
 21
-53.305331179321392
 31
0.0
  0
TEXT
  8
SIZE
  6
CONTINUOUS
 62
    30
 10
-409.64682344918322
 20
-96.548571428571307
 30
0.0
 40
64.0
  1
φ131
 50
90.0
 41
0.9
 72
     1
 11
-409.64682344918322
 21
0.0000000000001137
 31
0.0
  0
POINT
  8
DEFPOINTS
  6
CONTINUOUS
 62
    30
 10
0.0
 20
65.305331179321513
 30
0.0
  0
POINT
  8
DEFPOINTS
  6
CONTINUOUS
 62
    30
 10
0.0
 20
-65.305331179321513
 30
0.0
  0
POINT
  8
DEFPOINTS
  6
CONTINUOUS
 62
    30
 10
-373.98015678251647
 20
-65.305331179321399
 30
0.0
  0
TEXT
  8
NOTE
  6
CONTINUOUS
 62
     4
 10
-627.91141437069962
 20
370.58713025583108
 30
0.0
 40
64.0
  1
4-φ14
 41
0.9
  0
TEXT
  8
NOTE
  6
CONTINUOUS
 62
     4
 10
388.53186531045321
 20
-385.31365241825279
 30
0.0
 40
64.0
  1
EL
 41
0.9
  0
LINE
  8
DETAIL
  6
CONTINUOUS
 62
     4
 10
-283.82610848968199
 20
286.51758690474048
 30
0.0
 11
-281.06270985004988
 21
280.95446482730239
 31
0.0
  0
LINE
  8
DETAIL
  6
CONTINUOUS
 62
     4
 10
-281.06270985004988
 20
280.95446482730239
 30
0.0
 11
-286.23744948948581
 21
284.39056275286413
 31
0.0
  0
LINE
  8
DETAIL
  6
CONTINUOUS
 62
     4
 10
-281.06270985004988
 20
280.95446482730239
 30
0.0
 11
-289.00084812911808
 21
289.95368483030222
 31
0.0
  0
LINE
  8
NOTE
  6
CONTINUOUS
 62
     4
 10
-289.00084812911808
 20
289.95368483030222
 30
0.0
 11
-337.16630272955138
 21
344.55735980491801
 31
0.0
  0
LINE
  8
NOTE
  6
CONTINUOUS
 62
     4
 10
-337.16630272955138
 20
344.55735980491801
 30
0.0
 11
-635.03486497458528
 21
344.71881465409842
 31
0.0
  0
LINE
  8
DETAIL
  6
CONTINUOUS
 62
     4
 10
236.89731057162791
 20
-246.5144524784663
 30
0.0
 11
234.2839757585505
 21
-240.8792789722859
 31
0.0
  0
LINE
  8
DETAIL
  6
CONTINUOUS
 62
     4
 10
234.2839757585505
 20
-240.8792789722859
 30
0.0
 11
239.36478223347191
 21
-244.45280732034701
 31
0.0
  0
LINE
  8
DETAIL
  6
CONTINUOUS
 62
     4
 10
234.2839757585505
 20
-240.8792789722859
 30
0.0
 11
241.97811704654939
 21
-250.0879808265274
 31
0.0
  0
LINE
  8
NOTE
  6
CONTINUOUS
 62
     4
 10
241.97811704654939
 20
-250.08798082652731
 30
0.0
 11
375.42379238100398
 21
-409.25626154252768
 31
0.0
  0
LINE
  8
NOTE
  6
CONTINUOUS
 62
     4
 10
375.42379238100398
 20
-409.25626154252768
 30
0.0
 11
475.27050037270322
 21
-409.16888513089538
 31
0.0
  0
LINE
  8
NOTE
  6
CONTINUOUS
 62
     4
 10
244.94773641204259
 20
280.45234248788358
 30
0.0
 11
315.95694856372478
 21
280.45234248788358
 31
0.0
  0
LINE
  8
NOTE
  6
CONTINUOUS
 62
     4
 10
280.45234248788358
 20
244.9477364120423
 30
0.0
 11
280.45234248788358
 21
315.9569485645012
 31
0.0
  0
LINE
  8
NOTE
  6
CONTINUOUS
 62
     4
 10
-244.94773641204259
 20
280.45234248788358
 30
0.0
 11
-315.95694856372478
 21
280.45234248788358
 31
0.0
  0
LINE
  8
NOTE
  6
CONTINUOUS
 62
     4
 10
-280.45234248788398
 20
244.9477364120423
 30
0.0
 11
-280.45234248788398
 21
315.9569485645012
 31
0.0
  0
LINE
  8
NOTE
  6
CONTINUOUS
 62
     4
 10
-280.45234248788398
 20
-244.94773641126611
 30
0.0
 11
-280.45234248788398
 21
-315.95694856372512
 31
0.0
  0
LINE
  8
NOTE
  6
CONTINUOUS
 62
     4
 10
-244.94773641204259
 20
-280.4523424878837
 30
0.0
 11
-315.95694856372478
 21
-280.4523424878837
 31
0.0
  0
LINE
  8
NOTE
  6
CONTINUOUS
 62
     4
 10
244.94773641204259
 20
-280.4523424878837
 30
0.0
 11
315.95694856372478
 21
-280.4523424878837
 31
0.0
  0
LINE
  8
NOTE
  6
CONTINUOUS
 62
     4
 10
280.45234248788358
 20
-244.94773641126611
 30
0.0
 11
280.45234248788358
 21
-315.95694856372512
 31
0.0
  0
LINE
  8
SIZE
  6
CONTINUOUS
 62
    30
 10
569.78337855131076
 20
-113.9662861534663
 30
0.0
 11
262.70922553418302
 21
-52.546276180444863
 31
0.0
  0
LINE
  8
SIZE
  6
CONTINUOUS
 62
    30
 10
-262.70922553418302
 20
52.546276180444863
 30
0.0
 11
-274.47615547344839
 21
54.899860639183771
 31
0.0
  0
TEXT
  8
SIZE
  6
CONTINUOUS
 62
    30
 10
374.81136623866502
 20
-49.473414862055449
 30
0.0
 40
64.0
  1
φ511
 50
348.68913829961218
 41
0.9
 72
     1
 11
469.48472255001252
 21
-68.409682964366368
 31
0.0
  0
LINE
  8
SIZE
  6
CONTINUOUS
 62
    30
 10
-250.9422955949174
 20
50.192691721705962
 30
0.0
 11
250.9422955949174
 21
-50.192691721705962
 31
0.0
  0
CIRCLE
  8
SIZE
  6
CONTINUOUS
 62
    30
 10
-250.9422955949174
 20
50.192691721705962
 30
0.0
 40
6.0
  0
LINE
  8
SIZE
  6
CONTINUOUS
 62
    30
 10
-250.9422955949174
 20
50.192691721705962
 30
0.0
 11
-262.70922553418291
 21
52.546276180444863
 31
0.0
  0
CIRCLE
  8
SIZE
  6
CONTINUOUS
 62
    30
 10
250.9422955949174
 20
-50.192691721705962
 30
0.0
 40
6.0
  0
LINE
  8
SIZE
  6
CONTINUOUS
 62
    30
 10
250.9422955949174
 20
-50.192691721705962
 30
0.0
 11
262.70922553418291
 21
-52.546276180444863
 31
0.0
  0
POINT
  8
DEFPOINTS
  6
CONTINUOUS
 62
    30
 10
250.9422955949174
 20
-50.192691721705962
 30
0.0
  0
POINT
  8
DEFPOINTS
  6
CONTINUOUS
 62
    30
 10
-250.9422955949174
 20
50.192691721705962
 30
0.0
  0
LINE
  8
SIZE
  6
CONTINUOUS
 62
    30
 10
571.50045002340153
 20
-280.75046895425783
 30
0.0
 11
234.62055295624299
 21
-115.25770498706579
 31
0.0
  0
LINE
  8
SIZE
  6
CONTINUOUS
 62
    30
 10
-234.6205529562431
 20
115.25770498706579
 30
0.0
 11
-245.39110489038089
 21
120.5487550750956
 31
0.0
  0
TEXT
  8
SIZE
  6
CONTINUOUS
 62
    30
 10
367.56889860601137
 20
-152.71505707270069
 30
0.0
 40
64.0
  1
φ500
 50
333.83735083897773
 41
0.9
 72
     1
 11
470.22764504110768
 21
-203.14632305460771
 31
0.0
  0
LINE
  8
SIZE
  6
CONTINUOUS
 62
    30
 10
-223.8500010221052
 20
109.966654899036
 30
0.0
 11
223.8500010221052
 21
-109.966654899036
 31
0.0
  0
CIRCLE
  8
SIZE
  6
CONTINUOUS
 62
    30
 10
-223.8500010221052
 20
109.966654899036
 30
0.0
 40
6.0
  0
LINE
  8
SIZE
  6
CONTINUOUS
 62
    30
 10
-223.8500010221052
 20
109.966654899036
 30
0.0
 11
-234.62055295624299
 21
115.25770498706579
 31
0.0
  0
CIRCLE
  8
SIZE
  6
CONTINUOUS
 62
    30
 10
223.8500010221052
 20
-109.966654899036
 30
0.0
 40
6.0
  0
LINE
  8
SIZE
  6
CONTINUOUS
 62
    30
 10
223.8500010221052
 20
-109.966654899036
 30
0.0
 11
234.62055295624299
 21
-115.25770498706579
 31
0.0
  0
POINT
  8
DEFPOINTS
  6
CONTINUOUS
 62
    30
 10
223.8500010221052
 20
-109.966654899036
 30
0.0
  0
POINT
  8
DEFPOINTS
  6
CONTINUOUS
 62
    30
 10
-223.8500010221052
 20
109.966654899036
 30
0.0
  0
ARC
  8
OUTLINE
  6
CONTINUOUS
 62
     3
 10
269.93537964458852
 20
-269.93537964458801
 30
0.0
 40
40.064620355411989
 50
270.0
 51
0.0
  0
LINE
  8
OUTLINE
  6
CONTINUOUS
 62
     3
 10
269.93537964458852
 20
-310.0
 30
0.0
 11
-269.93537964458801
 21
-310.0
 31
0.0
  0
ARC
  8
OUTLINE
  6
CONTINUOUS
 62
     3
 10
-269.93537964458801
 20
-269.93537964458801
 30
0.0
 40
40.064620355411527
 50
180.0
 51
270.0
  0
LINE
  8
OUTLINE
  6
CONTINUOUS
 62
     3
 10
-310.0
 20
-269.93537964458801
 30
0.0
 11
-310.0
 21
269.93537964458801
 31
0.0
  0
ARC
  8
OUTLINE
  6
CONTINUOUS
 62
     3
 10
-269.93537964458801
 20
269.93537964458801
 30
0.0
 40
40.064620355411989
 50
90.0
 51
180.0
  0
LINE
  8
OUTLINE
  6
CONTINUOUS
 62
     3
 10
-269.93537964458801
 20
310.0
 30
0.0
 11
269.93537964458852
 21
310.0
 31
0.0
  0
ARC
  8
OUTLINE
  6
CONTINUOUS
 62
     3
 10
269.93537964458852
 20
269.93537964458801
 30
0.0
 40
40.064620355411527
 50
0.0
 51
90.0
  0
LINE
  8
OUTLINE
  6
CONTINUOUS
 62
     3
 10
309.99999999999898
 20
269.93537964458801
 30
0.0
 11
309.99999999999898
 21
-269.93537964458801
 31
0.0
  0
LINE
  8
DETAIL
  6
CONTINUOUS
 62
     5
 10
-272.51065778412249
 20
-261.04330253667439
 30
0.0
 11
-262.0225426212819
 21
-271.53141770029168
 31
0.0
  0
LINE
  8
DETAIL
  6
CONTINUOUS
 62
     5
 10
-270.71839364093103
 20
-257.87782285063417
 30
0.0
 11
-258.85706293524157
 21
-269.73915355710011
 31
0.0
  0
LINE
  8
DETAIL
  6
CONTINUOUS
 62
     5
 10
-259.55353149410769
 20
-275.89216139740262
 30
0.0
 11
-253.1016178329136
 21
-301.69981604217861
 31
0.0
  0
LINE
  8
DETAIL
  6
CONTINUOUS
 62
     5
 10
-256.3880518080673
 20
-274.09989725498741
 30
0.0
 11
-250.21078125606439
 21
-298.80897946455252
 31
0.0
  0
LINE
  8
DETAIL
  6
CONTINUOUS
 62
     5
 10
-253.1016178329136
 20
301.69981604217861
 30
0.0
 11
-259.55353149410769
 21
275.89216139740262
 31
0.0
  0
LINE
  8
DETAIL
  6
CONTINUOUS
 62
     5
 10
-250.21078125606439
 20
298.80897946455269
 30
0.0
 11
-256.3880518080673
 21
274.0998972542111
 31
0.0
  0
LINE
  8
DETAIL
  6
CONTINUOUS
 62
     5
 10
-57.125457661293687
 20
-51.866354790797693
 30
0.0
 11
-52.08957834273815
 21
-56.902234109353692
 31
0.0
  0
LINE
  8
DETAIL
  6
CONTINUOUS
 62
     5
 10
-262.0225426212819
 20
271.53141770029202
 30
0.0
 11
-272.51065778412249
 21
261.04330253667467
 31
0.0
  0
LINE
  8
DETAIL
  6
CONTINUOUS
 62
     5
 10
-258.85706293524157
 20
269.73915355710028
 30
0.0
 11
-270.71839364093103
 21
257.8778228506344
 31
0.0
  0
LINE
  8
DETAIL
  6
CONTINUOUS
 62
     5
 10
-302.67905612678589
 20
-252.12237774908249
 30
0.0
 11
-276.8714014820099
 21
-258.57429141027637
 31
0.0
  0
LINE
  8
DETAIL
  6
CONTINUOUS
 62
     5
 10
-299.7882195491602
 20
-249.23154117145671
 30
0.0
 11
-275.07913733881821
 21
-255.40881172345971
 31
0.0
  0
LINE
  8
DETAIL
  6
CONTINUOUS
 62
     5
 10
51.834722736471917
 20
-51.966294674856726
 30
0.0
 11
56.870602055027803
 21
-57.002173993412733
 31
0.0
  0
LINE
  8
DETAIL
  6
CONTINUOUS
 62
     5
 10
-57.006376109002872
 20
56.94835881566928
 30
0.0
 11
-51.970496790446873
 21
51.912479497113509
 31
0.0
  0
LINE
  8
DETAIL
  6
CONTINUOUS
 62
     5
 10
242.45179203639299
 20
-405.98122201351731
 30
0.0
 11
245.45663856304901
 21
-405.98122201351731
 31
0.0
  0
LINE
  8
DETAIL
  6
CONTINUOUS
 62
     5
 10
51.987908598815473
 20
57.015694405179829
 30
0.0
 11
57.023787917371457
 21
51.97981508662383
 31
0.0
  0
LINE
  8
DETAIL
  6
CONTINUOUS
 62
     5
 10
242.45179203639299
 20
-379.30104799238569
 30
0.0
 11
242.45179203639299
 21
-405.98122201351731
 31
0.0
  0
LINE
  8
DETAIL
  6
CONTINUOUS
 62
     5
 10
245.45663856304901
 20
-379.30104799238569
 30
0.0
 11
245.45663856304901
 21
-405.98122201351731
 31
0.0
  0
LINE
  8
DETAIL
  6
CONTINUOUS
 62
     5
 10
254.4295716396291
 20
274.0998972542111
 30
0.0
 11
248.25230108684951
 21
298.80897946455269
 31
0.0
  0
LINE
  8
DETAIL
  6
CONTINUOUS
 62
     5
 10
257.59505132566937
 20
275.89216139740262
 30
0.0
 11
251.1431376644754
 21
301.69981604217861
 31
0.0
  0
LINE
  8
DETAIL
  6
CONTINUOUS
 62
     5
 10
249.72475863615921
 20
-292.91914926768351
 30
0.0
 11
254.4295716396291
 21
-274.09989725498741
 31
0.0
  0
LINE
  8
DETAIL
  6
CONTINUOUS
 62
     5
 10
251.33898568129581
 20
-300.91642397489682
 30
0.0
 11
257.59505132566937
 21
-275.89216139740262
 31
0.0
  0
LINE
  8
DETAIL
  6
CONTINUOUS
 62
     5
 10
-57.006376109002872
 20
51.912707583599513
 30
0.0
 11
-51.970496790446873
 21
56.948586902155277
 31
0.0
  0
LINE
  8
DETAIL
  6
CONTINUOUS
 62
     5
 10
-57.125457661293687
 20
-56.902006022867447
 30
0.0
 11
-52.08957834273815
 21
-51.866126704311682
 31
0.0
  0
LINE
  8
DETAIL
  6
CONTINUOUS
 62
     5
 10
51.987908598815473
 20
51.980043173110062
 30
0.0
 11
57.023787917371457
 21
57.015922491665833
 31
0.0
  0
LINE
  8
DETAIL
  6
CONTINUOUS
 62
     5
 10
51.834722736471917
 20
-57.001945906926487
 30
0.0
 11
56.870602055027803
 21
-51.966066588370722
 31
0.0
  0
LINE
  8
DETAIL
  6
CONTINUOUS
 62
     5
 10
274.91292131357181
 20
-258.57429141027637
 30
0.0
 11
300.7205759575711
 21
-252.12237774908249
 31
0.0
  0
LINE
  8
DETAIL
  6
CONTINUOUS
 62
     5
 10
273.12065717038013
 20
-255.40881172345971
 30
0.0
 11
297.82973937994518
 21
-249.23154117145671
 31
0.0
  0
LINE
  8
DETAIL
  6
CONTINUOUS
 62
     5
 10
268.75991347249283
 20
257.8778228506344
 30
0.0
 11
256.89858276602718
 21
269.73915355710028
 31
0.0
  0
LINE
  8
DETAIL
  6
CONTINUOUS
 62
     5
 10
270.55217761568451
 20
261.04330253667467
 30
0.0
 11
260.0640624528437
 21
271.53141770029202
 31
0.0
  0
LINE
  8
DETAIL
  6
CONTINUOUS
 62
     5
 10
297.82973937994518
 20
249.23154117145691
 30
0.0
 11
273.12065717038013
 21
255.4088117234601
 31
0.0
  0
LINE
  8
DETAIL
  6
CONTINUOUS
 62
     5
 10
300.7205759575711
 20
252.1223777490828
 30
0.0
 11
274.91292131357181
 21
258.57429141027671
 31
0.0
  0
LINE
  8
DETAIL
  6
CONTINUOUS
 62
     5
 10
256.89858276602718
 20
-269.73915355710011
 30
0.0
 11
268.75991347249283
 21
-257.87782285063417
 31
0.0
  0
LINE
  8
DETAIL
  6
CONTINUOUS
 62
     5
 10
260.0640624528437
 20
-271.53141770029168
 30
0.0
 11
270.55217761568451
 21
-261.04330253667439
 31
0.0
  0
LINE
  8
DETAIL
  6
CONTINUOUS
 62
     5
 10
-275.07913733881821
 20
255.4088117234601
 30
0.0
 11
-299.7882195491602
 21
249.23154117145691
 31
0.0
  0
LINE
  8
DETAIL
  6
CONTINUOUS
 62
     5
 10
-276.8714014820099
 20
258.57429141027671
 30
0.0
 11
-302.67905612678589
 21
252.1223777490828
 31
0.0
  0
LINE
  8
DETAIL
  6
CONTINUOUS
 62
     5
 10
-281.26125903695612
 20
300.89089949310608
 30
0.0
 11
-300.89089949310562
 21
281.26125903617998
 31
0.0
  0
LINE
  8
DETAIL
  6
CONTINUOUS
 62
     5
 10
-300.89089949310562
 20
-281.26125903695629
 30
0.0
 11
-281.26125903695612
 21
-300.89089949310568
 31
0.0
  0
LINE
  8
DETAIL
  6
CONTINUOUS
 62
     5
 10
-257.08012157831422
 20
261.32961628886312
 30
0.0
 11
-261.32961628886289
 21
257.08012157831467
 31
0.0
  0
LINE
  8
DETAIL
  6
CONTINUOUS
 62
     5
 10
-230.16665507610409
 20
267.11244612600967
 30
0.0
 11
-235.17473262053039
 21
264.22103120782469
 31
0.0
  0
LINE
  8
DETAIL
  6
CONTINUOUS
 62
     5
 10
-257.08012157831422
 20
-261.32961628886278
 30
0.0
 11
-261.32961628886289
 21
-257.08012157831439
 31
0.0
  0
LINE
  8
DETAIL
  6
CONTINUOUS
 62
     5
 10
-248.48046472605211
 20
216.1023401367047
 30
0.0
 11
-234.41614978742891
 21
230.16665507610421
 31
0.0
  0
LINE
  8
DETAIL
  6
CONTINUOUS
 62
     5
 10
-230.16665507610409
 20
234.4161497866526
 30
0.0
 11
-216.1023401367045
 21
248.4804647260523
 31
0.0
  0
LINE
  8
DETAIL
  6
CONTINUOUS
 62
     5
 10
-206.99576902731329
 20
246.2550499403892
 30
0.0
 11
-224.5006621281884
 21
228.75015683951369
 31
0.0
  0
LINE
  8
DETAIL
  6
CONTINUOUS
 62
     5
 10
-228.75015683951349
 20
224.50066212818891
 30
0.0
 11
-246.2550499403886
 21
206.9957690273134
 31
0.0
  0
LINE
  8
DETAIL
  6
CONTINUOUS
 62
     5
 10
-230.16665507610409
 20
255.5467864524928
 30
0.0
 11
-225.15857753167751
 21
258.43820137067792
 31
0.0
  0
LINE
  8
DETAIL
  6
CONTINUOUS
 62
     5
 10
-309.99999999999972
 20
269.93537964458801
 30
0.0
 11
-309.99999999999972
 21
-269.93537964458801
 31
0.0
  0
LINE
  8
DETAIL
  6
CONTINUOUS
 62
     5
 10
-306.99515347334392
 20
269.93537964458801
 30
0.0
 11
-306.99515347334392
 21
227.89090657524639
 31
0.0
  0
LINE
  8
DETAIL
  6
CONTINUOUS
 62
     5
 10
-306.99515347334392
 20
227.89090657524639
 30
0.0
 11
-306.99515347334392
 21
-227.89090657524619
 31
0.0
  0
LINE
  8
DETAIL
  6
CONTINUOUS
 62
     5
 10
-306.99515347334392
 20
-227.89090657524619
 30
0.0
 11
-306.99515347334392
 21
-269.93537964458801
 31
0.0
  0
LINE
  8
DETAIL
  6
CONTINUOUS
 62
     5
 10
-303.82456339745261
 20
274.17876785167368
 30
0.0
 11
-303.82456339745261
 21
254.24712510435691
 31
0.0
  0
LINE
  8
DETAIL
  6
CONTINUOUS
 62
     5
 10
-303.82456339745261
 20
-254.24712510435671
 30
0.0
 11
-303.82456339745261
 21
-274.17876785167363
 31
0.0
  0
LINE
  8
DETAIL
  6
CONTINUOUS
 62
     5
 10
-296.97899838449092
 20
171.07997595206069
 30
0.0
 11
-296.97899838449092
 21
-171.07997595206049
 31
0.0
  0
LINE
  8
DETAIL
  6
CONTINUOUS
 62
     5
 10
-266.33769383328922
 20
-233.0580699942893
 30
0.0
 11
-261.32961628886289
 21
-235.9494849132509
 31
0.0
  0
LINE
  8
DETAIL
  6
CONTINUOUS
 62
     5
 10
-256.32153874443628
 20
-227.27524015791909
 30
0.0
 11
-261.32961628886289
 21
-224.38382523973411
 31
0.0
  0
LINE
  8
DETAIL
  6
CONTINUOUS
 62
     5
 10
-216.1023401367045
 20
-248.48046472605211
 30
0.0
 11
-230.16665507610409
 21
-234.41614978742899
 31
0.0
  0
LINE
  8
DETAIL
  6
CONTINUOUS
 62
     5
 10
-234.41614978742891
 20
-230.16665507610421
 30
0.0
 11
-248.48046472605211
 21
-216.1023401367045
 31
0.0
  0
LINE
  8
DETAIL
  6
CONTINUOUS
 62
     5
 10
-246.2550499403886
 20
-206.99576902731309
 30
0.0
 11
-228.75015683951349
 21
-224.50066212818871
 31
0.0
  0
LINE
  8
DETAIL
  6
CONTINUOUS
 62
     5
 10
-224.5006621281884
 20
-228.75015683951349
 30
0.0
 11
-206.99576902731329
 21
-246.25504994038869
 31
0.0
  0
LINE
  8
DETAIL
  6
CONTINUOUS
 62
     5
 10
-266.33769383328922
 20
-227.27524015791909
 30
0.0
 11
-266.33769383328922
 21
-233.0580699942893
 31
0.0
  0
LINE
  8
DETAIL
  6
CONTINUOUS
 62
     5
 10
-269.93537964458773
 20
-310.0
 30
0.0
 11
240.86173342262489
 21
-310.0
 31
0.0
  0
LINE
  8
DETAIL
  6
CONTINUOUS
 62
     5
 10
250.08118893697031
 20
-310.0
 30
0.0
 11
269.93537964458852
 21
-310.0
 31
0.0
  0
LINE
  8
DETAIL
  6
CONTINUOUS
 62
     5
 10
-269.93537964458773
 20
-306.99515347334409
 30
0.0
 11
-227.89090657524631
 21
-306.99515347334409
 31
0.0
  0
LINE
  8
DETAIL
  6
CONTINUOUS
 62
     5
 10
-227.89090657524631
 20
-306.99515347334409
 30
0.0
 11
227.8909065752465
 21
-306.99515347334409
 31
0.0
  0
LINE
  8
DETAIL
  6
CONTINUOUS
 62
     5
 10
227.8909065752465
 20
-306.99515347334409
 30
0.0
 11
240.80932412095049
 21
-306.99515347334409
 31
0.0
  0
LINE
  8
DETAIL
  6
CONTINUOUS
 62
     5
 10
250.02823120965331
 20
-306.99515347334409
 30
0.0
 11
269.93537964458852
 21
-306.99515347334409
 31
0.0
  0
LINE
  8
DETAIL
  6
CONTINUOUS
 62
     5
 10
-274.17876785167363
 20
-303.82456339745249
 30
0.0
 11
-254.2471251043568
 21
-303.82456339745249
 31
0.0
  0
LINE
  8
DETAIL
  6
CONTINUOUS
 62
     5
 10
254.24712510435711
 20
-303.82456339745249
 30
0.0
 11
274.17876785167402
 21
-303.82456339745249
 31
0.0
  0
LINE
  8
DETAIL
  6
CONTINUOUS
 62
     5
 10
-171.07997595206041
 20
-296.97899838449092
 30
0.0
 11
171.07997595206101
 21
-296.97899838449092
 31
0.0
  0
LINE
  8
DETAIL
  6
CONTINUOUS
 62
     5
 10
-256.32153874443628
 20
-233.0580699942893
 30
0.0
 11
-256.32153874443628
 21
-227.27524015791909
 31
0.0
  0
LINE
  8
DETAIL
  6
CONTINUOUS
 62
     5
 10
-235.17473262053039
 20
264.22103120782469
 30
0.0
 11
-235.17473262053039
 21
258.43820137067792
 31
0.0
  0
LINE
  8
DETAIL
  6
CONTINUOUS
 62
     5
 10
-225.15857753167751
 20
258.43820137067792
 30
0.0
 11
-225.15857753167751
 21
264.22103120782469
 31
0.0
  0
LINE
  8
DETAIL
  6
CONTINUOUS
 62
     5
 10
-213.16867623313419
 20
-262.74611452622997
 30
0.0
 11
-213.16867623313419
 21
-255.56295591133491
 31
0.0
  0
LINE
  8
DETAIL
  6
CONTINUOUS
 62
     5
 10
-213.16867623313419
 20
255.56295591133491
 30
0.0
 11
-213.16867623313419
 21
262.74611452622997
 31
0.0
  0
LINE
  8
DETAIL
  6
CONTINUOUS
 62
     5
 10
-201.12844121861951
 20
266.93053311793238
 30
0.0
 11
-201.12844121861951
 21
260.42003231017782
 31
0.0
  0
LINE
  8
DETAIL
  6
CONTINUOUS
 62
     5
 10
-201.12844121861951
 20
-260.4200323101777
 30
0.0
 11
-201.12844121861951
 21
-266.9305331179321
 31
0.0
  0
LINE
  8
DETAIL
  6
CONTINUOUS
 62
     5
 10
218.11371781828669
 20
-213.8642231077381
 30
0.0
 11
218.48763868312241
 21
-213.8002240182839
 31
0.0
  0
LINE
  8
DETAIL
  6
CONTINUOUS
 62
     5
 10
218.48763868312241
 20
-213.8002240182839
 30
0.0
 11
219.42282811907191
 21
-213.73651378154301
 31
0.0
  0
LINE
  8
DETAIL
  6
CONTINUOUS
 62
     5
 10
219.42282811907191
 20
-213.73651378154301
 30
0.0
 11
220.3250883092262
 21
-213.7753140176078
 31
0.0
  0
LINE
  8
DETAIL
  6
CONTINUOUS
 62
     5
 10
220.3250883092262
 20
-213.7753140176078
 30
0.0
 11
221.18514743003871
 21
-213.91454418471881
 31
0.0
  0
LINE
  8
DETAIL
  6
CONTINUOUS
 62
     5
 10
221.18514743003871
 20
-213.91454418471881
 30
0.0
 11
221.9928114643526
 21
-214.15431837620051
 31
0.0
  0
LINE
  8
DETAIL
  6
CONTINUOUS
 62
     5
 10
221.9928114643526
 20
-214.15431837620051
 30
0.0
 11
222.74015156013101
 21
-214.49040392175431
 31
0.0
  0
LINE
  8
DETAIL
  6
CONTINUOUS
 62
     5
 10
222.74015156013101
 20
-214.49040392175431
 30
0.0
 11
223.4144250033689
 21
-214.9180818519992
 31
0.0
  0
LINE
  8
DETAIL
  6
CONTINUOUS
 62
     5
 10
223.4144250033689
 20
-214.9180818519992
 30
0.0
 11
224.01987936591919
 21
-215.43892515750579
 31
0.0
  0
LINE
  8
DETAIL
  6
CONTINUOUS
 62
     5
 10
262.74611452623031
 20
-213.16867623313419
 30
0.0
 11
255.56295591133519
 21
-213.16867623313419
 31
0.0
  0
LINE
  8
DETAIL
  6
CONTINUOUS
 62
     5
 10
-255.5629559113346
 20
-213.16867623313419
 30
0.0
 11
-262.74611452622969
 21
-213.16867623313419
 31
0.0
  0
LINE
  8
DETAIL
  6
CONTINUOUS
 62
     5
 10
-266.93053311793159
 20
-201.1284412186196
 30
0.0
 11
-260.42003231017742
 21
-201.1284412186196
 31
0.0
  0
LINE
  8
DETAIL
  6
CONTINUOUS
 62
     5
 10
260.42003231017787
 20
-201.1284412186196
 30
0.0
 11
266.93053311793238
 21
-201.1284412186196
 31
0.0
  0
LINE
  8
DETAIL
  6
CONTINUOUS
 62
     5
 10
240.43247411852099
 20
-259.55510403899763
 30
0.0
 11
256.29875796248029
 21
-264.26082580428528
 31
0.0
  0
LINE
  8
DETAIL
  6
CONTINUOUS
 62
     5
 10
256.64052184726597
 20
-263.10850038544282
 30
0.0
 11
240.77423800330641
 21
-258.40277862015478
 31
0.0
  0
LINE
  8
DETAIL
  6
CONTINUOUS
 62
     5
 10
-95.654281098545766
 20
-88.91549001943622
 30
0.0
 11
-95.654281098545766
 21
88.91549001943622
 31
0.0
  0
LINE
  8
DETAIL
  6
CONTINUOUS
 62
     5
 10
-89.644588045233931
 20
88.91549001943622
 30
0.0
 11
-89.644588045233931
 21
-88.91549001943622
 31
0.0
  0
LINE
  8
DETAIL
  6
CONTINUOUS
 62
     5
 10
-87.340872374797854
 20
75.016697207799552
 30
0.0
 11
-87.340872374797854
 21
-75.016697207799552
 31
0.0
  0
LINE
  8
DETAIL
  6
CONTINUOUS
 62
     5
 10
-54.535182122327683
 20
62.052860910696147
 30
0.0
 11
-61.045682930081973
 21
58.294021516123848
 31
0.0
  0
LINE
  8
DETAIL
  6
CONTINUOUS
 62
     5
 10
-54.535182122327683
 20
60.318011959474461
 30
0.0
 11
-59.543259666754011
 21
57.426597041289369
 31
0.0
  0
LINE
  8
DETAIL
  6
CONTINUOUS
 62
     5
 10
261.32961628886318
 20
235.94948491325101
 30
0.0
 11
256.32153874443679
 21
233.05806999428941
 31
0.0
  0
LINE
  8
DETAIL
  6
CONTINUOUS
 62
     5
 10
-54.535182122327683
 20
48.752352285957841
 30
0.0
 11
-49.5271045779009
 21
51.643767204142932
 31
0.0
  0
LINE
  8
DETAIL
  6
CONTINUOUS
 62
     5
 10
-54.535182122327683
 20
47.01750333473592
 30
0.0
 11
-48.024681314573172
 21
50.776342728531972
 31
0.0
  0
LINE
  8
DETAIL
  6
CONTINUOUS
 62
     5
 10
0.0000000000002274
 20
81.481421647819161
 30
0.0
 11
-4.0064620355409488
 21
79.385240912700056
 31
0.0
  0
LINE
  8
DETAIL
  6
CONTINUOUS
 62
     5
 10
225.15857753167799
 20
-264.22103120782458
 30
0.0
 11
230.16665507610449
 21
-267.11244612600967
 31
0.0
  0
LINE
  8
DETAIL
  6
CONTINUOUS
 62
     5
 10
235.1747326205309
 20
-258.43820137067792
 30
0.0
 11
230.16665507610449
 21
-255.5467864524926
 31
0.0
  0
LINE
  8
DETAIL
  6
CONTINUOUS
 62
     5
 10
-61.045682930081973
 20
58.294021516123848
 30
0.0
 11
-61.045682930081973
 21
50.776342728531972
 31
0.0
  0
LINE
  8
DETAIL
  6
CONTINUOUS
 62
     5
 10
-61.045682930081973
 20
-50.776342728531738
 30
0.0
 11
-61.045682930081973
 21
-58.294021516123848
 31
0.0
  0
LINE
  8
DETAIL
  6
CONTINUOUS
 62
     5
 10
-59.543259666754011
 20
57.426597041289369
 30
0.0
 11
-59.543259666754011
 21
51.643767204142932
 31
0.0
  0
LINE
  8
DETAIL
  6
CONTINUOUS
 62
     5
 10
-59.543259666754011
 20
-51.643767204142698
 30
0.0
 11
-59.543259666754011
 21
-57.426597041289369
 31
0.0
  0
LINE
  8
DETAIL
  6
CONTINUOUS
 62
     5
 10
-49.5271045779009
 20
-57.426597041289369
 30
0.0
 11
-49.5271045779009
 21
-51.643767204142698
 31
0.0
  0
LINE
  8
DETAIL
  6
CONTINUOUS
 62
     5
 10
-49.5271045779009
 20
51.643767204142932
 30
0.0
 11
-49.5271045779009
 21
57.426597041289369
 31
0.0
  0
LINE
  8
DETAIL
  6
CONTINUOUS
 62
     5
 10
-48.024681314573172
 20
-58.294021516123848
 30
0.0
 11
-48.024681314573172
 21
-50.776342728531738
 31
0.0
  0
LINE
  8
DETAIL
  6
CONTINUOUS
 62
     5
 10
-48.024681314573172
 20
50.776342728531972
 30
0.0
 11
-48.024681314573172
 21
58.294021516123848
 31
0.0
  0
LINE
  8
DETAIL
  6
CONTINUOUS
 62
     5
 10
2.1247473552743941
 20
79.249141539442235
 30
0.0
 11
-2.1247473552738261
 21
74.999646828893901
 31
0.0
  0
LINE
  8
DETAIL
  6
CONTINUOUS
 62
     5
 10
261.32961628886318
 20
224.38382523973411
 30
0.0
 11
266.33769383328968
 21
227.27524015791909
 31
0.0
  0
LINE
  8
DETAIL
  6
CONTINUOUS
 62
     5
 10
0.0000000000002274
 20
72.767366720516975
 30
0.0
 11
4.0064620355415173
 21
74.863547455636308
 31
0.0
  0
LINE
  8
DETAIL
  6
CONTINUOUS
 62
     5
 10
-4.0064620355409488
 20
-79.385240912699842
 30
0.0
 11
0.0000000000002274
 21
-81.481421647818934
 31
0.0
  0
LINE
  8
DETAIL
  6
CONTINUOUS
 62
     5
 10
-61.045682930081973
 20
-58.294021516123848
 30
0.0
 11
-54.535182122327683
 21
-62.052860910695927
 31
0.0
  0
LINE
  8
DETAIL
  6
CONTINUOUS
 62
     5
 10
-59.543259666754011
 20
-57.426597041289369
 30
0.0
 11
-54.535182122327683
 21
-60.318011959474461
 31
0.0
  0
LINE
  8
DETAIL
  6
CONTINUOUS
 62
     5
 10
-49.5271045779009
 20
-51.643767204142698
 30
0.0
 11
-54.535182122327683
 21
-48.752352285957393
 31
0.0
  0
LINE
  8
DETAIL
  6
CONTINUOUS
 62
     5
 10
-48.024681314573172
 20
-50.776342728531738
 30
0.0
 11
-54.535182122327683
 21
-47.01750333473592
 31
0.0
  0
LINE
  8
DETAIL
  6
CONTINUOUS
 62
     5
 10
-303.82456339745261
 20
-254.24712510435671
 30
0.0
 11
-262.74611452622969
 21
-213.16867623313419
 31
0.0
  0
LINE
  8
DETAIL
  6
CONTINUOUS
 62
     5
 10
213.16867623313439
 20
262.74611452622997
 30
0.0
 11
254.24712510435711
 21
303.82456339745272
 31
0.0
  0
LINE
  8
DETAIL
  6
CONTINUOUS
 62
     5
 10
54.535182122328138
 20
62.052860910696147
 30
0.0
 11
48.024681314573741
 21
58.294021516123848
 31
0.0
  0
LINE
  8
DETAIL
  6
CONTINUOUS
 62
     5
 10
54.535182122328138
 20
60.318011959474461
 30
0.0
 11
49.52710457790181
 21
57.426597041289369
 31
0.0
  0
LINE
  8
DETAIL
  6
CONTINUOUS
 62
     5
 10
54.535182122328138
 20
48.752352285957841
 30
0.0
 11
59.543259666754579
 21
51.643767204142932
 31
0.0
  0
LINE
  8
DETAIL
  6
CONTINUOUS
 62
     5
 10
54.535182122328138
 20
47.01750333473592
 30
0.0
 11
61.045682930082528
 21
50.776342728531972
 31
0.0
  0
LINE
  8
DETAIL
  6
CONTINUOUS
 62
     5
 10
4.0064620355415173
 20
-74.86354745563608
 30
0.0
 11
0.0000000000002274
 21
-72.767366720516733
 31
0.0
  0
LINE
  8
DETAIL
  6
CONTINUOUS
 62
     5
 10
2.1247473552743941
 20
-79.249141539441993
 30
0.0
 11
-2.1247473552738261
 21
-74.999646828893646
 31
0.0
  0
LINE
  8
DETAIL
  6
CONTINUOUS
 62
     5
 10
254.24712510435711
 20
-303.82456339745249
 30
0.0
 11
249.78051281967689
 21
-299.35795111354878
 31
0.0
  0
LINE
  8
DETAIL
  6
CONTINUOUS
 62
     5
 10
213.16867623313439
 20
-262.74611452622997
 30
0.0
 11
240.02158672715461
 21
-289.59902502025011
 31
0.0
  0
LINE
  8
DETAIL
  6
CONTINUOUS
 62
     5
 10
-262.74611452622969
 20
213.16867623313439
 30
0.0
 11
-303.82456339745261
 21
254.24712510435691
 31
0.0
  0
LINE
  8
DETAIL
  6
CONTINUOUS
 62
     5
 10
1.522735605014645
 20
-50.101087785951222
 30
0.0
 11
-1.5227356267546379
 21
-47.055616554182038
 31
0.0
  0
LINE
  8
DETAIL
  6
CONTINUOUS
 62
     5
 10
-4.0064620355409488
 20
79.385240912700056
 30
0.0
 11
-4.0064620355409488
 21
74.863547455636308
 31
0.0
  0
LINE
  8
DETAIL
  6
CONTINUOUS
 62
     5
 10
-4.0064620355409488
 20
-74.86354745563608
 30
0.0
 11
-4.0064620355409488
 21
-79.385240912699842
 31
0.0
  0
LINE
  8
DETAIL
  6
CONTINUOUS
 62
     5
 10
4.0064620355415173
 20
-79.385240912699842
 30
0.0
 11
4.0064620355415173
 21
-74.86354745563608
 31
0.0
  0
LINE
  8
DETAIL
  6
CONTINUOUS
 62
     5
 10
4.0064620355415173
 20
74.863547455636308
 30
0.0
 11
4.0064620355415173
 21
79.385240912700056
 31
0.0
  0
LINE
  8
DETAIL
  6
CONTINUOUS
 62
     5
 10
-18.188203403413581
 20
-76.549349269890186
 30
0.0
 11
-17.100142780879079
 21
-71.079299131632524
 31
0.0
  0
LINE
  8
DETAIL
  6
CONTINUOUS
 62
     5
 10
11.65321288760344
 20
73.473581348461494
 30
0.0
 11
12.490458866514251
 21
77.682701124970436
 31
0.0
  0
LINE
  8
DETAIL
  6
CONTINUOUS
 62
     5
 10
-17.40230760551492
 20
-76.705673664149344
 30
0.0
 11
-16.32050738971293
 21
-71.267096720116129
 31
0.0
  0
LINE
  8
DETAIL
  6
CONTINUOUS
 62
     5
 10
12.361833465880411
 20
72.928768193535461
 30
0.0
 11
13.276354664412789
 21
77.526376730711007
 31
0.0
  0
LINE
  8
DETAIL
  6
CONTINUOUS
 62
     5
 10
17.402307605515489
 20
76.705673664149572
 30
0.0
 11
16.320507392043059
 21
71.267096731762877
 31
0.0
  0
LINE
  8
DETAIL
  6
CONTINUOUS
 62
     5
 10
-12.36183346665644
 20
-72.928768194311928
 30
0.0
 11
-13.27635466441234
 21
-77.526376730710808
 31
0.0
  0
LINE
  8
DETAIL
  6
CONTINUOUS
 62
     5
 10
18.18820340341415
 20
76.549349269890172
 30
0.0
 11
17.100142787091269
 21
71.079299165796328
 31
0.0
  0
LINE
  8
DETAIL
  6
CONTINUOUS
 62
     5
 10
-11.65321288760288
 20
-73.473581348461266
 30
0.0
 11
-12.49045886651345
 21
-77.682701124970208
 31
0.0
  0
LINE
  8
DETAIL
  6
CONTINUOUS
 62
     5
 10
-46.097876581282321
 20
-63.762052910746213
 30
0.0
 11
-43.88702353578492
 21
-60.453277501796947
 31
0.0
  0
LINE
  8
DETAIL
  6
CONTINUOUS
 62
     5
 10
38.170003763284292
 20
62.353742421284778
 30
0.0
 11
41.267562000150527
 21
66.989565928842694
 31
0.0
  0
LINE
  8
DETAIL
  6
CONTINUOUS
 62
     5
 10
-45.431626294122573
 20
-64.207227120486777
 30
0.0
 11
-42.963084379556683
 21
-60.512793064407333
 31
0.0
  0
LINE
  8
DETAIL
  6
CONTINUOUS
 62
     5
 10
38.855401119635637
 20
61.937223826401812
 30
0.0
 11
41.933812287310488
 21
66.544391719101895
 31
0.0
  0
LINE
  8
DETAIL
  6
CONTINUOUS
 62
     5
 10
45.431626294123127
 20
64.207227120487005
 30
0.0
 11
42.963084378780877
 21
60.51279306440756
 31
0.0
  0
LINE
  8
DETAIL
  6
CONTINUOUS
 62
     5
 10
-38.855401120411443
 20
-61.937223826401578
 30
0.0
 11
-41.933812287310047
 21
-66.544391719101895
 31
0.0
  0
LINE
  8
DETAIL
  6
CONTINUOUS
 62
     5
 10
46.09787658128289
 20
63.762052910746213
 30
0.0
 11
43.887023535009121
 21
60.453277501797167
 31
0.0
  0
LINE
  8
DETAIL
  6
CONTINUOUS
 62
     5
 10
-38.170003753966498
 20
-62.353742406532099
 30
0.0
 11
-41.267562000150058
 21
-66.989565928842467
 31
0.0
  0
LINE
  8
DETAIL
  6
CONTINUOUS
 62
     5
 10
-261.32961628886289
 20
-257.08012157831439
 30
0.0
 11
-97.414479441309382
 21
-93.164984729984567
 31
0.0
  0
LINE
  8
DETAIL
  6
CONTINUOUS
 62
     5
 10
93.164984729985008
 20
97.414479441309595
 30
0.0
 11
257.0801215783149
 21
261.32961628886312
 31
0.0
  0
LINE
  8
DETAIL
  6
CONTINUOUS
 62
     5
 10
261.32961628886318
 20
257.08012157831467
 30
0.0
 11
97.414479441309808
 21
93.164984729984553
 31
0.0
  0
LINE
  8
DETAIL
  6
CONTINUOUS
 62
     5
 10
-93.164984729984326
 20
-97.414479441309382
 30
0.0
 11
-257.08012157831422
 21
-261.32961628886278
 31
0.0
  0
LINE
  8
DETAIL
  6
CONTINUOUS
 62
     5
 10
61.260941237955883
 20
46.163430382988508
 30
0.0
 11
58.25744243000122
 21
43.900131691926163
 31
0.0
  0
LINE
  8
DETAIL
  6
CONTINUOUS
 62
     5
 10
-61.260941237955421
 20
-46.163430382988281
 30
0.0
 11
-58.257442430000538
 21
-43.900131691926163
 31
0.0
  0
LINE
  8
DETAIL
  6
CONTINUOUS
 62
     5
 10
-66.989565928842239
 20
-41.267562000150058
 30
0.0
 11
-62.355658665489273
 21
-38.171284157117491
 31
0.0
  0
LINE
  8
DETAIL
  6
CONTINUOUS
 62
     5
 10
60.453277501797288
 20
43.887023535009121
 30
0.0
 11
63.762052910746419
 21
46.09787658128289
 31
0.0
  0
LINE
  8
DETAIL
  6
CONTINUOUS
 62
     5
 10
-66.544391719101782
 20
-41.933812287310047
 30
0.0
 11
-61.93722382640135
 21
-38.85540112041167
 31
0.0
  0
LINE
  8
DETAIL
  6
CONTINUOUS
 62
     5
 10
60.512793064407788
 20
42.96308437878065
 30
0.0
 11
64.207227120487218
 21
45.431626294122893
 31
0.0
  0
LINE
  8
DETAIL
  6
CONTINUOUS
 62
     5
 10
66.544391719102109
 20
41.933812287310047
 30
0.0
 11
61.937223826401919
 21
38.855401119635417
 31
0.0
  0
LINE
  8
DETAIL
  6
CONTINUOUS
 62
     5
 10
-60.512793064407219
 20
-42.963084379556904
 30
0.0
 11
-64.207227120486891
 21
-45.431626294122893
 31
0.0
  0
LINE
  8
DETAIL
  6
CONTINUOUS
 62
     5
 10
66.989565928842808
 20
41.267562000150292
 30
0.0
 11
62.355658651513977
 21
38.171284147800407
 31
0.0
  0
LINE
  8
DETAIL
  6
CONTINUOUS
 62
     5
 10
-60.453277501796947
 20
-43.887023535785367
 30
0.0
 11
-63.762052910745979
 21
-46.097876581282428
 31
0.0
  0
LINE
  8
DETAIL
  6
CONTINUOUS
 62
     5
 10
-54.535182122327683
 20
-47.01750333473592
 30
0.0
 11
-61.045682930081973
 21
-50.776342728531738
 31
0.0
  0
LINE
  8
DETAIL
  6
CONTINUOUS
 62
     5
 10
-54.535182122327683
 20
-48.752352285957393
 30
0.0
 11
-59.543259666754011
 21
-51.643767204142698
 31
0.0
  0
LINE
  8
DETAIL
  6
CONTINUOUS
 62
     5
 10
-54.535182122327683
 20
-60.318011959474461
 30
0.0
 11
-49.5271045779009
 21
-57.426597041289369
 31
0.0
  0
LINE
  8
DETAIL
  6
CONTINUOUS
 62
     5
 10
48.024681314573741
 20
-58.294021516123848
 30
0.0
 11
54.535182122328138
 21
-62.052860910695927
 31
0.0
  0
LINE
  8
DETAIL
  6
CONTINUOUS
 62
     5
 10
49.52710457790181
 20
-57.426597041289369
 30
0.0
 11
54.535182122328138
 21
-60.318011959474461
 31
0.0
  0
LINE
  8
DETAIL
  6
CONTINUOUS
 62
     5
 10
59.543259666754579
 20
-51.643767204142698
 30
0.0
 11
54.535182122328138
 21
-48.752352285957393
 31
0.0
  0
LINE
  8
DETAIL
  6
CONTINUOUS
 62
     5
 10
61.045682930082528
 20
-50.776342728531738
 30
0.0
 11
54.535182122328138
 21
-47.01750333473592
 31
0.0
  0
LINE
  8
DETAIL
  6
CONTINUOUS
 62
     5
 10
63.762052910746419
 20
-46.097876581282428
 30
0.0
 11
60.453277501797288
 21
-43.887023535785367
 31
0.0
  0
LINE
  8
DETAIL
  6
CONTINUOUS
 62
     5
 10
-62.355660942805798
 20
38.171285678175757
 30
0.0
 11
-66.989565928842239
 21
41.267562000150292
 31
0.0
  0
LINE
  8
DETAIL
  6
CONTINUOUS
 62
     5
 10
64.207227120487218
 20
-45.431626294122893
 30
0.0
 11
60.512793064407788
 21
-42.963084379556904
 31
0.0
  0
LINE
  8
DETAIL
  6
CONTINUOUS
 62
     5
 10
-61.93722382640135
 20
38.855401119635417
 30
0.0
 11
-66.544391719101782
 21
41.933812287310047
 31
0.0
  0
LINE
  8
DETAIL
  6
CONTINUOUS
 62
     5
 10
224.92280756451419
 20
-218.04165124000949
 30
0.0
 11
224.3852546258158
 21
-217.57922026809911
 31
0.0
  0
LINE
  8
DETAIL
  6
CONTINUOUS
 62
     5
 10
224.3852546258158
 20
-217.57922026809911
 30
0.0
 11
223.7866006339309
 21
-217.19950621755521
 31
0.0
  0
LINE
  8
DETAIL
  6
CONTINUOUS
 62
     5
 10
223.7866006339309
 20
-217.19950621755521
 30
0.0
 11
223.1230743806843
 21
-216.9011125086972
 31
0.0
  0
LINE
  8
DETAIL
  6
CONTINUOUS
 62
     5
 10
223.1230743806843
 20
-216.9011125086972
 30
0.0
 11
222.40598949060151
 21
-216.6882288813415
 31
0.0
  0
LINE
  8
DETAIL
  6
CONTINUOUS
 62
     5
 10
222.40598949060151
 20
-216.6882288813415
 30
0.0
 11
221.6423855977761
 21
-216.56461331224409
 31
0.0
  0
LINE
  8
DETAIL
  6
CONTINUOUS
 62
     5
 10
221.6423855977761
 20
-216.56461331224409
 30
0.0
 11
220.8413134668823
 21
-216.53016450468979
 31
0.0
  0
LINE
  8
DETAIL
  6
CONTINUOUS
 62
     5
 10
220.8413134668823
 20
-216.53016450468979
 30
0.0
 11
220.7835915491855
 21
-216.53409683786049
 31
0.0
  0
LINE
  8
DETAIL
  6
CONTINUOUS
 62
     5
 10
223.1699804239648
 20
-216.2888240994603
 30
0.0
 11
222.63242748526659
 21
-215.82639312755009
 31
0.0
  0
LINE
  8
DETAIL
  6
CONTINUOUS
 62
     5
 10
222.63242748526659
 20
-215.82639312755009
 30
0.0
 11
222.0337734933818
 21
-215.44667907700591
 31
0.0
  0
LINE
  8
DETAIL
  6
CONTINUOUS
 62
     5
 10
222.0337734933818
 20
-215.44667907700591
 30
0.0
 11
221.370247240135
 21
-215.14828536814821
 31
0.0
  0
LINE
  8
DETAIL
  6
CONTINUOUS
 62
     5
 10
221.370247240135
 20
-215.14828536814821
 30
0.0
 11
220.6531623500523
 21
-214.935401740792
 31
0.0
  0
LINE
  8
DETAIL
  6
CONTINUOUS
 62
     5
 10
220.6531623500523
 20
-214.935401740792
 30
0.0
 11
219.8895584572268
 21
-214.81178617169459
 31
0.0
  0
LINE
  8
DETAIL
  6
CONTINUOUS
 62
     5
 10
219.8895584572268
 20
-214.81178617169459
 30
0.0
 11
219.0884863263332
 21
-214.77733736414049
 31
0.0
  0
LINE
  8
DETAIL
  6
CONTINUOUS
 62
     5
 10
219.0884863263332
 20
-214.77733736414049
 30
0.0
 11
219.03076440863629
 21
-214.78126969731099
 31
0.0
  0
LINE
  8
DETAIL
  6
CONTINUOUS
 62
     5
 10
216.86056153723831
 20
-239.7258681881253
 30
0.0
 11
211.00111081025941
 21
-233.86641746114631
 31
0.0
  0
LINE
  8
DETAIL
  6
CONTINUOUS
 62
     5
 10
211.5677101048957
 20
-233.29981816650999
 30
0.0
 11
208.8633482309053
 21
-230.59545629251971
 31
0.0
  0
LINE
  8
DETAIL
  6
CONTINUOUS
 62
     5
 10
214.9982432228278
 20
-236.73035128444209
 30
0.0
 11
218.8795033197583
 21
-240.6116113813728
 31
0.0
  0
LINE
  8
DETAIL
  6
CONTINUOUS
 62
     5
 10
95.633253335512791
 20
-117.2352091602108
 30
0.0
 11
98.11212525012877
 21
-119.71408107482669
 31
0.0
  0
LINE
  8
DETAIL
  6
CONTINUOUS
 62
     5
 10
209.71324717285961
 20
-229.74555735056541
 30
0.0
 11
212.41760904685009
 21
-232.44991922455571
 31
0.0
  0
LINE
  8
DETAIL
  6
CONTINUOUS
 62
     5
 10
215.8481421647821
 20
-235.88045234248781
 30
0.0
 11
219.72940226171269
 21
-239.76171243941829
 31
0.0
  0
LINE
  8
DETAIL
  6
CONTINUOUS
 62
     5
 10
216.41474145941851
 20
-235.31385304785161
 30
0.0
 11
223.30084808300481
 21
-242.19995967143791
 31
0.0
  0
LINE
  8
DETAIL
  6
CONTINUOUS
 62
     5
 10
213.8341072834406
 20
-231.033420987965
 30
0.0
 11
222.3979198844099
 21
-239.59723358893439
 31
0.0
  0
LINE
  8
DETAIL
  6
CONTINUOUS
 62
     5
 10
257.0801215783149
 20
-261.32961628886278
 30
0.0
 11
235.46655806797679
 21
-239.71605277930141
 31
0.0
  0
LINE
  8
DETAIL
  6
CONTINUOUS
 62
     5
 10
233.11146539497341
 20
-237.36096010629791
 30
0.0
 11
106.7883558068154
 21
-111.03785051814
 31
0.0
  0
LINE
  8
DETAIL
  6
CONTINUOUS
 62
     5
 10
104.30948389219949
 20
-108.5589786035239
 30
0.0
 11
93.164984729985008
 21
-97.414479441309382
 31
0.0
  0
LINE
  8
DETAIL
  6
CONTINUOUS
 62
     5
 10
-97.414479441309382
 20
93.164984729984553
 30
0.0
 11
-261.32961628886289
 21
257.08012157831467
 31
0.0
  0
LINE
  8
DETAIL
  6
CONTINUOUS
 62
     5
 10
-43.88702353578492
 20
60.453277501797167
 30
0.0
 11
-46.097876581282321
 21
63.762052910746213
 31
0.0
  0
LINE
  8
DETAIL
  6
CONTINUOUS
 62
     5
 10
-42.963084379556683
 20
60.51279306440756
 30
0.0
 11
-45.431626294122573
 21
64.207227120487005
 31
0.0
  0
LINE
  8
DETAIL
  6
CONTINUOUS
 62
     5
 10
-41.933812287310047
 20
66.544391719101895
 30
0.0
 11
-38.855401120411443
 21
61.937223826401812
 31
0.0
  0
LINE
  8
DETAIL
  6
CONTINUOUS
 62
     5
 10
42.963084378780877
 20
-60.512793064407333
 30
0.0
 11
45.431626294123127
 21
-64.207227120486777
 31
0.0
  0
LINE
  8
DETAIL
  6
CONTINUOUS
 62
     5
 10
-41.267562000150058
 20
66.989565928842694
 30
0.0
 11
-38.171172176503433
 21
62.355491075027203
 31
0.0
  0
LINE
  8
DETAIL
  6
CONTINUOUS
 62
     5
 10
43.887023535009121
 20
-60.453277501796947
 30
0.0
 11
46.09787658128289
 21
-63.762052910746213
 31
0.0
  0
LINE
  8
DETAIL
  6
CONTINUOUS
 62
     5
 10
43.562429701218782
 20
-91.47818968583988
 30
0.0
 11
42.322267864998807
 21
-89.3301663755242
 31
0.0
  0
LINE
  8
DETAIL
  6
CONTINUOUS
 62
     5
 10
59.149139698689169
 20
-86.423467039936682
 30
0.0
 11
60.363656405129859
 21
-88.527071682433416
 31
0.0
  0
LINE
  8
DETAIL
  6
CONTINUOUS
 62
     5
 10
12.490458866514251
 20
-77.682701124970208
 30
0.0
 11
11.65321288760344
 21
-73.473581348461266
 31
0.0
  0
LINE
  8
DETAIL
  6
CONTINUOUS
 62
     5
 10
-17.100821391691621
 20
71.082710738099877
 30
0.0
 11
-18.188203403413581
 21
76.549349269890172
 31
0.0
  0
LINE
  8
DETAIL
  6
CONTINUOUS
 62
     5
 10
13.276354664412789
 20
-77.526376730710808
 30
0.0
 11
12.361833465880411
 21
-72.928768194311928
 31
0.0
  0
LINE
  8
DETAIL
  6
CONTINUOUS
 62
     5
 10
-16.320741591488972
 20
71.268274128464327
 30
0.0
 11
-17.40230760551492
 21
76.705673664149572
 31
0.0
  0
LINE
  8
DETAIL
  6
CONTINUOUS
 62
     5
 10
-13.27635466441234
 20
77.526376730711007
 30
0.0
 11
-12.36183346665644
 21
72.928768193535461
 31
0.0
  0
LINE
  8
DETAIL
  6
CONTINUOUS
 62
     5
 10
16.32074158916021
 20
-71.268274119146781
 30
0.0
 11
17.402307605515489
 21
-76.705673664149344
 31
0.0
  0
LINE
  8
DETAIL
  6
CONTINUOUS
 62
     5
 10
-12.49045886651345
 20
77.682701124970436
 30
0.0
 11
-11.65321288760288
 21
73.473581348461494
 31
0.0
  0
LINE
  8
DETAIL
  6
CONTINUOUS
 62
     5
 10
17.100821385480689
 20
-71.082710710147708
 30
0.0
 11
18.18820340341415
 21
-76.549349269890186
 31
0.0
  0
LINE
  8
DETAIL
  6
CONTINUOUS
 62
     5
 10
48.024681314573741
 20
58.294021516123848
 30
0.0
 11
48.024681314573741
 21
50.776342728531972
 31
0.0
  0
LINE
  8
DETAIL
  6
CONTINUOUS
 62
     5
 10
48.024681314573741
 20
-50.776342728531738
 30
0.0
 11
48.024681314573741
 21
-58.294021516123848
 31
0.0
  0
LINE
  8
DETAIL
  6
CONTINUOUS
 62
     5
 10
1.522735605014645
 20
-47.055616575922613
 30
0.0
 11
-1.5227356267546379
 21
-50.101087807691783
 31
0.0
  0
LINE
  8
DETAIL
  6
CONTINUOUS
 62
     5
 10
-254.2471251043568
 20
-303.82456339745249
 30
0.0
 11
-213.16867623313419
 21
-262.74611452622997
 31
0.0
  0
LINE
  8
DETAIL
  6
CONTINUOUS
 62
     5
 10
262.74611452623031
 20
213.16867623313439
 30
0.0
 11
303.82456339745318
 21
254.24712510435691
 31
0.0
  0
LINE
  8
DETAIL
  6
CONTINUOUS
 62
     5
 10
-2.1247473552738261
 20
-79.249141539441993
 30
0.0
 11
2.1247473552743941
 21
-74.999646828893646
 31
0.0
  0
LINE
  8
DETAIL
  6
CONTINUOUS
 62
     5
 10
-54.535182122327683
 20
-62.052860910695927
 30
0.0
 11
-48.024681314573172
 21
-58.294021516123848
 31
0.0
  0
LINE
  8
DETAIL
  6
CONTINUOUS
 62
     5
 10
-71.083285670836617
 20
-17.100935752889651
 30
0.0
 11
-76.549349269890044
 21
-18.188203403413809
 31
0.0
  0
LINE
  8
DETAIL
  6
CONTINUOUS
 62
     5
 10
-71.271148593379962
 20
-16.321313357879031
 30
0.0
 11
-76.705673664149231
 21
-17.402307605515261
 31
0.0
  0
LINE
  8
DETAIL
  6
CONTINUOUS
 62
     5
 10
71.271148593380531
 20
16.321313357879259
 30
0.0
 11
76.705673664149813
 21
17.402307605515489
 31
0.0
  0
LINE
  8
DETAIL
  6
CONTINUOUS
 62
     5
 10
71.083285687142492
 20
17.100935755995579
 30
0.0
 11
76.549349269890627
 21
18.188203403413809
 31
0.0
  0
LINE
  8
DETAIL
  6
CONTINUOUS
 62
     5
 10
-83.843891088602263
 20
-14.783940166334791
 30
0.0
 11
-71.83800401274857
 21
-12.66697834744696
 31
0.0
  0
LINE
  8
DETAIL
  6
CONTINUOUS
 62
     5
 10
71.838004012749039
 20
12.666978347447181
 30
0.0
 11
83.843891088602732
 21
14.783940166335009
 31
0.0
  0
LINE
  8
DETAIL
  6
CONTINUOUS
 62
     5
 10
-83.843891088602263
 20
14.783940166335009
 30
0.0
 11
-71.83800401274857
 21
12.666978347447181
 31
0.0
  0
LINE
  8
DETAIL
  6
CONTINUOUS
 62
     5
 10
71.838004012749039
 20
-12.66697834744696
 30
0.0
 11
83.843891088602732
 21
-14.783940166334791
 31
0.0
  0
LINE
  8
DETAIL
  6
CONTINUOUS
 62
     5
 10
76.549349269890627
 20
-18.188203403413809
 30
0.0
 11
71.083283259195454
 21
-17.100935273045931
 31
0.0
  0
LINE
  8
DETAIL
  6
CONTINUOUS
 62
     5
 10
76.705673664149813
 20
-17.402307605515261
 30
0.0
 11
71.271148593380531
 21
-16.321313357879031
 31
0.0
  0
LINE
  8
DETAIL
  6
CONTINUOUS
 62
     5
 10
-76.705673664149231
 20
17.402307605515489
 30
0.0
 11
-71.271148593379962
 21
16.321313357879259
 31
0.0
  0
LINE
  8
DETAIL
  6
CONTINUOUS
 62
     5
 10
-76.549349269890044
 20
18.188203403413809
 30
0.0
 11
-71.083283276276802
 21
17.100935276151858
 31
0.0
  0
LINE
  8
DETAIL
  6
CONTINUOUS
 62
     5
 10
-61.045682930081973
 20
50.776342728531972
 30
0.0
 11
-54.535182122327683
 21
47.01750333473592
 31
0.0
  0
LINE
  8
DETAIL
  6
CONTINUOUS
 62
     5
 10
-59.543259666754011
 20
51.643767204142932
 30
0.0
 11
-54.535182122327683
 21
48.752352285957841
 31
0.0
  0
LINE
  8
DETAIL
  6
CONTINUOUS
 62
     5
 10
-49.5271045779009
 20
57.426597041289369
 30
0.0
 11
-54.535182122327683
 21
60.318011959474461
 31
0.0
  0
LINE
  8
DETAIL
  6
CONTINUOUS
 62
     5
 10
-48.024681314573172
 20
58.294021516123848
 30
0.0
 11
-54.535182122327683
 21
62.052860910696147
 31
0.0
  0
LINE
  8
DETAIL
  6
CONTINUOUS
 62
     5
 10
-64.207227120486891
 20
45.431626294122893
 30
0.0
 11
-60.512793064407219
 21
42.96308437878065
 31
0.0
  0
LINE
  8
DETAIL
  6
CONTINUOUS
 62
     5
 10
61.937223826401919
 20
-38.85540112041167
 30
0.0
 11
66.544391719102109
 21
-41.933812287310047
 31
0.0
  0
LINE
  8
DETAIL
  6
CONTINUOUS
 62
     5
 10
-63.762052910745979
 20
46.09787658128289
 30
0.0
 11
-60.453277501796947
 21
43.887023535009121
 31
0.0
  0
LINE
  8
DETAIL
  6
CONTINUOUS
 62
     5
 10
62.355660956782231
 20
-38.171285688269343
 30
0.0
 11
66.989565928842808
 21
-41.267562000150058
 31
0.0
  0
LINE
  8
DETAIL
  6
CONTINUOUS
 62
     5
 10
-61.260941237955421
 20
46.163430382988508
 30
0.0
 11
-58.257442430000538
 21
43.900131691926163
 31
0.0
  0
LINE
  8
DETAIL
  6
CONTINUOUS
 62
     5
 10
61.260941237955883
 20
-46.163430382988281
 30
0.0
 11
58.25744243000122
 21
-43.900131691926163
 31
0.0
  0
LINE
  8
DETAIL
  6
CONTINUOUS
 62
     5
 10
-257.08012157831422
 20
261.32961628886312
 30
0.0
 11
-93.164984729984326
 21
97.414479441309595
 31
0.0
  0
LINE
  8
DETAIL
  6
CONTINUOUS
 62
     5
 10
97.414479441309808
 20
-93.164984729984567
 30
0.0
 11
108.5589786035243
 21
-104.3094838921991
 31
0.0
  0
LINE
  8
DETAIL
  6
CONTINUOUS
 62
     5
 10
111.0378505181403
 20
-106.7883558068152
 30
0.0
 11
236.62505076970891
 21
-232.59025291495391
 31
0.0
  0
LINE
  8
DETAIL
  6
CONTINUOUS
 62
     5
 10
238.4092544276217
 20
-234.159759717073
 30
0.0
 11
261.32961628886318
 21
-257.08012157831439
 31
0.0
  0
LINE
  8
DETAIL
  6
CONTINUOUS
 62
     5
 10
261.46263021272148
 20
-255.58452023979629
 30
0.0
 11
252.7865785111774
 21
-246.90846853825249
 31
0.0
  0
LINE
  8
DETAIL
  6
CONTINUOUS
 62
     5
 10
234.43815489892449
 20
-227.55699857441959
 30
0.0
 11
223.1699804239648
 21
-216.2888240994603
 31
0.0
  0
LINE
  8
DETAIL
  6
CONTINUOUS
 62
     5
 10
243.61475242702059
 20
-236.60344386482319
 30
0.0
 11
249.457807654607
 21
-242.4464990924096
 31
0.0
  0
LINE
  8
DETAIL
  6
CONTINUOUS
 62
     5
 10
253.3531778058136
 20
-246.341869243616
 30
0.0
 11
257.07148567812578
 21
-250.06017711592841
 31
0.0
  0
LINE
  8
DETAIL
  6
CONTINUOUS
 62
     5
 10
224.01987936591919
 20
-215.43892515750579
 30
0.0
 11
237.0408809814281
 21
-228.45992677301459
 31
0.0
  0
LINE
  8
DETAIL
  6
CONTINUOUS
 62
     5
 10
110.78978447130319
 20
-102.0786780244202
 30
0.0
 11
113.268656385919
 21
-104.55754993903631
 31
0.0
  0
LINE
  8
DETAIL
  6
CONTINUOUS
 62
     5
 10
250.30770659656139
 20
-241.59660014967861
 30
0.0
 11
244.46465136897501
 21
-235.75354492286871
 31
0.0
  0
LINE
  8
DETAIL
  6
CONTINUOUS
 62
     5
 10
254.2030767485445
 20
-245.49197030166169
 30
0.0
 11
257.92138462008012
 21
-249.2102781739741
 31
0.0
  0
LINE
  8
DETAIL
  6
CONTINUOUS
 62
     5
 10
110.4002474555612
 20
-100.5559424201824
 30
0.0
 11
114.7913919901569
 21
-104.9470869547781
 31
0.0
  0
LINE
  8
DETAIL
  6
CONTINUOUS
 62
     5
 10
250.87430589119779
 20
-241.03000085504249
 30
0.0
 11
254.76967604318079
 21
-244.9253710070254
 31
0.0
  0
LINE
  8
DETAIL
  6
CONTINUOUS
 62
     5
 10
208.8633482309053
 20
-230.59545629251971
 30
0.0
 11
208.3425049253988
 21
-229.99000192996959
 31
0.0
  0
LINE
  8
DETAIL
  6
CONTINUOUS
 62
     5
 10
208.3425049253988
 20
-229.99000192996959
 30
0.0
 11
207.91482699437711
 21
-229.31572848673139
 31
0.0
  0
LINE
  8
DETAIL
  6
CONTINUOUS
 62
     5
 10
207.91482699437711
 20
-229.31572848673139
 30
0.0
 11
207.5787414496001
 21
-228.568388390953
 31
0.0
  0
LINE
  8
DETAIL
  6
CONTINUOUS
 62
     5
 10
207.5787414496001
 20
-228.568388390953
 30
0.0
 11
207.33896725811849
 21
-227.76072435741571
 31
0.0
  0
LINE
  8
DETAIL
  6
CONTINUOUS
 62
     5
 10
207.33896725811849
 20
-227.76072435741571
 30
0.0
 11
207.19973709100711
 21
-226.90066523582661
 31
0.0
  0
LINE
  8
DETAIL
  6
CONTINUOUS
 62
     5
 10
207.19973709100711
 20
-226.90066523582661
 30
0.0
 11
207.16093685494249
 21
-225.9984050456726
 31
0.0
  0
LINE
  8
DETAIL
  6
CONTINUOUS
 62
     5
 10
207.16093685494249
 20
-225.9984050456726
 30
0.0
 11
207.22464709168361
 21
-225.0632156097231
 31
0.0
  0
LINE
  8
DETAIL
  6
CONTINUOUS
 62
     5
 10
207.22464709168361
 20
-225.0632156097231
 30
0.0
 11
207.38851656705651
 21
-224.10579236317631
 31
0.0
  0
LINE
  8
DETAIL
  6
CONTINUOUS
 62
     5
 10
207.38851656705651
 20
-224.10579236317631
 30
0.0
 11
207.59145722325351
 21
-223.36018603045659
 31
0.0
  0
LINE
  8
DETAIL
  6
CONTINUOUS
 62
     5
 10
235.2880538408788
 20
-226.70709963246529
 30
0.0
 11
235.7602202018511
 21
-227.25596947462151
 31
0.0
  0
LINE
  8
DETAIL
  6
CONTINUOUS
 62
     5
 10
235.7602202018511
 20
-227.25596947462151
 30
0.0
 11
236.14792823273359
 21
-227.86722670904561
 31
0.0
  0
LINE
  8
DETAIL
  6
CONTINUOUS
 62
     5
 10
236.14792823273359
 20
-227.86722670904561
 30
0.0
 11
236.45260391411529
 21
-228.54472193552991
 31
0.0
  0
LINE
  8
DETAIL
  6
CONTINUOUS
 62
     5
 10
236.45260391411529
 20
-228.54472193552991
 30
0.0
 11
236.6699693019001
 21
-229.27690335003939
 31
0.0
  0
LINE
  8
DETAIL
  6
CONTINUOUS
 62
     5
 10
236.6699693019001
 20
-229.27690335003939
 30
0.0
 11
236.79618730412929
 21
-230.0565831135489
 31
0.0
  0
LINE
  8
DETAIL
  6
CONTINUOUS
 62
     5
 10
236.79618730412929
 20
-230.0565831135489
 30
0.0
 11
236.83136135041539
 21
-230.87451992150361
 31
0.0
  0
LINE
  8
DETAIL
  6
CONTINUOUS
 62
     5
 10
236.83136135041539
 20
-230.87451992150361
 30
0.0
 11
236.7736053405221
 21
-231.72230847588619
 31
0.0
  0
LINE
  8
DETAIL
  6
CONTINUOUS
 62
     5
 10
236.7736053405221
 20
-231.72230847588619
 30
0.0
 11
236.62505076970891
 21
-232.59025291495391
 31
0.0
  0
LINE
  8
DETAIL
  6
CONTINUOUS
 62
     5
 10
236.62505076970891
 20
-232.59025291495391
 30
0.0
 11
236.3858449631941
 21
-233.4690978307849
 31
0.0
  0
LINE
  8
DETAIL
  6
CONTINUOUS
 62
     5
 10
236.3858449631941
 20
-233.4690978307849
 30
0.0
 11
236.0600543223255
 21
-234.34911656312369
 31
0.0
  0
LINE
  8
DETAIL
  6
CONTINUOUS
 62
     5
 10
236.0600543223255
 20
-234.34911656312369
 30
0.0
 11
235.6498531610375
 21
-235.22060810161409
 31
0.0
  0
LINE
  8
DETAIL
  6
CONTINUOUS
 62
     5
 10
235.6498531610375
 20
-235.22060810161409
 30
0.0
 11
235.1610650652342
 21
-236.07424008631071
 31
0.0
  0
LINE
  8
DETAIL
  6
CONTINUOUS
 62
     5
 10
235.1610650652342
 20
-236.07424008631071
 30
0.0
 11
234.5977963083244
 21
-236.90028988438459
 31
0.0
  0
LINE
  8
DETAIL
  6
CONTINUOUS
 62
     5
 10
234.5977963083244
 20
-236.90028988438459
 30
0.0
 11
233.96737314250311
 21
-237.69022730801109
 31
0.0
  0
LINE
  8
DETAIL
  6
CONTINUOUS
 62
     5
 10
233.96737314250311
 20
-237.69022730801109
 30
0.0
 11
233.27565433677751
 21
-238.43473302601089
 31
0.0
  0
LINE
  8
DETAIL
  6
CONTINUOUS
 62
     5
 10
233.27565433677751
 20
-238.43473302601089
 30
0.0
 11
232.5311486180012
 21
-239.1264518317364
 31
0.0
  0
LINE
  8
DETAIL
  6
CONTINUOUS
 62
     5
 10
232.5311486180012
 20
-239.1264518317364
 30
0.0
 11
231.74121119515121
 21
-239.75687499755779
 31
0.0
  0
LINE
  8
DETAIL
  6
CONTINUOUS
 62
     5
 10
231.74121119515121
 20
-239.75687499755779
 30
0.0
 11
230.91516139630079
 21
-240.32014375524409
 31
0.0
  0
LINE
  8
DETAIL
  6
CONTINUOUS
 62
     5
 10
230.91516139630079
 20
-240.32014375524409
 30
0.0
 11
230.0615294116044
 21
-240.80893185104739
 31
0.0
  0
LINE
  8
DETAIL
  6
CONTINUOUS
 62
     5
 10
230.0615294116044
 20
-240.80893185104739
 30
0.0
 11
229.19003787311391
 21
-241.21913301233531
 31
0.0
  0
LINE
  8
DETAIL
  6
CONTINUOUS
 62
     5
 10
229.19003787311391
 20
-241.21913301233531
 30
0.0
 11
228.3100191407749
 21
-241.54492365320399
 31
0.0
  0
LINE
  8
DETAIL
  6
CONTINUOUS
 62
     5
 10
228.3100191407749
 20
-241.54492365320399
 30
0.0
 11
227.4311742249441
 21
-241.78412945894209
 31
0.0
  0
LINE
  8
DETAIL
  6
CONTINUOUS
 62
     5
 10
227.4311742249441
 20
-241.78412945894209
 30
0.0
 11
226.56322978587639
 21
-241.93268403053179
 31
0.0
  0
LINE
  8
DETAIL
  6
CONTINUOUS
 62
     5
 10
226.56322978587639
 20
-241.93268403053179
 30
0.0
 11
225.71544123227019
 21
-241.9904400396488
 31
0.0
  0
LINE
  8
DETAIL
  6
CONTINUOUS
 62
     5
 10
225.71544123227019
 20
-241.9904400396488
 30
0.0
 11
224.8975044243156
 21
-241.9552659941389
 31
0.0
  0
LINE
  8
DETAIL
  6
CONTINUOUS
 62
     5
 10
224.8975044243156
 20
-241.9552659941389
 30
0.0
 11
224.11782466002961
 21
-241.8290479919099
 31
0.0
  0
LINE
  8
DETAIL
  6
CONTINUOUS
 62
     5
 10
224.11782466002961
 20
-241.8290479919099
 30
0.0
 11
223.38564324629661
 21
-241.6116826033485
 31
0.0
  0
LINE
  8
DETAIL
  6
CONTINUOUS
 62
     5
 10
223.38564324629661
 20
-241.6116826033485
 30
0.0
 11
222.7081480190358
 21
-241.30700692196709
 31
0.0
  0
LINE
  8
DETAIL
  6
CONTINUOUS
 62
     5
 10
222.7081480190358
 20
-241.30700692196709
 30
0.0
 11
222.09689078538801
 21
-240.91929889186099
 31
0.0
  0
LINE
  8
DETAIL
  6
CONTINUOUS
 62
     5
 10
222.09689078538801
 20
-240.91929889186099
 30
0.0
 11
221.54802094245571
 21
-240.44713253088869
 31
0.0
  0
LINE
  8
DETAIL
  6
CONTINUOUS
 62
     5
 10
237.0408809814281
 20
-228.45992677301459
 30
0.0
 11
237.51304734240051
 21
-229.0087966151707
 31
0.0
  0
LINE
  8
DETAIL
  6
CONTINUOUS
 62
     5
 10
237.51304734240051
 20
-229.0087966151707
 30
0.0
 11
237.900755373283
 21
-229.6200538495948
 31
0.0
  0
LINE
  8
DETAIL
  6
CONTINUOUS
 62
     5
 10
237.900755373283
 20
-229.6200538495948
 30
0.0
 11
238.20543105466459
 21
-230.29754907607909
 31
0.0
  0
LINE
  8
DETAIL
  6
CONTINUOUS
 62
     5
 10
238.20543105466459
 20
-230.29754907607909
 30
0.0
 11
238.4227964424492
 21
-231.02973049058869
 31
0.0
  0
LINE
  8
DETAIL
  6
CONTINUOUS
 62
     5
 10
238.4227964424492
 20
-231.02973049058869
 30
0.0
 11
238.54901444467839
 21
-231.80941025409811
 31
0.0
  0
LINE
  8
DETAIL
  6
CONTINUOUS
 62
     5
 10
238.54901444467839
 20
-231.80941025409811
 30
0.0
 11
238.58418849096461
 21
-232.62734706205291
 31
0.0
  0
LINE
  8
DETAIL
  6
CONTINUOUS
 62
     5
 10
238.58418849096461
 20
-232.62734706205291
 30
0.0
 11
238.5264324810712
 21
-233.47513561643561
 31
0.0
  0
LINE
  8
DETAIL
  6
CONTINUOUS
 62
     5
 10
238.5264324810712
 20
-233.47513561643561
 30
0.0
 11
238.37787791025809
 21
-234.34308005550341
 31
0.0
  0
LINE
  8
DETAIL
  6
CONTINUOUS
 62
     5
 10
238.37787791025809
 20
-234.34308005550341
 30
0.0
 11
238.13867210374349
 21
-235.22192497133389
 31
0.0
  0
LINE
  8
DETAIL
  6
CONTINUOUS
 62
     5
 10
238.13867210374349
 20
-235.22192497133389
 30
0.0
 11
237.81288146287491
 21
-236.10194370367299
 31
0.0
  0
LINE
  8
DETAIL
  6
CONTINUOUS
 62
     5
 10
237.81288146287491
 20
-236.10194370367299
 30
0.0
 11
237.402680301587
 21
-236.9734352421635
 31
0.0
  0
LINE
  8
DETAIL
  6
CONTINUOUS
 62
     5
 10
237.402680301587
 20
-236.9734352421635
 30
0.0
 11
236.91389220578361
 21
-237.82706722686001
 31
0.0
  0
LINE
  8
DETAIL
  6
CONTINUOUS
 62
     5
 10
236.91389220578361
 20
-237.82706722686001
 30
0.0
 11
236.3506234488739
 21
-238.65311702493389
 31
0.0
  0
LINE
  8
DETAIL
  6
CONTINUOUS
 62
     5
 10
236.3506234488739
 20
-238.65311702493389
 30
0.0
 11
235.72020028305249
 21
-239.44305444856039
 31
0.0
  0
LINE
  8
DETAIL
  6
CONTINUOUS
 62
     5
 10
235.72020028305249
 20
-239.44305444856039
 30
0.0
 11
235.02848147732669
 21
-240.18756016656019
 31
0.0
  0
LINE
  8
DETAIL
  6
CONTINUOUS
 62
     5
 10
235.02848147732669
 20
-240.18756016656019
 30
0.0
 11
234.28397575855061
 21
-240.8792789722859
 31
0.0
  0
LINE
  8
DETAIL
  6
CONTINUOUS
 62
     5
 10
234.28397575855061
 20
-240.8792789722859
 30
0.0
 11
233.49403833570059
 21
-241.50970213810709
 31
0.0
  0
LINE
  8
DETAIL
  6
CONTINUOUS
 62
     5
 10
233.49403833570059
 20
-241.50970213810709
 30
0.0
 11
232.66798853685009
 21
-242.0729708957933
 31
0.0
  0
LINE
  8
DETAIL
  6
CONTINUOUS
 62
     5
 10
232.66798853685009
 20
-242.0729708957933
 30
0.0
 11
231.81435655215361
 21
-242.56175899159689
 31
0.0
  0
LINE
  8
DETAIL
  6
CONTINUOUS
 62
     5
 10
231.81435655215361
 20
-242.56175899159689
 30
0.0
 11
230.94286501366309
 21
-242.9719601528848
 31
0.0
  0
LINE
  8
DETAIL
  6
CONTINUOUS
 62
     5
 10
230.94286501366309
 20
-242.9719601528848
 30
0.0
 11
230.06284628132431
 21
-243.29775079375329
 31
0.0
  0
LINE
  8
DETAIL
  6
CONTINUOUS
 62
     5
 10
230.06284628132431
 20
-243.29775079375329
 30
0.0
 11
229.18400136549349
 21
-243.5369565994915
 31
0.0
  0
LINE
  8
DETAIL
  6
CONTINUOUS
 62
     5
 10
229.18400136549349
 20
-243.5369565994915
 30
0.0
 11
228.31605692642569
 21
-243.68551117108109
 31
0.0
  0
LINE
  8
DETAIL
  6
CONTINUOUS
 62
     5
 10
228.31605692642569
 20
-243.68551117108109
 30
0.0
 11
227.46826837281969
 21
-243.74326718019799
 31
0.0
  0
LINE
  8
DETAIL
  6
CONTINUOUS
 62
     5
 10
227.46826837281969
 20
-243.74326718019799
 30
0.0
 11
226.65033156486481
 21
-243.7080931346882
 31
0.0
  0
LINE
  8
DETAIL
  6
CONTINUOUS
 62
     5
 10
226.65033156486481
 20
-243.7080931346882
 30
0.0
 11
225.8706518005788
 21
-243.58187513245909
 31
0.0
  0
LINE
  8
DETAIL
  6
CONTINUOUS
 62
     5
 10
225.8706518005788
 20
-243.58187513245909
 30
0.0
 11
225.13847038684571
 21
-243.364509743898
 31
0.0
  0
LINE
  8
DETAIL
  6
CONTINUOUS
 62
     5
 10
225.13847038684571
 20
-243.364509743898
 30
0.0
 11
224.4609751595849
 21
-243.0598340625163
 31
0.0
  0
LINE
  8
DETAIL
  6
CONTINUOUS
 62
     5
 10
224.4609751595849
 20
-243.0598340625163
 30
0.0
 11
223.8497179259374
 21
-242.6721260324102
 31
0.0
  0
LINE
  8
DETAIL
  6
CONTINUOUS
 62
     5
 10
223.8497179259374
 20
-242.6721260324102
 30
0.0
 11
223.30084808300481
 21
-242.19995967143791
 31
0.0
  0
LINE
  8
DETAIL
  6
CONTINUOUS
 62
     5
 10
49.52710457790181
 20
57.426597041289369
 30
0.0
 11
49.52710457790181
 21
51.643767204142932
 31
0.0
  0
LINE
  8
DETAIL
  6
CONTINUOUS
 62
     5
 10
49.52710457790181
 20
-51.643767204142698
 30
0.0
 11
49.52710457790181
 21
-57.426597041289369
 31
0.0
  0
LINE
  8
DETAIL
  6
CONTINUOUS
 62
     5
 10
59.543259666754579
 20
-57.426597041289369
 30
0.0
 11
59.543259666754579
 21
-51.643767204142698
 31
0.0
  0
LINE
  8
DETAIL
  6
CONTINUOUS
 62
     5
 10
59.543259666754579
 20
51.643767204142932
 30
0.0
 11
59.543259666754579
 21
57.426597041289369
 31
0.0
  0
LINE
  8
DETAIL
  6
CONTINUOUS
 62
     5
 10
61.045682930082528
 20
-58.294021516123848
 30
0.0
 11
61.045682930082528
 21
-50.776342728531738
 31
0.0
  0
LINE
  8
DETAIL
  6
CONTINUOUS
 62
     5
 10
61.045682930082528
 20
50.776342728531972
 30
0.0
 11
61.045682930082528
 21
58.294021516123848
 31
0.0
  0
LINE
  8
DETAIL
  6
CONTINUOUS
 62
     5
 10
-261.32961628886289
 20
-224.38382523973411
 30
0.0
 11
-266.33769383328922
 21
-227.27524015791909
 31
0.0
  0
LINE
  8
DETAIL
  6
CONTINUOUS
 62
     5
 10
54.535182122328138
 20
-47.01750333473592
 30
0.0
 11
48.024681314573741
 21
-50.776342728531738
 31
0.0
  0
LINE
  8
DETAIL
  6
CONTINUOUS
 62
     5
 10
54.535182122328138
 20
-48.752352285957393
 30
0.0
 11
49.52710457790181
 21
-51.643767204142698
 31
0.0
  0
LINE
  8
DETAIL
  6
CONTINUOUS
 62
     5
 10
-261.32961628886289
 20
-235.9494849132509
 30
0.0
 11
-256.32153874443628
 21
-233.0580699942893
 31
0.0
  0
LINE
  8
DETAIL
  6
CONTINUOUS
 62
     5
 10
54.535182122328138
 20
-60.318011959474461
 30
0.0
 11
59.543259666754579
 21
-57.426597041289369
 31
0.0
  0
LINE
  8
DETAIL
  6
CONTINUOUS
 62
     5
 10
54.535182122328138
 20
-62.052860910695927
 30
0.0
 11
61.045682930082528
 21
-58.294021516123848
 31
0.0
  0
LINE
  8
DETAIL
  6
CONTINUOUS
 62
     5
 10
0.0000000000002274
 20
-72.767366720516733
 30
0.0
 11
-4.0064620355409488
 21
-74.86354745563608
 31
0.0
  0
LINE
  8
DETAIL
  6
CONTINUOUS
 62
     5
 10
0.0000000000002274
 20
-81.481421647818934
 30
0.0
 11
4.0064620355415173
 21
-79.385240912699842
 31
0.0
  0
LINE
  8
DETAIL
  6
CONTINUOUS
 62
     5
 10
262.74611452623031
 20
-213.16867623313419
 30
0.0
 11
303.82456339745318
 21
-254.24712510435671
 31
0.0
  0
LINE
  8
DETAIL
  6
CONTINUOUS
 62
     5
 10
-213.16867623313419
 20
262.74611452622997
 30
0.0
 11
-254.2471251043568
 21
303.82456339745272
 31
0.0
  0
LINE
  8
DETAIL
  6
CONTINUOUS
 62
     5
 10
-2.1247473552738261
 20
79.249141539442235
 30
0.0
 11
2.1247473552743941
 21
74.999646828893901
 31
0.0
  0
LINE
  8
DETAIL
  6
CONTINUOUS
 62
     5
 10
87.340872374798437
 20
-75.016697207799552
 30
0.0
 11
87.340872374798437
 21
75.016697207799552
 31
0.0
  0
LINE
  8
DETAIL
  6
CONTINUOUS
 62
     5
 10
89.644588045234514
 20
-88.91549001943622
 30
0.0
 11
89.644588045234514
 21
88.91549001943622
 31
0.0
  0
LINE
  8
DETAIL
  6
CONTINUOUS
 62
     5
 10
95.654281098546321
 20
88.91549001943622
 30
0.0
 11
95.654281098546321
 21
-88.91549001943622
 31
0.0
  0
LINE
  8
DETAIL
  6
CONTINUOUS
 62
     5
 10
-4.0064620355409488
 20
74.863547455636308
 30
0.0
 11
0.0000000000002274
 21
72.767366720516975
 31
0.0
  0
LINE
  8
DETAIL
  6
CONTINUOUS
 62
     5
 10
4.0064620355415173
 20
79.385240912700056
 30
0.0
 11
0.0000000000002274
 21
81.481421647819161
 31
0.0
  0
LINE
  8
DETAIL
  6
CONTINUOUS
 62
     5
 10
48.024681314573741
 20
50.776342728531972
 30
0.0
 11
54.535182122328138
 21
47.01750333473592
 31
0.0
  0
LINE
  8
DETAIL
  6
CONTINUOUS
 62
     5
 10
49.52710457790181
 20
51.643767204142932
 30
0.0
 11
54.535182122328138
 21
48.752352285957841
 31
0.0
  0
LINE
  8
DETAIL
  6
CONTINUOUS
 62
     5
 10
59.543259666754579
 20
57.426597041289369
 30
0.0
 11
54.535182122328138
 21
60.318011959474461
 31
0.0
  0
LINE
  8
DETAIL
  6
CONTINUOUS
 62
     5
 10
61.045682930082528
 20
58.294021516123848
 30
0.0
 11
54.535182122328138
 21
62.052860910696147
 31
0.0
  0
LINE
  8
DETAIL
  6
CONTINUOUS
 62
     5
 10
-235.17473262053039
 20
258.43820137067792
 30
0.0
 11
-230.16665507610409
 21
255.5467864524928
 31
0.0
  0
LINE
  8
DETAIL
  6
CONTINUOUS
 62
     5
 10
-225.15857753167751
 20
264.22103120782469
 30
0.0
 11
-230.16665507610409
 21
267.11244612600967
 31
0.0
  0
LINE
  8
DETAIL
  6
CONTINUOUS
 62
     5
 10
110.4002474555612
 20
-100.5559424201824
 30
0.0
 11
107.6028422931463
 21
-103.35334758259749
 31
0.0
  0
LINE
  8
DETAIL
  6
CONTINUOUS
 62
     5
 10
110.78978447130319
 20
-102.0786780244202
 30
0.0
 11
95.633314122703723
 21
-117.2351483730197
 31
0.0
  0
LINE
  8
DETAIL
  6
CONTINUOUS
 62
     5
 10
113.268656385919
 20
-104.55754993903631
 30
0.0
 11
98.112186037319702
 21
-119.71402028763551
 31
0.0
  0
LINE
  8
DETAIL
  6
CONTINUOUS
 62
     5
 10
114.7913919901569
 20
-104.9470869547781
 30
0.0
 11
111.99398682774201
 21
-107.7444921171932
 31
0.0
  0
LINE
  8
DETAIL
  6
CONTINUOUS
 62
     5
 10
201.12844121862
 20
-266.9305331179321
 30
0.0
 11
201.12844121862
 21
-260.4200323101777
 31
0.0
  0
LINE
  8
DETAIL
  6
CONTINUOUS
 62
     5
 10
201.12844121862
 20
260.42003231017782
 30
0.0
 11
201.12844121862
 21
266.93053311793238
 31
0.0
  0
LINE
  8
DETAIL
  6
CONTINUOUS
 62
     5
 10
213.16867623313439
 20
262.74611452622997
 30
0.0
 11
213.16867623313439
 21
255.56295591133491
 31
0.0
  0
LINE
  8
DETAIL
  6
CONTINUOUS
 62
     5
 10
213.16867623313439
 20
-255.56295591133491
 30
0.0
 11
213.16867623313439
 21
-262.74611452622997
 31
0.0
  0
LINE
  8
DETAIL
  6
CONTINUOUS
 62
     5
 10
225.15857753167799
 20
-258.43820137067792
 30
0.0
 11
225.15857753167799
 21
-264.22103120782458
 31
0.0
  0
LINE
  8
DETAIL
  6
CONTINUOUS
 62
     5
 10
266.93053311793238
 20
201.1284412186196
 30
0.0
 11
260.42003231017787
 21
201.1284412186196
 31
0.0
  0
LINE
  8
DETAIL
  6
CONTINUOUS
 62
     5
 10
-260.42003231017742
 20
201.1284412186196
 30
0.0
 11
-266.93053311793159
 21
201.1284412186196
 31
0.0
  0
LINE
  8
DETAIL
  6
CONTINUOUS
 62
     5
 10
235.1747326205309
 20
-264.22103120782458
 30
0.0
 11
235.1747326205309
 21
-258.43820137067792
 31
0.0
  0
LINE
  8
DETAIL
  6
CONTINUOUS
 62
     5
 10
256.32153874443679
 20
233.05806999428941
 30
0.0
 11
256.32153874443679
 21
227.27524015791909
 31
0.0
  0
LINE
  8
DETAIL
  6
CONTINUOUS
 62
     5
 10
235.77835783206251
 20
-231.52886312151369
 30
0.0
 11
235.77886727156849
 21
-231.5245111712313
 31
0.0
  0
LINE
  8
DETAIL
  6
CONTINUOUS
 62
     5
 10
235.77886727156849
 20
-231.5245111712313
 30
0.0
 11
235.77977008353079
 21
-230.74469375003449
 31
0.0
  0
LINE
  8
DETAIL
  6
CONTINUOUS
 62
     5
 10
235.77977008353079
 20
-230.74469375003449
 30
0.0
 11
235.68896074553879
 21
-230.00016252577919
 31
0.0
  0
LINE
  8
DETAIL
  6
CONTINUOUS
 62
     5
 10
235.68896074553879
 20
-230.00016252577919
 30
0.0
 11
235.50586015068069
 21
-229.30103427476161
 31
0.0
  0
LINE
  8
DETAIL
  6
CONTINUOUS
 62
     5
 10
235.50586015068069
 20
-229.30103427476161
 30
0.0
 11
235.2344597623827
 21
-228.65517726836219
 31
0.0
  0
LINE
  8
DETAIL
  6
CONTINUOUS
 62
     5
 10
235.2344597623827
 20
-228.65517726836219
 30
0.0
 11
234.87903281559429
 21
-228.07523710037441
 31
0.0
  0
LINE
  8
DETAIL
  6
CONTINUOUS
 62
     5
 10
234.87903281559429
 20
-228.07523710037441
 30
0.0
 11
234.43815489892449
 21
-227.55699857441959
 31
0.0
  0
LINE
  8
DETAIL
  6
CONTINUOUS
 62
     5
 10
208.37496700995629
 20
-224.1522661728718
 30
0.0
 11
208.25832560113241
 21
-224.83375487533019
 31
0.0
  0
LINE
  8
DETAIL
  6
CONTINUOUS
 62
     5
 10
208.25832560113241
 20
-224.83375487533019
 30
0.0
 11
208.20176043676381
 21
-225.6640632529336
 31
0.0
  0
LINE
  8
DETAIL
  6
CONTINUOUS
 62
     5
 10
208.20176043676381
 20
-225.6640632529336
 30
0.0
 11
208.2362092450943
 21
-226.4651353846036
 31
0.0
  0
LINE
  8
DETAIL
  6
CONTINUOUS
 62
     5
 10
208.2362092450943
 20
-226.4651353846036
 30
0.0
 11
208.3598248141916
 21
-227.2287392766525
 31
0.0
  0
LINE
  8
DETAIL
  6
CONTINUOUS
 62
     5
 10
208.3598248141916
 20
-227.2287392766525
 30
0.0
 11
208.57270844154741
 21
-227.94582416673549
 31
0.0
  0
LINE
  8
DETAIL
  6
CONTINUOUS
 62
     5
 10
208.57270844154741
 20
-227.94582416673549
 30
0.0
 11
208.87110215040539
 21
-228.60935041998209
 31
0.0
  0
LINE
  8
DETAIL
  6
CONTINUOUS
 62
     5
 10
208.87110215040539
 20
-228.60935041998209
 30
0.0
 11
209.2508162009494
 21
-229.20800441186691
 31
0.0
  0
LINE
  8
DETAIL
  6
CONTINUOUS
 62
     5
 10
209.2508162009494
 20
-229.20800441186691
 30
0.0
 11
209.71324717285961
 21
-229.74555735056541
 31
0.0
  0
LINE
  8
DETAIL
  6
CONTINUOUS
 62
     5
 10
210.1245881710438
 20
-225.9238245561107
 30
0.0
 11
210.01115274168151
 21
-226.58658201587949
 31
0.0
  0
LINE
  8
DETAIL
  6
CONTINUOUS
 62
     5
 10
210.01115274168151
 20
-226.58658201587949
 30
0.0
 11
209.95458757731299
 21
-227.41689039348279
 31
0.0
  0
LINE
  8
DETAIL
  6
CONTINUOUS
 62
     5
 10
209.95458757731299
 20
-227.41689039348279
 30
0.0
 11
209.9890363856434
 21
-228.2179625251531
 31
0.0
  0
LINE
  8
DETAIL
  6
CONTINUOUS
 62
     5
 10
209.9890363856434
 20
-228.2179625251531
 30
0.0
 11
210.11265195474101
 21
-228.981566417202
 31
0.0
  0
LINE
  8
DETAIL
  6
CONTINUOUS
 62
     5
 10
210.11265195474101
 20
-228.981566417202
 30
0.0
 11
210.3255355820969
 21
-229.69865130728479
 31
0.0
  0
LINE
  8
DETAIL
  6
CONTINUOUS
 62
     5
 10
210.3255355820969
 20
-229.69865130728479
 30
0.0
 11
210.62392929095469
 21
-230.36217756053131
 31
0.0
  0
LINE
  8
DETAIL
  6
CONTINUOUS
 62
     5
 10
210.62392929095469
 20
-230.36217756053131
 30
0.0
 11
211.00364334149879
 21
-230.96083155241629
 31
0.0
  0
LINE
  8
DETAIL
  6
CONTINUOUS
 62
     5
 10
211.00364334149879
 20
-230.96083155241629
 30
0.0
 11
211.466074313409
 21
-231.49838449111459
 31
0.0
  0
LINE
  8
DETAIL
  6
CONTINUOUS
 62
     5
 10
-262.74611452622969
 20
213.16867623313439
 30
0.0
 11
-255.5629559113346
 21
213.16867623313439
 31
0.0
  0
LINE
  8
DETAIL
  6
CONTINUOUS
 62
     5
 10
255.56295591133519
 20
213.16867623313439
 30
0.0
 11
262.74611452623031
 21
213.16867623313439
 31
0.0
  0
LINE
  8
DETAIL
  6
CONTINUOUS
 62
     5
 10
266.33769383328968
 20
227.27524015791909
 30
0.0
 11
266.33769383328968
 21
233.05806999428941
 31
0.0
  0
LINE
  8
DETAIL
  6
CONTINUOUS
 62
     5
 10
296.97899838449121
 20
-171.07997595206049
 30
0.0
 11
296.97899838449121
 21
171.07997595206069
 31
0.0
  0
LINE
  8
DETAIL
  6
CONTINUOUS
 62
     5
 10
303.82456339745318
 20
-274.17876785167363
 30
0.0
 11
303.82456339745318
 21
-254.24712510435671
 31
0.0
  0
LINE
  8
DETAIL
  6
CONTINUOUS
 62
     5
 10
303.82456339745318
 20
254.24712510435691
 30
0.0
 11
303.82456339745318
 21
274.17876785167368
 31
0.0
  0
LINE
  8
DETAIL
  6
CONTINUOUS
 62
     5
 10
306.99515347334432
 20
-269.93537964458801
 30
0.0
 11
306.99515347334432
 21
-227.89090657524619
 31
0.0
  0
LINE
  8
DETAIL
  6
CONTINUOUS
 62
     5
 10
306.99515347334432
 20
-227.89090657524619
 30
0.0
 11
306.99515347334432
 21
227.89090657524639
 31
0.0
  0
LINE
  8
DETAIL
  6
CONTINUOUS
 62
     5
 10
306.99515347334432
 20
227.89090657524639
 30
0.0
 11
306.99515347334432
 21
269.93537964458801
 31
0.0
  0
LINE
  8
DETAIL
  6
CONTINUOUS
 62
     5
 10
310.00000000000028
 20
-269.93537964458801
 30
0.0
 11
310.00000000000028
 21
269.93537964458801
 31
0.0
  0
LINE
  8
DETAIL
  6
CONTINUOUS
 62
     5
 10
211.00111081025941
 20
-233.86641746114631
 30
0.0
 11
213.8341072834406
 21
-231.033420987965
 31
0.0
  0
LINE
  8
DETAIL
  6
CONTINUOUS
 62
     5
 10
213.75555345969391
 20
-236.62086011058079
 30
0.0
 11
216.58854993287531
 21
-233.7878636373996
 31
0.0
  0
LINE
  8
DETAIL
  6
CONTINUOUS
 62
     5
 10
214.9982432228278
 20
-236.73035128444209
 30
0.0
 11
215.8481421647821
 21
-235.88045234248781
 31
0.0
  0
LINE
  8
DETAIL
  6
CONTINUOUS
 62
     5
 10
216.41474145941851
 20
-235.31385304785161
 30
0.0
 11
217.26464040137279
 21
-234.4639541058971
 31
0.0
  0
LINE
  8
DETAIL
  6
CONTINUOUS
 62
     5
 10
206.9957690273136
 20
-246.25504994038869
 30
0.0
 11
215.19275615801951
 21
-238.05806280968301
 31
0.0
  0
LINE
  8
DETAIL
  6
CONTINUOUS
 62
     5
 10
218.0257526319773
 20
-235.22506633572519
 30
0.0
 11
218.63975415313541
 21
-234.61106481456699
 31
0.0
  0
LINE
  8
DETAIL
  6
CONTINUOUS
 62
     5
 10
228.75015683951381
 20
-224.50066212818871
 30
0.0
 11
230.06598764571541
 21
-223.1848313219871
 31
0.0
  0
LINE
  8
DETAIL
  6
CONTINUOUS
 62
     5
 10
230.91588658844631
 20
-222.33493237925629
 30
0.0
 11
246.2550499403892
 21
-206.99576902731309
 31
0.0
  0
LINE
  8
DETAIL
  6
CONTINUOUS
 62
     5
 10
217.126676179209
 20
-238.8587842408233
 30
0.0
 11
217.97657512116339
 21
-238.00888529886899
 31
0.0
  0
LINE
  8
DETAIL
  6
CONTINUOUS
 62
     5
 10
216.86056153723831
 20
-239.7258681881253
 30
0.0
 11
217.42716083187469
 21
-239.1592688934891
 31
0.0
  0
LINE
  8
DETAIL
  6
CONTINUOUS
 62
     5
 10
218.277059773829
 20
-238.30936995153459
 30
0.0
 11
218.8436590684652
 21
-237.7427706568983
 31
0.0
  0
LINE
  8
DETAIL
  6
CONTINUOUS
 62
     5
 10
218.12829168809441
 20
-239.86039974970871
 30
0.0
 11
218.9781906300486
 21
-239.0105008077544
 31
0.0
  0
LINE
  8
DETAIL
  6
CONTINUOUS
 62
     5
 10
219.72940226171269
 20
-239.76171243941829
 30
0.0
 11
218.8795033197583
 21
-240.6116113813728
 31
0.0
  0
LINE
  8
DETAIL
  6
CONTINUOUS
 62
     5
 10
248.48046472605259
 20
-216.1023401367045
 30
0.0
 11
236.5818795355851
 21
-228.0009253271717
 31
0.0
  0
LINE
  8
DETAIL
  6
CONTINUOUS
 62
     5
 10
235.43955597590551
 20
-229.14324888685181
 30
0.0
 11
234.41614978665299
 21
-230.16665507610421
 31
0.0
  0
LINE
  8
DETAIL
  6
CONTINUOUS
 62
     5
 10
224.19175652901049
 20
-240.39104833374651
 30
0.0
 11
223.98417019684189
 21
-240.59863466591511
 31
0.0
  0
LINE
  8
DETAIL
  6
CONTINUOUS
 62
     5
 10
222.84184663716201
 20
-241.74095822559499
 30
0.0
 11
216.10234013670481
 21
-248.48046472605211
 31
0.0
  0
LINE
  8
DETAIL
  6
CONTINUOUS
 62
     5
 10
250.87430589119779
 20
-241.03000085504249
 30
0.0
 11
248.07690072878259
 21
-243.82740601823389
 31
0.0
  0
LINE
  8
DETAIL
  6
CONTINUOUS
 62
     5
 10
254.76967604318079
 20
-244.9253710070254
 30
0.0
 11
251.97227087998931
 21
-247.72277616944049
 31
0.0
  0
LINE
  8
DETAIL
  6
CONTINUOUS
 62
     5
 10
256.36323655944221
 20
-249.3519279972447
 30
0.0
 11
257.21313550139672
 21
-248.50202905529039
 31
0.0
  0
LINE
  8
DETAIL
  6
CONTINUOUS
 62
     5
 10
257.07148567812578
 20
-250.06017711592841
 30
0.0
 11
257.92138462008012
 21
-249.2102781739741
 31
0.0
  0
LINE
  8
DETAIL
  6
CONTINUOUS
 62
     5
 10
230.16665507610449
 20
-255.5467864524926
 30
0.0
 11
225.15857753167799
 21
-258.43820137067792
 31
0.0
  0
LINE
  8
DETAIL
  6
CONTINUOUS
 62
     5
 10
230.16665507610449
 20
-267.11244612600967
 30
0.0
 11
235.1747326205309
 21
-264.22103120782458
 31
0.0
  0
LINE
  8
DETAIL
  6
CONTINUOUS
 62
     5
 10
171.07997595206101
 20
296.97899838449121
 30
0.0
 11
-171.07997595206041
 21
296.97899838449121
 31
0.0
  0
LINE
  8
DETAIL
  6
CONTINUOUS
 62
     5
 10
274.17876785167402
 20
303.82456339745272
 30
0.0
 11
254.24712510435711
 21
303.82456339745272
 31
0.0
  0
LINE
  8
DETAIL
  6
CONTINUOUS
 62
     5
 10
-254.2471251043568
 20
303.82456339745272
 30
0.0
 11
-274.17876785167363
 21
303.82456339745272
 31
0.0
  0
LINE
  8
DETAIL
  6
CONTINUOUS
 62
     5
 10
269.93537964458852
 20
306.99515347334409
 30
0.0
 11
227.8909065752465
 21
306.99515347334409
 31
0.0
  0
LINE
  8
DETAIL
  6
CONTINUOUS
 62
     5
 10
227.8909065752465
 20
306.99515347334409
 30
0.0
 11
-227.89090657524631
 21
306.99515347334409
 31
0.0
  0
LINE
  8
DETAIL
  6
CONTINUOUS
 62
     5
 10
-227.89090657524631
 20
306.99515347334409
 30
0.0
 11
-269.93537964458773
 21
306.99515347334409
 31
0.0
  0
LINE
  8
DETAIL
  6
CONTINUOUS
 62
     5
 10
269.93537964458852
 20
310.0
 30
0.0
 11
-269.93537964458773
 21
310.0
 31
0.0
  0
LINE
  8
DETAIL
  6
CONTINUOUS
 62
     5
 10
256.32153874443679
 20
227.27524015791909
 30
0.0
 11
261.32961628886318
 21
224.38382523973411
 31
0.0
  0
LINE
  8
DETAIL
  6
CONTINUOUS
 62
     5
 10
246.2550499403892
 20
206.9957690273134
 30
0.0
 11
228.75015683951381
 21
224.50066212818891
 31
0.0
  0
LINE
  8
DETAIL
  6
CONTINUOUS
 62
     5
 10
224.50066212818911
 20
228.75015683951369
 30
0.0
 11
206.9957690273136
 21
246.2550499403892
 31
0.0
  0
LINE
  8
DETAIL
  6
CONTINUOUS
 62
     5
 10
216.10234013670481
 20
248.4804647260523
 30
0.0
 11
230.16665507610449
 21
234.4161497866526
 31
0.0
  0
LINE
  8
DETAIL
  6
CONTINUOUS
 62
     5
 10
234.41614978665299
 20
230.16665507610421
 30
0.0
 11
248.48046472605259
 21
216.1023401367047
 31
0.0
  0
LINE
  8
DETAIL
  6
CONTINUOUS
 62
     5
 10
261.32961628886318
 20
-257.08012157831439
 30
0.0
 11
257.0801215783149
 21
-261.32961628886278
 31
0.0
  0
LINE
  8
DETAIL
  6
CONTINUOUS
 62
     5
 10
266.33769383328968
 20
233.05806999428941
 30
0.0
 11
261.32961628886318
 21
235.94948491325101
 31
0.0
  0
LINE
  8
DETAIL
  6
CONTINUOUS
 62
     5
 10
257.0801215783149
 20
261.32961628886312
 30
0.0
 11
261.32961628886318
 21
257.08012157831467
 31
0.0
  0
LINE
  8
DETAIL
  6
CONTINUOUS
 62
     5
 10
281.26125903617998
 20
-300.89089949310568
 30
0.0
 11
300.89089949310608
 21
-281.26125903695629
 31
0.0
  0
LINE
  8
DETAIL
  6
CONTINUOUS
 62
     5
 10
300.89089949310608
 20
281.26125903617998
 30
0.0
 11
281.26125903617998
 21
300.89089949310608
 31
0.0
  0
ARC
  8
DETAIL
  6
CONTINUOUS
 62
     5
 10
-269.93537964458773
 20
-269.93537964458801
 30
0.0
 40
40.064620355411989
 50
180.0
 51
270.0
  0
ARC
  8
DETAIL
  6
CONTINUOUS
 62
     5
 10
-269.93537964458773
 20
-269.93537964458801
 30
0.0
 40
37.059773828756079
 50
180.0
 51
270.0
  0
ARC
  8
DETAIL
  6
CONTINUOUS
 62
     5
 10
-274.17876785167363
 20
-293.80840830859961
 30
0.0
 40
10.016155088853001
 50
225.00000000000031
 51
270.0
  0
ARC
  8
DETAIL
  6
CONTINUOUS
 62
     5
 10
-293.80840830859961
 20
-274.17876785167363
 30
0.0
 40
10.016155088853001
 50
180.0
 51
225.00000000000031
  0
ARC
  8
DETAIL
  6
CONTINUOUS
 62
     5
 10
-266.93053311793159
 20
-171.07997595206049
 30
0.0
 40
30.048465266559109
 50
180.0
 51
270.0
  0
ARC
  8
DETAIL
  6
CONTINUOUS
 62
     5
 10
-260.42003231017742
 20
-221.16075139632559
 30
0.0
 40
20.03231017770603
 50
45.000000000000291
 51
90.0
  0
ARC
  8
DETAIL
  6
CONTINUOUS
 62
     5
 10
-291.97092084006442
 20
-227.89090657524619
 30
0.0
 40
15.024232633279439
 50
180.0
 51
268.05249548290828
  0
ARC
  8
DETAIL
  6
CONTINUOUS
 62
     5
 10
-255.5629559113346
 20
-223.1848313219871
 30
0.0
 40
10.01615508885298
 50
45.000000000000291
 51
90.0
  0
CIRCLE
  8
DETAIL
  6
CONTINUOUS
 62
     5
 10
-261.32961628886289
 20
-230.16665507610421
 30
0.0
 40
5.0080775444264409
  0
ARC
  8
DETAIL
  6
CONTINUOUS
 62
     5
 10
-171.07997595206041
 20
-266.9305331179321
 30
0.0
 40
30.048465266558988
 50
180.0
 51
270.0
  0
ARC
  8
DETAIL
  6
CONTINUOUS
 62
     5
 10
-221.1607513963254
 20
-260.4200323101777
 30
0.0
 40
20.032310177705881
 50
0.0
 51
45.000000000000291
  0
ARC
  8
DETAIL
  6
CONTINUOUS
 62
     5
 10
-227.89090657524631
 20
-291.97092084006448
 30
0.0
 40
15.024232633279601
 50
181.94750657439241
 51
270.0
  0
ARC
  8
DETAIL
  6
CONTINUOUS
 62
     5
 10
-223.1848313219871
 20
-255.56295591133491
 30
0.0
 40
10.01615508885288
 50
0.0
 51
45.000000000000291
  0
ARC
  8
DETAIL
  6
CONTINUOUS
 62
     5
 10
-101.6639741518577
 20
-88.91549001943622
 30
0.0
 40
12.0193861066236
 50
314.99999999999972
 51
0.0
  0
ARC
  8
DETAIL
  6
CONTINUOUS
 62
     5
 10
-18.089047471390241
 20
-81.142238214198869
 30
0.0
 40
10.01615508885304
 50
41.761551624205268
 51
77.43254818250675
  0
ARC
  8
DETAIL
  6
CONTINUOUS
 62
     5
 10
-81.020288274235682
 20
-18.627650115565071
 30
0.0
 40
10.01615508885321
 50
12.948052015901769
 51
35.275643061200007
  0
ARC
  8
DETAIL
  6
CONTINUOUS
 62
     5
 10
-70.461732966474869
 20
-44.118257538039423
 30
0.0
 40
10.01615508885298
 50
351.259388600497
 51
32.051947984094703
  0
ARC
  8
DETAIL
  6
CONTINUOUS
 62
     5
 10
-44.118257538039188
 20
-70.461732966474983
 30
0.0
 40
10.016155088852919
 50
57.948052015905297
 51
100.95159221520289
  0
ARC
  8
DETAIL
  6
CONTINUOUS
 62
     5
 10
-66.083239323364523
 20
-39.76402468026685
 30
0.0
 40
8.0129240710823399
 50
211.0364298817031
 51
307.00000000000341
  0
ARC
  8
DETAIL
  6
CONTINUOUS
 62
     5
 10
-81.631663974151706
 20
-75.016697207799552
 30
0.0
 40
8.0129240710822387
 50
180.0
 51
253.79293060260031
  0
CIRCLE
  8
DETAIL
  6
CONTINUOUS
 62
     5
 10
-54.535182122327683
 20
-54.535182122327797
 30
0.0
 40
6.5105008077544548
  0
ARC
  8
DETAIL
  6
CONTINUOUS
 62
     5
 10
-16.682418720767149
 20
-76.8366665569622
 30
0.0
 40
6.5105008077545046
 50
257.75032539679682
 51
77.750325396796853
  0
ARC
  8
DETAIL
  6
CONTINUOUS
 62
     5
 10
-42.535476561620733
 20
-66.127979370001398
 30
0.0
 40
6.5105008077544104
 50
57.249674603203452
 51
237.2496746032034
  0
ARC
  8
DETAIL
  6
CONTINUOUS
 62
     5
 10
-101.6639741518577
 20
-88.91549001943622
 30
0.0
 40
6.0096930533119526
 50
314.99999999999972
 51
0.0
  0
ARC
  8
DETAIL
  6
CONTINUOUS
 62
     5
 10
-81.631663974151706
 20
-75.016697207799552
 30
0.0
 40
5.7092084006461619
 50
180.0
 51
253.79293060260031
  0
ARC
  8
DETAIL
  6
CONTINUOUS
 62
     5
 10
-72.707647551990377
 20
-7.7349847539542216
 30
0.0
 40
5.0080775444264516
 50
280.00000000000517
 51
6.0725566384009504
  0
ARC
  8
DETAIL
  6
CONTINUOUS
 62
     5
 10
-55.243506126134662
 20
-47.899760255350422
 30
0.0
 40
5.0080775444264436
 50
40.927443361602457
 51
127.00000000000389
  0
ARC
  8
DETAIL
  6
CONTINUOUS
 62
     5
 10
-77.116025197430062
 20
-15.33933113496369
 30
0.0
 40
2.904684975767335
 50
153.7670128546979
 51
281.25000000001069
  0
ARC
  8
DETAIL
  6
CONTINUOUS
 62
     5
 10
-15.33933113496369
 20
-77.11602519743019
 30
0.0
 40
2.9046849757674038
 50
168.7500000000025
 51
348.7500000000025
  0
ARC
  8
DETAIL
  6
CONTINUOUS
 62
     5
 10
-43.682719291104377
 20
-65.375809419794223
 30
0.0
 40
2.9046849757672888
 50
146.24999999999849
 51
326.24999999999852
  0
ARC
  8
DETAIL
  6
CONTINUOUS
 62
     5
 10
-65.375809419794223
 20
-43.682719291104597
 30
0.0
 40
2.9046849757673598
 50
123.74999999999859
 51
303.74999999999858
  0
ARC
  8
DETAIL
  6
CONTINUOUS
 62
     5
 10
-77.116025197430062
 20
-15.33933113496369
 30
0.0
 40
2.1033925686590398
 50
135.34290587119131
 51
281.2499999999975
  0
ARC
  8
DETAIL
  6
CONTINUOUS
 62
     5
 10
-65.375809419794223
 20
-43.682719291104597
 30
0.0
 40
2.1033925686591211
 50
123.74999999999859
 51
303.74999999999858
  0
ARC
  8
DETAIL
  6
CONTINUOUS
 62
     5
 10
-43.682719291104377
 20
-65.375809419794223
 30
0.0
 40
2.1033925686591051
 50
146.24999999999849
 51
326.24999999999852
  0
ARC
  8
DETAIL
  6
CONTINUOUS
 62
     5
 10
-15.33933113496369
 20
-77.11602519743019
 30
0.0
 40
2.103392568659082
 50
168.7500000000025
 51
348.7500000000025
  0
ARC
  8
DETAIL
  6
CONTINUOUS
 62
     5
 10
-266.93053311793159
 20
171.07997595206069
 30
0.0
 40
30.04846526655902
 50
90.0
 51
180.0
  0
ARC
  8
DETAIL
  6
CONTINUOUS
 62
     5
 10
-260.42003231017742
 20
221.16075139632559
 30
0.0
 40
20.032310177705991
 50
270.0
 51
314.99999999999972
  0
ARC
  8
DETAIL
  6
CONTINUOUS
 62
     5
 10
-291.97092084006442
 20
227.89090657524639
 30
0.0
 40
15.02423263327946
 50
91.947506574392463
 51
180.0
  0
ARC
  8
DETAIL
  6
CONTINUOUS
 62
     5
 10
-255.5629559113346
 20
223.1848313219873
 30
0.0
 40
10.016155088853001
 50
270.0
 51
314.99999999999972
  0
ARC
  8
DETAIL
  6
CONTINUOUS
 62
     5
 10
-269.93537964458773
 20
269.93537964458801
 30
0.0
 40
40.064620355411989
 50
90.0
 51
180.0
  0
ARC
  8
DETAIL
  6
CONTINUOUS
 62
     5
 10
-269.93537964458773
 20
269.93537964458801
 30
0.0
 40
37.059773828756008
 50
90.0
 51
180.0
  0
ARC
  8
DETAIL
  6
CONTINUOUS
 62
     5
 10
-293.80840830859961
 20
274.17876785167368
 30
0.0
 40
10.01615508885304
 50
134.99999999999969
 51
180.0
  0
ARC
  8
DETAIL
  6
CONTINUOUS
 62
     5
 10
-274.17876785167363
 20
293.80840830859972
 30
0.0
 40
10.016155088853001
 50
90.0
 51
134.99999999999969
  0
ARC
  8
DETAIL
  6
CONTINUOUS
 62
     5
 10
-171.07997595206041
 20
266.93053311793238
 30
0.0
 40
30.048465266558988
 50
90.0
 51
180.0
  0
ARC
  8
DETAIL
  6
CONTINUOUS
 62
     5
 10
-221.1607513963254
 20
260.42003231017782
 30
0.0
 40
20.032310177705948
 50
314.99999999999972
 51
0.0
  0
ARC
  8
DETAIL
  6
CONTINUOUS
 62
     5
 10
-227.89090657524631
 20
291.97092084006482
 30
0.0
 40
15.0242326332795
 50
90.0
 51
178.05249548289541
  0
ARC
  8
DETAIL
  6
CONTINUOUS
 62
     5
 10
-223.1848313219871
 20
255.56295591133491
 30
0.0
 40
10.01615508885302
 50
314.99999999999972
 51
0.0
  0
CIRCLE
  8
DETAIL
  6
CONTINUOUS
 62
     5
 10
-230.16665507610409
 20
261.32961628886312
 30
0.0
 40
5.0080775444264409
  0
ARC
  8
DETAIL
  6
CONTINUOUS
 62
     5
 10
-101.6639741518577
 20
88.91549001943622
 30
0.0
 40
12.01938610662376
 50
0.0
 51
45.000000000000291
  0
ARC
  8
DETAIL
  6
CONTINUOUS
 62
     5
 10
-18.089047471390241
 20
81.142238214199097
 30
0.0
 40
10.016155088853081
 50
282.56745181749312
 51
318.23844837579469
  0
ARC
  8
DETAIL
  6
CONTINUOUS
 62
     5
 10
-44.118257538039188
 20
70.461732966475211
 30
0.0
 40
10.01615508885301
 50
259.04840778479712
 51
302.05194798409468
  0
ARC
  8
DETAIL
  6
CONTINUOUS
 62
     5
 10
-70.461732966474869
 20
44.11825753803987
 30
0.0
 40
10.01615508885296
 50
327.94805201590532
 51
8.7406113995029653
  0
ARC
  8
DETAIL
  6
CONTINUOUS
 62
     5
 10
-81.020288274235682
 20
18.627650115565299
 30
0.0
 40
10.01615508885317
 50
324.72435693879908
 51
347.05194798409832
  0
ARC
  8
DETAIL
  6
CONTINUOUS
 62
     5
 10
-66.083239323364523
 20
39.764024680267077
 30
0.0
 40
8.0129240710823648
 50
52.999999999996128
 51
148.9635701182977
  0
ARC
  8
DETAIL
  6
CONTINUOUS
 62
     5
 10
-81.631663974151706
 20
75.016697207799552
 30
0.0
 40
8.0129240710823311
 50
106.20706939739971
 51
180.0
  0
CIRCLE
  8
DETAIL
  6
CONTINUOUS
 62
     5
 10
-54.535182122327683
 20
54.535182122327797
 30
0.0
 40
6.5105008077544548
  0
ARC
  8
DETAIL
  6
CONTINUOUS
 62
     5
 10
-42.535476561620733
 20
66.12797937000164
 30
0.0
 40
6.5105008077544424
 50
122.7503253967966
 51
302.75032539679648
  0
ARC
  8
DETAIL
  6
CONTINUOUS
 62
     5
 10
-16.682418720767149
 20
76.836666556962427
 30
0.0
 40
6.5105008077544104
 50
282.24967460320312
 51
102.2496746032032
  0
ARC
  8
DETAIL
  6
CONTINUOUS
 62
     5
 10
-101.6639741518577
 20
88.91549001943622
 30
0.0
 40
6.0096930533119348
 50
0.0
 51
45.000000000000291
  0
ARC
  8
DETAIL
  6
CONTINUOUS
 62
     5
 10
-81.631663974151706
 20
75.016697207799552
 30
0.0
 40
5.7092084006461121
 50
106.20706939739971
 51
180.0
  0
ARC
  8
DETAIL
  6
CONTINUOUS
 62
     5
 10
-72.707647551990377
 20
7.7349847539544498
 30
0.0
 40
5.0080775444264303
 50
353.92744336159899
 51
79.999999999994827
  0
ARC
  8
DETAIL
  6
CONTINUOUS
 62
     5
 10
-55.243506126134662
 20
47.899760255350657
 30
0.0
 40
5.0080775444265626
 50
232.99999999999611
 51
319.07255663839737
  0
ARC
  8
DETAIL
  6
CONTINUOUS
 62
     5
 10
-77.116025197430062
 20
15.33933113496391
 30
0.0
 40
2.9046849757674309
 50
78.749999999989257
 51
206.23298714530199
  0
ARC
  8
DETAIL
  6
CONTINUOUS
 62
     5
 10
-65.375809419794223
 20
43.682719291104831
 30
0.0
 40
2.9046849757674349
 50
56.250000000001052
 51
236.25000000000111
  0
ARC
  8
DETAIL
  6
CONTINUOUS
 62
     5
 10
-43.682719291104377
 20
65.37580941979445
 30
0.0
 40
2.9046849757673878
 50
33.750000000001542
 51
213.75000000000159
  0
ARC
  8
DETAIL
  6
CONTINUOUS
 62
     5
 10
-15.33933113496369
 20
77.11602519743019
 30
0.0
 40
2.90468497576741
 50
11.24999999999749
 51
191.2499999999975
  0
ARC
  8
DETAIL
  6
CONTINUOUS
 62
     5
 10
-77.116025197430062
 20
15.33933113496391
 30
0.0
 40
2.103392568659189
 50
78.750000000002515
 51
224.65709412880869
  0
ARC
  8
DETAIL
  6
CONTINUOUS
 62
     5
 10
-15.33933113496369
 20
77.11602519743019
 30
0.0
 40
2.103392568659133
 50
11.24999999999749
 51
191.2499999999975
  0
ARC
  8
DETAIL
  6
CONTINUOUS
 62
     5
 10
-43.682719291104377
 20
65.37580941979445
 30
0.0
 40
2.1033925686592001
 50
33.750000000001542
 51
213.75000000000159
  0
ARC
  8
DETAIL
  6
CONTINUOUS
 62
     5
 10
-65.375809419794223
 20
43.682719291104831
 30
0.0
 40
2.1033925686591961
 50
56.250000000001052
 51
236.25000000000111
  0
ARC
  8
DETAIL
  6
CONTINUOUS
 62
     5
 10
0.0000000000002274
 20
-205.83198707592871
 30
0.0
 40
300.48465266558958
 50
73.792930602600251
 51
106.20706939739971
  0
ARC
  8
DETAIL
  6
CONTINUOUS
 62
     5
 10
0.0000000000002274
 20
-205.83198707592871
 30
0.0
 40
298.1809369951535
 50
73.792930602600251
 51
106.20706939739971
  0
ARC
  8
DETAIL
  6
CONTINUOUS
 62
     5
 10
18.08904747139081
 20
-81.142238214198869
 30
0.0
 40
10.016155088852971
 50
102.56745181749331
 51
138.23844837579469
  0
ARC
  8
DETAIL
  6
CONTINUOUS
 62
     5
 10
44.11825753803987
 20
-70.461732966474983
 30
0.0
 40
10.01615508885298
 50
79.048407784797092
 51
116.39503209850081
  0
ARC
  8
DETAIL
  6
CONTINUOUS
 62
     5
 10
16.6824187207676
 20
-76.8366665569622
 30
0.0
 40
6.5105008077544282
 50
102.2496746032032
 51
282.24967460320312
  0
ARC
  8
DETAIL
  6
CONTINUOUS
 62
     5
 10
42.535476561621287
 20
-66.127979370001398
 30
0.0
 40
6.5105008077544566
 50
302.75032539679648
 51
121.11677131149879
  0
CIRCLE
  8
DETAIL
  6
CONTINUOUS
 62
     5
 10
0.0000000000002274
 20
-48.578352180936918
 30
0.0
 40
4.7075928917608962
  0
ARC
  8
DETAIL
  6
CONTINUOUS
 62
     5
 10
43.682719291104952
 20
-65.375809419794223
 30
0.0
 40
2.904684975767331
 50
261.80535992550023
 51
33.750000000001542
  0
ARC
  8
DETAIL
  6
CONTINUOUS
 62
     5
 10
15.339331134964141
 20
-77.11602519743019
 30
0.0
 40
2.9046849757672959
 50
191.2499999999975
 51
11.24999999999749
  0
ARC
  8
DETAIL
  6
CONTINUOUS
 62
     5
 10
15.339331134964141
 20
-77.11602519743019
 30
0.0
 40
2.1033925686590789
 50
191.2499999999975
 51
11.24999999999749
  0
ARC
  8
DETAIL
  6
CONTINUOUS
 62
     5
 10
43.682719291104952
 20
-65.375809419794223
 30
0.0
 40
2.1033925686590922
 50
242.85582751640621
 51
33.750000000001542
  0
ARC
  8
DETAIL
  6
CONTINUOUS
 62
     5
 10
101.663974151858
 20
-88.91549001943622
 30
0.0
 40
12.019386106623591
 50
180.0
 51
225.00000000000031
  0
ARC
  8
DETAIL
  6
CONTINUOUS
 62
     5
 10
81.631663974152161
 20
-75.016697207799552
 30
0.0
 40
8.0129240710824021
 50
286.20706939739921
 51
0.0
  0
CIRCLE
  8
DETAIL
  6
CONTINUOUS
 62
     5
 10
54.535182122328138
 20
-54.535182122327797
 30
0.0
 40
6.5105008077544548
  0
ARC
  8
DETAIL
  6
CONTINUOUS
 62
     5
 10
101.663974151858
 20
-88.91549001943622
 30
0.0
 40
6.0096930533117643
 50
180.0
 51
225.00000000000031
  0
ARC
  8
DETAIL
  6
CONTINUOUS
 62
     5
 10
81.631663974152161
 20
-75.016697207799552
 30
0.0
 40
5.7092084006461823
 50
286.20706939739921
 51
0.0
  0
ARC
  8
DETAIL
  6
CONTINUOUS
 62
     5
 10
70.461732966475438
 20
-44.118257538039423
 30
0.0
 40
10.016155088853051
 50
147.94805201590529
 51
188.740611399503
  0
ARC
  8
DETAIL
  6
CONTINUOUS
 62
     5
 10
81.020288274236009
 20
-18.627650115565071
 30
0.0
 40
10.016155088852949
 50
144.7243569387991
 51
167.05194798409821
  0
ARC
  8
DETAIL
  6
CONTINUOUS
 62
     5
 10
66.083239323365092
 20
-39.76402468026685
 30
0.0
 40
8.0129240710823701
 50
232.99999999999611
 51
328.96357011829701
  0
ARC
  8
DETAIL
  6
CONTINUOUS
 62
     5
 10
55.243506126135337
 20
-47.899760255350422
 30
0.0
 40
5.008077544426536
 50
52.999999999996128
 51
139.0725566383982
  0
ARC
  8
DETAIL
  6
CONTINUOUS
 62
     5
 10
72.707647551990945
 20
-7.7349847539542216
 30
0.0
 40
5.0080775444265431
 50
173.92744336159899
 51
259.99999999999483
  0
ARC
  8
DETAIL
  6
CONTINUOUS
 62
     5
 10
77.116025197430531
 20
-15.33933113496369
 30
0.0
 40
2.9046849757674229
 50
258.7500000000029
 51
26.232987145302079
  0
ARC
  8
DETAIL
  6
CONTINUOUS
 62
     5
 10
65.375809419794678
 20
-43.682719291104597
 30
0.0
 40
2.9046849757674549
 50
236.25000000000111
 51
56.250000000001052
  0
ARC
  8
DETAIL
  6
CONTINUOUS
 62
     5
 10
65.375809419794678
 20
-43.682719291104597
 30
0.0
 40
2.1033925686591268
 50
236.25000000000111
 51
56.250000000001052
  0
ARC
  8
DETAIL
  6
CONTINUOUS
 62
     5
 10
77.116025197430531
 20
-15.33933113496369
 30
0.0
 40
2.103392568659181
 50
258.7500000000029
 51
44.657094128807813
  0
ARC
  8
DETAIL
  6
CONTINUOUS
 62
     5
 10
171.07997595206101
 20
-266.9305331179321
 30
0.0
 40
30.048465266558932
 50
270.0
 51
0.0
  0
ARC
  8
DETAIL
  6
CONTINUOUS
 62
     5
 10
221.16075139632571
 20
-260.4200323101777
 30
0.0
 40
20.032310177705948
 50
134.99999999999969
 51
180.0
  0
ARC
  8
DETAIL
  6
CONTINUOUS
 62
     5
 10
227.8909065752465
 20
-291.97092084006448
 30
0.0
 40
15.0242326332795
 50
270.0
 51
327.68062272390313
  0
ARC
  8
DETAIL
  6
CONTINUOUS
 62
     5
 10
223.1848313219875
 20
-255.56295591133491
 30
0.0
 40
10.016155088853001
 50
134.99999999999969
 51
180.0
  0
CIRCLE
  8
DETAIL
  6
CONTINUOUS
 62
     5
 10
230.16665507610449
 20
-261.32961628886278
 30
0.0
 40
5.0080775444264987
  0
ARC
  8
DETAIL
  6
CONTINUOUS
 62
     5
 10
269.93537964458852
 20
-269.93537964458801
 30
0.0
 40
40.064620355411989
 50
270.0
 51
0.0
  0
ARC
  8
DETAIL
  6
CONTINUOUS
 62
     5
 10
269.93537964458852
 20
-269.93537964458801
 30
0.0
 40
37.059773828756079
 50
270.0
 51
0.0
  0
ARC
  8
DETAIL
  6
CONTINUOUS
 62
     5
 10
293.80840830860012
 20
-274.17876785167363
 30
0.0
 40
10.016155088853001
 50
314.99999999999972
 51
0.0
  0
ARC
  8
DETAIL
  6
CONTINUOUS
 62
     5
 10
274.17876785167402
 20
-293.80840830859961
 30
0.0
 40
10.01615508885294
 50
270.0
 51
314.99999999999972
  0
ARC
  8
DETAIL
  6
CONTINUOUS
 62
     5
 10
242.1982541896536
 20
-253.60142270856949
 30
0.0
 40
6.2100161550889474
 50
177.19710954639319
 51
253.48036702229879
  0
ARC
  8
DETAIL
  6
CONTINUOUS
 62
     5
 10
240.78175595306291
 20
-239.43644033878081
 30
0.0
 40
5.2084006462035717
 50
45.000000000000291
 51
111.72980697999979
  0
ARC
  8
DETAIL
  6
CONTINUOUS
 62
     5
 10
257.77973479680941
 20
-259.26741565570859
 30
0.0
 40
5.2084006462036214
 50
253.48036702229959
 51
45.000000000000291
  0
ARC
  8
DETAIL
  6
CONTINUOUS
 62
     5
 10
242.19825418965351
 20
-253.60142270856949
 30
0.0
 40
5.0080775444264596
 50
184.16333141849401
 51
253.48036702229959
  0
ARC
  8
DETAIL
  6
CONTINUOUS
 62
     5
 10
257.77973479680941
 20
-259.26741565570859
 30
0.0
 40
4.0064620355412339
 50
253.48036702229959
 51
31.04294170229921
  0
ARC
  8
DETAIL
  6
CONTINUOUS
 62
     5
 10
240.78175595306291
 20
-239.43644033878081
 30
0.0
 40
4.0064620355412526
 50
45.000000000000291
 51
104.1254418058021
  0
ARC
  8
DETAIL
  6
CONTINUOUS
 62
     5
 10
266.93053311793238
 20
-171.07997595206049
 30
0.0
 40
30.048465266558988
 50
270.0
 51
0.0
  0
ARC
  8
DETAIL
  6
CONTINUOUS
 62
     5
 10
260.42003231017787
 20
-221.16075139632559
 30
0.0
 40
20.03231017770597
 50
90.0
 51
134.99999999999969
  0
ARC
  8
DETAIL
  6
CONTINUOUS
 62
     5
 10
291.97092084006488
 20
-227.89090657524619
 30
0.0
 40
15.02423263327946
 50
271.94750657439238
 51
0.0
  0
ARC
  8
DETAIL
  6
CONTINUOUS
 62
     5
 10
255.56295591133519
 20
-223.1848313219871
 30
0.0
 40
10.01615508885294
 50
90.0
 51
134.99999999999969
  0
ARC
  8
DETAIL
  6
CONTINUOUS
 62
     5
 10
0.0000000000002274
 20
0.0
 30
0.0
 40
264.42649434571888
 50
45.651108990899317
 51
134.34889100910161
  0
ARC
  8
DETAIL
  6
CONTINUOUS
 62
     5
 10
0.0000000000002274
 20
0.0
 30
0.0
 40
264.42649434571888
 50
315.65110899089501
 51
44.348891009105003
  0
ARC
  8
DETAIL
  6
CONTINUOUS
 62
     5
 10
0.0000000000002274
 20
0.0
 30
0.0
 40
264.42649434571888
 50
225.65110899089851
 51
312.5885368657988
  0
ARC
  8
DETAIL
  6
CONTINUOUS
 62
     5
 10
0.0000000000002274
 20
0.0
 30
0.0
 40
264.42649434571888
 50
135.65110899089501
 51
224.34889100910499
  0
ARC
  8
DETAIL
  6
CONTINUOUS
 62
     5
 10
0.0000000000002274
 20
0.0
 30
0.0
 40
255.9127625201937
 50
45.672802252503423
 51
134.3271977474966
  0
ARC
  8
DETAIL
  6
CONTINUOUS
 62
     5
 10
0.0000000000002274
 20
0.0
 30
0.0
 40
255.91276252019381
 50
315.67280224599449
 51
44.32719775400551
  0
ARC
  8
DETAIL
  6
CONTINUOUS
 62
     5
 10
0.0000000000002274
 20
0.0
 30
0.0
 40
255.91276252019389
 50
225.6728022525034
 51
312.50355674130083
  0
ARC
  8
DETAIL
  6
CONTINUOUS
 62
     5
 10
0.0000000000002274
 20
0.0
 30
0.0
 40
255.91276252019401
 50
135.67280224599449
 51
224.32719775400321
  0
ARC
  8
DETAIL
  6
CONTINUOUS
 62
     5
 10
0.0000000000002274
 20
0.0
 30
0.0
 40
85.137318255250378
 50
190.0000000000052
 51
211.0364298817031
  0
ARC
  8
DETAIL
  6
CONTINUOUS
 62
     5
 10
0.0000000000002274
 20
0.0
 30
0.0
 40
85.137318255250378
 50
328.96357011829701
 51
349.99999999999483
  0
ARC
  8
DETAIL
  6
CONTINUOUS
 62
     5
 10
0.0000000000002274
 20
0.0
 30
0.0
 40
85.137318255250307
 50
10.00000000000516
 51
31.036429881702329
  0
ARC
  8
DETAIL
  6
CONTINUOUS
 62
     5
 10
0.0000000000002274
 20
0.0
 30
0.0
 40
85.137318255250506
 50
148.9635701182977
 51
169.9999999999948
  0
ARC
  8
DETAIL
  6
CONTINUOUS
 62
     5
 10
0.0000000000002274
 20
0.0
 30
0.0
 40
85.137318255250449
 50
237.2496746032034
 51
257.75032539679682
  0
ARC
  8
DETAIL
  6
CONTINUOUS
 62
     5
 10
0.0000000000002274
 20
0.0
 30
0.0
 40
85.137318255250406
 50
282.24967460320312
 51
296.02577465430539
  0
ARC
  8
DETAIL
  6
CONTINUOUS
 62
     5
 10
0.0000000000002274
 20
0.0
 30
0.0
 40
85.137318255250378
 50
57.249674603203452
 51
77.750325396796853
  0
ARC
  8
DETAIL
  6
CONTINUOUS
 62
     5
 10
0.0000000000002274
 20
0.0
 30
0.0
 40
85.13731825525042
 50
102.2496746032032
 51
122.7503253967966
  0
ARC
  8
DETAIL
  6
CONTINUOUS
 62
     5
 10
0.0000000000002274
 20
0.0
 30
0.0
 40
73.117932148626693
 50
57.948052015905297
 51
77.43254818250675
  0
ARC
  8
DETAIL
  6
CONTINUOUS
 62
     5
 10
0.0000000000002274
 20
0.0
 30
0.0
 40
73.117932148626792
 50
12.948052015901769
 51
32.051947984094703
  0
ARC
  8
DETAIL
  6
CONTINUOUS
 62
     5
 10
0.0000000000002274
 20
0.0
 30
0.0
 40
73.117932148626821
 50
327.94805201590532
 51
347.05194798409832
  0
ARC
  8
DETAIL
  6
CONTINUOUS
 62
     5
 10
0.0000000000002274
 20
0.0
 30
0.0
 40
73.117932148626792
 50
282.56745181749312
 51
295.59911344419783
  0
ARC
  8
DETAIL
  6
CONTINUOUS
 62
     5
 10
0.0000000000002274
 20
0.0
 30
0.0
 40
73.117932148626792
 50
237.94805201590529
 51
257.43254818250671
  0
ARC
  8
DETAIL
  6
CONTINUOUS
 62
     5
 10
0.0000000000002274
 20
0.0
 30
0.0
 40
73.11793214862702
 50
192.94805201590179
 51
212.05194798409471
  0
ARC
  8
DETAIL
  6
CONTINUOUS
 62
     5
 10
0.0000000000002274
 20
0.0
 30
0.0
 40
73.117932148626906
 50
147.94805201590529
 51
167.05194798409821
  0
ARC
  8
DETAIL
  6
CONTINUOUS
 62
     5
 10
0.0000000000002274
 20
0.0
 30
0.0
 40
73.117932148626863
 50
102.56745181749331
 51
122.0519479840947
  0
ARC
  8
DETAIL
  6
CONTINUOUS
 62
     5
 10
0.0000000000002274
 20
0.0
 30
0.0
 40
72.116316639741498
 50
237.2496746032034
 51
257.75032539679682
  0
ARC
  8
DETAIL
  6
CONTINUOUS
 62
     5
 10
0.0000000000002274
 20
0.0
 30
0.0
 40
72.116316639741498
 50
282.24967460320312
 51
295.56714125028981
  0
ARC
  8
DETAIL
  6
CONTINUOUS
 62
     5
 10
0.0000000000002274
 20
0.0
 30
0.0
 40
72.116316639741498
 50
57.249674603203452
 51
77.750325396796853
  0
ARC
  8
DETAIL
  6
CONTINUOUS
 62
     5
 10
0.0000000000002274
 20
0.0
 30
0.0
 40
72.116316639741541
 50
102.2496746032032
 51
122.7503253967966
  0
ARC
  8
DETAIL
  6
CONTINUOUS
 62
     5
 10
0.0000000000002274
 20
0.0
 30
0.0
 40
68.109854604200322
 50
173.92744336159899
 51
186.07255663840101
  0
ARC
  8
DETAIL
  6
CONTINUOUS
 62
     5
 10
0.0000000000002274
 20
0.0
 30
0.0
 40
68.109854604200322
 50
303.17792305749941
 51
319.07255663839737
  0
ARC
  8
DETAIL
  6
CONTINUOUS
 62
     5
 10
0.0000000000002274
 20
0.0
 30
0.0
 40
68.109854604200365
 50
220.92744336160189
 51
295.41782884319969
  0
ARC
  8
DETAIL
  6
CONTINUOUS
 62
     5
 10
0.0000000000002274
 20
0.0
 30
0.0
 40
68.109854604200265
 50
353.92744336159899
 51
6.0725566384009504
  0
ARC
  8
DETAIL
  6
CONTINUOUS
 62
     5
 10
0.0000000000002274
 20
0.0
 30
0.0
 40
68.109854604200294
 50
40.927443361602457
 51
139.0725566383982
  0
ARC
  8
DETAIL
  6
CONTINUOUS
 62
     5
 10
0.0000000000002274
 20
0.0
 30
0.0
 40
66.106623586429706
 50
303.31353650259331
 51
295.31853368080027
  0
CIRCLE
  8
DETAIL
  6
CONTINUOUS
 62
     5
 10
0.0000000000002274
 20
0.0
 30
0.0
 40
65.305331179321513
  0
CIRCLE
  8
DETAIL
  6
CONTINUOUS
 62
     5
 10
0.0000000000002274
 20
0.0
 30
0.0
 40
22.035541195476579
  0
CIRCLE
  8
DETAIL
  6
CONTINUOUS
 62
     5
 10
0.0000000000002274
 20
0.0
 30
0.0
 40
16.62681744749597
  0
ARC
  8
DETAIL
  6
CONTINUOUS
 62
     5
 10
18.08904747139081
 20
81.142238214199097
 30
0.0
 40
10.01615508885301
 50
221.76155162420531
 51
257.43254818250671
  0
ARC
  8
DETAIL
  6
CONTINUOUS
 62
     5
 10
44.11825753803987
 20
70.461732966475211
 30
0.0
 40
10.01615508885294
 50
237.94805201590529
 51
280.95159221520288
  0
ARC
  8
DETAIL
  6
CONTINUOUS
 62
     5
 10
42.535476561621287
 20
66.12797937000164
 30
0.0
 40
6.5105008077543776
 50
237.2496746032034
 51
57.249674603203452
  0
ARC
  8
DETAIL
  6
CONTINUOUS
 62
     5
 10
16.6824187207676
 20
76.836666556962427
 30
0.0
 40
6.5105008077545046
 50
77.750325396796853
 51
257.75032539679682
  0
ARC
  8
DETAIL
  6
CONTINUOUS
 62
     5
 10
15.339331134964141
 20
77.11602519743019
 30
0.0
 40
2.9046849757674069
 50
348.7500000000025
 51
168.7500000000025
  0
ARC
  8
DETAIL
  6
CONTINUOUS
 62
     5
 10
43.682719291104952
 20
65.37580941979445
 30
0.0
 40
2.904684975767482
 50
326.24999999999852
 51
146.24999999999849
  0
ARC
  8
DETAIL
  6
CONTINUOUS
 62
     5
 10
43.682719291104952
 20
65.37580941979445
 30
0.0
 40
2.1033925686592041
 50
326.24999999999852
 51
146.24999999999849
  0
ARC
  8
DETAIL
  6
CONTINUOUS
 62
     5
 10
15.339331134964141
 20
77.11602519743019
 30
0.0
 40
2.1033925686591322
 50
348.7500000000025
 51
168.7500000000025
  0
ARC
  8
DETAIL
  6
CONTINUOUS
 62
     5
 10
81.020288274236009
 20
18.627650115565299
 30
0.0
 40
10.01615508885293
 50
192.94805201590179
 51
215.27564306119999
  0
ARC
  8
DETAIL
  6
CONTINUOUS
 62
     5
 10
70.461732966475438
 20
44.11825753803987
 30
0.0
 40
10.01615508885309
 50
171.25938860049709
 51
212.05194798409471
  0
ARC
  8
DETAIL
  6
CONTINUOUS
 62
     5
 10
66.083239323365092
 20
39.764024680267077
 30
0.0
 40
8.0129240710824412
 50
31.036429881702329
 51
127.00000000000389
  0
ARC
  8
DETAIL
  6
CONTINUOUS
 62
     5
 10
72.707647551990945
 20
7.7349847539544498
 30
0.0
 40
5.0080775444265146
 50
100.0000000000052
 51
186.07255663840101
  0
ARC
  8
DETAIL
  6
CONTINUOUS
 62
     5
 10
65.375809419794678
 20
43.682719291104831
 30
0.0
 40
2.9046849757674229
 50
303.74999999999858
 51
123.74999999999859
  0
ARC
  8
DETAIL
  6
CONTINUOUS
 62
     5
 10
77.116025197430531
 20
15.33933113496391
 30
0.0
 40
2.904684975767335
 50
333.76701285469801
 51
101.2499999999975
  0
ARC
  8
DETAIL
  6
CONTINUOUS
 62
     5
 10
77.116025197430531
 20
15.33933113496391
 30
0.0
 40
2.1033925686590371
 50
315.34290587119159
 51
101.2499999999975
  0
ARC
  8
DETAIL
  6
CONTINUOUS
 62
     5
 10
65.375809419794678
 20
43.682719291104831
 30
0.0
 40
2.103392568659153
 50
303.74999999999858
 51
123.74999999999859
  0
ARC
  8
DETAIL
  6
CONTINUOUS
 62
     5
 10
101.663974151858
 20
88.91549001943622
 30
0.0
 40
12.019386106623561
 50
134.99999999999969
 51
180.0
  0
ARC
  8
DETAIL
  6
CONTINUOUS
 62
     5
 10
81.631663974152161
 20
75.016697207799552
 30
0.0
 40
8.0129240710824092
 50
0.0
 51
73.792930602600251
  0
CIRCLE
  8
DETAIL
  6
CONTINUOUS
 62
     5
 10
54.535182122328138
 20
54.535182122327797
 30
0.0
 40
6.5105008077544548
  0
ARC
  8
DETAIL
  6
CONTINUOUS
 62
     5
 10
101.663974151858
 20
88.91549001943622
 30
0.0
 40
6.0096930533117012
 50
134.99999999999969
 51
180.0
  0
ARC
  8
DETAIL
  6
CONTINUOUS
 62
     5
 10
81.631663974152161
 20
75.016697207799552
 30
0.0
 40
5.7092084006462764
 50
0.0
 51
73.792930602600251
  0
ARC
  8
DETAIL
  6
CONTINUOUS
 62
     5
 10
55.243506126135337
 20
47.899760255350657
 30
0.0
 40
5.0080775444265342
 50
220.92744336160189
 51
307.00000000000341
  0
ARC
  8
DETAIL
  6
CONTINUOUS
 62
     5
 10
0.0000000000002274
 20
205.83198707592899
 30
0.0
 40
300.48465266558969
 50
281.26676481200462
 51
286.20706939739921
  0
ARC
  8
DETAIL
  6
CONTINUOUS
 62
     5
 10
0.0000000000002274
 20
205.83198707592899
 30
0.0
 40
300.48465266558969
 50
253.79293060260031
 51
279.13589515549228
  0
ARC
  8
DETAIL
  6
CONTINUOUS
 62
     5
 10
0.0000000000002274
 20
205.83198707592899
 30
0.0
 40
298.1809369951535
 50
280.95754992429238
 51
286.20706939739921
  0
ARC
  8
DETAIL
  6
CONTINUOUS
 62
     5
 10
0.0000000000002274
 20
205.83198707592899
 30
0.0
 40
298.18093699515362
 50
253.79293060260031
 51
278.85984899740691
  0
ARC
  8
DETAIL
  6
CONTINUOUS
 62
     5
 10
171.07997595206101
 20
266.93053311793238
 30
0.0
 40
30.048465266558988
 50
0.0
 51
90.0
  0
ARC
  8
DETAIL
  6
CONTINUOUS
 62
     5
 10
221.16075139632571
 20
260.42003231017782
 30
0.0
 40
20.032310177705909
 50
180.0
 51
225.00000000000031
  0
ARC
  8
DETAIL
  6
CONTINUOUS
 62
     5
 10
227.8909065752465
 20
291.97092084006482
 30
0.0
 40
15.02423263327946
 50
1.94750657439244
 51
90.0
  0
ARC
  8
DETAIL
  6
CONTINUOUS
 62
     5
 10
223.1848313219875
 20
255.56295591133491
 30
0.0
 40
10.016155088853029
 50
180.0
 51
225.00000000000031
  0
ARC
  8
DETAIL
  6
CONTINUOUS
 62
     5
 10
266.93053311793238
 20
171.07997595206069
 30
0.0
 40
30.048465266558971
 50
0.0
 51
90.0
  0
ARC
  8
DETAIL
  6
CONTINUOUS
 62
     5
 10
260.42003231017787
 20
221.16075139632559
 30
0.0
 40
20.03231017770603
 50
225.00000000000031
 51
270.0
  0
ARC
  8
DETAIL
  6
CONTINUOUS
 62
     5
 10
291.97092084006488
 20
227.89090657524639
 30
0.0
 40
15.0242326332795
 50
0.0
 51
88.052495482908355
  0
ARC
  8
DETAIL
  6
CONTINUOUS
 62
     5
 10
255.56295591133519
 20
223.1848313219873
 30
0.0
 40
10.016155088853001
 50
225.00000000000031
 51
270.0
  0
CIRCLE
  8
DETAIL
  6
CONTINUOUS
 62
     5
 10
261.32961628886318
 20
230.16665507610421
 30
0.0
 40
5.0080775444264987
  0
ARC
  8
DETAIL
  6
CONTINUOUS
 62
     5
 10
269.93537964458852
 20
269.93537964458801
 30
0.0
 40
40.064620355411897
 50
0.0
 51
90.0
  0
ARC
  8
DETAIL
  6
CONTINUOUS
 62
     5
 10
269.93537964458852
 20
269.93537964458801
 30
0.0
 40
37.059773828756008
 50
0.0
 51
90.0
  0
ARC
  8
DETAIL
  6
CONTINUOUS
 62
     5
 10
274.17876785167402
 20
293.80840830859972
 30
0.0
 40
10.01615508885298
 50
45.000000000000291
 51
90.0
  0
ARC
  8
DETAIL
  6
CONTINUOUS
 62
     5
 10
293.80840830860012
 20
274.17876785167368
 30
0.0
 40
10.016155088853029
 50
0.0
 51
45.000000000000291
  0
CIRCLE
  8
DETAIL
  6
CONTINUOUS
 62
     5
 10
0.0000000000002274
 20
0.0
 30
0.0
 40
248.40064620355409
  0
CIRCLE
  8
DETAIL
  6
CONTINUOUS
 62
     5
 10
-280.45234248788341
 20
-280.4523424878837
 30
0.0
 40
7.0113085621970876
  0
CIRCLE
  8
DETAIL
  6
CONTINUOUS
 62
     5
 10
-278.1916962843294
 20
-182.34810985460399
 30
0.0
 40
6.5105008077543971
  0
CIRCLE
  8
DETAIL
  6
CONTINUOUS
 62
     5
 10
-70.824911847390581
 20
-70.824911847390695
 30
0.0
 40
3.004846526655911
  0
CIRCLE
  8
DETAIL
  6
CONTINUOUS
 62
     5
 10
-280.45234248788341
 20
280.4523424878837
 30
0.0
 40
7.0113085621970876
  0
CIRCLE
  8
DETAIL
  6
CONTINUOUS
 62
     5
 10
-182.34810985460379
 20
278.19169628432962
 30
0.0
 40
6.5105008077543971
  0
CIRCLE
  8
DETAIL
  6
CONTINUOUS
 62
     5
 10
0.0000000000002274
 20
-77.124394184168068
 30
0.0
 40
6.2600969305331091
  0
CIRCLE
  8
DETAIL
  6
CONTINUOUS
 62
     5
 10
0.0000000000002274
 20
-77.124394184168068
 30
0.0
 40
5.9095315024232491
  0
ARC
  8
DETAIL
  6
CONTINUOUS
 62
     5
 10
0.0000000000002274
 20
-77.124394184168068
 30
0.0
 40
4.3570274636510424
 50
156.858958973293
 51
203.14104102670689
  0
ARC
  8
DETAIL
  6
CONTINUOUS
 62
     5
 10
0.0000000000002274
 20
-77.124394184168068
 30
0.0
 40
4.3570274636509714
 50
34.762875737805352
 51
145.23712426219461
  0
ARC
  8
DETAIL
  6
CONTINUOUS
 62
     5
 10
0.0000000000002274
 20
-77.124394184168068
 30
0.0
 40
4.3570274636509714
 50
336.85895897329391
 51
23.14104102670699
  0
ARC
  8
DETAIL
  6
CONTINUOUS
 62
     5
 10
0.0000000000002274
 20
-77.124394184168068
 30
0.0
 40
4.3570274636509927
 50
214.76287573780539
 51
325.23712426219458
  0
CIRCLE
  8
DETAIL
  6
CONTINUOUS
 62
     5
 10
70.824911847391036
 20
-70.824911847390695
 30
0.0
 40
3.004846526655911
  0
CIRCLE
  8
DETAIL
  6
CONTINUOUS
 62
     5
 10
280.45234248788381
 20
-280.4523424878837
 30
0.0
 40
7.0113085621970876
  0
CIRCLE
  8
DETAIL
  6
CONTINUOUS
 62
     5
 10
0.0000000000002274
 20
77.124394184168068
 30
0.0
 40
6.2600969305331091
  0
CIRCLE
  8
DETAIL
  6
CONTINUOUS
 62
     5
 10
0.0000000000002274
 20
77.124394184168068
 30
0.0
 40
5.9095315024232491
  0
ARC
  8
DETAIL
  6
CONTINUOUS
 62
     5
 10
0.0000000000002274
 20
77.124394184168068
 30
0.0
 40
4.3570274636509776
 50
336.85895897329391
 51
23.14104102670699
  0
ARC
  8
DETAIL
  6
CONTINUOUS
 62
     5
 10
0.0000000000002274
 20
77.124394184168068
 30
0.0
 40
4.3570274636510256
 50
214.76287573780539
 51
325.23712426219458
  0
ARC
  8
DETAIL
  6
CONTINUOUS
 62
     5
 10
0.0000000000002274
 20
77.124394184168068
 30
0.0
 40
4.3570274636510362
 50
156.858958973293
 51
203.14104102670689
  0
ARC
  8
DETAIL
  6
CONTINUOUS
 62
     5
 10
0.0000000000002274
 20
77.124394184168068
 30
0.0
 40
4.3570274636509776
 50
34.762875737805352
 51
145.23712426219461
  0
CIRCLE
  8
DETAIL
  6
CONTINUOUS
 62
     5
 10
70.824911847391036
 20
70.824911847390922
 30
0.0
 40
3.004846526655911
  0
CIRCLE
  8
DETAIL
  6
CONTINUOUS
 62
     5
 10
278.19169628433002
 20
182.34810985460419
 30
0.0
 40
6.5105008077544548
  0
CIRCLE
  8
DETAIL
  6
CONTINUOUS
 62
     5
 10
280.45234248788381
 20
280.4523424878837
 30
0.0
 40
7.0113085621970876
  0
LINE
  8
DETAIL
  6
CONTINUOUS
 62
     5
 10
-227.93567035318259
 20
263.56060101256122
 30
0.0
 11
-232.39763979980171
 21
259.09863156594167
 31
0.0
  0
LINE
  8
DETAIL
  6
CONTINUOUS
 62
     5
 10
-263.5606010125606
 20
-227.93567035318259
 30
0.0
 11
-259.09863156594128
 21
-232.39763979980191
 31
0.0
  0
LINE
  8
DETAIL
  6
CONTINUOUS
 62
     5
 10
-259.09863156594128
 20
-227.93567035318259
 30
0.0
 11
-263.5606010125606
 21
-232.39763979980191
 31
0.0
  0
LINE
  8
DETAIL
  6
CONTINUOUS
 62
     5
 10
263.56060101256122
 20
232.39763979902571
 30
0.0
 11
259.09863156594167
 21
227.9356703531829
 31
0.0
  0
LINE
  8
DETAIL
  6
CONTINUOUS
 62
     5
 10
227.93567035318301
 20
-259.09863156594162
 30
0.0
 11
232.39763979902591
 21
-263.56060101256071
 31
0.0
  0
LINE
  8
DETAIL
  6
CONTINUOUS
 62
     5
 10
-232.39763979980171
 20
263.56060101256122
 30
0.0
 11
-227.93567035318259
 21
259.09863156594167
 31
0.0
  0
LINE
  8
DETAIL
  6
CONTINUOUS
 62
     5
 10
232.39763979902591
 20
-259.09863156594162
 30
0.0
 11
227.93567035318301
 21
-263.56060101256071
 31
0.0
  0
LINE
  8
DETAIL
  6
CONTINUOUS
 62
     5
 10
259.09863156594167
 20
232.39763979902571
 30
0.0
 11
263.56060101256122
 21
227.9356703531829
 31
0.0
  0
CIRCLE
  8
DETAIL
  6
CONTINUOUS
 62
     5
 10
0.0000000000002274
 20
0.0
 30
0.0
 40
34.355411954765771
  0
LINE
  8
BASIS
  6
DASHDOT
 62
     6
 10
-329.18210166435068
 20
0.0
 30
0.0
 11
321.41764035516093
 21
0.0
 31
0.0
  0
LINE
  8
BASIS
  6
DASHDOT
 62
     6
 10
0.0
 20
-339.15166998534761
 30
0.0
 11
0.0
 21
339.15166998534772
 31
0.0
  0
LINE
  8
SIZE
  6
CONTINUOUS
 62
    30
 10
593.35181849734238
 20
132.95720968874161
 30
0.0
 11
269.73752984149939
 21
60.442301174509851
 31
0.0
  0
LINE
  8
SIZE
  6
CONTINUOUS
 62
    30
 10
-269.73752984149883
 20
-60.442301174509851
 30
0.0
 11
-281.44715400671998
 21
-63.066172724199298
 31
0.0
  0
TEXT
  8
SIZE
  6
CONTINUOUS
 62
    30
 10
354.18920115521178
 20
104.9860312143649
 30
0.0
 40
64.0
  1
φ528
 50
12.630103469313671
 41
0.9
 72
     1
 11
465.79864748429083
 21
129.99527547083321
 31
0.0
  0
LINE
  8
SIZE
  6
CONTINUOUS
 62
    30
 10
-258.02790567627773
 20
-57.818429624820403
 30
0.0
 11
258.02790567627812
 21
57.818429624820453
 31
0.0
  0
CIRCLE
  8
SIZE
  6
CONTINUOUS
 62
    30
 10
-258.02790567627773
 20
-57.818429624820403
 30
0.0
 40
6.0
  0
LINE
  8
SIZE
  6
CONTINUOUS
 62
    30
 10
-258.02790567627773
 20
-57.818429624820403
 30
0.0
 11
-269.73752984149883
 21
-60.442301174509851
 31
0.0
  0
CIRCLE
  8
SIZE
  6
CONTINUOUS
 62
    30
 10
258.02790567627812
 20
57.818429624820453
 30
0.0
 40
6.0
  0
LINE
  8
SIZE
  6
CONTINUOUS
 62
    30
 10
258.02790567627812
 20
57.818429624820453
 30
0.0
 11
269.73752984149928
 21
60.442301174509851
 31
0.0
  0
POINT
  8
DEFPOINTS
  6
CONTINUOUS
 62
    30
 10
258.02790567627812
 20
57.818429624820453
 30
0.0
  0
POINT
  8
DEFPOINTS
  6
CONTINUOUS
 62
    30
 10
-258.02790567627773
 20
-57.818429624820403
 30
0.0
  0
CIRCLE
  8
DETAIL
  6
CONTINUOUS
 62
     5
 10
0.0
 20
0.0
 30
0.0
 40
40.0
  0
LINE
  8
DETAIL
  6
CONTINUOUS
 62
     5
 10
237.75317781682679
 20
-405.42283634649112
 30
0.0
 11
234.48562165335531
 21
-404.8466780334993
 31
0.0
  0
LINE
  8
DETAIL
  6
CONTINUOUS
 62
     5
 10
244.19083406038411
 20
-372.60378534016991
 30
0.0
 11
249.97771823426049
 21
-405.42283634649112
 31
0.0
  0
LINE
  8
DETAIL
  6
CONTINUOUS
 62
     5
 10
247.25712039081191
 20
-372.60378530941011
 30
0.0
 11
253.24527439773371
 21
-404.8466780334993
 31
0.0
  0
LINE
  8
DETAIL
  6
CONTINUOUS
 62
     5
 10
248.48817005077021
 20
-372.60378530941011
 30
0.0
 11
239.07425234832411
 21
-372.60378534001688
 31
0.0
  0
LINE
  8
DETAIL
  6
CONTINUOUS
 62
     5
 10
240.1709135714209
 20
-372.60378534016991
 30
0.0
 11
234.48562165335531
 21
-404.8466780334993
 31
0.0
  0
LINE
  8
DETAIL
  6
CONTINUOUS
 62
     5
 10
249.97771823426049
 20
-405.42283634649112
 30
0.0
 11
253.24527439773371
 21
-404.8466780334993
 31
0.0
  0
LINE
  8
DETAIL
  6
CONTINUOUS
 62
     5
 10
243.540061990705
 20
-372.60378534016991
 30
0.0
 11
237.75317781682679
 21
-405.42283634649112
 31
0.0
  0
ARC
  8
DETAIL
  6
CONTINUOUS
 62
     5
 10
-44015.863473787307
 20
-44228.325088459344
 30
0.0
 40
62386.899582765203
 50
44.835713800920729
 51
44.990447496610713
  0
ARC
  8
DETAIL
  6
CONTINUOUS
 62
     5
 10
-163.2296532610803
 20
-310.33807799170557
 30
0.0
 40
403.88700083765991
 50
356.2034618358897
 51
7.5578397077424828
  0
ARC
  8
DETAIL
  6
CONTINUOUS
 62
     5
 10
238.89953181192061
 20
-248.51474676554059
 30
0.0
 40
5.5954953208949751
 50
232.8255075197068
 51
357.69300473156773
  0
ARC
  8
DETAIL
  6
CONTINUOUS
 62
     5
 10
-99.447153569255008
 20
-308.73611847777943
 30
0.0
 40
349.52997123019168
 50
354.61101532845572
 51
7.7726383206915903
  0
ARC
  8
DETAIL
  6
CONTINUOUS
 62
     5
 10
1716.9037130883121
 20
-358.95966316180261
 30
0.0
 40
1477.8924443615881
 50
179.32983701656141
 51
180.52897064634249
  0
ARC
  8
DETAIL
  6
CONTINUOUS
 62
     5
 10
-115285.7302125822
 20
-1033.0571632714709
 30
0.0
 40
115536.2745847465
 50
0.3275282793266358
 51
0.3394420359521747
  0
ARC
  8
DETAIL
  6
CONTINUOUS
 62
     5
 10
240.18737935201079
 20
-347.0413061496219
 30
0.0
 40
9.9691097216585725
 50
34.159426697569373
 51
165.74312279252479
  0
ARC
  8
DETAIL
  6
CONTINUOUS
 62
     5
 10
251.22880614528279
 20
-339.17363408836673
 30
0.0
 40
3.5985399992470009
 50
219.1108594718429
 51
341.7015733362536
  0
ARC
  8
DETAIL
  6
CONTINUOUS
 62
     5
 10
238.96359935912079
 20
-348.83895035764198
 30
0.0
 40
7.2215652703392097
 50
36.92441541302744
 51
169.13209275438771
  0
ARC
  8
DETAIL
  6
CONTINUOUS
 62
     5
 10
250.0087598401274
 20
-340.78441021144681
 30
0.0
 40
6.4500993837456004
 50
215.1789144603492
 51
338.0580942228807
  0
LINE
  8
DETAIL
  6
CONTINUOUS
 62
     5
 10
235.51848483245129
 20
-252.97323184556299
 30
0.0
 11
227.30897015105671
 21
-243.74026539131609
 31
0.0
  0
ARC
  8
DETAIL
  6
CONTINUOUS
 62
     5
 10
677.59504962251003
 20
-207.6660457852347
 30
0.0
 40
433.99831914708511
 50
185.58539290857851
 51
186.9500583118805
  0
ARC
  8
DETAIL
  6
CONTINUOUS
 62
     5
 10
150.6807405661184
 20
34.753592182973023
 30
0.0
 40
171.8763589078626
 50
94.294371022024023
 51
159.67382594090569
  0
ARC
  8
DETAIL
  6
CONTINUOUS
 62
     5
 10
5.8451600028674866
 20
14.88252529893947
 30
0.0
 40
232.3727786944344
 50
44.165204398792667
 51
55.395830349608467
  0
ARC
  8
DETAIL
  6
CONTINUOUS
 62
     5
 10
6.8733767464127604
 20
4.3205267703625054
 30
0.0
 40
238.95787336344401
 50
343.53092954347352
 51
44.712340296676103
  0
ARC
  8
DETAIL
  6
CONTINUOUS
 62
     5
 10
231.1004937368634
 20
-61.75062991450698
 30
0.0
 40
5.2032562069896748
 50
210.3979048580635
 51
341.24626079558283
  0
ARC
  8
DETAIL
  6
CONTINUOUS
 62
     5
 10
173.27820073183099
 20
-77.887397231005551
 30
0.0
 40
55.01731470212205
 50
14.20833027243332
 51
61.245894466495841
  0
ARC
  8
DETAIL
  6
CONTINUOUS
 62
     5
 10
211.79939704557361
 20
-1.204252539750428
 30
0.0
 40
30.898542575343409
 50
202.33649585500581
 51
247.0362408827919
  0
ARC
  8
DETAIL
  6
CONTINUOUS
 62
     5
 10
152.42099655147101
 20
36.332416879114021
 30
0.0
 40
24.230891405118129
 50
205.4051199861953
 51
273.02821187249742
  0
ARC
  8
DETAIL
  6
CONTINUOUS
 62
     5
 10
119.7642612051804
 20
21.138235677184468
 30
0.0
 40
11.78983783891786
 50
24.018011323470979
 51
140.8858771761526
  0
ARC
  8
DETAIL
  6
CONTINUOUS
 62
     5
 10
92.462539469466748
 20
43.724804152607987
 30
0.0
 40
23.644358222150171
 50
277.75801647880672
 51
320.15657054192599
  0
ARC
  8
DETAIL
  6
CONTINUOUS
 62
     5
 10
139.88246620528841
 20
-34.037385721721819
 30
0.0
 40
48.196223555691738
 50
25.95034436744243
 51
73.338596010824219
  0
ARC
  8
DETAIL
  6
CONTINUOUS
 62
     5
 10
-47.971814564247317
 20
-147.42029223659529
 30
0.0
 40
174.53208415569819
 50
8.9050022295752456
 51
34.621737305276667
  0
ARC
  8
DETAIL
  6
CONTINUOUS
 62
     5
 10
-47.530766616552199
 20
-147.55831692548639
 30
0.0
 40
174.0745350268019
 50
334.52852508372109
 51
1.7728834018148949
  0
ARC
  8
DETAIL
  6
CONTINUOUS
 62
     5
 10
9.0983305484824086
 20
-10.417508250872229
 30
0.0
 40
234.6292017298687
 50
282.77800382116368
 51
295.36880786720178
  0
ARC
  8
DETAIL
  6
CONTINUOUS
 62
     5
 10
3.621395918202456
 20
4.4174467740705268
 30
0.0
 40
250.31659356572541
 50
225.81665915016171
 51
283.24957196962089
  0
ARC
  8
DETAIL
  6
CONTINUOUS
 62
     5
 10
-169.34418519468269
 20
-168.76561199564119
 30
0.0
 40
4.7208717753714504
 50
78.356172957534255
 51
191.64382704207671
  0
ARC
  8
DETAIL
  6
CONTINUOUS
 62
     5
 10
-150.77498239675521
 20
-121.8334543174448
 30
0.0
 40
44.221033360121957
 50
257.05504848134052
 51
304.77478144463339
  0
ARC
  8
DETAIL
  6
CONTINUOUS
 62
     5
 10
-106.9426118147821
 20
-182.821532077819
 30
0.0
 40
30.898542575343399
 50
82.336495855023216
 51
127.03624088281281
  0
ARC
  8
DETAIL
  6
CONTINUOUS
 62
     5
 10
-44.745702277536097
 20
-150.16666352327121
 30
0.0
 40
24.230891405118129
 50
85.405119986223696
 51
153.02821187257911
  0
ARC
  8
DETAIL
  6
CONTINUOUS
 62
     5
 10
-41.575881514965658
 20
-114.2880105077529
 30
0.0
 40
11.78983783891786
 50
264.01801132349641
 51
20.885877176113642
  0
ARC
  8
DETAIL
  6
CONTINUOUS
 62
     5
 10
-8.3057937865533233
 20
-101.9274297365244
 30
0.0
 40
23.702856008290251
 50
158.14581637702909
 51
200.13010958740691
  0
ARC
  8
DETAIL
  6
CONTINUOUS
 62
     5
 10
-99.418473816065699
 20
-104.12307641693771
 30
0.0
 40
48.196223555691731
 50
265.95034436745948
 51
313.3385960108526
  0
ARC
  8
DETAIL
  6
CONTINUOUS
 62
     5
 10
-102.9970102203733
 20
116.0922492623753
 30
0.0
 40
175.57286075167841
 50
214.64782658913151
 51
272.39689734939708
  0
ARC
  8
DETAIL
  6
CONTINUOUS
 62
     5
 10
-0.2553949199518684
 20
-4.4028202241619852
 30
0.0
 40
248.04203940170359
 50
134.93324115892699
 51
175.21833674639859
  0
ARC
  8
DETAIL
  6
CONTINUOUS
 62
     5
 10
0.1143093349910487
 20
-2.8992260425429208
 30
0.0
 40
247.2316303937663
 50
104.81137239471811
 51
133.84718220952769
  0
ARC
  8
DETAIL
  6
CONTINUOUS
 62
     5
 10
-62.072632662777323
 20
231.0142133605043
 30
0.0
 40
5.2032562069896748
 50
330.3979048580706
 51
101.2462607955438
  0
ARC
  8
DETAIL
  6
CONTINUOUS
 62
     5
 10
-19.186635729214689
 20
189.0070223713283
 30
0.0
 40
55.01731470212205
 50
134.20833027242841
 51
181.2458944664773
  0
ARC
  8
DETAIL
  6
CONTINUOUS
 62
     5
 10
-104.8567852307915
 20
184.02578461756929
 30
0.0
 40
30.898542575343409
 50
322.33649585505509
 51
7.0362408827961236
  0
ARC
  8
DETAIL
  6
CONTINUOUS
 62
     5
 10
-107.6752942739349
 20
113.83424664415701
 30
0.0
 40
24.230891405118129
 50
325.4051199861957
 51
33.028211872545747
  0
ARC
  8
DETAIL
  6
CONTINUOUS
 62
     5
 10
-77.299001210495177
 20
93.622114422785273
 30
0.0
 40
12.265425352986171
 50
148.24825922764111
 51
241.05859191651311
  0
ARC
  8
DETAIL
  6
CONTINUOUS
 62
     5
 10
-40.463992389222767
 20
138.16046213865931
 30
0.0
 40
48.196223555691738
 50
145.9503443674262
 51
193.33859601078851
  0
ARC
  8
DETAIL
  6
CONTINUOUS
 62
     5
 10
77.015839329593092
 20
-144.1975285665732
 30
0.0
 40
44.702619493295153
 50
52.585171484828138
 51
80.917786591415222
  0
ARC
  8
DETAIL
  6
CONTINUOUS
 62
     5
 10
68.893059378379292
 20
-160.95372165259079
 30
0.0
 40
53.964473774061453
 50
47.009059725171419
 51
54.062274182338193
  0
ARC
  8
DETAIL
  6
CONTINUOUS
 62
     5
 10
88.675522652885775
 20
-54.285802704766517
 30
0.0
 40
46.000457511118043
 50
211.22506046199041
 51
264.25674782727259
  0
ARC
  8
DETAIL
  6
CONTINUOUS
 62
     5
 10
85.477958967434461
 20
-59.624528674061537
 30
0.0
 40
48.991410063512348
 50
219.70894722327671
 51
256.28096744310841
  0
ARC
  8
DETAIL
  6
CONTINUOUS
 62
     5
 10
713.59283533989048
 20
315.41112599551428
 30
0.0
 40
772.08160098492067
 50
208.6297133289365
 51
210.64502408396609
  0
ARC
  8
DETAIL
  6
CONTINUOUS
 62
     5
 10
160.91228527673411
 20
1.8924558409036081
 30
0.0
 40
146.32806343436889
 50
204.60907544786619
 51
219.3686512360014
  0
ARC
  8
DETAIL
  6
CONTINUOUS
 62
     5
 10
-279.13706260462448
 20
267.66133763399853
 30
0.0
 40
9.3652351489209718
 50
284.00003583033401
 51
315.03620762772539
  0
ARC
  8
DETAIL
  6
CONTINUOUS
 62
     5
 10
-268.64057770832989
 20
278.15782251699733
 30
0.0
 40
9.36523513897302
 50
314.963792344208
 51
345.99996417353321
  0
ARC
  8
DETAIL
  6
CONTINUOUS
 62
     5
 10
-265.47509801960888
 20
276.36555837228792
 30
0.0
 40
9.3652351360048645
 50
314.96379233916588
 51
345.99996417857648
  0
ARC
  8
DETAIL
  6
CONTINUOUS
 62
     5
 10
-277.34479846165021
 20
264.49585794548392
 30
0.0
 40
9.3652351473259383
 50
284.00003583413661
 51
315.0362076393734
  0
ARC
  8
DETAIL
  6
CONTINUOUS
 62
     5
 10
277.17858243618628
 20
267.66133763399858
 30
0.0
 40
9.3652351489209718
 50
224.96379237227461
 51
255.99996416966599
  0
ARC
  8
DETAIL
  6
CONTINUOUS
 62
     5
 10
266.68209753989169
 20
278.15782251699733
 30
0.0
 40
9.36523513897302
 50
194.00003582646681
 51
225.0362076557914
  0
ARC
  8
DETAIL
  6
CONTINUOUS
 62
     5
 10
263.51661785117068
 20
276.36555837228792
 30
0.0
 40
9.3652351360048645
 50
194.0000358214227
 51
225.0362076608335
  0
ARC
  8
DETAIL
  6
CONTINUOUS
 62
     5
 10
275.38631829321167
 20
264.49585794548392
 30
0.0
 40
9.3652351473259383
 50
224.96379236062589
 51
255.99996416586299
  0
ARC
  8
DETAIL
  6
CONTINUOUS
 62
     5
 10
-279.13706260462448
 20
-267.66133763399853
 30
0.0
 40
9.3652351489209718
 50
44.963792372274582
 51
75.999964169666029
  0
ARC
  8
DETAIL
  6
CONTINUOUS
 62
     5
 10
-268.64057770832989
 20
-278.15782251699733
 30
0.0
 40
9.36523513897302
 50
14.000035826466769
 51
45.036207655791273
  0
ARC
  8
DETAIL
  6
CONTINUOUS
 62
     5
 10
-265.47509801960888
 20
-276.36555837228792
 30
0.0
 40
9.3652351360048645
 50
14.00003582142269
 51
45.036207660833483
  0
ARC
  8
DETAIL
  6
CONTINUOUS
 62
     5
 10
-277.34479846165021
 20
-264.49585794548392
 30
0.0
 40
9.3652351473259383
 50
44.963792360626449
 51
75.999964165863403
  0
ARC
  8
DETAIL
  6
CONTINUOUS
 62
     5
 10
277.17858243618628
 20
-267.66133763399858
 30
0.0
 40
9.3652351489209718
 50
104.000035830334
 51
135.03620762772539
  0
ARC
  8
DETAIL
  6
CONTINUOUS
 62
     5
 10
266.68209753989169
 20
-278.15782251699733
 30
0.0
 40
9.36523513897302
 50
134.963792344208
 51
165.99996417353319
  0
ARC
  8
DETAIL
  6
CONTINUOUS
 62
     5
 10
263.51661785117068
 20
-276.36555837228792
 30
0.0
 40
9.3652351360048645
 50
134.9637923391665
 51
165.9999641785765
  0
ARC
  8
DETAIL
  6
CONTINUOUS
 62
     5
 10
275.38631829321167
 20
-264.49585794548392
 30
0.0
 40
9.3652351473259383
 50
104.0000358341366
 51
135.0362076393736
  0
ARC
  8
DETAIL
  6
CONTINUOUS
 62
     5
 10
68.893059378378894
 20
-160.95372165259141
 30
0.0
 40
53.964473774062142
 50
57.854157898107253
 51
84.719913332960132
  0
ENDSEC
  0
EOF
