  0
SECTION
  2
HEADER
  9
$ACADVER
  1
AC1009
  9
$DWGCODEPAGE
  3
dos932
  9
$INSBASE
 10
0.0
 20
0.0
 30
0.0
  9
$EXTMIN
 10
-488.53452917949289
 20
-438.99534961557401
 30
-0.0015258207003583
  9
$EXTMAX
 10
1065.440380265283
 20
679.00086261681281
 30
0.0000000349246037
  9
$LIMMIN
 10
-2970.0
 20
-2100.0
  9
$LIMMAX
 10
2970.0
 20
2100.0
  9
$ORTHOMODE
 70
     1
  9
$REGENMODE
 70
     1
  9
$FILLMODE
 70
     1
  9
$QTEXTMODE
 70
     0
  9
$MIRRTEXT
 70
     0
  9
$LTSCALE
 40
20.0
  9
$ATTMODE
 70
     1
  9
$TEXTSIZE
 40
64.0
  9
$TRACEWID
 40
0.05
  9
$TEXTSTYLE
  7
STANDARD
  9
$CLAYER
  8
SIZE
  9
$CELTYPE
  6
CONTINUOUS
  9
$CECOLOR
 62
     7
  9
$DIMSCALE
 40
1.0
  9
$DIMASZ
 40
12.0
  9
$DIMEXO
 40
20.0
  9
$DIMDLI
 40
200.0
  9
$DIMRND
 40
0.0
  9
$DIMDLE
 40
0.0
  9
$DIMEXE
 40
20.0
  9
$DIMTP
 40
0.0
  9
$DIMTM
 40
0.0
  9
$DIMTXT
 40
64.0
  9
$DIMCEN
 40
0.09
  9
$DIMTSZ
 40
0.0
  9
$DIMTOL
 70
     0
  9
$DIMLIM
 70
     0
  9
$DIMTIH
 70
     0
  9
$DIMTOH
 70
     0
  9
$DIMSE1
 70
     0
  9
$DIMSE2
 70
     0
  9
$DIMTAD
 70
     1
  9
$DIMZIN
 70
     8
  9
$DIMBLK
  1

  9
$DIMASO
 70
     1
  9
$DIMSHO
 70
     0
  9
$DIMPOST
  1

  9
$DIMAPOST
  1

  9
$DIMALT
 70
     0
  9
$DIMALTD
 70
     2
  9
$DIMALTF
 40
25.399999999999999
  9
$DIMLFAC
 40
1.0
  9
$DIMTOFL
 70
     1
  9
$DIMTVP
 40
0.0
  9
$DIMTIX
 70
     1
  9
$DIMSOXD
 70
     0
  9
$DIMSAH
 70
     0
  9
$DIMBLK1
  1

  9
$DIMBLK2
  1

  9
$DIMSTYLE
  2
STANDARD
  9
$DIMCLRD
 70
     7
  9
$DIMCLRE
 70
     7
  9
$DIMCLRT
 70
     7
  9
$DIMTFAC
 40
1.0
  9
$DIMGAP
 40
25.0
  9
$LUNITS
 70
     2
  9
$LUPREC
 70
     4
  9
$SKETCHINC
 40
0.1
  9
$FILLETRAD
 40
3.0
  9
$AUNITS
 70
     1
  9
$AUPREC
 70
     3
  9
$MENU
  1
ACAD
  9
$ELEVATION
 40
0.0
  9
$PELEVATION
 40
0.0
  9
$THICKNESS
 40
0.0
  9
$LIMCHECK
 70
     0
  9
$CHAMFERA
 40
0.0
  9
$CHAMFERB
 40
0.0
  9
$SKPOLY
 70
     0
  9
$TDCREATE
 40
2453019.62301037
  9
$TDUPDATE
 40
2458949.455768889
  9
$TDINDWG
 40
1.7138470023
  9
$TDUSRTIMER
 40
1.7138470023
  9
$USRTIMER
 70
     1
  9
$ANGBASE
 50
0.0
  9
$ANGDIR
 70
     0
  9
$PDMODE
 70
     3
  9
$PDSIZE
 40
-2.0
  9
$PLINEWID
 40
0.0
  9
$SPLFRAME
 70
     0
  9
$SPLINETYPE
 70
     6
  9
$SPLINESEGS
 70
     8
  9
$SURFTAB1
 70
     6
  9
$SURFTAB2
 70
     6
  9
$SURFTYPE
 70
     6
  9
$SURFU
 70
     6
  9
$SURFV
 70
     6
  9
$UCSNAME
  2

  9
$UCSORG
 10
0.0
 20
0.0
 30
0.0
  9
$UCSXDIR
 10
1.0
 20
0.0
 30
0.0
  9
$UCSYDIR
 10
0.0
 20
1.0
 30
0.0
  9
$PUCSNAME
  2

  9
$PUCSORG
 10
0.0
 20
0.0
 30
0.0
  9
$PUCSXDIR
 10
1.0
 20
0.0
 30
0.0
  9
$PUCSYDIR
 10
0.0
 20
1.0
 30
0.0
  9
$USERI1
 70
     0
  9
$USERI2
 70
     0
  9
$USERI3
 70
     0
  9
$USERI4
 70
     0
  9
$USERI5
 70
     0
  9
$USERR1
 40
20.0
  9
$USERR2
 40
0.0
  9
$USERR3
 40
0.0
  9
$USERR4
 40
0.0
  9
$USERR5
 40
0.0
  9
$WORLDVIEW
 70
     1
  9
$SHADEDGE
 70
     3
  9
$SHADEDIF
 70
    70
  9
$TILEMODE
 70
     1
  9
$MAXACTVP
 70
    48
  9
$PINSBASE
 10
0.0
 20
0.0
 30
0.0
  9
$PLIMCHECK
 70
     0
  9
$PEXTMIN
 10
-100000000000000000000.0
 20
-100000000000000000000.0
 30
-100000000000000000000.0
  9
$PEXTMAX
 10
100000000000000000000.0
 20
100000000000000000000.0
 30
100000000000000000000.0
  9
$PLIMMIN
 10
0.0
 20
0.0
  9
$PLIMMAX
 10
12.0
 20
9.0
  9
$UNITMODE
 70
     0
  9
$VISRETAIN
 70
     0
  9
$PLINEGEN
 70
     0
  9
$PSLTSCALE
 70
     0
  9
$TREEDEPTH
 70
  3020
  9
$ATTDIA
 70
     0
  9
$ATTREQ
 70
     1
  9
$BLIPMODE
 70
     1
  9
$COORDS
 70
     1
  9
$DRAGMODE
 70
     2
  9
$OSMODE
 70
     0
  9
$HANDLING
 70
     0
  9
$HANDSEED
  5
FADB
  0
ENDSEC
  0
SECTION
  2
TABLES
  0
TABLE
  2
LTYPE
 70
     2
  0
LTYPE
  2
CONTINUOUS
 70
     0
  3
実線
 72
    65
 73
     0
 40
0.0
  0
LTYPE
  2
DASHDOT
 70
     0
  3
____ _ ____ _ ____ _ ____ _ ____ _ ____ _ ____
 72
    65
 73
     4
 40
5.5
 49
4.0
 49
-0.6
 49
0.3
 49
-0.6
  0
ENDTAB
  0
TABLE
  2
LAYER
 70
    12
  0
LAYER
  2
0
 70
     0
 62
     7
  6
CONTINUOUS
  0
LAYER
  2
BASIS
 70
     0
 62
     6
  6
DASHDOT
  0
LAYER
  2
OUTLINE
 70
     0
 62
     3
  6
CONTINUOUS
  0
LAYER
  2
DETAIL
 70
     0
 62
     5
  6
CONTINUOUS
  0
LAYER
  2
SIZE
 70
     0
 62
    30
  6
CONTINUOUS
  0
LAYER
  2
ARRANGE
 70
     0
 62
     1
  6
CONTINUOUS
  0
LAYER
  2
DEFPOINTS
 70
     0
 62
     7
  6
CONTINUOUS
  0
LAYER
  2
ETC
 70
     0
 62
    61
  6
CONTINUOUS
  0
LAYER
  2
FIX
 70
     0
 62
    11
  6
CONTINUOUS
  0
LAYER
  2
NOTE
 70
     0
 62
     4
  6
CONTINUOUS
  0
LAYER
  2
SERVICESPACE
 70
    64
 62
     2
  6
DASHDOT
  0
LAYER
  2
SYMBOLLINE
 70
    64
 62
    15
  6
CONTINUOUS
  0
ENDTAB
  0
TABLE
  2
STYLE
 70
     1
  0
STYLE
  2
STANDARD
 70
     0
 40
64.0
 41
0.9
 50
0.0
 71
     0
 42
64.0
  3
SIMPLEX.shx
  4
BIGFONT.shx
  0
ENDTAB
  0
TABLE
  2
APPID
 70
    19
  0
APPID
  2
ACAD
 70
     0
  0
APPID
  2
AUTOCAD_POSTSCRIPT_FIGURE
 70
     0
  0
APPID
  2
ACAD_EXEMPT_FROM_CAD_STANDARDS
 70
     0
  0
APPID
  2
ACAD_PSEXT
 70
     0
  0
APPID
  2
ACAUTHENVIRON
 70
     0
  0
APPID
  2
GENIUS_GENOENT_13
 70
     0
  0
APPID
  2
GENIUS_GENCFG_13
 70
     0
  0
APPID
  2
GENIUS_GENCFG0_13
 70
     0
  0
APPID
  2
GENIUS_GENCFG1_13
 70
     0
  0
APPID
  2
GENIUS_GENCFG2_13
 70
     0
  0
APPID
  2
GENIUS_GENCFG3_13
 70
     0
  0
APPID
  2
GENIUS_GENCFG4_13
 70
     0
  0
APPID
  2
GENIUS_GEVCFG0_13
 70
     0
  0
APPID
  2
CONTENTBLOCKICON
 70
     0
  0
APPID
  2
CONTENTBLOCKDESCRIPTION
 70
     0
  0
APPID
  2
ACAD_NAV_VCDISPLAY
 70
     0
  0
APPID
  2
ACAD_MLEADERVER
 70
     0
  0
APPID
  2
ACDBDYNAMICBLOCKTRUENAME
 70
     0
  0
APPID
  2
ACDBDYNAMICBLOCKGUID
 70
     0
  0
ENDTAB
  0
TABLE
  2
DIMSTYLE
 70
     1
  0
DIMSTYLE
  2
STANDARD
 70
     0
  3

  4

  5
_ORIGIN
  6

  7

 40
1.0
 41
12.0
 42
20.0
 43
200.0
 44
20.0
 45
0.0
 46
0.0
 47
0.0
 48
0.0
140
64.0
141
0.09
142
0.0
143
25.399999999999999
144
1.0
145
0.0
146
1.0
147
25.0
 71
     0
 72
     0
 73
     0
 74
     0
 75
     0
 76
     0
 77
     1
 78
     8
170
     0
171
     2
172
     1
173
     0
174
     1
175
     0
176
     7
177
     7
178
     7
  0
ENDTAB
  0
TABLE
  2
VIEW
 70
     1
  0
VIEW
  2
ALL
 70
     0
 40
4282.6198079999986
 10
0.0
 20
41.309904000000003
 41
5940.0
 11
0.0
 21
0.0
 31
1.0
 12
0.0
 22
0.0
 32
0.0
 42
50.0
 43
0.0
 44
0.0
 50
0.0
 71
     0
  0
ENDTAB
  0
TABLE
  2
UCS
 70
     0
  0
ENDTAB
  0
TABLE
  2
VPORT
 70
     1
  0
VPORT
  2
*ACTIVE
 70
     0
 10
0.0
 20
0.0
 11
1.0
 21
1.0
 12
288.45292554289529
 22
120.0027565006194
 13
0.0
 23
0.0
 14
1.0
 24
1.0
 15
0.0
 25
0.0
 16
0.0
 26
0.0
 36
1.0
 17
0.0
 27
0.0
 37
0.0
 40
1125.4083418162479
 41
1.747787610619469
 42
50.0
 43
0.0
 44
0.0
 50
0.0
 51
0.0
 71
     0
 72
  1000
 73
     1
 74
     3
 75
     0
 76
     0
 77
     0
 78
     0
  0
ENDTAB
  0
ENDSEC
  0
SECTION
  2
BLOCKS
  0
BLOCK
  8
0
  2
_ORIGIN
 70
     0
 10
0.0
 20
0.0
 30
0.0
  3
_ORIGIN
  1
_ORIGIN
  0
CIRCLE
  8
0
  6
CONTINUOUS
 62
     7
 10
0.0
 20
0.0
 30
0.0
 40
0.5
  0
LINE
  8
0
  6
CONTINUOUS
 62
     7
 10
0.0
 20
0.0
 30
0.0
 11
-1.0
 21
0.0
 31
0.0
  0
ENDBLK
  8
0
  0
ENDSEC
  0
SECTION
  2
ENTITIES
  0
POINT
  8
ARRANGE
  6
CONTINUOUS
 62
     1
 10
0.0
 20
0.0
 30
0.0
  0
CIRCLE
  8
ARRANGE
  6
CONTINUOUS
 62
     1
 10
0.0
 20
0.0
 30
0.0
 40
40.0
  0
TEXT
  8
ETC
  6
CONTINUOUS
 62
    61
 10
308.38039964551541
 20
587.96709437737286
 30
0.0
 40
64.0
  1
EWG-50ETA2-Q_4
 41
0.9
  0
TEXT
  8
ETC
  6
CONTINUOUS
 62
    61
 10
304.19440564551508
 20
470.01178436254168
 30
0.0
 40
64.0
  1
産業扇
 41
0.9
  0
TEXT
  8
ETC
  6
CONTINUOUS
 62
    61
 10
354.89580389407092
 20
361.86301147631639
 30
0.0
 40
40.0
  1
EWG-50ETA2-Q
 41
0.9
  0
TEXT
  8
NOTE
  6
CONTINUOUS
 62
     4
 10
111.20894172444881
 20
-424.37655265318767
 30
0.0
 40
64.0
  1
4-φ14
 41
0.9
  0
LINE
  8
SIZE
  6
CONTINUOUS
 62
    30
 10
-10.01615508885283
 20
323.38933764135709
 30
0.0
 11
-10.01615508885283
 21
394.6876981118553
 31
0.0
  0
LINE
  8
SIZE
  6
CONTINUOUS
 62
    30
 10
0.0
 20
328.49757673667199
 30
0.0
 11
0.0
 21
394.6876981118553
 31
0.0
  0
LINE
  8
SIZE
  6
CONTINUOUS
 62
    30
 10
-22.01615508885283
 20
374.6876981118553
 30
0.0
 11
-34.016155088852827
 21
374.6876981118553
 31
0.0
  0
LINE
  8
SIZE
  6
CONTINUOUS
 62
    30
 10
12.0
 20
374.6876981118553
 30
0.0
 11
156.28571428571431
 21
374.6876981118553
 31
0.0
  0
LINE
  8
SIZE
  6
CONTINUOUS
 62
    30
 10
-10.01615508885283
 20
374.6876981118553
 30
0.0
 11
0.0
 21
374.6876981118553
 31
0.0
  0
CIRCLE
  8
SIZE
  6
CONTINUOUS
 62
    30
 10
-10.01615508885283
 20
374.6876981118553
 30
0.0
 40
6.0
  0
LINE
  8
SIZE
  6
CONTINUOUS
 62
    30
 10
-10.01615508885283
 20
374.6876981118553
 30
0.0
 11
-22.01615508885283
 21
374.6876981118553
 31
0.0
  0
CIRCLE
  8
SIZE
  6
CONTINUOUS
 62
    30
 10
0.0
 20
374.6876981118553
 30
0.0
 40
6.0
  0
LINE
  8
SIZE
  6
CONTINUOUS
 62
    30
 10
0.0
 20
374.6876981118553
 30
0.0
 11
12.0
 21
374.6876981118553
 31
0.0
  0
TEXT
  8
SIZE
  6
CONTINUOUS
 62
    30
 10
49.0
 20
399.6876981118553
 30
0.0
 40
64.0
  1
10
 41
0.9
 72
     1
 11
90.142857142857139
 21
399.6876981118553
 31
0.0
  0
POINT
  8
DEFPOINTS
  6
CONTINUOUS
 62
    30
 10
-10.01615508885283
 20
303.38933764135709
 30
0.0
  0
POINT
  8
DEFPOINTS
  6
CONTINUOUS
 62
    30
 10
0.0
 20
308.49757673667199
 30
0.0
  0
POINT
  8
DEFPOINTS
  6
CONTINUOUS
 62
    30
 10
0.0
 20
374.6876981118553
 30
0.0
  0
LINE
  8
SIZE
  6
CONTINUOUS
 62
    30
 10
-20.032310177705771
 20
313.37318255250398
 30
0.0
 11
-20.032310177705771
 21
394.6876981118553
 31
0.0
  0
LINE
  8
SIZE
  6
CONTINUOUS
 62
    30
 10
-10.01615508885283
 20
323.38933764135709
 30
0.0
 11
-10.01615508885283
 21
394.6876981118553
 31
0.0
  0
LINE
  8
SIZE
  6
CONTINUOUS
 62
    30
 10
1.983844911147173
 20
374.6876981118553
 30
0.0
 11
13.98384491114717
 21
374.6876981118553
 31
0.0
  0
LINE
  8
SIZE
  6
CONTINUOUS
 62
    30
 10
-32.032310177705767
 20
374.6876981118553
 30
0.0
 11
-295.72794123272757
 21
374.6876981118553
 31
0.0
  0
LINE
  8
SIZE
  6
CONTINUOUS
 62
    30
 10
-10.01615508885283
 20
374.6876981118553
 30
0.0
 11
-20.032310177705771
 21
374.6876981118553
 31
0.0
  0
CIRCLE
  8
SIZE
  6
CONTINUOUS
 62
    30
 10
-10.01615508885283
 20
374.6876981118553
 30
0.0
 40
6.0
  0
LINE
  8
SIZE
  6
CONTINUOUS
 62
    30
 10
-10.01615508885283
 20
374.6876981118553
 30
0.0
 11
1.983844911147173
 21
374.6876981118553
 31
0.0
  0
CIRCLE
  8
SIZE
  6
CONTINUOUS
 62
    30
 10
-20.032310177705771
 20
374.6876981118553
 30
0.0
 40
6.0
  0
LINE
  8
SIZE
  6
CONTINUOUS
 62
    30
 10
-20.032310177705771
 20
374.6876981118553
 30
0.0
 11
-32.032310177705767
 21
374.6876981118553
 31
0.0
  0
TEXT
  8
SIZE
  6
CONTINUOUS
 62
    30
 10
-270.72794123272752
 20
399.6876981118553
 30
0.0
 40
64.0
  1
10
 41
0.9
 72
     1
 11
-229.58508408987041
 21
399.6876981118553
 31
0.0
  0
POINT
  8
DEFPOINTS
  6
CONTINUOUS
 62
    30
 10
-20.032310177705771
 20
293.37318255250398
 30
0.0
  0
POINT
  8
DEFPOINTS
  6
CONTINUOUS
 62
    30
 10
-10.01615508885283
 20
303.38933764135709
 30
0.0
  0
POINT
  8
DEFPOINTS
  6
CONTINUOUS
 62
    30
 10
-10.01615508885283
 20
374.6876981118553
 30
0.0
  0
LINE
  8
SIZE
  6
CONTINUOUS
 62
    30
 10
18.499999999999769
 20
309.99999804575418
 30
0.0
 11
352.13545641544181
 21
309.99999804575401
 31
0.0
  0
LINE
  8
SIZE
  6
CONTINUOUS
 62
    30
 10
18.497576736672041
 20
-310.0
 30
0.0
 11
352.13545641544158
 21
-310.00000000000011
 31
0.0
  0
LINE
  8
SIZE
  6
CONTINUOUS
 62
    30
 10
332.13545641544181
 20
297.99999804575401
 30
0.0
 11
332.13545641544169
 21
-298.00000000000011
 31
0.0
  0
CIRCLE
  8
SIZE
  6
CONTINUOUS
 62
    30
 10
332.13545641544181
 20
309.99999804575401
 30
0.0
 40
6.0
  0
LINE
  8
SIZE
  6
CONTINUOUS
 62
    30
 10
332.13545641544181
 20
309.99999804575401
 30
0.0
 11
332.13545641544181
 21
297.99999804575401
 31
0.0
  0
CIRCLE
  8
SIZE
  6
CONTINUOUS
 62
    30
 10
332.13545641544169
 20
-310.00000000000011
 30
0.0
 40
6.0
  0
LINE
  8
SIZE
  6
CONTINUOUS
 62
    30
 10
332.13545641544169
 20
-310.00000000000011
 30
0.0
 11
332.13545641544169
 21
-298.00000000000011
 31
0.0
  0
TEXT
  8
SIZE
  6
CONTINUOUS
 62
    30
 10
307.13545641544181
 20
-80.859766315696021
 30
0.0
 40
64.0
  1
620
 50
90.0
 41
0.9
 72
     1
 11
307.13545641544181
 21
-6.8026234585531711
 31
0.0
  0
POINT
  8
DEFPOINTS
  6
CONTINUOUS
 62
    30
 10
-1.5000000000002269
 20
309.99999804575418
 30
0.0
  0
POINT
  8
DEFPOINTS
  6
CONTINUOUS
 62
    30
 10
-1.5024232633279551
 20
-310.0
 30
0.0
  0
POINT
  8
DEFPOINTS
  6
CONTINUOUS
 62
    30
 10
332.13545641544169
 20
-310.00000000000011
 30
0.0
  0
LINE
  8
SIZE
  6
CONTINUOUS
 62
    30
 10
35.030481073345072
 20
280.4523424878837
 30
0.0
 11
224.80384637328521
 21
280.45234248788358
 31
0.0
  0
LINE
  8
SIZE
  6
CONTINUOUS
 62
    30
 10
35.030481073345072
 20
-280.4523424878837
 30
0.0
 11
224.8038463732851
 21
-280.45234248788381
 31
0.0
  0
LINE
  8
SIZE
  6
CONTINUOUS
 62
    30
 10
204.80384637328521
 20
268.45234248788358
 30
0.0
 11
204.8038463732851
 21
-268.45234248788381
 31
0.0
  0
CIRCLE
  8
SIZE
  6
CONTINUOUS
 62
    30
 10
204.80384637328521
 20
280.45234248788358
 30
0.0
 40
6.0
  0
LINE
  8
SIZE
  6
CONTINUOUS
 62
    30
 10
204.80384637328521
 20
280.45234248788358
 30
0.0
 11
204.80384637328521
 21
268.45234248788358
 31
0.0
  0
CIRCLE
  8
SIZE
  6
CONTINUOUS
 62
    30
 10
204.8038463732851
 20
-280.45234248788381
 30
0.0
 40
6.0
  0
LINE
  8
SIZE
  6
CONTINUOUS
 62
    30
 10
204.8038463732851
 20
-280.45234248788381
 30
0.0
 11
204.8038463732851
 21
-268.45234248788381
 31
0.0
  0
TEXT
  8
SIZE
  6
CONTINUOUS
 62
    30
 10
179.8038463732851
 20
-74.05714285714285
 30
0.0
 40
64.0
  1
560
 50
90.0
 41
0.9
 72
     1
 11
179.8038463732851
 21
0.0
 31
0.0
  0
POINT
  8
DEFPOINTS
  6
CONTINUOUS
 62
    30
 10
15.03048107334507
 20
280.4523424878837
 30
0.0
  0
POINT
  8
DEFPOINTS
  6
CONTINUOUS
 62
    30
 10
15.03048107334507
 20
-280.4523424878837
 30
0.0
  0
POINT
  8
DEFPOINTS
  6
CONTINUOUS
 62
    30
 10
204.8038463732851
 20
-280.45234248788381
 30
0.0
  0
CIRCLE
  8
FIX
  6
CONTINUOUS
 62
    11
 10
0.0
 20
-280.4523424878837
 30
0.0
 40
7.0
  0
CIRCLE
  8
FIX
  6
CONTINUOUS
 62
    11
 10
0.0
 20
280.4523424878837
 30
0.0
 40
7.0
  0
LINE
  8
SIZE
  6
CONTINUOUS
 62
    30
 10
0.0
 20
328.49757673667199
 30
0.0
 11
0.0
 21
529.59874507452014
 31
0.0
  0
LINE
  8
SIZE
  6
CONTINUOUS
 62
    30
 10
-155.2504038772216
 20
250.16665507610421
 30
0.0
 11
-155.2504038772216
 21
529.59874507452014
 31
0.0
  0
LINE
  8
SIZE
  6
CONTINUOUS
 62
    30
 10
-143.2504038772216
 20
509.59874507452002
 30
0.0
 11
-12.0
 21
509.59874507452002
 31
0.0
  0
LINE
  8
SIZE
  6
CONTINUOUS
 62
    30
 10
0.0
 20
509.59874507452002
 30
0.0
 11
199.14285714285711
 21
509.59874507452002
 31
0.0
  0
CIRCLE
  8
SIZE
  6
CONTINUOUS
 62
    30
 10
-155.2504038772216
 20
509.59874507452002
 30
0.0
 40
6.0
  0
LINE
  8
SIZE
  6
CONTINUOUS
 62
    30
 10
-155.2504038772216
 20
509.59874507452002
 30
0.0
 11
-143.2504038772216
 21
509.59874507452002
 31
0.0
  0
CIRCLE
  8
SIZE
  6
CONTINUOUS
 62
    30
 10
0.0
 20
509.59874507452002
 30
0.0
 40
6.0
  0
LINE
  8
SIZE
  6
CONTINUOUS
 62
    30
 10
0.0
 20
509.59874507452002
 30
0.0
 11
-12.0
 21
509.59874507452002
 31
0.0
  0
TEXT
  8
SIZE
  6
CONTINUOUS
 62
    30
 10
37.000000000000007
 20
534.59874507452014
 30
0.0
 40
64.0
  1
155
 41
0.9
 72
     1
 11
105.5714285714286
 21
534.59874507452014
 31
0.0
  0
POINT
  8
DEFPOINTS
  6
CONTINUOUS
 62
    30
 10
0.0
 20
308.49757673667199
 30
0.0
  0
POINT
  8
DEFPOINTS
  6
CONTINUOUS
 62
    30
 10
-155.2504038772216
 20
230.16665507610421
 30
0.0
  0
POINT
  8
DEFPOINTS
  6
CONTINUOUS
 62
    30
 10
-155.2504038772216
 20
509.59874507452002
 30
0.0
  0
LINE
  8
SIZE
  6
CONTINUOUS
 62
    30
 10
0.0
 20
328.49757673667199
 30
0.0
 11
0.0
 21
609.77985092565723
 31
0.0
  0
LINE
  8
SIZE
  6
CONTINUOUS
 62
    30
 10
-326.14098328163237
 20
-28.55871865409603
 30
0.0
 11
-326.14098328163232
 21
609.77985092565723
 31
0.0
  0
LINE
  8
SIZE
  6
CONTINUOUS
 62
    30
 10
-12.0
 20
589.77985092565723
 30
0.0
 11
-314.14098328163232
 21
589.77985092565723
 31
0.0
  0
CIRCLE
  8
SIZE
  6
CONTINUOUS
 62
    30
 10
0.0
 20
589.77985092565723
 30
0.0
 40
6.0
  0
LINE
  8
SIZE
  6
CONTINUOUS
 62
    30
 10
0.0
 20
589.77985092565723
 30
0.0
 11
-12.0
 21
589.77985092565723
 31
0.0
  0
CIRCLE
  8
SIZE
  6
CONTINUOUS
 62
    30
 10
-326.14098328163232
 20
589.77985092565723
 30
0.0
 40
6.0
  0
LINE
  8
SIZE
  6
CONTINUOUS
 62
    30
 10
-326.14098328163232
 20
589.77985092565723
 30
0.0
 11
-314.14098328163232
 21
589.77985092565723
 31
0.0
  0
TEXT
  8
SIZE
  6
CONTINUOUS
 62
    30
 10
-235.75620592653041
 20
614.77985092565723
 30
0.0
 40
64.0
  1
326
 41
0.9
 72
     1
 11
-163.07049164081619
 21
614.77985092565723
 31
0.0
  0
POINT
  8
DEFPOINTS
  6
CONTINUOUS
 62
    30
 10
0.0
 20
308.49757673667199
 30
0.0
  0
POINT
  8
DEFPOINTS
  6
CONTINUOUS
 62
    30
 10
-326.14098328163237
 20
-48.558718654096033
 30
0.0
  0
POINT
  8
DEFPOINTS
  6
CONTINUOUS
 62
    30
 10
-326.14098328163232
 20
589.77985092565723
 30
0.0
  0
TEXT
  8
NOTE
  6
CONTINUOUS
 62
     4
 10
-356.65133123951978
 20
-393.39475877791119
 30
0.0
 40
64.0
  1
EL
 41
0.9
 72
     2
 11
-271.62275981094842
 21
-393.39475877791119
 31
0.0
  0
LINE
  8
SIZE
  6
CONTINUOUS
 62
    30
 10
-336.2100161550884
 20
65.305331179321513
 30
0.0
 11
-408.5136241448954
 21
65.305331179321513
 31
0.0
  0
LINE
  8
SIZE
  6
CONTINUOUS
 62
    30
 10
-336.2100161550884
 20
-65.305331179321456
 30
0.0
 11
-408.5136241448954
 21
-65.305331179321456
 31
0.0
  0
LINE
  8
SIZE
  6
CONTINUOUS
 62
    30
 10
-388.5136241448954
 20
53.305331179321513
 30
0.0
 11
-388.5136241448954
 21
-53.305331179321463
 31
0.0
  0
CIRCLE
  8
SIZE
  6
CONTINUOUS
 62
    30
 10
-388.5136241448954
 20
65.305331179321513
 30
0.0
 40
6.0
  0
LINE
  8
SIZE
  6
CONTINUOUS
 62
    30
 10
-388.5136241448954
 20
65.305331179321513
 30
0.0
 11
-388.5136241448954
 21
53.305331179321513
 31
0.0
  0
CIRCLE
  8
SIZE
  6
CONTINUOUS
 62
    30
 10
-388.5136241448954
 20
-65.305331179321456
 30
0.0
 40
6.0
  0
LINE
  8
SIZE
  6
CONTINUOUS
 62
    30
 10
-388.5136241448954
 20
-65.305331179321456
 30
0.0
 11
-388.5136241448954
 21
-53.305331179321463
 31
0.0
  0
TEXT
  8
SIZE
  6
CONTINUOUS
 62
    30
 10
-424.18029081156192
 20
-96.548571428571421
 30
0.0
 40
64.0
  1
φ131
 50
90.0
 41
0.9
 72
     1
 11
-424.18029081156192
 21
0.0
 31
0.0
  0
POINT
  8
DEFPOINTS
  6
CONTINUOUS
 62
    30
 10
-316.2100161550884
 20
65.305331179321513
 30
0.0
  0
POINT
  8
DEFPOINTS
  6
CONTINUOUS
 62
    30
 10
-316.2100161550884
 20
-65.305331179321456
 30
0.0
  0
POINT
  8
DEFPOINTS
  6
CONTINUOUS
 62
    30
 10
-388.5136241448954
 20
-65.305331179321456
 30
0.0
  0
LINE
  8
DETAIL
  6
CONTINUOUS
 62
     4
 10
-112.96436070379529
 20
-265.22683984454079
 30
0.0
 11
-107.91229474904399
 21
-261.6127937907608
 31
0.0
  0
LINE
  8
DETAIL
  6
CONTINUOUS
 62
     4
 10
-107.91229474904399
 20
-261.6127937907608
 30
0.0
 11
-110.48048065745419
 21
-267.26868633127492
 31
0.0
  0
LINE
  8
DETAIL
  6
CONTINUOUS
 62
     4
 10
-107.91229474904399
 20
-261.6127937907608
 30
0.0
 11
-115.53254661220549
 21
-270.88273238505491
 31
0.0
  0
LINE
  8
NOTE
  6
CONTINUOUS
 62
     4
 10
-115.53254661220549
 20
-270.88273238505491
 30
0.0
 11
-237.27354534018281
 21
-418.97909493076509
 31
0.0
  0
LINE
  8
NOTE
  6
CONTINUOUS
 62
     4
 10
-237.27354534018281
 20
-418.97909493076509
 30
0.0
 11
-372.44103675184789
 21
-419.08367665520763
 31
0.0
  0
LINE
  8
DETAIL
  6
CONTINUOUS
 62
     4
 10
1.9466328506205171
 20
-286.35109827490191
 30
0.0
 11
-0.0000000000002274
 21
-280.45234248788341
 31
0.0
  0
LINE
  8
DETAIL
  6
CONTINUOUS
 62
     4
 10
-0.0000000000002274
 20
-280.45234248788341
 30
0.0
 11
4.6352176254299593
 21
-284.58749143984397
 31
0.0
  0
LINE
  8
DETAIL
  6
CONTINUOUS
 62
     4
 10
-0.0000000000002274
 20
-280.45234248788341
 30
0.0
 11
6.5818504760507608
 21
-290.48624722686247
 31
0.0
  0
LINE
  8
NOTE
  6
CONTINUOUS
 62
     4
 10
6.5818504760507608
 20
-290.48624722686247
 30
0.0
 11
103.877734768713
 21
-438.81195563357352
 31
0.0
  0
LINE
  8
NOTE
  6
CONTINUOUS
 62
     4
 10
103.877734768713
 20
-438.81195563357352
 30
0.0
 11
394.01203122688622
 21
-438.38012172871282
 31
0.0
  0
LINE
  8
NOTE
  6
CONTINUOUS
 62
     4
 10
18.546847567183701
 20
-280.45234248788358
 30
0.0
 11
-24.853765971884059
 21
-280.45234248788358
 31
0.0
  0
LINE
  8
NOTE
  6
CONTINUOUS
 62
     4
 10
18.546847567183701
 20
280.4523424878837
 30
0.0
 11
-24.853765971884059
 21
280.4523424878837
 31
0.0
  0
LINE
  8
OUTLINE
  6
CONTINUOUS
 62
     3
 10
-151.2439418416802
 20
261.32961628886312
 30
0.0
 11
-46.990898158752323
 21
261.32961628886312
 31
0.0
  0
LINE
  8
OUTLINE
  6
CONTINUOUS
 62
     3
 10
-301.48626817447439
 20
65.305331179321456
 30
0.0
 11
-301.48626817447439
 21
94.652665589660728
 31
0.0
  0
LINE
  8
OUTLINE
  6
CONTINUOUS
 62
     3
 10
-297.47980613893287
 20
-94.652665589660742
 30
0.0
 11
-297.47980613893287
 21
-180.5892167830084
 31
0.0
  0
LINE
  8
OUTLINE
  6
CONTINUOUS
 62
     3
 10
-155.25040387722041
 20
-261.32961628886278
 30
0.0
 11
-189.305331179321
 21
-261.32961628886278
 31
0.0
  0
LINE
  8
OUTLINE
  6
CONTINUOUS
 62
     3
 10
-3.004846526655911
 20
306.99515347334409
 30
0.0
 11
-3.004846526655911
 21
308.49757673667199
 31
0.0
  0
LINE
  8
OUTLINE
  6
CONTINUOUS
 62
     3
 10
-3.004846526655911
 20
-306.99515347334409
 30
0.0
 11
-6.4103392568658819
 21
-306.99515347334409
 31
0.0
  0
ARC
  8
OUTLINE
  6
CONTINUOUS
 62
     3
 10
-6.4103392568658819
 20
-303.38933764135692
 30
0.0
 40
3.6058158319870022
 50
180.0
 51
270.0
  0
LINE
  8
OUTLINE
  6
CONTINUOUS
 62
     3
 10
-10.016155088852431
 20
-303.38933764135692
 30
0.0
 11
-10.016155088852431
 21
-300.17892012222768
 31
0.0
  0
LINE
  8
OUTLINE
  6
CONTINUOUS
 62
     3
 10
-13.890040625439269
 20
-296.97899838449092
 30
0.0
 11
-16.426494345718769
 21
-296.97899838449092
 31
0.0
  0
ARC
  8
OUTLINE
  6
CONTINUOUS
 62
     3
 10
-16.426494345718769
 20
-293.37318255250398
 30
0.0
 40
3.6058158319870022
 50
180.0
 51
270.0
  0
LINE
  8
OUTLINE
  6
CONTINUOUS
 62
     3
 10
-20.032310177705309
 20
-293.37318255250398
 30
0.0
 11
-20.032310177705309
 21
-285.96212428776079
 31
0.0
  0
LINE
  8
OUTLINE
  6
CONTINUOUS
 62
     3
 10
-151.2439418416802
 20
-261.32961628886278
 30
0.0
 11
-151.2439418416802
 21
-262.42326332794818
 31
0.0
  0
ARC
  8
OUTLINE
  6
CONTINUOUS
 62
     3
 10
-153.24717285944919
 20
-262.42326332794818
 30
0.0
 40
2.0032310177707591
 50
180.0
 51
0.0
  0
LINE
  8
OUTLINE
  6
CONTINUOUS
 62
     3
 10
-155.25040387722041
 20
-261.32961628886278
 30
0.0
 11
-155.25040387722041
 21
-262.42326332794818
 31
0.0
  0
LINE
  8
OUTLINE
  6
CONTINUOUS
 62
     3
 10
-297.47980613893287
 20
-184.8387114935565
 30
0.0
 11
-297.47980613893287
 21
-180.5892167830084
 31
0.0
  0
LINE
  8
OUTLINE
  6
CONTINUOUS
 62
     3
 10
-46.990898158752323
 20
-261.32961628886278
 30
0.0
 11
-151.2439418416802
 21
-261.32961628886278
 31
0.0
  0
LINE
  8
OUTLINE
  6
CONTINUOUS
 62
     3
 10
-301.48626817447439
 20
-94.652665589660742
 30
0.0
 11
-297.47980613893287
 21
-94.652665589660742
 31
0.0
  0
LINE
  8
OUTLINE
  6
CONTINUOUS
 62
     3
 10
-316.2100161550884
 20
-65.305331179321456
 30
0.0
 11
-301.48626817447439
 21
-65.305331179321456
 31
0.0
  0
ARC
  8
OUTLINE
  6
CONTINUOUS
 62
     3
 10
-316.2100161550884
 20
-57.893376413570167
 30
0.0
 40
7.4119547657510338
 50
180.0
 51
270.0
  0
LINE
  8
OUTLINE
  6
CONTINUOUS
 62
     3
 10
-323.62197092083989
 20
-57.893376413570167
 30
0.0
 11
-323.62197092083989
 21
57.893376413570309
 31
0.0
  0
ARC
  8
OUTLINE
  6
CONTINUOUS
 62
     3
 10
-316.2100161550884
 20
57.893376413570309
 30
0.0
 40
7.4119547657512017
 50
90.0
 51
180.0
  0
LINE
  8
OUTLINE
  6
CONTINUOUS
 62
     3
 10
-316.2100161550884
 20
65.305331179321456
 30
0.0
 11
-301.48626817447439
 21
65.305331179321456
 31
0.0
  0
LINE
  8
OUTLINE
  6
CONTINUOUS
 62
     3
 10
-301.48626817447439
 20
-94.652650945110281
 30
0.0
 11
-301.48626817447439
 21
-65.305331179321456
 31
0.0
  0
LINE
  8
OUTLINE
  6
CONTINUOUS
 62
     3
 10
-297.47980613893287
 20
94.652665589660728
 30
0.0
 11
-301.48626817447439
 21
94.652665589660728
 31
0.0
  0
LINE
  8
OUTLINE
  6
CONTINUOUS
 62
     3
 10
-189.305331179321
 20
261.32961628886312
 30
0.0
 11
-155.25040387722041
 21
261.32961628886312
 31
0.0
  0
LINE
  8
OUTLINE
  6
CONTINUOUS
 62
     3
 10
-297.47980613893287
 20
184.83871149355679
 30
0.0
 11
-297.47980613893287
 21
180.5892167830084
 31
0.0
  0
LINE
  8
OUTLINE
  6
CONTINUOUS
 62
     3
 10
-297.47980613893287
 20
180.5892167830084
 30
0.0
 11
-297.47980613893287
 21
94.652665589660728
 31
0.0
  0
LINE
  8
OUTLINE
  6
CONTINUOUS
 62
     3
 10
-155.25040387722041
 20
262.42326332794852
 30
0.0
 11
-155.25040387722041
 21
261.32961628886312
 31
0.0
  0
ARC
  8
OUTLINE
  6
CONTINUOUS
 62
     3
 10
-153.24717285944919
 20
262.42326332794852
 30
0.0
 40
2.0032310177707591
 50
0.0
 51
180.0
  0
LINE
  8
OUTLINE
  6
CONTINUOUS
 62
     3
 10
-151.2439418416802
 20
262.42326332794852
 30
0.0
 11
-151.2439418416802
 21
261.32961628886312
 31
0.0
  0
LINE
  8
OUTLINE
  6
CONTINUOUS
 62
     3
 10
-20.032310177705309
 20
285.9612277866529
 30
0.0
 11
-20.032310177705309
 21
293.37318255250398
 31
0.0
  0
ARC
  8
OUTLINE
  6
CONTINUOUS
 62
     3
 10
-16.426494345718769
 20
293.37318255250398
 30
0.0
 40
3.605815831987115
 50
90.0
 51
180.0
  0
LINE
  8
OUTLINE
  6
CONTINUOUS
 62
     3
 10
-16.426494345718769
 20
296.97899838449121
 30
0.0
 11
-13.890040625439269
 21
296.97899838449121
 31
0.0
  0
LINE
  8
OUTLINE
  6
CONTINUOUS
 62
     3
 10
-10.016155088852431
 20
303.38933764135709
 30
0.0
 11
-10.016155088852431
 21
300.17892012222768
 31
0.0
  0
ARC
  8
OUTLINE
  6
CONTINUOUS
 62
     3
 10
-6.4103392568658819
 20
303.38933764135709
 30
0.0
 40
3.605815831987059
 50
90.0
 51
180.0
  0
LINE
  8
OUTLINE
  6
CONTINUOUS
 62
     3
 10
-6.4103392568658819
 20
306.99515347334409
 30
0.0
 11
-3.004846526655911
 21
306.99515347334409
 31
0.0
  0
LINE
  8
OUTLINE
  6
CONTINUOUS
 62
     3
 10
-3.004846526655911
 20
-308.49757673667182
 30
0.0
 11
-3.004846526655911
 21
-306.99515347334409
 31
0.0
  0
ARC
  8
OUTLINE
  6
CONTINUOUS
 62
     3
 10
-1.5024232633272729
 20
-308.49757673667182
 30
0.0
 40
1.5024232633281831
 50
180.0
 51
0.0
  0
LINE
  8
OUTLINE
  6
CONTINUOUS
 62
     3
 10
0.0
 20
-308.49757673667182
 30
0.0
 11
0.0
 21
308.49757673667199
 31
0.0
  0
ARC
  8
OUTLINE
  6
CONTINUOUS
 62
     3
 10
-1.5024232633272729
 20
308.49757673667199
 30
0.0
 40
1.5024232633281831
 50
0.0
 51
180.0
  0
LINE
  8
DETAIL
  6
CONTINUOUS
 62
     5
 10
-3.0048465266561379
 20
-306.99515347334409
 30
0.0
 11
-6.4103392568662798
 21
-306.99515347334409
 31
0.0
  0
LINE
  8
DETAIL
  6
CONTINUOUS
 62
     5
 10
-5.1082390953152981
 20
-303.82456339745249
 30
0.0
 11
-3.0048465266561379
 21
-303.82456339745249
 31
0.0
  0
LINE
  8
DETAIL
  6
CONTINUOUS
 62
     5
 10
-13.89004062544012
 20
-296.97899838449092
 30
0.0
 11
-16.42649434571922
 21
-296.97899838449092
 31
0.0
  0
LINE
  8
DETAIL
  6
CONTINUOUS
 62
     5
 10
-20.032310177706449
 20
-291.97092084006448
 30
0.0
 11
-20.533117932148851
 21
-291.97092084006448
 31
0.0
  0
LINE
  8
DETAIL
  6
CONTINUOUS
 62
     5
 10
-14.52342487883703
 20
-267.11244612600967
 30
0.0
 11
-18.08258346961242
 21
-267.11244612600967
 31
0.0
  0
LINE
  8
DETAIL
  6
CONTINUOUS
 62
     5
 10
-14.52342487883703
 20
-264.22103120782458
 30
0.0
 11
-18.08258346961242
 21
-264.22103120782458
 31
0.0
  0
LINE
  8
DETAIL
  6
CONTINUOUS
 62
     5
 10
-14.52342487883703
 20
-261.32961628886278
 30
0.0
 11
-189.3053311793218
 21
-261.32961628886278
 31
0.0
  0
LINE
  8
DETAIL
  6
CONTINUOUS
 62
     5
 10
-189.3053311793218
 20
-257.08012157831439
 30
0.0
 11
-14.52342487883703
 21
-257.08012157831439
 31
0.0
  0
LINE
  8
DETAIL
  6
CONTINUOUS
 62
     5
 10
-5.1082390953152981
 20
-254.24712510435671
 30
0.0
 11
-3.0048465266561379
 21
-254.24712510435671
 31
0.0
  0
LINE
  8
DETAIL
  6
CONTINUOUS
 62
     5
 10
-6.4103392568662798
 20
-242.91513920852569
 30
0.0
 11
-3.0048465266561379
 21
-242.91513920852569
 31
0.0
  0
LINE
  8
DETAIL
  6
CONTINUOUS
 62
     5
 10
-14.52342487883703
 20
-230.16665507610421
 30
0.0
 11
-189.3053311793218
 21
-230.16665507610421
 31
0.0
  0
LINE
  8
DETAIL
  6
CONTINUOUS
 62
     5
 10
-14.52342487883703
 20
-213.16867623313419
 30
0.0
 11
-10.01615508885328
 21
-213.16867623313419
 31
0.0
  0
LINE
  8
DETAIL
  6
CONTINUOUS
 62
     5
 10
-324.12277867528292
 20
-43.870759289176007
 30
0.0
 11
-324.12277867528292
 21
-53.285945072697807
 31
0.0
  0
LINE
  8
DETAIL
  6
CONTINUOUS
 62
     5
 10
-323.62197092084028
 20
-57.893376413570167
 30
0.0
 11
-323.62197092084028
 21
57.893376413570309
 31
0.0
  0
LINE
  8
DETAIL
  6
CONTINUOUS
 62
     5
 10
-16.42649434571922
 20
-201.1284412186196
 30
0.0
 11
-13.021001615509251
 21
-201.1284412186196
 31
0.0
  0
LINE
  8
DETAIL
  6
CONTINUOUS
 62
     5
 10
-301.4862681744753
 20
-94.652650945110281
 30
0.0
 11
-301.4862681744753
 21
94.652665589660728
 31
0.0
  0
LINE
  8
DETAIL
  6
CONTINUOUS
 62
     5
 10
-300.48465266558992
 20
-95.153473344103304
 30
0.0
 11
-300.48465266558992
 21
-94.652665589660742
 31
0.0
  0
LINE
  8
DETAIL
  6
CONTINUOUS
 62
     5
 10
-297.47980613893412
 20
184.83871149355679
 30
0.0
 11
-297.47980613893412
 21
180.5892167830084
 31
0.0
  0
LINE
  8
DETAIL
  6
CONTINUOUS
 62
     5
 10
-297.47980613893412
 20
180.5892167830084
 30
0.0
 11
-297.47980613893412
 21
-180.5892167830084
 31
0.0
  0
LINE
  8
DETAIL
  6
CONTINUOUS
 62
     5
 10
-297.47980613893412
 20
-184.8387114935565
 30
0.0
 11
-297.47980613893412
 21
-180.5892167830084
 31
0.0
  0
LINE
  8
DETAIL
  6
CONTINUOUS
 62
     5
 10
-259.41841680129272
 20
-180.5892167830084
 30
0.0
 11
-259.41841680129272
 21
180.5892167830084
 31
0.0
  0
LINE
  8
DETAIL
  6
CONTINUOUS
 62
     5
 10
-256.41357027463692
 20
85.638044237492409
 30
0.0
 11
-256.41357027463692
 21
-85.638044237492295
 31
0.0
  0
LINE
  8
DETAIL
  6
CONTINUOUS
 62
     5
 10
-250.48456394414629
 20
47.01750333473592
 30
0.0
 11
-249.90306946688241
 21
48.0246813145734
 31
0.0
  0
LINE
  8
DETAIL
  6
CONTINUOUS
 62
     5
 10
-249.90306946688241
 20
61.045682930082421
 30
0.0
 11
-249.90306946688241
 21
48.0246813145734
 31
0.0
  0
LINE
  8
DETAIL
  6
CONTINUOUS
 62
     5
 10
-249.90306946688241
 20
-48.024681314573172
 30
0.0
 11
-249.90306946688241
 21
-61.045682930082179
 31
0.0
  0
LINE
  8
DETAIL
  6
CONTINUOUS
 62
     5
 10
-246.69789983844939
 20
-57.790432526205002
 30
0.0
 11
-246.69789983844939
 21
-51.279931718450612
 31
0.0
  0
LINE
  8
DETAIL
  6
CONTINUOUS
 62
     5
 10
-246.69789983844939
 20
51.279931718450712
 30
0.0
 11
-246.69789983844939
 21
57.790432526205109
 31
0.0
  0
LINE
  8
DETAIL
  6
CONTINUOUS
 62
     5
 10
-250.48456394414629
 20
-47.01750333473592
 30
0.0
 11
-249.90306946688241
 21
-48.024681314573172
 31
0.0
  0
LINE
  8
DETAIL
  6
CONTINUOUS
 62
     5
 10
-216.34894991922491
 20
80.02054194993184
 30
0.0
 11
-216.34894991922491
 21
-80.020541949931626
 31
0.0
  0
LINE
  8
DETAIL
  6
CONTINUOUS
 62
     5
 10
-250.48456394414629
 20
-62.052860910696147
 30
0.0
 11
-249.90306946688241
 21
-61.045682930082179
 31
0.0
  0
LINE
  8
DETAIL
  6
CONTINUOUS
 62
     5
 10
-297.47980613893412
 20
-95.153473344103304
 30
0.0
 11
-300.48465266558992
 21
-95.153473344103304
 31
0.0
  0
LINE
  8
DETAIL
  6
CONTINUOUS
 62
     5
 10
-301.4862681744753
 20
-94.652665589660742
 30
0.0
 11
-297.47980613893412
 21
-94.652665589660742
 31
0.0
  0
LINE
  8
DETAIL
  6
CONTINUOUS
 62
     5
 10
-162.918311368399
 20
10.50984111710568
 30
0.0
 11
-160.57602399251141
 21
12.85210558550307
 31
0.0
  0
LINE
  8
DETAIL
  6
CONTINUOUS
 62
     5
 10
-256.41357027463692
 20
-80.020710173197571
 30
0.0
 11
-216.34894991922491
 21
-80.020710173197571
 31
0.0
  0
LINE
  8
DETAIL
  6
CONTINUOUS
 62
     5
 10
-256.41357027463692
 20
-68.280494395561618
 30
0.0
 11
-216.34894991922491
 21
-68.280494395561618
 31
0.0
  0
LINE
  8
DETAIL
  6
CONTINUOUS
 62
     5
 10
-316.21001615508919
 20
-65.305331179321456
 30
0.0
 11
-301.4862681744753
 21
-65.305331179321456
 31
0.0
  0
LINE
  8
DETAIL
  6
CONTINUOUS
 62
     5
 10
-216.34894991922491
 20
-65.305331179321456
 30
0.0
 11
-197.57204940977601
 21
-65.305331179321456
 31
0.0
  0
LINE
  8
DETAIL
  6
CONTINUOUS
 62
     5
 10
-256.41357027463692
 20
-62.052860910696147
 30
0.0
 11
-250.48456394414629
 21
-62.052860910696147
 31
0.0
  0
LINE
  8
DETAIL
  6
CONTINUOUS
 62
     5
 10
-256.41357027463692
 20
-58.294021516123848
 30
0.0
 11
-250.48456394414629
 21
-58.294021516123848
 31
0.0
  0
LINE
  8
DETAIL
  6
CONTINUOUS
 62
     5
 10
-246.69789983844939
 20
-57.790432526205002
 30
0.0
 11
-249.90306946688241
 21
-57.790432526205002
 31
0.0
  0
LINE
  8
DETAIL
  6
CONTINUOUS
 62
     5
 10
-250.48456394414629
 20
62.052860910696147
 30
0.0
 11
-249.90306946688241
 21
61.045682930082421
 31
0.0
  0
LINE
  8
DETAIL
  6
CONTINUOUS
 62
     5
 10
-163.46365105008101
 20
57.893376413570309
 30
0.0
 11
-163.46365105008101
 21
-55.386153030469131
 31
0.0
  0
LINE
  8
DETAIL
  6
CONTINUOUS
 62
     5
 10
-162.96284329563841
 20
13.02100161550902
 30
0.0
 11
-162.96284329563841
 21
-13.021001615508791
 31
0.0
  0
LINE
  8
DETAIL
  6
CONTINUOUS
 62
     5
 10
-158.25525040387751
 20
-26.049655248174531
 30
0.0
 11
-158.25525040387751
 21
26.049655248174869
 31
0.0
  0
LINE
  8
DETAIL
  6
CONTINUOUS
 62
     5
 10
-155.2504038772216
 20
262.42326332794852
 30
0.0
 11
-155.2504038772216
 21
261.32961628886312
 31
0.0
  0
LINE
  8
DETAIL
  6
CONTINUOUS
 62
     5
 10
-155.2504038772216
 20
230.16665507610421
 30
0.0
 11
-155.2504038772216
 21
-230.16665507610421
 31
0.0
  0
LINE
  8
DETAIL
  6
CONTINUOUS
 62
     5
 10
-155.2504038772216
 20
-261.32961628886278
 30
0.0
 11
-155.2504038772216
 21
-262.42326332794818
 31
0.0
  0
LINE
  8
DETAIL
  6
CONTINUOUS
 62
     5
 10
-18.08258346961242
 20
235.94948491325101
 30
0.0
 11
-18.52988691437838
 21
235.1747326205309
 31
0.0
  0
LINE
  8
DETAIL
  6
CONTINUOUS
 62
     5
 10
-163.46365105008101
 20
-28.654020341686309
 30
0.0
 11
-163.1834609429566
 21
-28.35226730991462
 31
0.0
  0
LINE
  8
DETAIL
  6
CONTINUOUS
 62
     5
 10
-163.1834609429566
 20
-28.35226730991462
 30
0.0
 11
-162.70244178545079
 21
-27.828577903069341
 31
0.0
  0
LINE
  8
DETAIL
  6
CONTINUOUS
 62
     5
 10
-246.69789983844939
 20
-53.548890562046623
 30
0.0
 11
-216.34894991922491
 21
-53.548890562046623
 31
0.0
  0
LINE
  8
DETAIL
  6
CONTINUOUS
 62
     5
 10
-324.12277867528292
 20
-53.285945072697807
 30
0.0
 11
-323.62197092084028
 21
-53.285945072697807
 31
0.0
  0
LINE
  8
DETAIL
  6
CONTINUOUS
 62
     5
 10
-246.69789983844939
 20
-51.279931718450612
 30
0.0
 11
-249.90306946688241
 21
-51.279931718450612
 31
0.0
  0
LINE
  8
DETAIL
  6
CONTINUOUS
 62
     5
 10
-256.41357027463692
 20
-50.776342728531738
 30
0.0
 11
-250.48456394414629
 21
-50.776342728531738
 31
0.0
  0
LINE
  8
DETAIL
  6
CONTINUOUS
 62
     5
 10
-256.41357027463692
 20
-47.01750333473592
 30
0.0
 11
-250.48456394414629
 21
-47.01750333473592
 31
0.0
  0
LINE
  8
DETAIL
  6
CONTINUOUS
 62
     5
 10
-256.41357027463692
 20
-46.587404266871999
 30
0.0
 11
-216.34894991922491
 21
-46.587404266871999
 31
0.0
  0
LINE
  8
DETAIL
  6
CONTINUOUS
 62
     5
 10
-324.12277867528292
 20
-43.870759289176007
 30
0.0
 11
-323.62197092084028
 21
-43.870759289176007
 31
0.0
  0
LINE
  8
DETAIL
  6
CONTINUOUS
 62
     5
 10
-256.41357027463692
 20
-34.443345093261087
 30
0.0
 11
-216.34894991922491
 21
-34.443345093261087
 31
0.0
  0
LINE
  8
DETAIL
  6
CONTINUOUS
 62
     5
 10
-18.08258346961242
 20
-267.11244612600967
 30
0.0
 11
-18.52988691437838
 21
-266.33769383328939
 31
0.0
  0
LINE
  8
DETAIL
  6
CONTINUOUS
 62
     5
 10
-151.24394184168059
 20
262.42326332794852
 30
0.0
 11
-151.24394184168059
 21
261.32961628886312
 31
0.0
  0
LINE
  8
DETAIL
  6
CONTINUOUS
 62
     5
 10
-151.24394184168059
 20
230.16665507610421
 30
0.0
 11
-151.24394184168059
 21
-230.16665507610421
 31
0.0
  0
LINE
  8
DETAIL
  6
CONTINUOUS
 62
     5
 10
-151.24394184168059
 20
-261.32961628886278
 30
0.0
 11
-151.24394184168059
 21
-262.42326332794818
 31
0.0
  0
LINE
  8
DETAIL
  6
CONTINUOUS
 62
     5
 10
-158.25525040387751
 20
-26.049655248174531
 30
0.0
 11
-155.2504038772216
 21
-25.78676524133698
 31
0.0
  0
LINE
  8
DETAIL
  6
CONTINUOUS
 62
     5
 10
-256.41357027463692
 20
-18.244016110731199
 30
0.0
 11
-216.34894991922491
 21
-18.244016110731199
 31
0.0
  0
LINE
  8
DETAIL
  6
CONTINUOUS
 62
     5
 10
-159.44283094473499
 20
-13.32148626817434
 30
0.0
 11
-158.25525040387751
 21
-13.32148626817434
 31
0.0
  0
LINE
  8
DETAIL
  6
CONTINUOUS
 62
     5
 10
-256.41357027463692
 20
-10.09411256392525
 30
0.0
 11
-216.34894991922491
 21
-10.09411256392525
 31
0.0
  0
LINE
  8
DETAIL
  6
CONTINUOUS
 62
     5
 10
-162.918311368399
 20
-10.50984111788193
 30
0.0
 11
-160.57602399251141
 21
-12.85210558550294
 31
0.0
  0
LINE
  8
DETAIL
  6
CONTINUOUS
 62
     5
 10
-256.41357027463692
 20
10.094112563925361
 30
0.0
 11
-216.34894991922491
 21
10.094112563925361
 31
0.0
  0
LINE
  8
DETAIL
  6
CONTINUOUS
 62
     5
 10
-159.44283094473499
 20
13.321486268174571
 30
0.0
 11
-158.25525040387751
 21
13.321486268174571
 31
0.0
  0
LINE
  8
DETAIL
  6
CONTINUOUS
 62
     5
 10
-256.41357027463692
 20
18.244016110731309
 30
0.0
 11
-216.34894991922491
 21
18.244016110731309
 31
0.0
  0
LINE
  8
DETAIL
  6
CONTINUOUS
 62
     5
 10
-256.41357027463692
 20
34.443345093261307
 30
0.0
 11
-216.34894991922491
 21
34.443345093261307
 31
0.0
  0
LINE
  8
DETAIL
  6
CONTINUOUS
 62
     5
 10
-158.25525040387751
 20
26.049655248174869
 30
0.0
 11
-155.2504038772216
 21
25.78676524133709
 31
0.0
  0
LINE
  8
DETAIL
  6
CONTINUOUS
 62
     5
 10
-256.41357027463692
 20
46.587404266872113
 30
0.0
 11
-216.34894991922491
 21
46.587404266872113
 31
0.0
  0
LINE
  8
DETAIL
  6
CONTINUOUS
 62
     5
 10
-256.41357027463692
 20
47.01750333473592
 30
0.0
 11
-250.48456394414629
 21
47.01750333473592
 31
0.0
  0
LINE
  8
DETAIL
  6
CONTINUOUS
 62
     5
 10
-256.41357027463692
 20
50.776342728531972
 30
0.0
 11
-250.48456394414629
 21
50.776342728531972
 31
0.0
  0
LINE
  8
DETAIL
  6
CONTINUOUS
 62
     5
 10
-246.69789983844939
 20
51.279931718450712
 30
0.0
 11
-249.90306946688241
 21
51.279931718450712
 31
0.0
  0
LINE
  8
DETAIL
  6
CONTINUOUS
 62
     5
 10
-246.69789983844939
 20
53.54889056204695
 30
0.0
 11
-216.34894991922491
 21
53.54889056204695
 31
0.0
  0
LINE
  8
DETAIL
  6
CONTINUOUS
 62
     5
 10
-246.69789983844939
 20
57.790432526205109
 30
0.0
 11
-249.90306946688241
 21
57.790432526205109
 31
0.0
  0
LINE
  8
DETAIL
  6
CONTINUOUS
 62
     5
 10
-256.41357027463692
 20
58.294021516123848
 30
0.0
 11
-250.48456394414629
 21
58.294021516123848
 31
0.0
  0
LINE
  8
DETAIL
  6
CONTINUOUS
 62
     5
 10
-256.41357027463692
 20
62.052860910696147
 30
0.0
 11
-250.48456394414629
 21
62.052860910696147
 31
0.0
  0
LINE
  8
DETAIL
  6
CONTINUOUS
 62
     5
 10
-259.41841680129272
 20
63.549721702295528
 30
0.0
 11
-256.41357027463692
 21
63.549721702295528
 31
0.0
  0
LINE
  8
DETAIL
  6
CONTINUOUS
 62
     5
 10
-316.21001615508919
 20
65.305331179321456
 30
0.0
 11
-301.4862681744753
 21
65.305331179321456
 31
0.0
  0
LINE
  8
DETAIL
  6
CONTINUOUS
 62
     5
 10
-216.34894991922491
 20
65.305331179321456
 30
0.0
 11
-170.87560581583219
 21
65.305331179321456
 31
0.0
  0
LINE
  8
DETAIL
  6
CONTINUOUS
 62
     5
 10
-256.41357027463692
 20
68.280494395561846
 30
0.0
 11
-216.34894991922491
 21
68.280494395561846
 31
0.0
  0
LINE
  8
DETAIL
  6
CONTINUOUS
 62
     5
 10
-256.41357027463692
 20
80.020710173197699
 30
0.0
 11
-216.34894991922491
 21
80.020710173197699
 31
0.0
  0
LINE
  8
DETAIL
  6
CONTINUOUS
 62
     5
 10
-297.47980613893412
 20
94.652665589660728
 30
0.0
 11
-301.4862681744753
 21
94.652665589660728
 31
0.0
  0
LINE
  8
DETAIL
  6
CONTINUOUS
 62
     5
 10
-20.533117932148851
 20
-291.97092084006448
 30
0.0
 11
-20.533117932148851
 21
-282.65633835809462
 31
0.0
  0
LINE
  8
DETAIL
  6
CONTINUOUS
 62
     5
 10
-20.032310177706449
 20
-293.37318255250398
 30
0.0
 11
-20.032310177706449
 21
-261.32961628886278
 31
0.0
  0
LINE
  8
DETAIL
  6
CONTINUOUS
 62
     5
 10
-20.032310177706449
 20
-230.16665507610421
 30
0.0
 11
-20.032310177706449
 21
230.16665507610421
 31
0.0
  0
LINE
  8
DETAIL
  6
CONTINUOUS
 62
     5
 10
-20.032310177706449
 20
261.32961628886312
 30
0.0
 11
-20.032310177706449
 21
293.37318255250398
 31
0.0
  0
LINE
  8
DETAIL
  6
CONTINUOUS
 62
     5
 10
-18.52988691437838
 20
-266.33769383328939
 30
0.0
 11
-18.52988691437838
 21
-261.32961628886278
 31
0.0
  0
LINE
  8
DETAIL
  6
CONTINUOUS
 62
     5
 10
-18.52988691437838
 20
225.15857753167771
 30
0.0
 11
-18.52988691437838
 21
235.1747326205309
 31
0.0
  0
LINE
  8
DETAIL
  6
CONTINUOUS
 62
     5
 10
-14.52342487883703
 20
-294.50537591967532
 30
0.0
 11
-14.52342487883703
 21
-254.5441818746915
 31
0.0
  0
LINE
  8
DETAIL
  6
CONTINUOUS
 62
     5
 10
-14.52342487883703
 20
-254.5441818746915
 30
0.0
 11
-14.52342487883703
 21
-213.16867623313419
 31
0.0
  0
LINE
  8
DETAIL
  6
CONTINUOUS
 62
     5
 10
-14.52342487883703
 20
213.16867623313439
 30
0.0
 11
-14.52342487883703
 21
250.22341240252479
 31
0.0
  0
LINE
  8
DETAIL
  6
CONTINUOUS
 62
     5
 10
-14.52342487883703
 20
250.22341240252479
 30
0.0
 11
-14.52342487883703
 21
254.5441818746917
 31
0.0
  0
LINE
  8
DETAIL
  6
CONTINUOUS
 62
     5
 10
-14.52342487883703
 20
254.5441818746917
 30
0.0
 11
-14.52342487883703
 21
294.50537591967549
 31
0.0
  0
LINE
  8
DETAIL
  6
CONTINUOUS
 62
     5
 10
-10.01615508885328
 20
303.38933764135709
 30
0.0
 11
-10.01615508885328
 21
300.17892012222768
 31
0.0
  0
LINE
  8
DETAIL
  6
CONTINUOUS
 62
     5
 10
-10.01615508885328
 20
-239.30932337653871
 30
0.0
 11
-10.01615508885328
 21
-244.927937625803
 31
0.0
  0
LINE
  8
DETAIL
  6
CONTINUOUS
 62
     5
 10
-10.01615508885328
 20
-303.38933764135692
 30
0.0
 11
-10.01615508885328
 21
-300.17892012222768
 31
0.0
  0
LINE
  8
DETAIL
  6
CONTINUOUS
 62
     5
 10
-10.01615508885328
 20
-239.30932337653871
 30
0.0
 11
-10.01615508885328
 21
239.30932337653891
 31
0.0
  0
LINE
  8
DETAIL
  6
CONTINUOUS
 62
     5
 10
-10.01615508885328
 20
239.30932337653891
 30
0.0
 11
-10.01615508885328
 21
244.92793762580311
 31
0.0
  0
LINE
  8
DETAIL
  6
CONTINUOUS
 62
     5
 10
-5.1082390953152981
 20
-303.82456339745249
 30
0.0
 11
-5.1082390953153833
 21
-254.24712510435671
 31
0.0
  0
LINE
  8
DETAIL
  6
CONTINUOUS
 62
     5
 10
-5.1082390953153407
 20
254.2471251043568
 30
0.0
 11
-5.1082390953152981
 21
303.82456339745272
 31
0.0
  0
LINE
  8
DETAIL
  6
CONTINUOUS
 62
     5
 10
-3.0048465266561379
 20
-308.49757673667182
 30
0.0
 11
-3.0048465266561379
 21
308.49757673667199
 31
0.0
  0
LINE
  8
DETAIL
  6
CONTINUOUS
 62
     5
 10
-0.0000000000002274
 20
-308.49757673667182
 30
0.0
 11
-0.0000000000002274
 21
308.49757673667199
 31
0.0
  0
LINE
  8
DETAIL
  6
CONTINUOUS
 62
     5
 10
-13.021001615509251
 20
201.1284412186196
 30
0.0
 11
-16.42649434571922
 21
201.1284412186196
 31
0.0
  0
LINE
  8
DETAIL
  6
CONTINUOUS
 62
     5
 10
-14.52342487883703
 20
213.16867623313439
 30
0.0
 11
-10.01615508885328
 21
213.16867623313439
 31
0.0
  0
LINE
  8
DETAIL
  6
CONTINUOUS
 62
     5
 10
-14.52342487883703
 20
224.38382523973411
 30
0.0
 11
-18.08258346961242
 21
224.38382523973411
 31
0.0
  0
LINE
  8
DETAIL
  6
CONTINUOUS
 62
     5
 10
-18.08258346961242
 20
224.38382523973411
 30
0.0
 11
-18.52988691437838
 21
225.15857753167771
 31
0.0
  0
LINE
  8
DETAIL
  6
CONTINUOUS
 62
     5
 10
-14.52342487883703
 20
227.27524015791909
 30
0.0
 11
-18.08258346961242
 21
227.27524015791909
 31
0.0
  0
LINE
  8
DETAIL
  6
CONTINUOUS
 62
     5
 10
-189.3053311793218
 20
230.16665507610421
 30
0.0
 11
-18.52988691437838
 21
230.16665507610421
 31
0.0
  0
LINE
  8
DETAIL
  6
CONTINUOUS
 62
     5
 10
-14.52342487883703
 20
233.05806999428941
 30
0.0
 11
-18.08258346961242
 21
233.05806999428941
 31
0.0
  0
LINE
  8
DETAIL
  6
CONTINUOUS
 62
     5
 10
-14.52342487883703
 20
235.94948491325101
 30
0.0
 11
-18.08258346961242
 21
235.94948491325101
 31
0.0
  0
LINE
  8
DETAIL
  6
CONTINUOUS
 62
     5
 10
-3.0048465266561379
 20
242.91513920852589
 30
0.0
 11
-6.4103392568662798
 21
242.91513920852589
 31
0.0
  0
LINE
  8
DETAIL
  6
CONTINUOUS
 62
     5
 10
-5.1082390953152981
 20
254.24712510435691
 30
0.0
 11
-3.0048465266561379
 21
254.24712510435691
 31
0.0
  0
LINE
  8
DETAIL
  6
CONTINUOUS
 62
     5
 10
-14.52342487883703
 20
257.08012157831467
 30
0.0
 11
-189.3053311793218
 21
257.08012157831467
 31
0.0
  0
LINE
  8
DETAIL
  6
CONTINUOUS
 62
     5
 10
-189.3053311793218
 20
261.32961628886312
 30
0.0
 11
-14.52342487883703
 21
261.32961628886312
 31
0.0
  0
LINE
  8
DETAIL
  6
CONTINUOUS
 62
     5
 10
-16.42649434571922
 20
296.97899838449121
 30
0.0
 11
-13.89004062544012
 21
296.97899838449121
 31
0.0
  0
LINE
  8
DETAIL
  6
CONTINUOUS
 62
     5
 10
-3.0048465266561379
 20
303.82456339745272
 30
0.0
 11
-5.1082390953152981
 21
303.82456339745272
 31
0.0
  0
LINE
  8
DETAIL
  6
CONTINUOUS
 62
     5
 10
-6.4103392568662798
 20
306.99515347334409
 30
0.0
 11
-3.0048465266561379
 21
306.99515347334409
 31
0.0
  0
ARC
  8
DETAIL
  6
CONTINUOUS
 62
     5
 10
-959.61030470636615
 20
670.79052863771278
 30
0.0
 40
1024.2573618487179
 50
321.01370970359773
 51
321.74980149360431
  0
ARC
  8
DETAIL
  6
CONTINUOUS
 62
     5
 10
-176.4468486417455
 20
-130.85931314706141
 30
0.0
 40
106.0531487214938
 50
78.470822105100964
 51
82.968095061800767
  0
ARC
  8
DETAIL
  6
CONTINUOUS
 62
     5
 10
-370.28715187273832
 20
166.87206050794609
 30
0.0
 40
279.36507640655719
 50
317.76002694570019
 51
319.37439936070513
  0
ARC
  8
DETAIL
  6
CONTINUOUS
 62
     5
 10
-316.21001615508919
 20
57.893376413570309
 30
0.0
 40
7.4119547657512017
 50
90.0
 51
180.0
  0
ARC
  8
DETAIL
  6
CONTINUOUS
 62
     5
 10
-316.21001615508919
 20
-57.893376413570167
 30
0.0
 40
7.4119547657512177
 50
180.0
 51
270.0
  0
ARC
  8
DETAIL
  6
CONTINUOUS
 62
     5
 10
-319.59297253634918
 20
-48.578352180936918
 30
0.0
 40
6.5330371567044017
 50
133.89739816710619
 51
226.10260183289381
  0
ARC
  8
DETAIL
  6
CONTINUOUS
 62
     5
 10
23.543103936656848
 20
-154.92056876417311
 30
0.0
 40
230.63000406977989
 50
142.22322676410371
 51
144.17934083209471
  0
ARC
  8
DETAIL
  6
CONTINUOUS
 62
     5
 10
-168.487855471491
 20
-118.1514472418628
 30
0.0
 40
90.508210103417625
 50
81.589912481799729
 51
86.817749211003303
  0
ARC
  8
DETAIL
  6
CONTINUOUS
 62
     5
 10
-6.4103392568662798
 20
-239.30932337653871
 30
0.0
 40
3.6058158319872282
 50
180.0
 51
270.0
  0
ARC
  8
DETAIL
  6
CONTINUOUS
 62
     5
 10
-6.4103392568662798
 20
-303.38933764135692
 30
0.0
 40
3.6058158319872282
 50
180.0
 51
270.0
  0
ARC
  8
DETAIL
  6
CONTINUOUS
 62
     5
 10
-16.42649434571922
 20
-197.5226253866326
 30
0.0
 40
3.6058158319871718
 50
180.0
 51
270.0
  0
ARC
  8
DETAIL
  6
CONTINUOUS
 62
     5
 10
-16.42649434571922
 20
-293.37318255250398
 30
0.0
 40
3.6058158319871718
 50
180.0
 51
270.0
  0
ARC
  8
DETAIL
  6
CONTINUOUS
 62
     5
 10
-13.021001615509251
 20
-204.13328774527551
 30
0.0
 40
3.004846526655911
 50
0.0
 51
90.0
  0
ARC
  8
DETAIL
  6
CONTINUOUS
 62
     5
 10
-153.24717285945101
 20
-262.42326332794818
 30
0.0
 40
2.0032310177706729
 50
180.0
 51
0.0
  0
ARC
  8
DETAIL
  6
CONTINUOUS
 62
     5
 10
-1.502423263328126
 20
-308.49757673667182
 30
0.0
 40
1.5024232633279551
 50
180.0
 51
0.0
  0
ARC
  8
DETAIL
  6
CONTINUOUS
 62
     5
 10
-170.87560581583219
 20
57.893376413570309
 30
0.0
 40
7.411954765751176
 50
0.0
 51
90.0
  0
ARC
  8
DETAIL
  6
CONTINUOUS
 62
     5
 10
-166.56865912762541
 20
13.02100161550902
 30
0.0
 40
3.6058158319871718
 50
0.0
 51
30.506440523096689
  0
ARC
  8
DETAIL
  6
CONTINUOUS
 62
     5
 10
-166.56865912762541
 20
-13.021001615508791
 30
0.0
 40
3.605815831987031
 50
329.49355947690327
 51
0.0
  0
ARC
  8
DETAIL
  6
CONTINUOUS
 62
     5
 10
-159.44283094473499
 20
11.7189014539581
 30
0.0
 40
1.602584814216494
 50
90.0
 51
134.99971980919469
  0
ARC
  8
DETAIL
  6
CONTINUOUS
 62
     5
 10
-159.44283094473499
 20
-11.718901453957869
 30
0.0
 40
1.6025848142163841
 50
225.00028019109999
 51
270.0
  0
ARC
  8
DETAIL
  6
CONTINUOUS
 62
     5
 10
-163.62655702335641
 20
11.218093699515411
 30
0.0
 40
1.001615508885328
 50
311.60912293930443
 51
314.99971980799722
  0
ARC
  8
DETAIL
  6
CONTINUOUS
 62
     5
 10
-163.62655702335641
 20
-11.21809369951529
 30
0.0
 40
1.0016155088853551
 50
45.000280191597483
 51
48.390877060599912
  0
ARC
  8
DETAIL
  6
CONTINUOUS
 62
     5
 10
-16.42649434571922
 20
197.52262538663271
 30
0.0
 40
3.605815831987031
 50
90.0
 51
180.0
  0
ARC
  8
DETAIL
  6
CONTINUOUS
 62
     5
 10
-16.42649434571922
 20
293.37318255250398
 30
0.0
 40
3.605815831987115
 50
90.0
 51
180.0
  0
ARC
  8
DETAIL
  6
CONTINUOUS
 62
     5
 10
-6.4103392568662798
 20
239.30932337653891
 30
0.0
 40
3.605815831987031
 50
90.0
 51
180.0
  0
ARC
  8
DETAIL
  6
CONTINUOUS
 62
     5
 10
-6.4103392568662798
 20
303.38933764135709
 30
0.0
 40
3.605815831987059
 50
90.0
 51
180.0
  0
ARC
  8
DETAIL
  6
CONTINUOUS
 62
     5
 10
-13.021001615509251
 20
204.13328774527579
 30
0.0
 40
3.004846526655911
 50
270.0
 51
0.0
  0
ARC
  8
DETAIL
  6
CONTINUOUS
 62
     5
 10
-153.24717285945101
 20
262.42326332794852
 30
0.0
 40
2.0032310177706729
 50
0.0
 51
180.0
  0
ARC
  8
DETAIL
  6
CONTINUOUS
 62
     5
 10
-1.502423263328126
 20
308.49757673667199
 30
0.0
 40
1.5024232633279551
 50
0.0
 51
180.0
  0
LINE
  8
DETAIL
  6
CONTINUOUS
 62
     5
 10
-158.74769730485559
 20
-13.63965233692738
 30
0.0
 11
-158.5022083378544
 21
-13.321753346232301
 31
0.0
  0
LINE
  8
DETAIL
  6
CONTINUOUS
 62
     5
 10
-259.41841680129272
 20
-85.638126009692982
 30
0.0
 11
-256.41357027463692
 21
-85.638126009692982
 31
0.0
  0
LINE
  8
DETAIL
  6
CONTINUOUS
 62
     5
 10
-259.41841680129272
 20
-63.549721702295287
 30
0.0
 11
-256.41357027463692
 21
-63.549721702295287
 31
0.0
  0
LINE
  8
DETAIL
  6
CONTINUOUS
 62
     5
 10
-259.41841680129272
 20
85.63812600969311
 30
0.0
 11
-256.41357027463692
 21
85.63812600969311
 31
0.0
  0
LINE
  8
BASIS
  6
DASHDOT
 62
     6
 10
64.460881488918858
 20
0.0
 30
0.0
 11
-355.81037297932778
 21
0.0
 31
0.0
  0
ARC
  8
DETAIL
  6
CONTINUOUS
 62
     5
 10
-193.5264888683279
 20
152.5628775488338
 30
0.0
 40
108.84861794440459
 50
87.777508006275895
 51
162.7512713592009
  0
ARC
  8
DETAIL
  6
CONTINUOUS
 62
     5
 10
-192.55483054430911
 20
144.8348555362798
 30
0.0
 40
112.29229267853241
 50
88.341750895057658
 51
159.1300757919785
  0
ARC
  8
DETAIL
  6
CONTINUOUS
 62
     5
 10
-192.5062772392404
 20
160.3273189666987
 30
0.0
 40
69.912652101748208
 50
87.375799220735985
 51
163.152980144705
  0
ARC
  8
DETAIL
  6
CONTINUOUS
 62
     5
 10
-7.4464273965701864
 20
244.74813737149429
 30
0.0
 40
2.5760101987251161
 50
103.7752603150312
 51
175.99761726057679
  0
ARC
  8
DETAIL
  6
CONTINUOUS
 62
     5
 10
-11.43180305640702
 20
262.80839559541141
 30
0.0
 40
15.91955747233969
 50
282.22870109417198
 51
301.97066870185142
  0
ARC
  8
DETAIL
  6
CONTINUOUS
 62
     5
 10
-8.1402539681848367
 20
244.5131037411505
 30
0.0
 40
6.3966364619580727
 50
103.4912259893561
 51
176.28165159222249
  0
ARC
  8
DETAIL
  6
CONTINUOUS
 62
     5
 10
-10.65236773727497
 20
256.71588120754149
 30
0.0
 40
6.0689471159014641
 50
279.67364321612553
 51
335.99697279013981
  0
ARC
  8
DETAIL
  6
CONTINUOUS
 62
     5
 10
-8.2105723040840246
 20
294.12517584478422
 30
0.0
 40
6.3242912430968934
 50
106.0940511426769
 51
176.55344737720591
  0
ARC
  8
DETAIL
  6
CONTINUOUS
 62
     5
 10
-10.95173637073052
 20
306.96266493032232
 30
0.0
 40
6.8328637685762228
 50
278.31364407515281
 51
328.7823575867771
  0
ARC
  8
DETAIL
  6
CONTINUOUS
 62
     5
 10
-39.953375683158811
 20
287.28958472727982
 30
0.0
 40
19.96530448135541
 50
307.22212692855328
 51
356.18510649777897
  0
ARC
  8
DETAIL
  6
CONTINUOUS
 62
     5
 10
-62.250367982906027
 20
313.93565940810191
 30
0.0
 40
54.695568009793057
 50
285.88831089146692
 51
308.93681303029848
  0
ARC
  8
DETAIL
  6
CONTINUOUS
 62
     5
 10
-193.5264888683279
 20
-152.5628775488338
 30
0.0
 40
108.84861794440459
 50
197.2487286407991
 51
272.22249199372408
  0
ARC
  8
DETAIL
  6
CONTINUOUS
 62
     5
 10
-192.55483054430911
 20
-144.8348555362798
 30
0.0
 40
112.29229267853241
 50
200.8699242080215
 51
271.65824910494229
  0
ARC
  8
DETAIL
  6
CONTINUOUS
 62
     5
 10
-192.5062772392404
 20
-160.3273189666987
 30
0.0
 40
69.912652101748208
 50
196.847019855295
 51
272.62420077926402
  0
ARC
  8
DETAIL
  6
CONTINUOUS
 62
     5
 10
-7.4464273965701864
 20
-244.74813737149429
 30
0.0
 40
2.5760101987251161
 50
184.00238273942321
 51
256.22473968496882
  0
ARC
  8
DETAIL
  6
CONTINUOUS
 62
     5
 10
-11.43180305640702
 20
-262.80839559541141
 30
0.0
 40
15.91955747233969
 50
58.02933129814857
 51
77.771298905828019
  0
ARC
  8
DETAIL
  6
CONTINUOUS
 62
     5
 10
-8.1402539681848367
 20
-244.51310374115059
 30
0.0
 40
6.3966364619580727
 50
183.71834840777751
 51
256.50877401064389
  0
ARC
  8
DETAIL
  6
CONTINUOUS
 62
     5
 10
-10.65236773727497
 20
-256.71588120754149
 30
0.0
 40
6.0689471159014641
 50
24.003027209860239
 51
80.326356783874573
  0
ARC
  8
DETAIL
  6
CONTINUOUS
 62
     5
 10
-8.2105723040840246
 20
-294.12517584478422
 30
0.0
 40
6.3242912430968934
 50
183.446552622794
 51
253.9059488573231
  0
ARC
  8
DETAIL
  6
CONTINUOUS
 62
     5
 10
-10.95173637073052
 20
-306.96266493032232
 30
0.0
 40
6.8328637685762228
 50
31.217642413222869
 51
81.686355924847177
  0
ARC
  8
DETAIL
  6
CONTINUOUS
 62
     5
 10
-39.953375683158811
 20
-287.28958472727982
 30
0.0
 40
19.96530448135541
 50
3.8148935022210382
 51
52.777873071446649
  0
ARC
  8
DETAIL
  6
CONTINUOUS
 62
     5
 10
-62.250367982906027
 20
-313.93565940810191
 30
0.0
 40
54.695568009793057
 50
51.063186969701533
 51
74.111689108533128
  0
ARC
  8
DETAIL
  6
CONTINUOUS
 62
     5
 10
-296.25343232310757
 20
21.450595581536721
 30
0.0
 40
223.4460225450585
 50
50.873221968737369
 51
55.753157041975697
  0
ARC
  8
DETAIL
  6
CONTINUOUS
 62
     5
 10
-166.58674870453379
 20
175.12567118959149
 30
0.0
 40
31.276712611395759
 50
97.200603301848147
 51
176.45738386288539
  0
ARC
  8
DETAIL
  6
CONTINUOUS
 62
     5
 10
359.0954931444486
 20
152.09620285533339
 30
0.0
 40
557.45834964500966
 50
177.43352928236041
 51
185.98445851272231
  0
ARC
  8
DETAIL
  6
CONTINUOUS
 62
     5
 10
-189.121433429886
 20
95.113501447286836
 30
0.0
 40
6.3067633777026577
 50
190.3878748648834
 51
268.45158720238112
  0
ARC
  8
DETAIL
  6
CONTINUOUS
 62
     5
 10
-178.57674647002659
 20
34.078436195667763
 30
0.0
 40
55.769638645829538
 50
78.504849825861484
 51
101.07720392247261
  0
LINE
  8
DETAIL
  6
CONTINUOUS
 62
     5
 10
-167.46269472651059
 20
88.729423821957312
 30
0.0
 11
-167.42791883486541
 21
83.207146627340535
 31
0.0
  0
LINE
  8
DETAIL
  6
CONTINUOUS
 62
     5
 10
-167.42791883486541
 20
83.207146627340535
 30
0.0
 11
-155.25082790729769
 21
76.685252088360301
 31
0.0
  0
ARC
  8
DETAIL
  6
CONTINUOUS
 62
     5
 10
-990.56083992792333
 20
1165.245616502287
 30
0.0
 40
1474.4259574550781
 50
303.95892618354549
 51
304.50877900264231
  0
ARC
  8
DETAIL
  6
CONTINUOUS
 62
     5
 10
102.5290592205603
 20
269.38697550232928
 30
0.0
 40
423.79708208180273
 50
226.4118777290096
 51
232.53590913914661
  0
ARC
  8
DETAIL
  6
CONTINUOUS
 62
     5
 10
-192.14129785781321
 20
-40.006277456287549
 30
0.0
 40
3.4691988128829672
 50
44.480490778361037
 51
170.91562065649401
  0
ARC
  8
DETAIL
  6
CONTINUOUS
 62
     5
 10
468.2683174115171
 20
-103.98702889296879
 30
0.0
 40
666.96419104070435
 50
174.44797322965059
 51
182.250544377263
  0
ARC
  8
DETAIL
  6
CONTINUOUS
 62
     5
 10
-12.422736316319741
 20
-126.0551824577965
 30
0.0
 40
185.804435136585
 50
181.27151909412169
 51
211.40732451849249
  0
ARC
  8
DETAIL
  6
CONTINUOUS
 62
     5
 10
-29.244581142763881
 20
51.749642672421693
 30
0.0
 40
309.05967915028998
 50
242.6980768603247
 51
245.81073813303539
  0
ARC
  8
OUTLINE
  6
CONTINUOUS
 62
     3
 10
-193.52648886836801
 20
152.56287754869879
 30
0.0
 40
108.84861794440459
 50
87.777508006275895
 51
162.7512713592009
  0
ARC
  8
OUTLINE
  6
CONTINUOUS
 62
     3
 10
-8.2105723041240708
 20
294.12517584464922
 30
0.0
 40
6.3242912430968934
 50
106.09405114267361
 51
176.55344737720509
  0
ARC
  8
OUTLINE
  6
CONTINUOUS
 62
     3
 10
-39.953375683198828
 20
287.28958472714481
 30
0.0
 40
19.96530448135541
 50
307.22212692855737
 51
356.18510649777897
  0
ARC
  8
OUTLINE
  6
CONTINUOUS
 62
     3
 10
-62.250367982946052
 20
313.93565940796691
 30
0.0
 40
54.695568009793057
 50
285.88831089146692
 51
308.93681303030081
  0
ARC
  8
OUTLINE
  6
CONTINUOUS
 62
     3
 10
-193.52648886836801
 20
-152.5628775489688
 30
0.0
 40
108.84861794440459
 50
197.2487286407991
 51
272.22249199372408
  0
ARC
  8
OUTLINE
  6
CONTINUOUS
 62
     3
 10
-8.2105723041240708
 20
-294.12517584491923
 30
0.0
 40
6.3242912430968934
 50
183.44655262279491
 51
253.90594885732639
  0
ARC
  8
OUTLINE
  6
CONTINUOUS
 62
     3
 10
-39.953375683198828
 20
-287.28958472741482
 30
0.0
 40
19.96530448135541
 50
3.8148935022202251
 51
52.777873071442571
  0
ARC
  8
OUTLINE
  6
CONTINUOUS
 62
     3
 10
-62.250367982946052
 20
-313.93565940823692
 30
0.0
 40
54.695568009793057
 50
51.063186969699252
 51
74.111689108533128
  0
ENDSEC
  0
EOF
