  0
SECTION
  2
HEADER
  9
$ACADVER
  1
AC1009
  9
$DWGCODEPAGE
  3
dos932
  9
$INSBASE
 10
0.0
 20
0.0
 30
0.0
  9
$EXTMIN
 10
-635.36680474105196
 20
-459.18272756876291
 30
-0.0015258207003583
  9
$EXTMAX
 10
943.08015063065068
 20
558.83789860973775
 30
0.0000000349246037
  9
$LIMMIN
 10
-2970.0
 20
-2100.0
  9
$LIMMAX
 10
2970.0
 20
2100.0
  9
$ORTHOMODE
 70
     1
  9
$REGENMODE
 70
     1
  9
$FILLMODE
 70
     1
  9
$QTEXTMODE
 70
     0
  9
$MIRRTEXT
 70
     0
  9
$LTSCALE
 40
20.0
  9
$ATTMODE
 70
     1
  9
$TEXTSIZE
 40
64.0
  9
$TRACEWID
 40
0.05
  9
$TEXTSTYLE
  7
STANDARD
  9
$CLAYER
  8
SIZE
  9
$CELTYPE
  6
CONTINUOUS
  9
$CECOLOR
 62
     7
  9
$DIMSCALE
 40
1.0
  9
$DIMASZ
 40
12.0
  9
$DIMEXO
 40
20.0
  9
$DIMDLI
 40
200.0
  9
$DIMRND
 40
0.0
  9
$DIMDLE
 40
0.0
  9
$DIMEXE
 40
20.0
  9
$DIMTP
 40
0.0
  9
$DIMTM
 40
0.0
  9
$DIMTXT
 40
64.0
  9
$DIMCEN
 40
0.09
  9
$DIMTSZ
 40
0.0
  9
$DIMTOL
 70
     0
  9
$DIMLIM
 70
     0
  9
$DIMTIH
 70
     0
  9
$DIMTOH
 70
     0
  9
$DIMSE1
 70
     0
  9
$DIMSE2
 70
     0
  9
$DIMTAD
 70
     1
  9
$DIMZIN
 70
     8
  9
$DIMBLK
  1

  9
$DIMASO
 70
     1
  9
$DIMSHO
 70
     0
  9
$DIMPOST
  1

  9
$DIMAPOST
  1

  9
$DIMALT
 70
     0
  9
$DIMALTD
 70
     2
  9
$DIMALTF
 40
25.399999999999999
  9
$DIMLFAC
 40
1.0
  9
$DIMTOFL
 70
     1
  9
$DIMTVP
 40
0.0
  9
$DIMTIX
 70
     1
  9
$DIMSOXD
 70
     0
  9
$DIMSAH
 70
     0
  9
$DIMBLK1
  1

  9
$DIMBLK2
  1

  9
$DIMSTYLE
  2
STANDARD
  9
$DIMCLRD
 70
     7
  9
$DIMCLRE
 70
     7
  9
$DIMCLRT
 70
     7
  9
$DIMTFAC
 40
1.0
  9
$DIMGAP
 40
25.0
  9
$LUNITS
 70
     2
  9
$LUPREC
 70
     4
  9
$SKETCHINC
 40
0.1
  9
$FILLETRAD
 40
3.0
  9
$AUNITS
 70
     1
  9
$AUPREC
 70
     3
  9
$MENU
  1
ACAD
  9
$ELEVATION
 40
0.0
  9
$PELEVATION
 40
0.0
  9
$THICKNESS
 40
0.0
  9
$LIMCHECK
 70
     0
  9
$CHAMFERA
 40
0.0
  9
$CHAMFERB
 40
0.0
  9
$SKPOLY
 70
     0
  9
$TDCREATE
 40
2453019.62301037
  9
$TDUPDATE
 40
2458949.455193808
  9
$TDINDWG
 40
1.7127358912
  9
$TDUSRTIMER
 40
1.7127358912
  9
$USRTIMER
 70
     1
  9
$ANGBASE
 50
0.0
  9
$ANGDIR
 70
     0
  9
$PDMODE
 70
     3
  9
$PDSIZE
 40
-2.0
  9
$PLINEWID
 40
0.0
  9
$SPLFRAME
 70
     0
  9
$SPLINETYPE
 70
     6
  9
$SPLINESEGS
 70
     8
  9
$SURFTAB1
 70
     6
  9
$SURFTAB2
 70
     6
  9
$SURFTYPE
 70
     6
  9
$SURFU
 70
     6
  9
$SURFV
 70
     6
  9
$UCSNAME
  2

  9
$UCSORG
 10
0.0
 20
0.0
 30
0.0
  9
$UCSXDIR
 10
1.0
 20
0.0
 30
0.0
  9
$UCSYDIR
 10
0.0
 20
1.0
 30
0.0
  9
$PUCSNAME
  2

  9
$PUCSORG
 10
0.0
 20
0.0
 30
0.0
  9
$PUCSXDIR
 10
1.0
 20
0.0
 30
0.0
  9
$PUCSYDIR
 10
0.0
 20
1.0
 30
0.0
  9
$USERI1
 70
     0
  9
$USERI2
 70
     0
  9
$USERI3
 70
     0
  9
$USERI4
 70
     0
  9
$USERI5
 70
     0
  9
$USERR1
 40
20.0
  9
$USERR2
 40
0.0
  9
$USERR3
 40
0.0
  9
$USERR4
 40
0.0
  9
$USERR5
 40
0.0
  9
$WORLDVIEW
 70
     1
  9
$SHADEDGE
 70
     3
  9
$SHADEDIF
 70
    70
  9
$TILEMODE
 70
     1
  9
$MAXACTVP
 70
    48
  9
$PINSBASE
 10
0.0
 20
0.0
 30
0.0
  9
$PLIMCHECK
 70
     0
  9
$PEXTMIN
 10
-100000000000000000000.0
 20
-100000000000000000000.0
 30
-100000000000000000000.0
  9
$PEXTMAX
 10
100000000000000000000.0
 20
100000000000000000000.0
 30
100000000000000000000.0
  9
$PLIMMIN
 10
0.0
 20
0.0
  9
$PLIMMAX
 10
12.0
 20
9.0
  9
$UNITMODE
 70
     0
  9
$VISRETAIN
 70
     0
  9
$PLINEGEN
 70
     0
  9
$PSLTSCALE
 70
     0
  9
$TREEDEPTH
 70
  3020
  9
$ATTDIA
 70
     0
  9
$ATTREQ
 70
     1
  9
$BLIPMODE
 70
     1
  9
$COORDS
 70
     1
  9
$DRAGMODE
 70
     2
  9
$OSMODE
 70
     0
  9
$HANDLING
 70
     0
  9
$HANDSEED
  5
F04B
  0
ENDSEC
  0
SECTION
  2
TABLES
  0
TABLE
  2
LTYPE
 70
     2
  0
LTYPE
  2
CONTINUOUS
 70
     0
  3
実線
 72
    65
 73
     0
 40
0.0
  0
LTYPE
  2
DASHDOT
 70
     0
  3
____ _ ____ _ ____ _ ____ _ ____ _ ____ _ ____
 72
    65
 73
     4
 40
5.5
 49
4.0
 49
-0.6
 49
0.3
 49
-0.6
  0
ENDTAB
  0
TABLE
  2
LAYER
 70
    12
  0
LAYER
  2
0
 70
     0
 62
     7
  6
CONTINUOUS
  0
LAYER
  2
BASIS
 70
     0
 62
     6
  6
DASHDOT
  0
LAYER
  2
OUTLINE
 70
     0
 62
     3
  6
CONTINUOUS
  0
LAYER
  2
DETAIL
 70
     0
 62
     5
  6
CONTINUOUS
  0
LAYER
  2
SIZE
 70
     0
 62
    30
  6
CONTINUOUS
  0
LAYER
  2
ARRANGE
 70
     0
 62
     1
  6
CONTINUOUS
  0
LAYER
  2
DEFPOINTS
 70
     0
 62
     7
  6
CONTINUOUS
  0
LAYER
  2
ETC
 70
     0
 62
    61
  6
CONTINUOUS
  0
LAYER
  2
FIX
 70
     0
 62
    11
  6
CONTINUOUS
  0
LAYER
  2
NOTE
 70
     0
 62
     4
  6
CONTINUOUS
  0
LAYER
  2
SERVICESPACE
 70
    64
 62
     2
  6
DASHDOT
  0
LAYER
  2
SYMBOLLINE
 70
    64
 62
    15
  6
CONTINUOUS
  0
ENDTAB
  0
TABLE
  2
STYLE
 70
     1
  0
STYLE
  2
STANDARD
 70
     0
 40
64.0
 41
0.9
 50
0.0
 71
     0
 42
64.0
  3
SIMPLEX.shx
  4
BIGFONT.shx
  0
ENDTAB
  0
TABLE
  2
APPID
 70
    19
  0
APPID
  2
ACAD
 70
     0
  0
APPID
  2
AUTOCAD_POSTSCRIPT_FIGURE
 70
     0
  0
APPID
  2
ACAD_EXEMPT_FROM_CAD_STANDARDS
 70
     0
  0
APPID
  2
ACAD_PSEXT
 70
     0
  0
APPID
  2
ACAUTHENVIRON
 70
     0
  0
APPID
  2
GENIUS_GENOENT_13
 70
     0
  0
APPID
  2
GENIUS_GENCFG_13
 70
     0
  0
APPID
  2
GENIUS_GENCFG0_13
 70
     0
  0
APPID
  2
GENIUS_GENCFG1_13
 70
     0
  0
APPID
  2
GENIUS_GENCFG2_13
 70
     0
  0
APPID
  2
GENIUS_GENCFG3_13
 70
     0
  0
APPID
  2
GENIUS_GENCFG4_13
 70
     0
  0
APPID
  2
GENIUS_GEVCFG0_13
 70
     0
  0
APPID
  2
CONTENTBLOCKICON
 70
     0
  0
APPID
  2
CONTENTBLOCKDESCRIPTION
 70
     0
  0
APPID
  2
ACAD_NAV_VCDISPLAY
 70
     0
  0
APPID
  2
ACAD_MLEADERVER
 70
     0
  0
APPID
  2
ACDBDYNAMICBLOCKTRUENAME
 70
     0
  0
APPID
  2
ACDBDYNAMICBLOCKGUID
 70
     0
  0
ENDTAB
  0
TABLE
  2
DIMSTYLE
 70
     1
  0
DIMSTYLE
  2
STANDARD
 70
     0
  3

  4

  5
_ORIGIN
  6

  7

 40
1.0
 41
12.0
 42
20.0
 43
200.0
 44
20.0
 45
0.0
 46
0.0
 47
0.0
 48
0.0
140
64.0
141
0.09
142
0.0
143
25.399999999999999
144
1.0
145
0.0
146
1.0
147
25.0
 71
     0
 72
     0
 73
     0
 74
     0
 75
     0
 76
     0
 77
     1
 78
     8
170
     0
171
     2
172
     1
173
     0
174
     1
175
     0
176
     7
177
     7
178
     7
  0
ENDTAB
  0
TABLE
  2
VIEW
 70
     1
  0
VIEW
  2
ALL
 70
     0
 40
4282.6198079999986
 10
0.0
 20
41.309904000000003
 41
5940.0
 11
0.0
 21
0.0
 31
1.0
 12
0.0
 22
0.0
 32
0.0
 42
50.0
 43
0.0
 44
0.0
 50
0.0
 71
     0
  0
ENDTAB
  0
TABLE
  2
UCS
 70
     0
  0
ENDTAB
  0
TABLE
  2
VPORT
 70
     1
  0
VPORT
  2
*ACTIVE
 70
     0
 10
0.0
 20
0.0
 11
1.0
 21
1.0
 12
153.8566729447993
 22
49.827585520487503
 13
0.0
 23
0.0
 14
1.0
 24
1.0
 15
0.0
 25
0.0
 16
0.0
 26
0.0
 36
1.0
 17
0.0
 27
0.0
 37
0.0
 40
1024.7699341973639
 41
1.747787610619469
 42
50.0
 43
0.0
 44
0.0
 50
0.0
 51
0.0
 71
     0
 72
  1000
 73
     1
 74
     3
 75
     0
 76
     0
 77
     0
 78
     0
  0
ENDTAB
  0
ENDSEC
  0
SECTION
  2
BLOCKS
  0
BLOCK
  8
0
  2
_ORIGIN
 70
     0
 10
0.0
 20
0.0
 30
0.0
  3
_ORIGIN
  1
_ORIGIN
  0
CIRCLE
  8
0
  6
CONTINUOUS
 62
     7
 10
0.0
 20
0.0
 30
0.0
 40
0.5
  0
LINE
  8
0
  6
CONTINUOUS
 62
     7
 10
0.0
 20
0.0
 30
0.0
 11
-1.0
 21
0.0
 31
0.0
  0
ENDBLK
  8
0
  0
ENDSEC
  0
SECTION
  2
ENTITIES
  0
CIRCLE
  8
ARRANGE
  6
CONTINUOUS
 62
     1
 10
0.0
 20
0.0
 30
0.0
 40
40.0
  0
POINT
  8
ARRANGE
  6
CONTINUOUS
 62
     1
 10
0.0
 20
0.0
 30
0.0
  0
TEXT
  8
ETC
  6
CONTINUOUS
 62
    61
 10
344.87539504366401
 20
494.56101113953292
 30
0.0
 40
64.0
  1
EWG-50ETA2_1
 41
0.9
  0
TEXT
  8
ETC
  6
CONTINUOUS
 62
    61
 10
340.68940104366362
 20
376.60570112470168
 30
0.0
 40
64.0
  1
産業扇
 41
0.9
  0
LINE
  8
SIZE
  6
CONTINUOUS
 62
    30
 10
-309.99999999999977
 20
18.497576736672041
 30
0.0
 11
-309.99999999999977
 21
264.96668498765212
 31
0.0
  0
LINE
  8
SIZE
  6
CONTINUOUS
 62
    30
 10
310.0
 20
18.497576736672041
 30
0.0
 11
310.0
 21
264.96668498765212
 31
0.0
  0
LINE
  8
SIZE
  6
CONTINUOUS
 62
    30
 10
-297.99999999999977
 20
244.9666849876522
 30
0.0
 11
298.0
 21
244.9666849876522
 31
0.0
  0
CIRCLE
  8
SIZE
  6
CONTINUOUS
 62
    30
 10
-309.99999999999977
 20
244.9666849876522
 30
0.0
 40
6.0
  0
LINE
  8
SIZE
  6
CONTINUOUS
 62
    30
 10
-309.99999999999977
 20
244.9666849876522
 30
0.0
 11
-297.99999999999977
 21
244.9666849876522
 31
0.0
  0
CIRCLE
  8
SIZE
  6
CONTINUOUS
 62
    30
 10
310.0
 20
244.9666849876522
 30
0.0
 40
6.0
  0
LINE
  8
SIZE
  6
CONTINUOUS
 62
    30
 10
310.0
 20
244.9666849876522
 30
0.0
 11
298.0
 21
244.9666849876522
 31
0.0
  0
TEXT
  8
SIZE
  6
CONTINUOUS
 62
    30
 10
-74.834492931621895
 20
269.96668498765212
 30
0.0
 40
64.0
  1
620
 41
0.9
 72
     1
 11
-0.7773500744790454
 21
269.96668498765212
 31
0.0
  0
POINT
  8
DEFPOINTS
  6
CONTINUOUS
 62
    30
 10
-309.99999999999977
 20
-1.5024232633279551
 30
0.0
  0
POINT
  8
DEFPOINTS
  6
CONTINUOUS
 62
    30
 10
310.0
 20
-1.5024232633279551
 30
0.0
  0
POINT
  8
DEFPOINTS
  6
CONTINUOUS
 62
    30
 10
310.0
 20
244.9666849876522
 30
0.0
  0
LINE
  8
SIZE
  6
CONTINUOUS
 62
    30
 10
-281.22969256213418
 20
44.796828318904488
 30
0.0
 11
-281.22969256213418
 21
151.39419561661629
 31
0.0
  0
LINE
  8
SIZE
  6
CONTINUOUS
 62
    30
 10
279.67499241363288
 20
44.796828318904147
 30
0.0
 11
279.67499241363288
 21
151.39419561661629
 31
0.0
  0
LINE
  8
SIZE
  6
CONTINUOUS
 62
    30
 10
-269.22969256213418
 20
131.39419561661629
 30
0.0
 11
267.67499241363288
 21
131.39419561661629
 31
0.0
  0
CIRCLE
  8
SIZE
  6
CONTINUOUS
 62
    30
 10
-281.22969256213418
 20
131.39419561661629
 30
0.0
 40
6.0
  0
LINE
  8
SIZE
  6
CONTINUOUS
 62
    30
 10
-281.22969256213418
 20
131.39419561661629
 30
0.0
 11
-269.22969256213418
 21
131.39419561661629
 31
0.0
  0
CIRCLE
  8
SIZE
  6
CONTINUOUS
 62
    30
 10
279.67499241363288
 20
131.39419561661629
 30
0.0
 40
6.0
  0
LINE
  8
SIZE
  6
CONTINUOUS
 62
    30
 10
279.67499241363288
 20
131.39419561661629
 30
0.0
 11
267.67499241363288
 21
131.39419561661629
 31
0.0
  0
TEXT
  8
SIZE
  6
CONTINUOUS
 62
    30
 10
-74.834492931393612
 20
156.39419561661629
 30
0.0
 40
64.0
  1
560
 41
0.9
 72
     1
 11
-0.7773500742507622
 21
156.39419561661629
 31
0.0
  0
POINT
  8
DEFPOINTS
  6
CONTINUOUS
 62
    30
 10
-281.22969256213418
 20
24.796828318904488
 30
0.0
  0
POINT
  8
DEFPOINTS
  6
CONTINUOUS
 62
    30
 10
279.67499241363288
 20
24.796828318904151
 30
0.0
  0
POINT
  8
DEFPOINTS
  6
CONTINUOUS
 62
    30
 10
279.67499241363288
 20
131.39419561661629
 30
0.0
  0
CIRCLE
  8
FIX
  6
CONTINUOUS
 62
    11
 10
-281.22969256213418
 20
0.0000000000000568
 30
0.0
 40
7.0
  0
CIRCLE
  8
FIX
  6
CONTINUOUS
 62
    11
 10
279.67499241363288
 20
0.0000000000000568
 30
0.0
 40
7.0
  0
LINE
  8
SIZE
  6
CONTINUOUS
 62
    30
 10
327.72022666242128
 20
0.0000000000000568
 30
0.0
 11
458.87747230986042
 21
0.0
 31
0.0
  0
LINE
  8
SIZE
  6
CONTINUOUS
 62
    30
 10
322.6119875671061
 20
-10.016155088853051
 30
0.0
 11
458.87747230986042
 21
-10.016155088853109
 31
0.0
  0
LINE
  8
SIZE
  6
CONTINUOUS
 62
    30
 10
438.87747230986042
 20
-22.016155088853111
 30
0.0
 11
438.87747230986042
 21
-34.016155088853111
 31
0.0
  0
LINE
  8
SIZE
  6
CONTINUOUS
 62
    30
 10
438.87747230986042
 20
12.0
 30
0.0
 11
438.87747230986042
 21
156.28571428571431
 31
0.0
  0
LINE
  8
SIZE
  6
CONTINUOUS
 62
    30
 10
438.87747230986042
 20
-10.016155088853109
 30
0.0
 11
438.87747230986042
 21
0.0
 31
0.0
  0
CIRCLE
  8
SIZE
  6
CONTINUOUS
 62
    30
 10
438.87747230986042
 20
-10.016155088853109
 30
0.0
 40
6.0
  0
LINE
  8
SIZE
  6
CONTINUOUS
 62
    30
 10
438.87747230986042
 20
-10.016155088853109
 30
0.0
 11
438.87747230986042
 21
-22.016155088853111
 31
0.0
  0
CIRCLE
  8
SIZE
  6
CONTINUOUS
 62
    30
 10
438.87747230986042
 20
0.0
 30
0.0
 40
6.0
  0
LINE
  8
SIZE
  6
CONTINUOUS
 62
    30
 10
438.87747230986042
 20
0.0
 30
0.0
 11
438.87747230986042
 21
12.0
 31
0.0
  0
TEXT
  8
SIZE
  6
CONTINUOUS
 62
    30
 10
413.87747230986042
 20
49.000000000000092
 30
0.0
 40
64.0
  1
10
 50
90.0
 41
0.9
 72
     1
 11
413.87747230986042
 21
90.142857142857224
 31
0.0
  0
POINT
  8
DEFPOINTS
  6
CONTINUOUS
 62
    30
 10
307.72022666242128
 20
0.0000000000000568
 30
0.0
  0
POINT
  8
DEFPOINTS
  6
CONTINUOUS
 62
    30
 10
302.6119875671061
 20
-10.016155088853051
 30
0.0
  0
POINT
  8
DEFPOINTS
  6
CONTINUOUS
 62
    30
 10
438.87747230986042
 20
-10.016155088853109
 30
0.0
  0
LINE
  8
SIZE
  6
CONTINUOUS
 62
    30
 10
322.6119875671061
 20
-10.016155088853051
 30
0.0
 11
458.87747230986042
 21
-10.016155088853109
 31
0.0
  0
LINE
  8
SIZE
  6
CONTINUOUS
 62
    30
 10
312.59583247825321
 20
-20.032310177706279
 30
0.0
 11
458.87747230986042
 21
-20.032310177706339
 31
0.0
  0
LINE
  8
SIZE
  6
CONTINUOUS
 62
    30
 10
438.87747230986042
 20
1.983844911146889
 30
0.0
 11
438.87747230986042
 21
13.983844911146891
 31
0.0
  0
LINE
  8
SIZE
  6
CONTINUOUS
 62
    30
 10
438.87747230986042
 20
-32.032310177706343
 30
0.0
 11
438.87747230986042
 21
-257.26694449511132
 31
0.0
  0
LINE
  8
SIZE
  6
CONTINUOUS
 62
    30
 10
438.87747230986042
 20
-10.016155088853109
 30
0.0
 11
438.87747230986042
 21
-20.032310177706339
 31
0.0
  0
CIRCLE
  8
SIZE
  6
CONTINUOUS
 62
    30
 10
438.87747230986042
 20
-10.016155088853109
 30
0.0
 40
6.0
  0
LINE
  8
SIZE
  6
CONTINUOUS
 62
    30
 10
438.87747230986042
 20
-10.016155088853109
 30
0.0
 11
438.87747230986042
 21
1.983844911146889
 31
0.0
  0
CIRCLE
  8
SIZE
  6
CONTINUOUS
 62
    30
 10
438.87747230986042
 20
-20.032310177706339
 30
0.0
 40
6.0
  0
LINE
  8
SIZE
  6
CONTINUOUS
 62
    30
 10
438.87747230986042
 20
-20.032310177706339
 30
0.0
 11
438.87747230986042
 21
-32.032310177706343
 31
0.0
  0
TEXT
  8
SIZE
  6
CONTINUOUS
 62
    30
 10
413.87747230986042
 20
-232.2669444951112
 30
0.0
 40
64.0
  1
10
 50
90.0
 41
0.9
 72
     1
 11
413.87747230986042
 21
-191.12408735225409
 31
0.0
  0
POINT
  8
DEFPOINTS
  6
CONTINUOUS
 62
    30
 10
302.6119875671061
 20
-10.016155088853051
 30
0.0
  0
POINT
  8
DEFPOINTS
  6
CONTINUOUS
 62
    30
 10
292.59583247825321
 20
-20.032310177706279
 30
0.0
  0
POINT
  8
DEFPOINTS
  6
CONTINUOUS
 62
    30
 10
438.87747230986042
 20
-20.032310177706339
 30
0.0
  0
LINE
  8
SIZE
  6
CONTINUOUS
 62
    30
 10
327.72022666242128
 20
0.0000000000000568
 30
0.0
 11
600.4362798262091
 21
0.0
 31
0.0
  0
LINE
  8
SIZE
  6
CONTINUOUS
 62
    30
 10
313.45581583198691
 20
-84.452730188701366
 30
0.0
 11
600.4362798262091
 21
-84.452730188701423
 31
0.0
  0
LINE
  8
SIZE
  6
CONTINUOUS
 62
    30
 10
580.4362798262091
 20
-12.0
 30
0.0
 11
580.4362798262091
 21
-72.452730188701423
 31
0.0
  0
LINE
  8
SIZE
  6
CONTINUOUS
 62
    30
 10
580.4362798262091
 20
-84.452730188701423
 30
0.0
 11
580.4362798262091
 21
-272.32282483267983
 31
0.0
  0
CIRCLE
  8
SIZE
  6
CONTINUOUS
 62
    30
 10
580.4362798262091
 20
0.0
 30
0.0
 40
6.0
  0
LINE
  8
SIZE
  6
CONTINUOUS
 62
    30
 10
580.4362798262091
 20
0.0
 30
0.0
 11
580.4362798262091
 21
-12.0
 31
0.0
  0
CIRCLE
  8
SIZE
  6
CONTINUOUS
 62
    30
 10
580.4362798262091
 20
-84.452730188701423
 30
0.0
 40
6.0
  0
LINE
  8
SIZE
  6
CONTINUOUS
 62
    30
 10
580.4362798262091
 20
-84.452730188701423
 30
0.0
 11
580.4362798262091
 21
-72.452730188701423
 31
0.0
  0
TEXT
  8
SIZE
  6
CONTINUOUS
 62
    30
 10
555.4362798262091
 20
-247.32282483267969
 30
0.0
 40
64.0
  1
84
 50
90.0
 41
0.9
 72
     1
 11
555.4362798262091
 21
-199.32282483267969
 31
0.0
  0
POINT
  8
DEFPOINTS
  6
CONTINUOUS
 62
    30
 10
307.72022666242128
 20
0.0000000000000568
 30
0.0
  0
POINT
  8
DEFPOINTS
  6
CONTINUOUS
 62
    30
 10
293.45581583198691
 20
-84.452730188701366
 30
0.0
  0
POINT
  8
DEFPOINTS
  6
CONTINUOUS
 62
    30
 10
580.4362798262091
 20
-84.452730188701423
 30
0.0
  0
TEXT
  8
NOTE
  6
CONTINUOUS
 62
     4
 10
-628.01975295431339
 20
89.566182407517999
 30
0.0
 40
64.0
  1
4-φ14
 41
0.9
  0
LINE
  8
SIZE
  6
CONTINUOUS
 62
    30
 10
-328.01960185989128
 20
0.0000000000000568
 30
0.0
 11
-384.5966677755473
 21
0.0000000000000568
 31
0.0
  0
LINE
  8
SIZE
  6
CONTINUOUS
 62
    30
 10
-20.00000000001819
 20
-315.10823909531427
 30
0.0
 11
-384.5966677755473
 21
-315.10823909531427
 31
0.0
  0
LINE
  8
SIZE
  6
CONTINUOUS
 62
    30
 10
-364.5966677755473
 20
-11.99999999999994
 30
0.0
 11
-364.5966677755473
 21
-303.10823909531427
 31
0.0
  0
CIRCLE
  8
SIZE
  6
CONTINUOUS
 62
    30
 10
-364.5966677755473
 20
0.0000000000000568
 30
0.0
 40
6.0
  0
LINE
  8
SIZE
  6
CONTINUOUS
 62
    30
 10
-364.5966677755473
 20
0.0000000000000568
 30
0.0
 11
-364.5966677755473
 21
-11.99999999999994
 31
0.0
  0
CIRCLE
  8
SIZE
  6
CONTINUOUS
 62
    30
 10
-364.5966677755473
 20
-315.10823909531427
 30
0.0
 40
6.0
  0
LINE
  8
SIZE
  6
CONTINUOUS
 62
    30
 10
-364.5966677755473
 20
-315.10823909531427
 30
0.0
 11
-364.5966677755473
 21
-303.10823909531427
 31
0.0
  0
TEXT
  8
SIZE
  6
CONTINUOUS
 62
    30
 10
-389.5966677755473
 20
-226.12554811908569
 30
0.0
 40
64.0
  1
315
 50
90.0
 41
0.9
 72
     1
 11
-389.5966677755473
 21
-157.55411954765711
 31
0.0
  0
POINT
  8
DEFPOINTS
  6
CONTINUOUS
 62
    30
 10
-308.01960185989128
 20
0.0000000000000568
 30
0.0
  0
POINT
  8
DEFPOINTS
  6
CONTINUOUS
 62
    30
 10
-0.0000000000181899
 20
-315.10823909531427
 30
0.0
  0
POINT
  8
DEFPOINTS
  6
CONTINUOUS
 62
    30
 10
-364.5966677755473
 20
-315.10823909531427
 30
0.0
  0
LINE
  8
NOTE
  6
CONTINUOUS
 62
     4
 10
-281.22969256213418
 20
-55.428046801112323
 30
0.0
 11
-281.22969256213418
 21
16.03525237625848
 31
0.0
  0
LINE
  8
NOTE
  6
CONTINUOUS
 62
     4
 10
279.67499241363288
 20
-55.428046801112323
 30
0.0
 11
279.67499241363288
 21
16.03525237625848
 31
0.0
  0
LINE
  8
DETAIL
  6
CONTINUOUS
 62
     4
 10
-283.93444707329559
 20
5.4966390564275676
 30
0.0
 11
-281.1710484336636
 21
-0.0664830210104697
 31
0.0
  0
LINE
  8
DETAIL
  6
CONTINUOUS
 62
     4
 10
-281.1710484336636
 20
-0.0664830210104697
 30
0.0
 11
-286.34578807309958
 21
3.3696149045512702
 31
0.0
  0
LINE
  8
DETAIL
  6
CONTINUOUS
 62
     4
 10
-281.1710484336636
 20
-0.0664830210104697
 30
0.0
 11
-289.10918671273163
 21
8.9327369819893079
 31
0.0
  0
LINE
  8
NOTE
  6
CONTINUOUS
 62
     4
 10
-289.1091867127318
 20
8.9327369819893079
 30
0.0
 11
-337.27464131316492
 21
63.536411956604979
 31
0.0
  0
LINE
  8
NOTE
  6
CONTINUOUS
 62
     4
 10
-337.27464131316492
 20
63.536411956604979
 30
0.0
 11
-635.14320355819927
 21
63.697866805785338
 31
0.0
  0
LINE
  8
NOTE
  6
CONTINUOUS
 62
     4
 10
-281.22969256213418
 20
-46.485854787462422
 30
0.0
 11
-281.22969256213418
 21
24.796828318904488
 31
0.0
  0
LINE
  8
NOTE
  6
CONTINUOUS
 62
     4
 10
279.67499241363288
 20
-46.485854787462422
 30
0.0
 11
279.67499241363288
 21
24.796828318904151
 31
0.0
  0
LINE
  8
SIZE
  6
CONTINUOUS
 62
    30
 10
-65.305331179321456
 20
-325.1922455573507
 30
0.0
 11
-65.305331179321456
 21
-459.08713494128818
 31
0.0
  0
LINE
  8
SIZE
  6
CONTINUOUS
 62
    30
 10
65.305331179321456
 20
-325.1922455573507
 30
0.0
 11
65.305331179321456
 21
-459.08713494128818
 31
0.0
  0
LINE
  8
SIZE
  6
CONTINUOUS
 62
    30
 10
-53.305331179321463
 20
-439.08713494128818
 30
0.0
 11
53.305331179321463
 21
-439.08713494128818
 31
0.0
  0
LINE
  8
SIZE
  6
CONTINUOUS
 62
    30
 10
65.305331179321456
 20
-439.08713494128818
 30
0.0
 11
300.10533117932118
 21
-439.08713494128818
 31
0.0
  0
CIRCLE
  8
SIZE
  6
CONTINUOUS
 62
    30
 10
-65.305331179321456
 20
-439.08713494128818
 30
0.0
 40
6.0
  0
LINE
  8
SIZE
  6
CONTINUOUS
 62
    30
 10
-65.305331179321456
 20
-439.08713494128818
 30
0.0
 11
-53.305331179321463
 21
-439.08713494128818
 31
0.0
  0
CIRCLE
  8
SIZE
  6
CONTINUOUS
 62
    30
 10
65.305331179321456
 20
-439.08713494128818
 30
0.0
 40
6.0
  0
LINE
  8
SIZE
  6
CONTINUOUS
 62
    30
 10
65.305331179321456
 20
-439.08713494128818
 30
0.0
 11
53.305331179321463
 21
-439.08713494128818
 31
0.0
  0
TEXT
  8
SIZE
  6
CONTINUOUS
 62
    30
 10
92.156759750750126
 20
-403.42046827462173
 30
0.0
 40
64.0
  1
φ131
 41
0.9
 72
     1
 11
188.70533117932149
 21
-403.42046827462173
 31
0.0
  0
POINT
  8
DEFPOINTS
  6
CONTINUOUS
 62
    30
 10
-65.305331179321456
 20
-305.1922455573507
 30
0.0
  0
POINT
  8
DEFPOINTS
  6
CONTINUOUS
 62
    30
 10
65.305331179321456
 20
-305.1922455573507
 30
0.0
  0
POINT
  8
DEFPOINTS
  6
CONTINUOUS
 62
    30
 10
65.305331179321456
 20
-439.08713494128818
 30
0.0
  0
LINE
  8
OUTLINE
  6
CONTINUOUS
 62
     3
 10
-306.99515347334409
 20
-6.4103392568661093
 30
0.0
 11
-306.99515347334409
 21
-3.0048465266557969
 31
0.0
  0
LINE
  8
OUTLINE
  6
CONTINUOUS
 62
     3
 10
-296.97899838449121
 20
-16.426494345718989
 30
0.0
 11
-296.97899838449121
 21
-13.89004062543972
 31
0.0
  0
LINE
  8
OUTLINE
  6
CONTINUOUS
 62
     3
 10
293.45581583198691
 20
-84.452730188701594
 30
0.0
 11
261.32961628963949
 21
-84.452730188701594
 31
0.0
  0
LINE
  8
OUTLINE
  6
CONTINUOUS
 62
     3
 10
-261.32961628886278
 20
-84.452730188701594
 30
0.0
 11
-293.45581583198708
 21
-84.452730188701594
 31
0.0
  0
LINE
  8
OUTLINE
  6
CONTINUOUS
 62
     3
 10
293.45581583198691
 20
-80.446268153160304
 30
0.0
 11
261.32961628963949
 21
-80.446268153160304
 31
0.0
  0
LINE
  8
OUTLINE
  6
CONTINUOUS
 62
     3
 10
-261.32961628886278
 20
-80.446268153160304
 30
0.0
 11
-293.45581583198708
 21
-80.446268153160304
 31
0.0
  0
LINE
  8
OUTLINE
  6
CONTINUOUS
 62
     3
 10
262.98812737806662
 20
-61.34894991922431
 30
0.0
 11
261.32961628963949
 21
-61.34894991922431
 31
0.0
  0
LINE
  8
OUTLINE
  6
CONTINUOUS
 62
     3
 10
262.98812737806662
 20
-57.843295638126158
 30
0.0
 11
261.32961628963949
 21
-57.843295638126158
 31
0.0
  0
LINE
  8
OUTLINE
  6
CONTINUOUS
 62
     3
 10
293.3731825525042
 20
-20.032310177706108
 30
0.0
 11
261.32961628963949
 21
-20.032310177706108
 31
0.0
  0
LINE
  8
OUTLINE
  6
CONTINUOUS
 62
     3
 10
-261.32961628886278
 20
-20.032310177706108
 30
0.0
 11
-293.37318255250398
 21
-20.032310177706108
 31
0.0
  0
LINE
  8
OUTLINE
  6
CONTINUOUS
 62
     3
 10
303.38933764135709
 20
-10.016155088853109
 30
0.0
 11
300.17892012300399
 21
-10.016155088853109
 31
0.0
  0
LINE
  8
OUTLINE
  6
CONTINUOUS
 62
     3
 10
-300.17892012222768
 20
-10.016155088853109
 30
0.0
 11
-303.38933764135692
 21
-10.016155088853109
 31
0.0
  0
LINE
  8
OUTLINE
  6
CONTINUOUS
 62
     3
 10
308.49757673667182
 20
-3.0048465266557969
 30
0.0
 11
306.99515347334409
 21
-3.0048465266557969
 31
0.0
  0
LINE
  8
OUTLINE
  6
CONTINUOUS
 62
     3
 10
308.49757673667182
 20
0.0
 30
0.0
 11
-308.49757673667199
 21
0.0
 31
0.0
  0
LINE
  8
OUTLINE
  6
CONTINUOUS
 62
     3
 10
262.98813544301271
 20
-57.843295638126158
 30
0.0
 11
262.98813544301271
 21
-61.34894991922431
 31
0.0
  0
LINE
  8
OUTLINE
  6
CONTINUOUS
 62
     3
 10
296.97899838449081
 20
-13.89004062543972
 30
0.0
 11
296.97899838449081
 21
-16.426494345718989
 31
0.0
  0
LINE
  8
OUTLINE
  6
CONTINUOUS
 62
     3
 10
306.99515347334409
 20
-3.0048465266557969
 30
0.0
 11
306.99515347334409
 21
-6.4103392568661093
 31
0.0
  0
ARC
  8
OUTLINE
  6
CONTINUOUS
 62
     3
 10
-303.38933764135692
 20
-6.4103392568661093
 30
0.0
 40
3.6058158319870022
 50
180.0
 51
270.0
  0
ARC
  8
OUTLINE
  6
CONTINUOUS
 62
     3
 10
-293.37318255250398
 20
-16.426494345718989
 30
0.0
 40
3.605815831986888
 50
180.0
 51
270.0
  0
ARC
  8
OUTLINE
  6
CONTINUOUS
 62
     3
 10
-293.45581583198708
 20
-82.449499170930608
 30
0.0
 40
2.0032310177705308
 50
90.0
 51
270.0
  0
ARC
  8
OUTLINE
  6
CONTINUOUS
 62
     3
 10
-308.49757673667199
 20
-1.5024232633279551
 30
0.0
 40
1.5024232633279551
 50
90.0
 51
270.0
  0
ARC
  8
OUTLINE
  6
CONTINUOUS
 62
     3
 10
293.3731825525042
 20
-16.426494345718989
 30
0.0
 40
3.6058158319872282
 50
270.0
 51
0.0
  0
ARC
  8
OUTLINE
  6
CONTINUOUS
 62
     3
 10
303.38933764135709
 20
-6.4103392568661093
 30
0.0
 40
3.6058158319872282
 50
270.0
 51
0.0
  0
ARC
  8
OUTLINE
  6
CONTINUOUS
 62
     3
 10
293.45581583198691
 20
-82.449499170930608
 30
0.0
 40
2.0032310177707591
 50
270.0
 51
90.0
  0
ARC
  8
OUTLINE
  6
CONTINUOUS
 62
     3
 10
308.49757673667182
 20
-1.5024232633279551
 30
0.0
 40
1.5024232633279551
 50
270.0
 51
90.0
  0
ARC
  8
OUTLINE
  6
CONTINUOUS
 62
     3
 10
-295.97738287560611
 20
-44.471728594507113
 30
0.0
 40
39.463651050080827
 50
294.25613166250531
 51
331.41289870579533
  0
ARC
  8
OUTLINE
  6
CONTINUOUS
 62
     3
 10
-275.94507269789977
 20
-39.463651050080671
 30
0.0
 40
19.431340872374751
 50
41.208888766302998
 51
90.0
  0
ARC
  8
OUTLINE
  6
CONTINUOUS
 62
     3
 10
295.97738287560611
 20
-44.471728594507113
 30
0.0
 40
39.463651050080792
 50
208.5871012942047
 51
245.7438683375953
  0
ARC
  8
OUTLINE
  6
CONTINUOUS
 62
     3
 10
275.94507269789977
 20
-39.463651050080671
 30
0.0
 40
19.43134087237479
 50
90.0
 51
138.79111123369699
  0
LINE
  8
OUTLINE
  6
CONTINUOUS
 62
     3
 10
-261.32961628886278
 20
-178.28756058158319
 30
0.0
 11
-261.32961628886278
 21
-20.032310177706108
 31
0.0
  0
LINE
  8
OUTLINE
  6
CONTINUOUS
 62
     3
 10
-4.7075928917608962
 20
-313.10500807754448
 30
0.0
 11
4.7075928917608962
 21
-313.10500807754448
 31
0.0
  0
LINE
  8
OUTLINE
  6
CONTINUOUS
 62
     3
 10
57.893376413570188
 20
-312.60420032310162
 30
0.0
 11
-57.893376413570422
 21
-312.60420032310162
 31
0.0
  0
LINE
  8
OUTLINE
  6
CONTINUOUS
 62
     3
 10
89.644588045233832
 20
-290.46849757673681
 30
0.0
 11
65.305331179321456
 21
-290.46849757673681
 31
0.0
  0
LINE
  8
OUTLINE
  6
CONTINUOUS
 62
     3
 10
-184.8387114935567
 20
-286.46203554119518
 30
0.0
 11
-89.644588045234286
 21
-286.46203554119518
 31
0.0
  0
LINE
  8
OUTLINE
  6
CONTINUOUS
 62
     3
 10
89.644588045233832
 20
-286.46203554119518
 30
0.0
 11
184.83871149433301
 21
-286.46203554119518
 31
0.0
  0
LINE
  8
OUTLINE
  6
CONTINUOUS
 62
     3
 10
-89.644588045234286
 20
-290.46849757673681
 30
0.0
 11
-89.644588045234286
 21
-286.46203554119518
 31
0.0
  0
LINE
  8
OUTLINE
  6
CONTINUOUS
 62
     3
 10
-65.305331179321456
 20
-305.1922455573507
 30
0.0
 11
-65.305331179321456
 21
-290.46849757673681
 31
0.0
  0
LINE
  8
OUTLINE
  6
CONTINUOUS
 62
     3
 10
-4.7075928917608962
 20
-313.10500807754448
 30
0.0
 11
-4.7075928917608962
 21
-312.60420032310162
 31
0.0
  0
LINE
  8
OUTLINE
  6
CONTINUOUS
 62
     3
 10
4.7075928917608962
 20
-313.10500807754448
 30
0.0
 11
4.7075928917608962
 21
-312.60420032310162
 31
0.0
  0
LINE
  8
OUTLINE
  6
CONTINUOUS
 62
     3
 10
65.305331179321456
 20
-305.1922455573507
 30
0.0
 11
65.305331179321456
 21
-290.46849757673681
 31
0.0
  0
LINE
  8
OUTLINE
  6
CONTINUOUS
 62
     3
 10
89.644588045233832
 20
-290.46849757673681
 30
0.0
 11
89.644588045233832
 21
-286.46203554119518
 31
0.0
  0
LINE
  8
OUTLINE
  6
CONTINUOUS
 62
     3
 10
261.32961628963949
 20
-20.032310177706108
 30
0.0
 11
261.32961628963949
 21
-178.28756058158319
 31
0.0
  0
ARC
  8
OUTLINE
  6
CONTINUOUS
 62
     3
 10
-57.893376413570422
 20
-305.1922455573507
 30
0.0
 40
7.4119547657512621
 50
180.0
 51
270.0
  0
ARC
  8
OUTLINE
  6
CONTINUOUS
 62
     3
 10
0.0
 20
-308.57520193861069
 30
0.0
 40
6.5330371567044363
 50
223.89739816710619
 51
316.10260183289381
  0
ARC
  8
OUTLINE
  6
CONTINUOUS
 62
     3
 10
57.893376413570188
 20
-305.1922455573507
 30
0.0
 40
7.4119547657511484
 50
270.0
 51
0.0
  0
LINE
  8
DETAIL
  6
CONTINUOUS
 62
     5
 10
-306.99515347334409
 20
-6.4103392568661093
 30
0.0
 11
-306.99515347334409
 21
-3.0048465266557969
 31
0.0
  0
LINE
  8
DETAIL
  6
CONTINUOUS
 62
     5
 10
-303.82456339745289
 20
-3.0048465266557969
 30
0.0
 11
-303.82456339745289
 21
-5.1082390953151844
 31
0.0
  0
LINE
  8
DETAIL
  6
CONTINUOUS
 62
     5
 10
-296.97899838449121
 20
-16.426494345718989
 30
0.0
 11
-296.97899838449121
 21
-13.89004062543972
 31
0.0
  0
LINE
  8
DETAIL
  6
CONTINUOUS
 62
     5
 10
-254.2471251035804
 20
-5.1082390953151844
 30
0.0
 11
-254.2471251035804
 21
-3.0048465266557969
 31
0.0
  0
LINE
  8
DETAIL
  6
CONTINUOUS
 62
     5
 10
-242.91513920852589
 20
-3.0048465266557969
 30
0.0
 11
-242.91513920852589
 21
-6.4103392568661093
 31
0.0
  0
LINE
  8
DETAIL
  6
CONTINUOUS
 62
     5
 10
-235.1747326205307
 20
-14.52342487883698
 30
0.0
 11
-235.1747326205307
 21
-18.529886914377808
 31
0.0
  0
LINE
  8
DETAIL
  6
CONTINUOUS
 62
     5
 10
-230.16665507610449
 20
-14.52342487883698
 30
0.0
 11
-230.16665507610449
 21
-18.082583469612128
 31
0.0
  0
LINE
  8
DETAIL
  6
CONTINUOUS
 62
     5
 10
-225.15857753167759
 20
-18.529886914377808
 30
0.0
 11
-225.15857753167759
 21
-14.52342487883698
 31
0.0
  0
LINE
  8
DETAIL
  6
CONTINUOUS
 62
     5
 10
-213.16867623235751
 20
-14.52342487883698
 30
0.0
 11
-213.16867623235751
 21
-10.016155088853109
 31
0.0
  0
LINE
  8
DETAIL
  6
CONTINUOUS
 62
     5
 10
-201.1284412186196
 20
-13.02100161550902
 30
0.0
 11
-201.1284412186196
 21
-16.426494345718989
 31
0.0
  0
LINE
  8
DETAIL
  6
CONTINUOUS
 62
     5
 10
293.45581583198691
 20
-84.452730188701594
 30
0.0
 11
261.32961628963949
 21
-84.452730188701594
 31
0.0
  0
LINE
  8
DETAIL
  6
CONTINUOUS
 62
     5
 10
230.16665507688049
 20
-84.452730188701594
 30
0.0
 11
-230.16665507610449
 21
-84.452730188701594
 31
0.0
  0
LINE
  8
DETAIL
  6
CONTINUOUS
 62
     5
 10
-261.32961628886278
 20
-84.452730188701594
 30
0.0
 11
-293.45581583198708
 21
-84.452730188701594
 31
0.0
  0
LINE
  8
DETAIL
  6
CONTINUOUS
 62
     5
 10
293.45581583198691
 20
-80.446268153160304
 30
0.0
 11
261.32961628963949
 21
-80.446268153160304
 31
0.0
  0
LINE
  8
DETAIL
  6
CONTINUOUS
 62
     5
 10
230.16665507688049
 20
-80.446268153160304
 30
0.0
 11
-230.16665507610449
 21
-80.446268153160304
 31
0.0
  0
LINE
  8
DETAIL
  6
CONTINUOUS
 62
     5
 10
-261.32961628886278
 20
-80.446268153160304
 30
0.0
 11
-293.45581583198708
 21
-80.446268153160304
 31
0.0
  0
LINE
  8
DETAIL
  6
CONTINUOUS
 62
     5
 10
262.98812737806662
 20
-61.34894991922431
 30
0.0
 11
261.32961628963949
 21
-61.34894991922431
 31
0.0
  0
LINE
  8
DETAIL
  6
CONTINUOUS
 62
     5
 10
262.98812737806662
 20
-57.843295638126158
 30
0.0
 11
261.32961628963949
 21
-57.843295638126158
 31
0.0
  0
LINE
  8
DETAIL
  6
CONTINUOUS
 62
     5
 10
293.3731825525042
 20
-20.032310177706108
 30
0.0
 11
261.32961628963949
 21
-20.032310177706108
 31
0.0
  0
LINE
  8
DETAIL
  6
CONTINUOUS
 62
     5
 10
230.16665507688049
 20
-20.032310177706108
 30
0.0
 11
-230.16665507610449
 21
-20.032310177706108
 31
0.0
  0
LINE
  8
DETAIL
  6
CONTINUOUS
 62
     5
 10
-261.32961628886278
 20
-20.032310177706108
 30
0.0
 11
-293.37318255250398
 21
-20.032310177706108
 31
0.0
  0
LINE
  8
DETAIL
  6
CONTINUOUS
 62
     5
 10
266.3376938340657
 20
-18.529886914377808
 30
0.0
 11
261.32961628963949
 21
-18.529886914377808
 31
0.0
  0
LINE
  8
DETAIL
  6
CONTINUOUS
 62
     5
 10
-225.15857753167759
 20
-18.529886914377808
 30
0.0
 11
-235.1747326205307
 21
-18.529886914377808
 31
0.0
  0
LINE
  8
DETAIL
  6
CONTINUOUS
 62
     5
 10
294.50537591967532
 20
-14.52342487883698
 30
0.0
 11
213.16867623313419
 21
-14.52342487883698
 31
0.0
  0
LINE
  8
DETAIL
  6
CONTINUOUS
 62
     5
 10
-213.16867623235751
 20
-14.52342487883698
 30
0.0
 11
-294.50537591889912
 21
-14.52342487883698
 31
0.0
  0
LINE
  8
DETAIL
  6
CONTINUOUS
 62
     5
 10
303.38933764135709
 20
-10.016155088853109
 30
0.0
 11
300.17892012300399
 21
-10.016155088853109
 31
0.0
  0
LINE
  8
DETAIL
  6
CONTINUOUS
 62
     5
 10
239.3093233773152
 20
-10.016155088853109
 30
0.0
 11
-239.30932337653871
 21
-10.016155088853109
 31
0.0
  0
LINE
  8
DETAIL
  6
CONTINUOUS
 62
     5
 10
-239.30932337653871
 20
-10.016155088853109
 30
0.0
 11
-244.9279376258028
 21
-10.016155088853109
 31
0.0
  0
LINE
  8
DETAIL
  6
CONTINUOUS
 62
     5
 10
-300.17892012222768
 20
-10.016155088853109
 30
0.0
 11
-303.38933764135709
 21
-10.016155088853109
 31
0.0
  0
LINE
  8
DETAIL
  6
CONTINUOUS
 62
     5
 10
239.3093233773152
 20
-10.016155088853109
 30
0.0
 11
244.92793762657951
 21
-10.016155088853109
 31
0.0
  0
LINE
  8
DETAIL
  6
CONTINUOUS
 62
     5
 10
303.8245633982292
 20
-5.1082390953151844
 30
0.0
 11
253.8438191674995
 21
-5.1082390953151844
 31
0.0
  0
LINE
  8
DETAIL
  6
CONTINUOUS
 62
     5
 10
-303.82456339745289
 20
-5.1082390953151844
 30
0.0
 11
-253.84381916672331
 21
-5.1082390953151844
 31
0.0
  0
LINE
  8
DETAIL
  6
CONTINUOUS
 62
     5
 10
308.49757673667182
 20
-3.0048465266557969
 30
0.0
 11
-308.49757673667199
 21
-3.0048465266557969
 31
0.0
  0
LINE
  8
DETAIL
  6
CONTINUOUS
 62
     5
 10
308.49757673667182
 20
0.0
 30
0.0
 11
-308.49757673667199
 21
0.0
 31
0.0
  0
LINE
  8
DETAIL
  6
CONTINUOUS
 62
     5
 10
201.12844121939631
 20
-16.426494345718989
 30
0.0
 11
201.12844121939631
 21
-13.02100161550902
 31
0.0
  0
LINE
  8
DETAIL
  6
CONTINUOUS
 62
     5
 10
213.16867623313419
 20
-14.52342487883698
 30
0.0
 11
213.16867623313419
 21
-10.016155088853109
 31
0.0
  0
LINE
  8
DETAIL
  6
CONTINUOUS
 62
     5
 10
242.9151392093022
 20
-6.4103392568661093
 30
0.0
 11
242.9151392093022
 21
-3.0048465266557969
 31
0.0
  0
LINE
  8
DETAIL
  6
CONTINUOUS
 62
     5
 10
254.24712510435711
 20
-5.1082390953151844
 30
0.0
 11
254.24712510435711
 21
-3.0048465266557969
 31
0.0
  0
LINE
  8
DETAIL
  6
CONTINUOUS
 62
     5
 10
262.98813544301271
 20
-57.843295638126158
 30
0.0
 11
262.98813544301271
 21
-61.34894991922431
 31
0.0
  0
LINE
  8
DETAIL
  6
CONTINUOUS
 62
     5
 10
266.3376938340657
 20
-18.529886914377808
 30
0.0
 11
266.3376938340657
 21
-14.52342487883698
 31
0.0
  0
LINE
  8
DETAIL
  6
CONTINUOUS
 62
     5
 10
296.97899838449081
 20
-13.89004062543972
 30
0.0
 11
296.97899838449081
 21
-16.426494345718989
 31
0.0
  0
LINE
  8
DETAIL
  6
CONTINUOUS
 62
     5
 10
303.8245633982292
 20
-5.1082390953151844
 30
0.0
 11
303.8245633982292
 21
-3.0048465266557969
 31
0.0
  0
LINE
  8
DETAIL
  6
CONTINUOUS
 62
     5
 10
306.99515347334409
 20
-3.0048465266557969
 30
0.0
 11
306.99515347334409
 21
-6.4103392568661093
 31
0.0
  0
ARC
  8
DETAIL
  6
CONTINUOUS
 62
     5
 10
-303.38933764135709
 20
-6.4103392568661093
 30
0.0
 40
3.6058158319870022
 50
180.0
 51
270.0
  0
ARC
  8
DETAIL
  6
CONTINUOUS
 62
     5
 10
-197.5226253866326
 20
-16.426494345718989
 30
0.0
 40
3.605815831987115
 50
180.0
 51
270.0
  0
ARC
  8
DETAIL
  6
CONTINUOUS
 62
     5
 10
-293.37318255250398
 20
-16.426494345718989
 30
0.0
 40
3.605815831986888
 50
180.0
 51
270.0
  0
ARC
  8
DETAIL
  6
CONTINUOUS
 62
     5
 10
-239.30932337653871
 20
-6.4103392568661093
 30
0.0
 40
3.605815831987115
 50
180.0
 51
270.0
  0
ARC
  8
DETAIL
  6
CONTINUOUS
 62
     5
 10
-204.13328774527579
 20
-13.02100161550902
 30
0.0
 40
3.004846526655911
 50
0.0
 51
90.0
  0
ARC
  8
DETAIL
  6
CONTINUOUS
 62
     5
 10
-293.45581583198708
 20
-82.449499170930608
 30
0.0
 40
2.0032310177705308
 50
90.0
 51
270.0
  0
ARC
  8
DETAIL
  6
CONTINUOUS
 62
     5
 10
-308.49757673667199
 20
-1.5024232633279551
 30
0.0
 40
1.5024232633279551
 50
90.0
 51
270.0
  0
ARC
  8
DETAIL
  6
CONTINUOUS
 62
     5
 10
197.52262538740891
 20
-16.426494345718989
 30
0.0
 40
3.6058158319872282
 50
270.0
 51
0.0
  0
ARC
  8
DETAIL
  6
CONTINUOUS
 62
     5
 10
239.3093233773152
 20
-6.4103392568661093
 30
0.0
 40
3.6058158319872282
 50
270.0
 51
0.0
  0
ARC
  8
DETAIL
  6
CONTINUOUS
 62
     5
 10
204.13328774605179
 20
-13.02100161550902
 30
0.0
 40
3.004846526655911
 50
90.0
 51
180.0
  0
ARC
  8
DETAIL
  6
CONTINUOUS
 62
     5
 10
293.3731825525042
 20
-16.426494345718989
 30
0.0
 40
3.6058158319872282
 50
270.0
 51
0.0
  0
ARC
  8
DETAIL
  6
CONTINUOUS
 62
     5
 10
303.38933764135709
 20
-6.4103392568661093
 30
0.0
 40
3.6058158319872282
 50
270.0
 51
0.0
  0
ARC
  8
DETAIL
  6
CONTINUOUS
 62
     5
 10
293.45581583198691
 20
-82.449499170930608
 30
0.0
 40
2.0032310177707591
 50
270.0
 51
90.0
  0
ARC
  8
DETAIL
  6
CONTINUOUS
 62
     5
 10
308.49757673667182
 20
-1.5024232633279551
 30
0.0
 40
1.5024232633279551
 50
270.0
 51
90.0
  0
LINE
  8
DETAIL
  6
CONTINUOUS
 62
     5
 10
-230.0814617166823
 20
-18.110485527782881
 30
0.0
 11
-230.16665507610449
 21
-18.082583469612128
 31
0.0
  0
ARC
  8
DETAIL
  6
CONTINUOUS
 62
     5
 10
-295.97738287560611
 20
-44.471728594507113
 30
0.0
 40
39.463651050080827
 50
294.25613166249082
 51
331.41289870579533
  0
ARC
  8
DETAIL
  6
CONTINUOUS
 62
     5
 10
-275.94507269789977
 20
-39.463651050080671
 30
0.0
 40
19.431340872374751
 50
41.208888766300547
 51
90.0
  0
ARC
  8
DETAIL
  6
CONTINUOUS
 62
     5
 10
295.97738287560611
 20
-44.471728594507113
 30
0.0
 40
39.463651050080792
 50
208.5871012942047
 51
245.7438683376098
  0
ARC
  8
DETAIL
  6
CONTINUOUS
 62
     5
 10
275.94507269789977
 20
-39.463651050080671
 30
0.0
 40
19.43134087237479
 50
90.0
 51
138.79111123369699
  0
LINE
  8
DETAIL
  6
CONTINUOUS
 62
     5
 10
-261.32961628886278
 20
-178.28756058158319
 30
0.0
 11
-261.32961628886278
 21
-14.52342487883698
 31
0.0
  0
LINE
  8
DETAIL
  6
CONTINUOUS
 62
     5
 10
-257.08012157753819
 20
-14.52342487883698
 30
0.0
 11
-257.08012157753819
 21
-178.28756058158319
 31
0.0
  0
LINE
  8
DETAIL
  6
CONTINUOUS
 62
     5
 10
-230.16665507610449
 20
-18.529886914377808
 30
0.0
 11
-230.16665507610449
 21
-178.28756058158319
 31
0.0
  0
LINE
  8
DETAIL
  6
CONTINUOUS
 62
     5
 10
-4.7075928917608962
 20
-313.10500807754448
 30
0.0
 11
4.7075928917608962
 21
-313.10500807754448
 31
0.0
  0
LINE
  8
DETAIL
  6
CONTINUOUS
 62
     5
 10
57.893376413570188
 20
-312.60420032310162
 30
0.0
 11
-57.893376413570422
 21
-312.60420032310162
 31
0.0
  0
LINE
  8
DETAIL
  6
CONTINUOUS
 62
     5
 10
89.644588045233832
 20
-290.46849757673681
 30
0.0
 11
-89.644588045234286
 21
-290.46849757673681
 31
0.0
  0
LINE
  8
DETAIL
  6
CONTINUOUS
 62
     5
 10
-184.8387114935567
 20
-286.46203554119518
 30
0.0
 11
-89.644588045234286
 21
-286.46203554119518
 31
0.0
  0
LINE
  8
DETAIL
  6
CONTINUOUS
 62
     5
 10
89.644588045233832
 20
-286.46203554119518
 30
0.0
 11
184.83871149433301
 21
-286.46203554119518
 31
0.0
  0
LINE
  8
DETAIL
  6
CONTINUOUS
 62
     5
 10
-1.4461614875206119
 20
-264.0543211912435
 30
0.0
 11
1.4460395187036279
 21
-264.0543211912435
 31
0.0
  0
LINE
  8
DETAIL
  6
CONTINUOUS
 62
     5
 10
-2.381340769107283
 20
-263.25302878413538
 30
0.0
 11
2.3813546651638262
 21
-263.25302878413538
 31
0.0
  0
LINE
  8
DETAIL
  6
CONTINUOUS
 62
     5
 10
-89.644588045234286
 20
-290.46849757673681
 30
0.0
 11
-89.644588045234286
 21
-248.4006462035542
 31
0.0
  0
LINE
  8
DETAIL
  6
CONTINUOUS
 62
     5
 10
83.634894991922465
 20
-249.40226171243921
 30
0.0
 11
-83.634894991922465
 21
-249.40226171243921
 31
0.0
  0
LINE
  8
DETAIL
  6
CONTINUOUS
 62
     5
 10
-86.1389337641358
 20
-249.40226171243921
 30
0.0
 11
-83.84389108782625
 21
-249.40226171243921
 31
0.0
  0
LINE
  8
DETAIL
  6
CONTINUOUS
 62
     5
 10
83.843891088602504
 20
-249.40226171243921
 30
0.0
 11
86.1389337641358
 21
-249.40226171243921
 31
0.0
  0
LINE
  8
DETAIL
  6
CONTINUOUS
 62
     5
 10
-180.5892167830084
 20
-248.4006462035542
 30
0.0
 11
-89.644588045234286
 21
-248.4006462035542
 31
0.0
  0
LINE
  8
DETAIL
  6
CONTINUOUS
 62
     5
 10
89.644588045233832
 20
-248.4006462035542
 30
0.0
 11
180.5892167830084
 21
-248.4006462035542
 31
0.0
  0
LINE
  8
DETAIL
  6
CONTINUOUS
 62
     5
 10
-86.1389337641358
 20
-245.39579967689821
 30
0.0
 11
86.1389337641358
 21
-245.39579967689821
 31
0.0
  0
LINE
  8
DETAIL
  6
CONTINUOUS
 62
     5
 10
81.53151808340499
 20
-243.39256865912751
 30
0.0
 11
61.045682930858668
 21
-243.39256865912751
 31
0.0
  0
LINE
  8
DETAIL
  6
CONTINUOUS
 62
     5
 10
48.024681315349881
 20
-243.39256865912751
 30
0.0
 11
-48.0246813145734
 21
-243.39256865912751
 31
0.0
  0
LINE
  8
DETAIL
  6
CONTINUOUS
 62
     5
 10
-61.045682930082187
 20
-243.39256865912751
 30
0.0
 11
-81.531518082628736
 21
-243.39256865912751
 31
0.0
  0
LINE
  8
DETAIL
  6
CONTINUOUS
 62
     5
 10
-61.045682930082187
 20
-238.8852988691439
 30
0.0
 11
-48.0246813145734
 21
-238.8852988691439
 31
0.0
  0
LINE
  8
DETAIL
  6
CONTINUOUS
 62
     5
 10
48.024681315349881
 20
-238.8852988691439
 30
0.0
 11
61.045682930858668
 21
-238.8852988691439
 31
0.0
  0
LINE
  8
DETAIL
  6
CONTINUOUS
 62
     5
 10
-81.531502423263419
 20
-203.32794830371549
 30
0.0
 11
-81.531502423263419
 21
-243.39256865912751
 31
0.0
  0
LINE
  8
DETAIL
  6
CONTINUOUS
 62
     5
 10
-75.546392321423809
 20
-203.32794830371549
 30
0.0
 11
-75.546392321423809
 21
-243.39256865912751
 31
0.0
  0
LINE
  8
DETAIL
  6
CONTINUOUS
 62
     5
 10
-65.305331179321456
 20
-305.1922455573507
 30
0.0
 11
-65.305331179321456
 21
-290.46849757673681
 31
0.0
  0
LINE
  8
DETAIL
  6
CONTINUOUS
 62
     5
 10
-65.305331179321456
 20
-203.32794830371549
 30
0.0
 11
-65.305331179321456
 21
-159.8578352180937
 31
0.0
  0
LINE
  8
DETAIL
  6
CONTINUOUS
 62
     5
 10
-61.045682930082187
 20
-245.39579967689821
 30
0.0
 11
-61.045682930082187
 21
-238.8852988691439
 31
0.0
  0
LINE
  8
DETAIL
  6
CONTINUOUS
 62
     5
 10
-60.181874557438277
 20
-203.32794830371549
 30
0.0
 11
-60.181874557438277
 21
-238.8852988691439
 31
0.0
  0
LINE
  8
DETAIL
  6
CONTINUOUS
 62
     5
 10
81.531502423263191
 20
-203.32794830371549
 30
0.0
 11
66.078740352230852
 21
-203.32794830371549
 31
0.0
  0
LINE
  8
DETAIL
  6
CONTINUOUS
 62
     5
 10
-81.531502423263419
 20
-203.32794830371549
 30
0.0
 11
59.206366315963578
 21
-203.32794830371549
 31
0.0
  0
LINE
  8
DETAIL
  6
CONTINUOUS
 62
     5
 10
-58.502240775344028
 20
-203.32794830371549
 30
0.0
 11
-58.502240775344028
 21
-238.8852988691439
 31
0.0
  0
LINE
  8
DETAIL
  6
CONTINUOUS
 62
     5
 10
-54.535182122328017
 20
-245.39579967689821
 30
0.0
 11
-54.535182122328017
 21
-239.46679334718411
 31
0.0
  0
LINE
  8
DETAIL
  6
CONTINUOUS
 62
     5
 10
-48.0246813145734
 20
-245.39579967689821
 30
0.0
 11
-48.0246813145734
 21
-238.8852988691439
 31
0.0
  0
LINE
  8
DETAIL
  6
CONTINUOUS
 62
     5
 10
-44.858052732063697
 20
-203.32794830371549
 30
0.0
 11
-44.858052732063697
 21
-243.39256865912751
 31
0.0
  0
LINE
  8
DETAIL
  6
CONTINUOUS
 62
     5
 10
-32.993865352168541
 20
-203.32794830371549
 30
0.0
 11
-32.993865352168541
 21
-243.39256865912751
 31
0.0
  0
LINE
  8
DETAIL
  6
CONTINUOUS
 62
     5
 10
-23.037156704361909
 20
-110.5783521809368
 30
0.0
 11
-23.037156704361909
 21
-102.56542810985469
 31
0.0
  0
LINE
  8
DETAIL
  6
CONTINUOUS
 62
     5
 10
-22.704999017319778
 20
-203.32794830371549
 30
0.0
 11
-22.704999017319778
 21
-243.39256865912751
 31
0.0
  0
LINE
  8
DETAIL
  6
CONTINUOUS
 62
     5
 10
-19.030694668820619
 20
-116.5880452342486
 30
0.0
 11
-19.030694668820619
 21
-112.58158319870761
 31
0.0
  0
LINE
  8
DETAIL
  6
CONTINUOUS
 62
     5
 10
-14.02261712439417
 20
-122.0969305331181
 30
0.0
 11
-14.02261712439417
 21
-117.5896607431341
 31
0.0
  0
LINE
  8
DETAIL
  6
CONTINUOUS
 62
     5
 10
-26.049655247398281
 20
-148.63974151857849
 30
0.0
 11
-25.220514363702481
 21
-139.16261785152361
 31
0.0
  0
LINE
  8
DETAIL
  6
CONTINUOUS
 62
     5
 10
18.029082971509521
 20
-117.5896645554844
 30
0.0
 11
19.030698692364691
 21
-116.588049258569
 31
0.0
  0
LINE
  8
DETAIL
  6
CONTINUOUS
 62
     5
 10
-8.5137318255251557
 20
-134.11631663974151
 30
0.0
 11
-8.5137318255251557
 21
-122.0969305331181
 31
0.0
  0
LINE
  8
DETAIL
  6
CONTINUOUS
 62
     5
 10
-6.1568613804961387
 20
-122.0969305331181
 30
0.0
 11
-6.1568613804961387
 21
-120.0936995153471
 31
0.0
  0
LINE
  8
DETAIL
  6
CONTINUOUS
 62
     5
 10
-4.7075928917608962
 20
-313.10500807754448
 30
0.0
 11
-4.7075928917608962
 21
-312.60420032310162
 31
0.0
  0
LINE
  8
DETAIL
  6
CONTINUOUS
 62
     5
 10
-2.9046849757673949
 20
-203.32794830371549
 30
0.0
 11
-2.9046849757673949
 21
-243.39256865912751
 31
0.0
  0
LINE
  8
DETAIL
  6
CONTINUOUS
 62
     5
 10
2.9046849757673949
 20
-203.32794830371549
 30
0.0
 11
2.9046849757673949
 21
-243.39256865912751
 31
0.0
  0
LINE
  8
DETAIL
  6
CONTINUOUS
 62
     5
 10
4.7075928917608962
 20
-313.10500807754448
 30
0.0
 11
4.7075928917608962
 21
-312.60420032310162
 31
0.0
  0
LINE
  8
DETAIL
  6
CONTINUOUS
 62
     5
 10
6.0800045985647557
 20
-122.0969305331181
 30
0.0
 11
6.0800045985647557
 21
-120.0936995153471
 31
0.0
  0
LINE
  8
DETAIL
  6
CONTINUOUS
 62
     5
 10
8.5137318255251557
 20
-134.11631663974151
 30
0.0
 11
8.5137318255251557
 21
-122.0969305331181
 31
0.0
  0
LINE
  8
DETAIL
  6
CONTINUOUS
 62
     5
 10
10.50984111788193
 20
-151.90054077143691
 30
0.0
 11
12.85210558550307
 21
-149.55825339477261
 31
0.0
  0
LINE
  8
DETAIL
  6
CONTINUOUS
 62
     5
 10
-15.024232633279549
 20
-134.11631663974151
 30
0.0
 11
-20.667976778975799
 21
-134.61008027223181
 31
0.0
  0
LINE
  8
DETAIL
  6
CONTINUOUS
 62
     5
 10
-57.893376413570422
 20
-152.44588045234229
 30
0.0
 11
57.893376413570188
 21
-152.44588045234229
 31
0.0
  0
LINE
  8
DETAIL
  6
CONTINUOUS
 62
     5
 10
-13.020926248212159
 20
-151.94507269790009
 30
0.0
 11
13.02100161550902
 21
-151.94507269790009
 31
0.0
  0
LINE
  8
DETAIL
  6
CONTINUOUS
 62
     5
 10
26.049655248174531
 20
-148.63974151857849
 30
0.0
 11
-26.049655247398281
 21
-148.63974151857849
 31
0.0
  0
LINE
  8
DETAIL
  6
CONTINUOUS
 62
     5
 10
15.024232633279549
 20
-134.11631663974151
 30
0.0
 11
-15.024232633279549
 21
-134.11631663974151
 31
0.0
  0
LINE
  8
DETAIL
  6
CONTINUOUS
 62
     5
 10
15.024232633279549
 20
-134.11631663974151
 30
0.0
 11
20.66797677975228
 21
-134.61008027223181
 31
0.0
  0
LINE
  8
DETAIL
  6
CONTINUOUS
 62
     5
 10
-10.50984111710568
 20
-151.90054077143691
 30
0.0
 11
-12.852105584726591
 21
-149.55825339477261
 31
0.0
  0
LINE
  8
DETAIL
  6
CONTINUOUS
 62
     5
 10
-18.029082971509521
 20
-117.5896645554844
 30
0.0
 11
-19.03069869158799
 21
-116.58804925779251
 31
0.0
  0
LINE
  8
DETAIL
  6
CONTINUOUS
 62
     5
 10
26.049655248174531
 20
-148.63974151857849
 30
0.0
 11
25.220514364478731
 21
-139.16261785152361
 31
0.0
  0
LINE
  8
DETAIL
  6
CONTINUOUS
 62
     5
 10
14.02261712439417
 20
-122.0969305331181
 30
0.0
 11
14.02261712439417
 21
-117.5896607431341
 31
0.0
  0
LINE
  8
DETAIL
  6
CONTINUOUS
 62
     5
 10
19.030694668820619
 20
-116.5880452342486
 30
0.0
 11
19.030694668820619
 21
-112.58158319870761
 31
0.0
  0
LINE
  8
DETAIL
  6
CONTINUOUS
 62
     5
 10
22.70499901809626
 20
-203.32794830371549
 30
0.0
 11
22.70499901809626
 21
-243.39256865912751
 31
0.0
  0
LINE
  8
DETAIL
  6
CONTINUOUS
 62
     5
 10
23.037156704361909
 20
-110.5783521809368
 30
0.0
 11
23.037156704361909
 21
-102.56542810985469
 31
0.0
  0
LINE
  8
DETAIL
  6
CONTINUOUS
 62
     5
 10
32.993865352944788
 20
-203.32794830371549
 30
0.0
 11
32.993865352944788
 21
-243.39256865912751
 31
0.0
  0
LINE
  8
DETAIL
  6
CONTINUOUS
 62
     5
 10
14.02234276793024
 20
-122.0969305331181
 30
0.0
 11
6.0799822275989754
 21
-122.0969305331181
 31
0.0
  0
LINE
  8
DETAIL
  6
CONTINUOUS
 62
     5
 10
-6.1568561092035452
 20
-122.0969305331181
 30
0.0
 11
-14.02240771531979
 21
-122.0969305331181
 31
0.0
  0
LINE
  8
DETAIL
  6
CONTINUOUS
 62
     5
 10
-14.02240771531979
 20
-120.0936995153471
 30
0.0
 11
14.02204835275688
 21
-120.0936995153471
 31
0.0
  0
LINE
  8
DETAIL
  6
CONTINUOUS
 62
     5
 10
18.029079160711721
 20
-117.5896607431341
 30
0.0
 11
-18.02907915993546
 21
-117.5896607431341
 31
0.0
  0
LINE
  8
DETAIL
  6
CONTINUOUS
 62
     5
 10
19.030694668820619
 20
-116.5880452342486
 30
0.0
 11
-19.030694668820619
 21
-116.5880452342486
 31
0.0
  0
LINE
  8
DETAIL
  6
CONTINUOUS
 62
     5
 10
-23.037156704361909
 20
-110.5783521809368
 30
0.0
 11
23.037156704361909
 21
-110.5783521809368
 31
0.0
  0
LINE
  8
DETAIL
  6
CONTINUOUS
 62
     5
 10
-28.423330403000591
 20
-102.56542810985469
 30
0.0
 11
-28.17157193553021
 21
-102.7328098167839
 31
0.0
  0
LINE
  8
DETAIL
  6
CONTINUOUS
 62
     5
 10
44.858052732839951
 20
-203.32794830371549
 30
0.0
 11
44.858052732839951
 21
-243.39256865912751
 31
0.0
  0
LINE
  8
DETAIL
  6
CONTINUOUS
 62
     5
 10
48.024681315349881
 20
-245.39579967689821
 30
0.0
 11
48.024681315349881
 21
-238.8852988691439
 31
0.0
  0
LINE
  8
DETAIL
  6
CONTINUOUS
 62
     5
 10
54.535182123104278
 20
-245.39579967689821
 30
0.0
 11
54.535182123104278
 21
-239.46679334718411
 31
0.0
  0
LINE
  8
DETAIL
  6
CONTINUOUS
 62
     5
 10
58.502240776120523
 20
-203.32794830371549
 30
0.0
 11
58.502240776120523
 21
-238.8852988691439
 31
0.0
  0
LINE
  8
DETAIL
  6
CONTINUOUS
 62
     5
 10
60.181874558214531
 20
-203.680971584476
 30
0.0
 11
60.181874558214531
 21
-238.8852988691439
 31
0.0
  0
LINE
  8
DETAIL
  6
CONTINUOUS
 62
     5
 10
33.059045094739083
 20
-102.56542810985469
 30
0.0
 11
-62.600957244793342
 21
-102.56542810985469
 31
0.0
  0
LINE
  8
DETAIL
  6
CONTINUOUS
 62
     5
 10
61.045682930858668
 20
-245.39579967689821
 30
0.0
 11
61.045682930858668
 21
-238.8852988691439
 31
0.0
  0
LINE
  8
DETAIL
  6
CONTINUOUS
 62
     5
 10
63.549721703072009
 20
-249.40226171243921
 30
0.0
 11
63.549721703072009
 21
-245.39579967689821
 31
0.0
  0
LINE
  8
DETAIL
  6
CONTINUOUS
 62
     5
 10
65.305331179321456
 20
-305.1922455573507
 30
0.0
 11
65.305331179321456
 21
-290.46849757673681
 31
0.0
  0
LINE
  8
DETAIL
  6
CONTINUOUS
 62
     5
 10
65.305331179321456
 20
-189.0884505936308
 30
0.0
 11
65.305331179321456
 21
-159.8578352180937
 31
0.0
  0
LINE
  8
DETAIL
  6
CONTINUOUS
 62
     5
 10
75.546392322200063
 20
-203.32794830371549
 30
0.0
 11
75.546392322200063
 21
-243.39256865912751
 31
0.0
  0
LINE
  8
DETAIL
  6
CONTINUOUS
 62
     5
 10
81.531502423263191
 20
-203.32794830371549
 30
0.0
 11
81.531502423263191
 21
-243.39256865912751
 31
0.0
  0
LINE
  8
DETAIL
  6
CONTINUOUS
 62
     5
 10
86.1389337641358
 20
-249.40226171243921
 30
0.0
 11
86.1389337641358
 21
-245.39579967689821
 31
0.0
  0
LINE
  8
DETAIL
  6
CONTINUOUS
 62
     5
 10
89.644588045233832
 20
-290.46849757673681
 30
0.0
 11
89.644588045233832
 21
-248.4006462035542
 31
0.0
  0
LINE
  8
DETAIL
  6
CONTINUOUS
 62
     5
 10
230.16665507688049
 20
-178.28756058158319
 30
0.0
 11
230.16665507688049
 21
-14.52342487883698
 31
0.0
  0
LINE
  8
DETAIL
  6
CONTINUOUS
 62
     5
 10
257.08012157831439
 20
-178.28756058158319
 30
0.0
 11
257.08012157831439
 21
-14.52342487883698
 31
0.0
  0
LINE
  8
DETAIL
  6
CONTINUOUS
 62
     5
 10
261.32961628963949
 20
-14.52342487883698
 30
0.0
 11
261.32961628963949
 21
-178.28756058158319
 31
0.0
  0
ARC
  8
DETAIL
  6
CONTINUOUS
 62
     5
 10
-57.893376413570422
 20
-305.1922455573507
 30
0.0
 40
7.4119547657512621
 50
180.0
 51
270.0
  0
ARC
  8
DETAIL
  6
CONTINUOUS
 62
     5
 10
-57.893376413570422
 20
-159.8578352180937
 30
0.0
 40
7.4119547657512621
 50
90.0
 51
180.0
  0
ARC
  8
DETAIL
  6
CONTINUOUS
 62
     5
 10
0.0
 20
-308.57520193861069
 30
0.0
 40
6.5330371567044363
 50
223.89739816710619
 51
316.10260183289381
  0
ARC
  8
DETAIL
  6
CONTINUOUS
 62
     5
 10
-83.634894991922465
 20
-255.41195476575129
 30
0.0
 40
6.0096930533118211
 50
90.0
 51
180.0
  0
ARC
  8
DETAIL
  6
CONTINUOUS
 62
     5
 10
-13.021001615508791
 20
-155.55088852988669
 30
0.0
 40
3.605815831987115
 50
90.0
 51
120.506440523093
  0
ARC
  8
DETAIL
  6
CONTINUOUS
 62
     5
 10
-68.109854604200336
 20
-243.39256865912751
 30
0.0
 40
2.0032310177706449
 50
270.0
 51
0.0
  0
ARC
  8
DETAIL
  6
CONTINUOUS
 62
     5
 10
-11.7189014539581
 20
-148.42506034699619
 30
0.0
 40
1.6025848142164141
 50
187.7007011247031
 51
224.99971980700289
  0
ARC
  8
DETAIL
  6
CONTINUOUS
 62
     5
 10
-11.218093699515521
 20
-152.6087864263942
 30
0.0
 40
1.0016155088853369
 50
41.60912293928893
 51
44.999719806986782
  0
ARC
  8
DETAIL
  6
CONTINUOUS
 62
     5
 10
-20.23149406684956
 20
-139.5991005706376
 30
0.0
 40
5.0080775444262784
 50
94.999999935999284
 51
174.99999998889709
  0
ARC
  8
DETAIL
  6
CONTINUOUS
 62
     5
 10
-21.03392568659137
 20
-112.58158319870761
 30
0.0
 40
2.0032310177705308
 50
0.0
 51
90.0
  0
ARC
  8
DETAIL
  6
CONTINUOUS
 62
     5
 10
57.893376413570188
 20
-305.1922455573507
 30
0.0
 40
7.4119547657511484
 50
270.0
 51
0.0
  0
ARC
  8
DETAIL
  6
CONTINUOUS
 62
     5
 10
57.893376413570188
 20
-159.8578352180937
 30
0.0
 40
7.4119547657512017
 50
0.0
 51
90.0
  0
ARC
  8
DETAIL
  6
CONTINUOUS
 62
     5
 10
83.634894991922465
 20
-255.41195476575129
 30
0.0
 40
6.0096930533118211
 50
0.0
 51
90.0
  0
ARC
  8
DETAIL
  6
CONTINUOUS
 62
     5
 10
13.02100161550902
 20
-155.55088852988669
 30
0.0
 40
3.6058158319870568
 50
59.493559476907024
 51
90.0
  0
ARC
  8
DETAIL
  6
CONTINUOUS
 62
     5
 10
68.109854604200336
 20
-243.39256865912751
 30
0.0
 40
2.0032310177707018
 50
180.0
 51
270.0
  0
ARC
  8
DETAIL
  6
CONTINUOUS
 62
     5
 10
11.718901453957869
 20
-148.42506034699619
 30
0.0
 40
1.602584814216572
 50
315.00028019299708
 51
352.29929887529693
  0
ARC
  8
DETAIL
  6
CONTINUOUS
 62
     5
 10
11.21809369951529
 20
-152.6087864263942
 30
0.0
 40
1.0016155088851819
 50
135.0002801930132
 51
138.39087706071109
  0
ARC
  8
DETAIL
  6
CONTINUOUS
 62
     5
 10
20.231494067626041
 20
-139.5991005706376
 30
0.0
 40
5.008077544426496
 50
5.0000000111029186
 51
85.00000006400073
  0
ARC
  8
DETAIL
  6
CONTINUOUS
 62
     5
 10
21.03392568659137
 20
-112.58158319870761
 30
0.0
 40
2.0032310177705308
 50
90.0
 51
180.0
  0
ARC
  8
DETAIL
  6
CONTINUOUS
 62
     5
 10
-60.773437546330108
 20
1564.2441752467471
 30
0.0
 40
1666.8099471521959
 50
269.40262195160409
 51
269.94241917430293
  0
ARC
  8
DETAIL
  6
CONTINUOUS
 62
     5
 10
370.94794773064859
 20
520.03513805169609
 30
0.0
 40
742.14962077008454
 50
237.02626989120739
 51
237.93536630230111
  0
LINE
  8
DETAIL
  6
CONTINUOUS
 62
     5
 10
-62.448539623097993
 20
-102.5649725852148
 30
0.0
 11
-61.290718406732587
 21
-102.56542810985469
 31
0.0
  0
LINE
  8
DETAIL
  6
CONTINUOUS
 62
     5
 10
-62.448540387897538
 20
-102.5654298646227
 30
0.0
 11
-62.562831696935518
 21
-102.5648666065297
 31
0.0
  0
LINE
  8
DETAIL
  6
CONTINUOUS
 62
     5
 10
-77.226665347163816
 20
-101.86650085852349
 30
0.0
 11
-77.226665347163816
 21
-101.86650085852349
 31
0.0
  0
LINE
  8
DETAIL
  6
CONTINUOUS
 62
     5
 10
-77.226665347163816
 20
-101.86650085852349
 30
0.0
 11
-77.171296375672682
 21
-101.8294881729861
 31
0.0
  0
LINE
  8
DETAIL
  6
CONTINUOUS
 62
     5
 10
-77.171296375672682
 20
-101.8294881729861
 30
0.0
 11
-77.116496183472918
 21
-101.7927971531162
 31
0.0
  0
LINE
  8
DETAIL
  6
CONTINUOUS
 62
     5
 10
-77.116496183472918
 20
-101.7927971531162
 30
0.0
 11
-77.116496183472918
 21
-101.7927971531162
 31
0.0
  0
LINE
  8
DETAIL
  6
CONTINUOUS
 62
     5
 10
-77.116496183472918
 20
-101.7927971531162
 30
0.0
 11
-77.06241028657314
 21
-101.7565269840336
 31
0.0
  0
LINE
  8
DETAIL
  6
CONTINUOUS
 62
     5
 10
-77.06241028657314
 20
-101.7565269840336
 30
0.0
 11
-77.006438622536052
 21
-101.7189268984572
 31
0.0
  0
LINE
  8
DETAIL
  6
CONTINUOUS
 62
     5
 10
-77.006438622536052
 20
-101.7189268984572
 30
0.0
 11
-77.006438622536052
 21
-101.7189268984572
 31
0.0
  0
LINE
  8
DETAIL
  6
CONTINUOUS
 62
     5
 10
-77.006438622536052
 20
-101.7189268984572
 30
0.0
 11
-76.946389972862107
 21
-101.67851992488509
 31
0.0
  0
LINE
  8
DETAIL
  6
CONTINUOUS
 62
     5
 10
-76.946389972862107
 20
-101.67851992488509
 30
0.0
 11
-76.884454073243887
 21
-101.6367742273335
 31
0.0
  0
LINE
  8
DETAIL
  6
CONTINUOUS
 62
     5
 10
-76.884454073243887
 20
-101.6367742273335
 30
0.0
 11
-76.884454073243887
 21
-101.6367742273335
 31
0.0
  0
LINE
  8
DETAIL
  6
CONTINUOUS
 62
     5
 10
-76.884454073243887
 20
-101.6367742273335
 30
0.0
 11
-76.823233675870142
 21
-101.5954367274275
 31
0.0
  0
LINE
  8
DETAIL
  6
CONTINUOUS
 62
     5
 10
-76.823233675870142
 20
-101.5954367274275
 30
0.0
 11
-76.762602644711933
 21
-101.55442424171579
 31
0.0
  0
LINE
  8
DETAIL
  6
CONTINUOUS
 62
     5
 10
-76.762602644711933
 20
-101.55442424171579
 30
0.0
 11
-76.762602644711933
 21
-101.55442424171579
 31
0.0
  0
LINE
  8
DETAIL
  6
CONTINUOUS
 62
     5
 10
-76.762602644711933
 20
-101.55442424171579
 30
0.0
 11
-76.701878523722144
 21
-101.5132796703904
 31
0.0
  0
LINE
  8
DETAIL
  6
CONTINUOUS
 62
     5
 10
-76.701878523722144
 20
-101.5132796703904
 30
0.0
 11
-76.640882464987044
 21
-101.4718803533052
 31
0.0
  0
LINE
  8
DETAIL
  6
CONTINUOUS
 62
     5
 10
-76.640882464987044
 20
-101.4718803533052
 30
0.0
 11
-76.640882464987044
 21
-101.4718803533052
 31
0.0
  0
LINE
  8
DETAIL
  6
CONTINUOUS
 62
     5
 10
-76.640882464987044
 20
-101.4718803533052
 30
0.0
 11
-76.579740136547343
 21
-101.4303103268371
 31
0.0
  0
LINE
  8
DETAIL
  6
CONTINUOUS
 62
     5
 10
-76.579740136547343
 20
-101.4303103268371
 30
0.0
 11
-76.519291662116984
 21
-101.3891459738023
 31
0.0
  0
LINE
  8
DETAIL
  6
CONTINUOUS
 62
     5
 10
-76.519291662116984
 20
-101.3891459738023
 30
0.0
 11
-76.519291662116984
 21
-101.3891459738023
 31
0.0
  0
LINE
  8
DETAIL
  6
CONTINUOUS
 62
     5
 10
-76.519291662116984
 20
-101.3891459738023
 30
0.0
 11
-76.45971542162124
 21
-101.34851080727231
 31
0.0
  0
LINE
  8
DETAIL
  6
CONTINUOUS
 62
     5
 10
-76.45971542162124
 20
-101.34851080727231
 30
0.0
 11
-76.397828364148609
 21
-101.3062245149075
 31
0.0
  0
LINE
  8
DETAIL
  6
CONTINUOUS
 62
     5
 10
-76.397828364148609
 20
-101.3062245149075
 30
0.0
 11
-76.397828364148609
 21
-101.3062245149075
 31
0.0
  0
LINE
  8
DETAIL
  6
CONTINUOUS
 62
     5
 10
-76.397828364148609
 20
-101.3062245149075
 30
0.0
 11
-76.330947970884154
 21
-101.2604477207599
 31
0.0
  0
LINE
  8
DETAIL
  6
CONTINUOUS
 62
     5
 10
-76.330947970884154
 20
-101.2604477207599
 30
0.0
 11
-76.26175528224303
 21
-101.21300861984621
 31
0.0
  0
LINE
  8
DETAIL
  6
CONTINUOUS
 62
     5
 10
-76.26175528224303
 20
-101.21300861984621
 30
0.0
 11
-76.26175528224303
 21
-101.21300861984621
 31
0.0
  0
LINE
  8
DETAIL
  6
CONTINUOUS
 62
     5
 10
-76.26175528224303
 20
-101.21300861984621
 30
0.0
 11
-76.193436895505101
 21
-101.1660825168091
 31
0.0
  0
LINE
  8
DETAIL
  6
CONTINUOUS
 62
     5
 10
-76.193436895505101
 20
-101.1660825168091
 30
0.0
 11
-76.125838076178525
 21
-101.119565583818
 31
0.0
  0
LINE
  8
DETAIL
  6
CONTINUOUS
 62
     5
 10
-76.125838076178525
 20
-101.119565583818
 30
0.0
 11
-76.125838076178525
 21
-101.119565583818
 31
0.0
  0
LINE
  8
DETAIL
  6
CONTINUOUS
 62
     5
 10
-76.125838076178525
 20
-101.119565583818
 30
0.0
 11
-76.058123223333723
 21
-101.0728885220326
 31
0.0
  0
LINE
  8
DETAIL
  6
CONTINUOUS
 62
     5
 10
-76.058123223333723
 20
-101.0728885220326
 30
0.0
 11
-75.990074602062123
 21
-101.0258992810452
 31
0.0
  0
LINE
  8
DETAIL
  6
CONTINUOUS
 62
     5
 10
-75.990074602062123
 20
-101.0258992810452
 30
0.0
 11
-75.990074602062123
 21
-101.0258992810452
 31
0.0
  0
LINE
  8
DETAIL
  6
CONTINUOUS
 62
     5
 10
-75.990074602062123
 20
-101.0258992810452
 30
0.0
 11
-75.921846410882608
 21
-100.9787026572411
 31
0.0
  0
LINE
  8
DETAIL
  6
CONTINUOUS
 62
     5
 10
-75.921846410882608
 20
-100.9787026572411
 30
0.0
 11
-75.85446271600108
 21
-100.9320135857523
 31
0.0
  0
LINE
  8
DETAIL
  6
CONTINUOUS
 62
     5
 10
-75.85446271600108
 20
-100.9320135857523
 30
0.0
 11
-75.85446271600108
 21
-100.9320135857523
 31
0.0
  0
LINE
  8
DETAIL
  6
CONTINUOUS
 62
     5
 10
-75.85446271600108
 20
-100.9320135857523
 30
0.0
 11
-75.7881407163527
 21
-100.88598508554119
 31
0.0
  0
LINE
  8
DETAIL
  6
CONTINUOUS
 62
     5
 10
-75.7881407163527
 20
-100.88598508554119
 30
0.0
 11
-75.719000274103564
 21
-100.83791237216001
 31
0.0
  0
LINE
  8
DETAIL
  6
CONTINUOUS
 62
     5
 10
-75.719000274103564
 20
-100.83791237216001
 30
0.0
 11
-75.719000274103564
 21
-100.83791237216001
 31
0.0
  0
LINE
  8
DETAIL
  6
CONTINUOUS
 62
     5
 10
-75.719000274103564
 20
-100.83791237216001
 30
0.0
 11
-75.643771607680492
 21
-100.785513637319
 31
0.0
  0
LINE
  8
DETAIL
  6
CONTINUOUS
 62
     5
 10
-75.643771607680492
 20
-100.785513637319
 30
0.0
 11
-75.565723697324756
 21
-100.7310567807684
 31
0.0
  0
LINE
  8
DETAIL
  6
CONTINUOUS
 62
     5
 10
-75.565723697324756
 20
-100.7310567807684
 30
0.0
 11
-75.565723697324756
 21
-100.7310567807684
 31
0.0
  0
LINE
  8
DETAIL
  6
CONTINUOUS
 62
     5
 10
-75.565723697324756
 20
-100.7310567807684
 30
0.0
 11
-75.488741399933815
 21
-100.67724002302759
 31
0.0
  0
LINE
  8
DETAIL
  6
CONTINUOUS
 62
     5
 10
-75.488741399933815
 20
-100.67724002302759
 30
0.0
 11
-75.412634317221546
 21
-100.6239331596479
 31
0.0
  0
LINE
  8
DETAIL
  6
CONTINUOUS
 62
     5
 10
-75.412634317221546
 20
-100.6239331596479
 30
0.0
 11
-75.412634317221546
 21
-100.6239331596479
 31
0.0
  0
LINE
  8
DETAIL
  6
CONTINUOUS
 62
     5
 10
-75.412634317221546
 20
-100.6239331596479
 30
0.0
 11
-75.336383406500772
 21
-100.57042953055419
 31
0.0
  0
LINE
  8
DETAIL
  6
CONTINUOUS
 62
     5
 10
-75.336383406500772
 20
-100.57042953055419
 30
0.0
 11
-75.259730302663229
 21
-100.51654507813291
 31
0.0
  0
LINE
  8
DETAIL
  6
CONTINUOUS
 62
     5
 10
-75.259730302663229
 20
-100.51654507813291
 30
0.0
 11
-75.259730302663229
 21
-100.51654507813291
 31
0.0
  0
LINE
  8
DETAIL
  6
CONTINUOUS
 62
     5
 10
-75.259730302663229
 20
-100.51654507813291
 30
0.0
 11
-75.182864946212703
 21
-100.4624108991658
 31
0.0
  0
LINE
  8
DETAIL
  6
CONTINUOUS
 62
     5
 10
-75.182864946212703
 20
-100.4624108991658
 30
0.0
 11
-75.107009822517739
 21
-100.4088961055578
 31
0.0
  0
LINE
  8
DETAIL
  6
CONTINUOUS
 62
     5
 10
-75.107009822517739
 20
-100.4088961055578
 30
0.0
 11
-75.107009822517739
 21
-100.4088961055578
 31
0.0
  0
LINE
  8
DETAIL
  6
CONTINUOUS
 62
     5
 10
-75.107009822517739
 20
-100.4088961055578
 30
0.0
 11
-75.03242283890404
 21
-100.3561856472547
 31
0.0
  0
LINE
  8
DETAIL
  6
CONTINUOUS
 62
     5
 10
-75.03242283890404
 20
-100.3561856472547
 30
0.0
 11
-74.954471045654373
 21
-100.3009898112564
 31
0.0
  0
LINE
  8
DETAIL
  6
CONTINUOUS
 62
     5
 10
-74.954471045654373
 20
-100.3009898112564
 30
0.0
 11
-74.954471045654373
 21
-100.3009898112564
 31
0.0
  0
LINE
  8
DETAIL
  6
CONTINUOUS
 62
     5
 10
-74.954471045654373
 20
-100.3009898112564
 30
0.0
 11
-74.869250848355932
 21
-100.2405335999475
 31
0.0
  0
LINE
  8
DETAIL
  6
CONTINUOUS
 62
     5
 10
-74.869250848355932
 20
-100.2405335999475
 30
0.0
 11
-74.780666930847474
 21
-100.1775755402125
 31
0.0
  0
LINE
  8
DETAIL
  6
CONTINUOUS
 62
     5
 10
-74.780666930847474
 20
-100.1775755402125
 30
0.0
 11
-74.780666930847474
 21
-100.1775755402125
 31
0.0
  0
LINE
  8
DETAIL
  6
CONTINUOUS
 62
     5
 10
-74.780666930847474
 20
-100.1775755402125
 30
0.0
 11
-74.693358378964604
 21
-100.115396957952
 31
0.0
  0
LINE
  8
DETAIL
  6
CONTINUOUS
 62
     5
 10
-74.693358378964604
 20
-100.115396957952
 30
0.0
 11
-74.607093608271498
 21
-100.05383685063001
 31
0.0
  0
LINE
  8
DETAIL
  6
CONTINUOUS
 62
     5
 10
-74.607093608271498
 20
-100.05383685063001
 30
0.0
 11
-74.607093608271498
 21
-100.05383685063001
 31
0.0
  0
LINE
  8
DETAIL
  6
CONTINUOUS
 62
     5
 10
-74.607093608271498
 20
-100.05383685063001
 30
0.0
 11
-74.520654536508573
 21
-99.99203536725031
 31
0.0
  0
LINE
  8
DETAIL
  6
CONTINUOUS
 62
     5
 10
-74.520654536508573
 20
-99.99203536725031
 30
0.0
 11
-74.43374776038263
 21
-99.929779591412512
 31
0.0
  0
LINE
  8
DETAIL
  6
CONTINUOUS
 62
     5
 10
-74.43374776038263
 20
-99.929779591412512
 30
0.0
 11
-74.43374776038263
 21
-99.929779591412512
 31
0.0
  0
LINE
  8
DETAIL
  6
CONTINUOUS
 62
     5
 10
-74.43374776038263
 20
-99.929779591412512
 30
0.0
 11
-74.346604034943994
 21
-99.867231987877176
 31
0.0
  0
LINE
  8
DETAIL
  6
CONTINUOUS
 62
     5
 10
-74.346604034943994
 20
-99.867231987877176
 30
0.0
 11
-74.260626069636601
 21
-99.805409611463574
 31
0.0
  0
LINE
  8
DETAIL
  6
CONTINUOUS
 62
     5
 10
-74.260626069636601
 20
-99.805409611463574
 30
0.0
 11
-74.260626069636601
 21
-99.805409611463574
 31
0.0
  0
LINE
  8
DETAIL
  6
CONTINUOUS
 62
     5
 10
-74.260626069636601
 20
-99.805409611463574
 30
0.0
 11
-74.176106438365878
 21
-99.744526840798812
 31
0.0
  0
LINE
  8
DETAIL
  6
CONTINUOUS
 62
     5
 10
-74.176106438365878
 20
-99.744526840798812
 30
0.0
 11
-74.087725218488686
 21
-99.680732759689022
 31
0.0
  0
LINE
  8
DETAIL
  6
CONTINUOUS
 62
     5
 10
-74.087725218488686
 20
-99.680732759689022
 30
0.0
 11
-74.087725218488686
 21
-99.680732759689022
 31
0.0
  0
LINE
  8
DETAIL
  6
CONTINUOUS
 62
     5
 10
-74.087725218488686
 20
-99.680732759689022
 30
0.0
 11
-73.991001103797998
 21
-99.61077953103711
 31
0.0
  0
LINE
  8
DETAIL
  6
CONTINUOUS
 62
     5
 10
-73.991001103797998
 20
-99.61077953103711
 30
0.0
 11
-73.890419750380261
 21
-99.53789692895441
 31
0.0
  0
LINE
  8
DETAIL
  6
CONTINUOUS
 62
     5
 10
-73.890419750380261
 20
-99.53789692895441
 30
0.0
 11
-73.890419750380261
 21
-99.53789692895441
 31
0.0
  0
LINE
  8
DETAIL
  6
CONTINUOUS
 62
     5
 10
-73.890419750380261
 20
-99.53789692895441
 30
0.0
 11
-73.791308704803214
 21
-99.465925665269424
 31
0.0
  0
LINE
  8
DETAIL
  6
CONTINUOUS
 62
     5
 10
-73.791308704803214
 20
-99.465925665269424
 30
0.0
 11
-73.693396113255403
 21
-99.39467259147375
 31
0.0
  0
LINE
  8
DETAIL
  6
CONTINUOUS
 62
     5
 10
-73.693396113255403
 20
-99.39467259147375
 30
0.0
 11
-73.693396113255403
 21
-99.39467259147375
 31
0.0
  0
LINE
  8
DETAIL
  6
CONTINUOUS
 62
     5
 10
-73.693396113255403
 20
-99.39467259147375
 30
0.0
 11
-73.595281851114123
 21
-99.323129811341914
 31
0.0
  0
LINE
  8
DETAIL
  6
CONTINUOUS
 62
     5
 10
-73.595281851114123
 20
-99.323129811341914
 30
0.0
 11
-73.496652110886544
 21
-99.251064298121605
 31
0.0
  0
LINE
  8
DETAIL
  6
CONTINUOUS
 62
     5
 10
-73.496652110886544
 20
-99.251064298121605
 30
0.0
 11
-73.496652110886544
 21
-99.251064298121605
 31
0.0
  0
LINE
  8
DETAIL
  6
CONTINUOUS
 62
     5
 10
-73.496652110886544
 20
-99.251064298121605
 30
0.0
 11
-73.397778197326261
 21
-99.178670338038614
 31
0.0
  0
LINE
  8
DETAIL
  6
CONTINUOUS
 62
     5
 10
-73.397778197326261
 20
-99.178670338038614
 30
0.0
 11
-73.300185547047249
 21
-99.107076599770608
 31
0.0
  0
LINE
  8
DETAIL
  6
CONTINUOUS
 62
     5
 10
-73.300185547047249
 20
-99.107076599770608
 30
0.0
 11
-73.300185547047249
 21
-99.107076599770608
 31
0.0
  0
LINE
  8
DETAIL
  6
CONTINUOUS
 62
     5
 10
-73.300185547047249
 20
-99.107076599770608
 30
0.0
 11
-73.204187418486526
 21
-99.036517247789106
 31
0.0
  0
LINE
  8
DETAIL
  6
CONTINUOUS
 62
     5
 10
-73.204187418486526
 20
-99.036517247789106
 30
0.0
 11
-73.10399422551086
 21
-98.962714047293616
 31
0.0
  0
LINE
  8
DETAIL
  6
CONTINUOUS
 62
     5
 10
-73.10399422551086
 20
-98.962714047293616
 30
0.0
 11
-73.10399422551086
 21
-98.962714047293616
 31
0.0
  0
LINE
  8
DETAIL
  6
CONTINUOUS
 62
     5
 10
-73.10399422551086
 20
-98.962714047293616
 30
0.0
 11
-72.994730483709645
 21
-98.882059503560299
 31
0.0
  0
LINE
  8
DETAIL
  6
CONTINUOUS
 62
     5
 10
-72.994730483709645
 20
-98.882059503560299
 30
0.0
 11
-72.881279960127358
 21
-98.798141481453513
 31
0.0
  0
LINE
  8
DETAIL
  6
CONTINUOUS
 62
     5
 10
-72.881279960127358
 20
-98.798141481453513
 30
0.0
 11
-72.881279960127358
 21
-98.798141481453513
 31
0.0
  0
LINE
  8
DETAIL
  6
CONTINUOUS
 62
     5
 10
-72.881279960127358
 20
-98.798141481453513
 30
0.0
 11
-72.769441616993845
 21
-98.715225946662827
 31
0.0
  0
LINE
  8
DETAIL
  6
CONTINUOUS
 62
     5
 10
-72.769441616993845
 20
-98.715225946662827
 30
0.0
 11
-72.658915945825811
 21
-98.633095908595578
 31
0.0
  0
LINE
  8
DETAIL
  6
CONTINUOUS
 62
     5
 10
-72.658915945825811
 20
-98.633095908595578
 30
0.0
 11
-72.658915945825811
 21
-98.633095908595578
 31
0.0
  0
LINE
  8
DETAIL
  6
CONTINUOUS
 62
     5
 10
-72.658915945825811
 20
-98.633095908595578
 30
0.0
 11
-72.548177996489812
 21
-98.550631329196335
 31
0.0
  0
LINE
  8
DETAIL
  6
CONTINUOUS
 62
     5
 10
-72.548177996489812
 20
-98.550631329196335
 30
0.0
 11
-72.436899522962904
 21
-98.467582936857411
 31
0.0
  0
LINE
  8
DETAIL
  6
CONTINUOUS
 62
     5
 10
-72.436899522962904
 20
-98.467582936857411
 30
0.0
 11
-72.436899522962904
 21
-98.467582936857411
 31
0.0
  0
LINE
  8
DETAIL
  6
CONTINUOUS
 62
     5
 10
-72.436899522962904
 20
-98.467582936857411
 30
0.0
 11
-72.325379368817721
 21
-98.38416912420621
 31
0.0
  0
LINE
  8
DETAIL
  6
CONTINUOUS
 62
     5
 10
-72.325379368817721
 20
-98.38416912420621
 30
0.0
 11
-72.215228031893503
 21
-98.301608174376497
 31
0.0
  0
LINE
  8
DETAIL
  6
CONTINUOUS
 62
     5
 10
-72.215228031893503
 20
-98.301608174376497
 30
0.0
 11
-72.215228031893503
 21
-98.301608174376497
 31
0.0
  0
LINE
  8
DETAIL
  6
CONTINUOUS
 62
     5
 10
-72.215228031893503
 20
-98.301608174376497
 30
0.0
 11
-72.106773093301172
 21
-98.2201507610107
 31
0.0
  0
LINE
  8
DETAIL
  6
CONTINUOUS
 62
     5
 10
-72.106773093301172
 20
-98.2201507610107
 30
0.0
 11
-71.993898812974294
 21
-98.135177229288615
 31
0.0
  0
LINE
  8
DETAIL
  6
CONTINUOUS
 62
     5
 10
-71.993898812974294
 20
-98.135177229288615
 30
0.0
 11
-71.993898812974294
 21
-98.135177229288615
 31
0.0
  0
LINE
  8
DETAIL
  6
CONTINUOUS
 62
     5
 10
-71.993898812974294
 20
-98.135177229288615
 30
0.0
 11
-71.871455867541499
 21
-98.042792465867251
 31
0.0
  0
LINE
  8
DETAIL
  6
CONTINUOUS
 62
     5
 10
-71.871455867541499
 20
-98.042792465867251
 30
0.0
 11
-71.744603921587441
 21
-97.946869851775318
 31
0.0
  0
LINE
  8
DETAIL
  6
CONTINUOUS
 62
     5
 10
-71.744603921587441
 20
-97.946869851775318
 30
0.0
 11
-71.744603921587441
 21
-97.946869851775318
 31
0.0
  0
LINE
  8
DETAIL
  6
CONTINUOUS
 62
     5
 10
-71.744603921587441
 20
-97.946869851775318
 30
0.0
 11
-71.619469540634555
 21
-97.852015253101513
 31
0.0
  0
LINE
  8
DETAIL
  6
CONTINUOUS
 62
     5
 10
-71.619469540634555
 20
-97.852015253101513
 30
0.0
 11
-71.495737905998567
 21
-97.757995981795716
 31
0.0
  0
LINE
  8
DETAIL
  6
CONTINUOUS
 62
     5
 10
-71.495737905998567
 20
-97.757995981795716
 30
0.0
 11
-71.495737905998567
 21
-97.757995981795716
 31
0.0
  0
LINE
  8
DETAIL
  6
CONTINUOUS
 62
     5
 10
-71.495737905998567
 20
-97.757995981795716
 30
0.0
 11
-71.37179824772852
 21
-97.663603275522405
 31
0.0
  0
LINE
  8
DETAIL
  6
CONTINUOUS
 62
     5
 10
-71.37179824772852
 20
-97.663603275522405
 30
0.0
 11
-71.247297375015933
 21
-97.568562628935865
 31
0.0
  0
LINE
  8
DETAIL
  6
CONTINUOUS
 62
     5
 10
-71.247297375015933
 20
-97.568562628935865
 30
0.0
 11
-71.247297375015933
 21
-97.568562628935865
 31
0.0
  0
LINE
  8
DETAIL
  6
CONTINUOUS
 62
     5
 10
-71.247297375015933
 20
-97.568562628935865
 30
0.0
 11
-71.122549258746631
 21
-97.473108482479915
 31
0.0
  0
LINE
  8
DETAIL
  6
CONTINUOUS
 62
     5
 10
-71.122549258746631
 20
-97.473108482479915
 30
0.0
 11
-70.999278937446888
 21
-97.378576802783186
 31
0.0
  0
LINE
  8
DETAIL
  6
CONTINUOUS
 62
     5
 10
-70.999278937446888
 20
-97.378576802783186
 30
0.0
 11
-70.999278937446888
 21
-97.378576802783186
 31
0.0
  0
LINE
  8
DETAIL
  6
CONTINUOUS
 62
     5
 10
-70.999278937446888
 20
-97.378576802783186
 30
0.0
 11
-70.877838754127652
 21
-97.285243847587367
 31
0.0
  0
LINE
  8
DETAIL
  6
CONTINUOUS
 62
     5
 10
-70.877838754127652
 20
-97.285243847587367
 30
0.0
 11
-70.751679202100377
 21
-97.188045512924646
 31
0.0
  0
LINE
  8
DETAIL
  6
CONTINUOUS
 62
     5
 10
-70.751679202100377
 20
-97.188045512924646
 30
0.0
 11
-70.751679202100377
 21
-97.188045512924646
 31
0.0
  0
LINE
  8
DETAIL
  6
CONTINUOUS
 62
     5
 10
-70.751679202100377
 20
-97.188045512924646
 30
0.0
 11
-70.615286727969306
 21
-97.082712263886265
 31
0.0
  0
LINE
  8
DETAIL
  6
CONTINUOUS
 62
     5
 10
-70.615286727969306
 20
-97.082712263886265
 30
0.0
 11
-70.474193441209309
 21
-96.973493203518501
 31
0.0
  0
LINE
  8
DETAIL
  6
CONTINUOUS
 62
     5
 10
-70.474193441209309
 20
-96.973493203518501
 30
0.0
 11
-70.474193441209309
 21
-96.973493203518501
 31
0.0
  0
LINE
  8
DETAIL
  6
CONTINUOUS
 62
     5
 10
-70.474193441209309
 20
-96.973493203518501
 30
0.0
 11
-70.334961818080501
 21
-96.865436359317755
 31
0.0
  0
LINE
  8
DETAIL
  6
CONTINUOUS
 62
     5
 10
-70.334961818080501
 20
-96.865436359317755
 30
0.0
 11
-70.197230139116527
 21
-96.758266818629068
 31
0.0
  0
LINE
  8
DETAIL
  6
CONTINUOUS
 62
     5
 10
-70.197230139116527
 20
-96.758266818629068
 30
0.0
 11
-70.197230139116527
 21
-96.758266818629068
 31
0.0
  0
LINE
  8
DETAIL
  6
CONTINUOUS
 62
     5
 10
-70.197230139116527
 20
-96.758266818629068
 30
0.0
 11
-70.059267227199143
 21
-96.650654424683466
 31
0.0
  0
LINE
  8
DETAIL
  6
CONTINUOUS
 62
     5
 10
-70.059267227199143
 20
-96.650654424683466
 30
0.0
 11
-69.92078827032492
 21
-96.542370984409104
 31
0.0
  0
LINE
  8
DETAIL
  6
CONTINUOUS
 62
     5
 10
-69.92078827032492
 20
-96.542370984409104
 30
0.0
 11
-69.92078827032492
 21
-96.542370984409104
 31
0.0
  0
LINE
  8
DETAIL
  6
CONTINUOUS
 62
     5
 10
-69.92078827032492
 20
-96.542370984409104
 30
0.0
 11
-69.782154731585251
 21
-96.433692567000094
 31
0.0
  0
LINE
  8
DETAIL
  6
CONTINUOUS
 62
     5
 10
-69.782154731585251
 20
-96.433692567000094
 30
0.0
 11
-69.644866809334872
 21
-96.325810327011936
 31
0.0
  0
LINE
  8
DETAIL
  6
CONTINUOUS
 62
     5
 10
-69.644866809334872
 20
-96.325810327011936
 30
0.0
 11
-69.644866809334872
 21
-96.325810327011936
 31
0.0
  0
LINE
  8
DETAIL
  6
CONTINUOUS
 62
     5
 10
-69.644866809334872
 20
-96.325810327011936
 30
0.0
 11
-69.509209059202021
 21
-96.218953614054726
 31
0.0
  0
LINE
  8
DETAIL
  6
CONTINUOUS
 62
     5
 10
-69.509209059202021
 20
-96.218953614054726
 30
0.0
 11
-69.369464730648815
 21
-96.108589472591916
 31
0.0
  0
LINE
  8
DETAIL
  6
CONTINUOUS
 62
     5
 10
-69.369464730648815
 20
-96.108589472591916
 30
0.0
 11
-69.369464730648815
 21
-96.108589472591916
 31
0.0
  0
LINE
  8
DETAIL
  6
CONTINUOUS
 62
     5
 10
-69.369464730648815
 20
-96.108589472591916
 30
0.0
 11
-69.220827530794168
 21
-95.990900698966357
 31
0.0
  0
LINE
  8
DETAIL
  6
CONTINUOUS
 62
     5
 10
-69.220827530794168
 20
-95.990900698966357
 30
0.0
 11
-69.068134303553052
 21
-95.869695402179218
 31
0.0
  0
LINE
  8
DETAIL
  6
CONTINUOUS
 62
     5
 10
-69.068134303553052
 20
-95.869695402179218
 30
0.0
 11
-69.068134303553052
 21
-95.869695402179218
 31
0.0
  0
LINE
  8
DETAIL
  6
CONTINUOUS
 62
     5
 10
-69.068134303553052
 20
-95.869695402179218
 30
0.0
 11
-68.91711439614096
 21
-95.749491527419195
 31
0.0
  0
LINE
  8
DETAIL
  6
CONTINUOUS
 62
     5
 10
-68.91711439614096
 20
-95.749491527419195
 30
0.0
 11
-68.767424032179861
 21
-95.630021051970061
 31
0.0
  0
LINE
  8
DETAIL
  6
CONTINUOUS
 62
     5
 10
-68.767424032179861
 20
-95.630021051970061
 30
0.0
 11
-68.767424032179861
 21
-95.630021051970061
 31
0.0
  0
LINE
  8
DETAIL
  6
CONTINUOUS
 62
     5
 10
-68.767424032179861
 20
-95.630021051970061
 30
0.0
 11
-68.617544574028898
 21
-95.510088439672927
 31
0.0
  0
LINE
  8
DETAIL
  6
CONTINUOUS
 62
     5
 10
-68.617544574028898
 20
-95.510088439672927
 30
0.0
 11
-68.467331062592621
 21
-95.389574068513753
 31
0.0
  0
LINE
  8
DETAIL
  6
CONTINUOUS
 62
     5
 10
-68.467331062592621
 20
-95.389574068513753
 30
0.0
 11
-68.467331062592621
 21
-95.389574068513753
 31
0.0
  0
LINE
  8
DETAIL
  6
CONTINUOUS
 62
     5
 10
-68.467331062592621
 20
-95.389574068513753
 30
0.0
 11
-68.317126560765701
 21
-95.268747872846234
 31
0.0
  0
LINE
  8
DETAIL
  6
CONTINUOUS
 62
     5
 10
-68.317126560765701
 20
-95.268747872846234
 30
0.0
 11
-68.16785254085471
 21
-95.148362098361417
 31
0.0
  0
LINE
  8
DETAIL
  6
CONTINUOUS
 62
     5
 10
-68.16785254085471
 20
-95.148362098361417
 30
0.0
 11
-68.16785254085471
 21
-95.148362098361417
 31
0.0
  0
LINE
  8
DETAIL
  6
CONTINUOUS
 62
     5
 10
-68.16785254085471
 20
-95.148362098361417
 30
0.0
 11
-68.019653248471968
 21
-95.02853827871138
 31
0.0
  0
LINE
  8
DETAIL
  6
CONTINUOUS
 62
     5
 10
-68.019653248471968
 20
-95.02853827871138
 30
0.0
 11
-67.868985613029508
 21
-94.906392788064977
 31
0.0
  0
LINE
  8
DETAIL
  6
CONTINUOUS
 62
     5
 10
-67.868985613029508
 20
-94.906392788064977
 30
0.0
 11
-67.868985613029508
 21
-94.906392788064977
 31
0.0
  0
LINE
  8
DETAIL
  6
CONTINUOUS
 62
     5
 10
-67.868985613029508
 20
-94.906392788064977
 30
0.0
 11
-67.712878153931797
 21
-94.779503209453082
 31
0.0
  0
LINE
  8
DETAIL
  6
CONTINUOUS
 62
     5
 10
-67.712878153931797
 20
-94.779503209453082
 30
0.0
 11
-67.554333066751951
 21
-94.650297120842197
 31
0.0
  0
LINE
  8
DETAIL
  6
CONTINUOUS
 62
     5
 10
-67.554333066751951
 20
-94.650297120842197
 30
0.0
 11
-67.554333066751951
 21
-94.650297120842197
 31
0.0
  0
LINE
  8
DETAIL
  6
CONTINUOUS
 62
     5
 10
-67.554333066751951
 20
-94.650297120842197
 30
0.0
 11
-67.396900909639271
 21
-94.521649962842616
 31
0.0
  0
LINE
  8
DETAIL
  6
CONTINUOUS
 62
     5
 10
-67.396900909639271
 20
-94.521649962842616
 30
0.0
 11
-67.240352014883683
 21
-94.393378631715336
 31
0.0
  0
LINE
  8
DETAIL
  6
CONTINUOUS
 62
     5
 10
-67.240352014883683
 20
-94.393378631715336
 30
0.0
 11
-67.240352014883683
 21
-94.393378631715336
 31
0.0
  0
LINE
  8
DETAIL
  6
CONTINUOUS
 62
     5
 10
-67.240352014883683
 20
-94.393378631715336
 30
0.0
 11
-67.083740566031793
 21
-94.264719946948617
 31
0.0
  0
LINE
  8
DETAIL
  6
CONTINUOUS
 62
     5
 10
-67.083740566031793
 20
-94.264719946948617
 30
0.0
 11
-66.927036377515833
 21
-94.135648965294195
 31
0.0
  0
LINE
  8
DETAIL
  6
CONTINUOUS
 62
     5
 10
-66.927036377515833
 20
-94.135648965294195
 30
0.0
 11
-66.927036377515833
 21
-94.135648965294195
 31
0.0
  0
LINE
  8
DETAIL
  6
CONTINUOUS
 62
     5
 10
-66.927036377515833
 20
-94.135648965294195
 30
0.0
 11
-66.770467597069228
 21
-94.006351701642757
 31
0.0
  0
LINE
  8
DETAIL
  6
CONTINUOUS
 62
     5
 10
-66.770467597069228
 20
-94.006351701642757
 30
0.0
 11
-66.614380074739756
 21
-93.877119766189708
 31
0.0
  0
LINE
  8
DETAIL
  6
CONTINUOUS
 62
     5
 10
-66.614380074739756
 20
-93.877119766189708
 30
0.0
 11
-66.614380074739756
 21
-93.877119766189708
 31
0.0
  0
LINE
  8
DETAIL
  6
CONTINUOUS
 62
     5
 10
-66.614380074739756
 20
-93.877119766189708
 30
0.0
 11
-66.458802476117626
 21
-93.747981013337039
 31
0.0
  0
LINE
  8
DETAIL
  6
CONTINUOUS
 62
     5
 10
-66.458802476117626
 20
-93.747981013337039
 30
0.0
 11
-66.302377026646354
 21
-93.617802679011788
 31
0.0
  0
LINE
  8
DETAIL
  6
CONTINUOUS
 62
     5
 10
-66.302377026646354
 20
-93.617802679011788
 30
0.0
 11
-66.302377026646354
 21
-93.617802679011788
 31
0.0
  0
LINE
  8
DETAIL
  6
CONTINUOUS
 62
     5
 10
-66.302377026646354
 20
-93.617802679011788
 30
0.0
 11
-66.143971079235143
 21
-93.485638153360583
 31
0.0
  0
LINE
  8
DETAIL
  6
CONTINUOUS
 62
     5
 10
-66.143971079235143
 20
-93.485638153360583
 30
0.0
 11
-65.984738936802387
 21
-93.352446061887804
 31
0.0
  0
LINE
  8
DETAIL
  6
CONTINUOUS
 62
     5
 10
-65.984738936802387
 20
-93.352446061887804
 30
0.0
 11
-65.984738936802387
 21
-93.352446061887804
 31
0.0
  0
LINE
  8
DETAIL
  6
CONTINUOUS
 62
     5
 10
-65.984738936802387
 20
-93.352446061887804
 30
0.0
 11
-65.826040774922149
 21
-93.219357312732313
 31
0.0
  0
LINE
  8
DETAIL
  6
CONTINUOUS
 62
     5
 10
-65.826040774922149
 20
-93.219357312732313
 30
0.0
 11
-65.667773309780614
 21
-93.086286709223259
 31
0.0
  0
LINE
  8
DETAIL
  6
CONTINUOUS
 62
     5
 10
-65.667773309780614
 20
-93.086286709223259
 30
0.0
 11
-65.667773309780614
 21
-93.086286709223259
 31
0.0
  0
LINE
  8
DETAIL
  6
CONTINUOUS
 62
     5
 10
-65.667773309780614
 20
-93.086286709223259
 30
0.0
 11
-65.50957053611296
 21
-92.952930873487162
 31
0.0
  0
LINE
  8
DETAIL
  6
CONTINUOUS
 62
     5
 10
-65.50957053611296
 20
-92.952930873487162
 30
0.0
 11
-65.351479022240028
 21
-92.819329807659301
 31
0.0
  0
LINE
  8
DETAIL
  6
CONTINUOUS
 62
     5
 10
-65.351479022240028
 20
-92.819329807659301
 30
0.0
 11
-65.351479022240028
 21
-92.819329807659301
 31
0.0
  0
LINE
  8
DETAIL
  6
CONTINUOUS
 62
     5
 10
-65.351479022240028
 20
-92.819329807659301
 30
0.0
 11
-65.193601771140948
 21
-92.685570005071554
 31
0.0
  0
LINE
  8
DETAIL
  6
CONTINUOUS
 62
     5
 10
-65.193601771140948
 20
-92.685570005071554
 30
0.0
 11
-65.035854950838711
 21
-92.551580543839577
 31
0.0
  0
LINE
  8
DETAIL
  6
CONTINUOUS
 62
     5
 10
-65.035854950838711
 20
-92.551580543839577
 30
0.0
 11
-65.035854950838711
 21
-92.551580543839577
 31
0.0
  0
LINE
  8
DETAIL
  6
CONTINUOUS
 62
     5
 10
-65.035854950838711
 20
-92.551580543839577
 30
0.0
 11
-64.878191712178022
 21
-92.417322718489459
 31
0.0
  0
LINE
  8
DETAIL
  6
CONTINUOUS
 62
     5
 10
-64.878191712178022
 20
-92.417322718489459
 30
0.0
 11
-64.720899972235657
 21
-92.283044104406713
 31
0.0
  0
LINE
  8
DETAIL
  6
CONTINUOUS
 62
     5
 10
-64.720899972235657
 20
-92.283044104406713
 30
0.0
 11
-64.720899972235657
 21
-92.283044104406713
 31
0.0
  0
LINE
  8
DETAIL
  6
CONTINUOUS
 62
     5
 10
-64.720899972235657
 20
-92.283044104406713
 30
0.0
 11
-64.564227702009703
 21
-92.148957509300317
 31
0.0
  0
LINE
  8
DETAIL
  6
CONTINUOUS
 62
     5
 10
-64.564227702009703
 20
-92.148957509300317
 30
0.0
 11
-64.407928321942563
 21
-92.0148503893206
 31
0.0
  0
LINE
  8
DETAIL
  6
CONTINUOUS
 62
     5
 10
-64.407928321942563
 20
-92.0148503893206
 30
0.0
 11
-64.407928321942563
 21
-92.0148503893206
 31
0.0
  0
LINE
  8
DETAIL
  6
CONTINUOUS
 62
     5
 10
-64.407928321942563
 20
-92.0148503893206
 30
0.0
 11
-64.251714931118158
 21
-91.880475040250303
 31
0.0
  0
LINE
  8
DETAIL
  6
CONTINUOUS
 62
     5
 10
-64.251714931118158
 20
-91.880475040250303
 30
0.0
 11
-64.095633893742615
 21
-91.745868467970809
 31
0.0
  0
LINE
  8
DETAIL
  6
CONTINUOUS
 62
     5
 10
-64.095633893742615
 20
-91.745868467970809
 30
0.0
 11
-64.095633893742615
 21
-91.745868467970809
 31
0.0
  0
LINE
  8
DETAIL
  6
CONTINUOUS
 62
     5
 10
-64.095633893742615
 20
-91.745868467970809
 30
0.0
 11
-63.939770379442507
 21
-91.611100257144585
 31
0.0
  0
LINE
  8
DETAIL
  6
CONTINUOUS
 62
     5
 10
-63.939770379442507
 20
-91.611100257144585
 30
0.0
 11
-63.784031514401697
 21
-91.476085597457654
 31
0.0
  0
LINE
  8
DETAIL
  6
CONTINUOUS
 62
     5
 10
-63.784031514401697
 20
-91.476085597457654
 30
0.0
 11
-63.784031514401697
 21
-91.476085597457654
 31
0.0
  0
LINE
  8
DETAIL
  6
CONTINUOUS
 62
     5
 10
-63.784031514401697
 20
-91.476085597457654
 30
0.0
 11
-63.628374641105893
 21
-91.340784297304481
 31
0.0
  0
LINE
  8
DETAIL
  6
CONTINUOUS
 62
     5
 10
-63.628374641105893
 20
-91.340784297304481
 30
0.0
 11
-63.473136010686183
 21
-91.205489034877701
 31
0.0
  0
LINE
  8
DETAIL
  6
CONTINUOUS
 62
     5
 10
-63.473136010686183
 20
-91.205489034877701
 30
0.0
 11
-63.473136010686183
 21
-91.205489034877701
 31
0.0
  0
LINE
  8
DETAIL
  6
CONTINUOUS
 62
     5
 10
-63.473136010686183
 20
-91.205489034877701
 30
0.0
 11
-63.318412203650041
 21
-91.070281434765434
 31
0.0
  0
LINE
  8
DETAIL
  6
CONTINUOUS
 62
     5
 10
-63.318412203650041
 20
-91.070281434765434
 30
0.0
 11
-63.162962209362149
 21
-90.934066037330695
 31
0.0
  0
LINE
  8
DETAIL
  6
CONTINUOUS
 62
     5
 10
-63.162962209362149
 20
-90.934066037330695
 30
0.0
 11
-63.162962209362149
 21
-90.934066037330695
 31
0.0
  0
LINE
  8
DETAIL
  6
CONTINUOUS
 62
     5
 10
-63.162962209362149
 20
-90.934066037330695
 30
0.0
 11
-63.005732639417367
 21
-90.795912136999277
 31
0.0
  0
LINE
  8
DETAIL
  6
CONTINUOUS
 62
     5
 10
-63.005732639417367
 20
-90.795912136999277
 30
0.0
 11
-62.847758185469957
 21
-90.656725128664107
 31
0.0
  0
LINE
  8
DETAIL
  6
CONTINUOUS
 62
     5
 10
-62.847758185469957
 20
-90.656725128664107
 30
0.0
 11
-62.847758185469957
 21
-90.656725128664107
 31
0.0
  0
LINE
  8
DETAIL
  6
CONTINUOUS
 62
     5
 10
-62.847758185469957
 20
-90.656725128664107
 30
0.0
 11
-62.690283586523719
 21
-90.517597250829112
 31
0.0
  0
LINE
  8
DETAIL
  6
CONTINUOUS
 62
     5
 10
-62.690283586523719
 20
-90.517597250829112
 30
0.0
 11
-62.533305690920322
 21
-90.37853201597909
 31
0.0
  0
LINE
  8
DETAIL
  6
CONTINUOUS
 62
     5
 10
-62.533305690920322
 20
-90.37853201597909
 30
0.0
 11
-62.533305690920322
 21
-90.37853201597909
 31
0.0
  0
LINE
  8
DETAIL
  6
CONTINUOUS
 62
     5
 10
-62.533305690920322
 20
-90.37853201597909
 30
0.0
 11
-62.376510936076563
 21
-90.239259562182383
 31
0.0
  0
LINE
  8
DETAIL
  6
CONTINUOUS
 62
     5
 10
-62.376510936076563
 20
-90.239259562182383
 30
0.0
 11
-62.219592006376622
 21
-90.099505255864983
 31
0.0
  0
LINE
  8
DETAIL
  6
CONTINUOUS
 62
     5
 10
-62.219592006376622
 20
-90.099505255864983
 30
0.0
 11
-62.219592006376622
 21
-90.099505255864983
 31
0.0
  0
LINE
  8
DETAIL
  6
CONTINUOUS
 62
     5
 10
-62.219592006376622
 20
-90.099505255864983
 30
0.0
 11
-62.062548873645028
 21
-89.959270223688918
 31
0.0
  0
LINE
  8
DETAIL
  6
CONTINUOUS
 62
     5
 10
-62.062548873645028
 20
-89.959270223688918
 30
0.0
 11
-61.906604412502467
 21
-89.819663404913626
 31
0.0
  0
LINE
  8
DETAIL
  6
CONTINUOUS
 62
     5
 10
-61.906604412502467
 20
-89.819663404913626
 30
0.0
 11
-61.906604412502467
 21
-89.819663404913626
 31
0.0
  0
LINE
  8
DETAIL
  6
CONTINUOUS
 62
     5
 10
-61.906604412502467
 20
-89.819663404913626
 30
0.0
 11
-61.752062758731647
 21
-89.680964072260849
 31
0.0
  0
LINE
  8
DETAIL
  6
CONTINUOUS
 62
     5
 10
-61.752062758731647
 20
-89.680964072260849
 30
0.0
 11
-61.594330189961511
 21
-89.539025019714586
 31
0.0
  0
LINE
  8
DETAIL
  6
CONTINUOUS
 62
     5
 10
-61.594330189961511
 20
-89.539025019714586
 30
0.0
 11
-61.594330189961511
 21
-89.539025019714586
 31
0.0
  0
LINE
  8
DETAIL
  6
CONTINUOUS
 62
     5
 10
-61.594330189961511
 20
-89.539025019714586
 30
0.0
 11
-61.429524537979887
 21
-89.390336100080503
 31
0.0
  0
LINE
  8
DETAIL
  6
CONTINUOUS
 62
     5
 10
-61.429524537979887
 20
-89.390336100080503
 30
0.0
 11
-61.261507709356472
 21
-89.238361880195612
 31
0.0
  0
LINE
  8
DETAIL
  6
CONTINUOUS
 62
     5
 10
-61.261507709356472
 20
-89.238361880195612
 30
0.0
 11
-61.261507709356472
 21
-89.238361880195612
 31
0.0
  0
LINE
  8
DETAIL
  6
CONTINUOUS
 62
     5
 10
-61.261507709356472
 20
-89.238361880195612
 30
0.0
 11
-61.094883691490622
 21
-89.087239380613823
 31
0.0
  0
LINE
  8
DETAIL
  6
CONTINUOUS
 62
     5
 10
-61.094883691490622
 20
-89.087239380613823
 30
0.0
 11
-60.929480720318217
 21
-88.936820722746347
 31
0.0
  0
LINE
  8
DETAIL
  6
CONTINUOUS
 62
     5
 10
-60.929480720318217
 20
-88.936820722746347
 30
0.0
 11
-60.929480720318217
 21
-88.936820722746347
 31
0.0
  0
LINE
  8
DETAIL
  6
CONTINUOUS
 62
     5
 10
-60.929480720318217
 20
-88.936820722746347
 30
0.0
 11
-60.76410434338959
 21
-88.78603591143326
 31
0.0
  0
LINE
  8
DETAIL
  6
CONTINUOUS
 62
     5
 10
-60.76410434338959
 20
-88.78603591143326
 30
0.0
 11
-60.598245106177266
 21
-88.634411384386112
 31
0.0
  0
LINE
  8
DETAIL
  6
CONTINUOUS
 62
     5
 10
-60.598245106177266
 20
-88.634411384386112
 30
0.0
 11
-60.598245106177266
 21
-88.634411384386112
 31
0.0
  0
LINE
  8
DETAIL
  6
CONTINUOUS
 62
     5
 10
-60.598245106177266
 20
-88.634411384386112
 30
0.0
 11
-60.432073743577121
 21
-88.482097479450317
 31
0.0
  0
LINE
  8
DETAIL
  6
CONTINUOUS
 62
     5
 10
-60.432073743577121
 20
-88.482097479450317
 30
0.0
 11
-60.267796750263408
 21
-88.331143702132977
 31
0.0
  0
LINE
  8
DETAIL
  6
CONTINUOUS
 62
     5
 10
-60.267796750263408
 20
-88.331143702132977
 30
0.0
 11
-60.267796750263408
 21
-88.331143702132977
 31
0.0
  0
LINE
  8
DETAIL
  6
CONTINUOUS
 62
     5
 10
-60.267796750263408
 20
-88.331143702132977
 30
0.0
 11
-60.105922551596677
 21
-88.182026073975521
 31
0.0
  0
LINE
  8
DETAIL
  6
CONTINUOUS
 62
     5
 10
-60.105922551596677
 20
-88.182026073975521
 30
0.0
 11
-59.93813153590736
 21
-88.027027513005805
 31
0.0
  0
LINE
  8
DETAIL
  6
CONTINUOUS
 62
     5
 10
-59.93813153590736
 20
-88.027027513005805
 30
0.0
 11
-59.93813153590736
 21
-88.027027513005805
 31
0.0
  0
LINE
  8
DETAIL
  6
CONTINUOUS
 62
     5
 10
-59.93813153590736
 20
-88.027027513005805
 30
0.0
 11
-59.757404329318888
 21
-87.859635274473703
 31
0.0
  0
LINE
  8
DETAIL
  6
CONTINUOUS
 62
     5
 10
-59.757404329318888
 20
-87.859635274473703
 30
0.0
 11
-59.570750546161428
 21
-87.686347066042003
 31
0.0
  0
LINE
  8
DETAIL
  6
CONTINUOUS
 62
     5
 10
-59.570750546161428
 20
-87.686347066042003
 30
0.0
 11
-59.570750546161428
 21
-87.686347066042003
 31
0.0
  0
LINE
  8
DETAIL
  6
CONTINUOUS
 62
     5
 10
-59.570750546161428
 20
-87.686347066042003
 30
0.0
 11
-59.386486177399767
 21
-87.514884534348084
 31
0.0
  0
LINE
  8
DETAIL
  6
CONTINUOUS
 62
     5
 10
-59.386486177399767
 20
-87.514884534348084
 30
0.0
 11
-59.204123732336477
 21
-87.344854629525003
 31
0.0
  0
LINE
  8
DETAIL
  6
CONTINUOUS
 62
     5
 10
-59.204123732336477
 20
-87.344854629525003
 30
0.0
 11
-59.204123732336477
 21
-87.344854629525003
 31
0.0
  0
LINE
  8
DETAIL
  6
CONTINUOUS
 62
     5
 10
-59.204123732336477
 20
-87.344854629525003
 30
0.0
 11
-59.021435094769913
 21
-87.174258000367445
 31
0.0
  0
LINE
  8
DETAIL
  6
CONTINUOUS
 62
     5
 10
-59.021435094769913
 20
-87.174258000367445
 30
0.0
 11
-58.838033128144623
 21
-87.002784786838447
 31
0.0
  0
LINE
  8
DETAIL
  6
CONTINUOUS
 62
     5
 10
-58.838033128144623
 20
-87.002784786838447
 30
0.0
 11
-58.838033128144623
 21
-87.002784786838447
 31
0.0
  0
LINE
  8
DETAIL
  6
CONTINUOUS
 62
     5
 10
-58.838033128144623
 20
-87.002784786838447
 30
0.0
 11
-58.654350831586498
 21
-86.830886684650409
 31
0.0
  0
LINE
  8
DETAIL
  6
CONTINUOUS
 62
     5
 10
-58.654350831586498
 20
-86.830886684650409
 30
0.0
 11
-58.472260767298849
 21
-86.66037212136689
 31
0.0
  0
LINE
  8
DETAIL
  6
CONTINUOUS
 62
     5
 10
-58.472260767298849
 20
-86.66037212136689
 30
0.0
 11
-58.472260767298849
 21
-86.66037212136689
 31
0.0
  0
LINE
  8
DETAIL
  6
CONTINUOUS
 62
     5
 10
-58.472260767298849
 20
-86.66037212136689
 30
0.0
 11
-58.292095580263997
 21
-86.49160960287179
 31
0.0
  0
LINE
  8
DETAIL
  6
CONTINUOUS
 62
     5
 10
-58.292095580263997
 20
-86.49160960287179
 30
0.0
 11
-58.106588683511752
 21
-86.317851216493523
 31
0.0
  0
LINE
  8
DETAIL
  6
CONTINUOUS
 62
     5
 10
-58.106588683511752
 20
-86.317851216493523
 30
0.0
 11
-58.106588683511752
 21
-86.317851216493523
 31
0.0
  0
LINE
  8
DETAIL
  6
CONTINUOUS
 62
     5
 10
-58.106588683511752
 20
-86.317851216493523
 30
0.0
 11
-57.909628724582717
 21
-86.13342603778608
 31
0.0
  0
LINE
  8
DETAIL
  6
CONTINUOUS
 62
     5
 10
-57.909628724582717
 20
-86.13342603778608
 30
0.0
 11
-57.707324521021746
 21
-85.944087513766476
 31
0.0
  0
LINE
  8
DETAIL
  6
CONTINUOUS
 62
     5
 10
-57.707324521021746
 20
-85.944087513766476
 30
0.0
 11
-57.707324521021746
 21
-85.944087513766476
 31
0.0
  0
LINE
  8
DETAIL
  6
CONTINUOUS
 62
     5
 10
-57.707324521021746
 20
-85.944087513766476
 30
0.0
 11
-57.506900588820827
 21
-85.756628863993001
 31
0.0
  0
LINE
  8
DETAIL
  6
CONTINUOUS
 62
     5
 10
-57.506900588820827
 20
-85.756628863993001
 30
0.0
 11
-57.307824067758247
 21
-85.570578026730459
 31
0.0
  0
LINE
  8
DETAIL
  6
CONTINUOUS
 62
     5
 10
-57.307824067758247
 20
-85.570578026730459
 30
0.0
 11
-57.307824067758247
 21
-85.570578026730459
 31
0.0
  0
LINE
  8
DETAIL
  6
CONTINUOUS
 62
     5
 10
-57.307824067758247
 20
-85.570578026730459
 30
0.0
 11
-57.108143605859603
 21
-85.384131641166618
 31
0.0
  0
LINE
  8
DETAIL
  6
CONTINUOUS
 62
     5
 10
-57.108143605859603
 20
-85.384131641166618
 30
0.0
 11
-56.907991260352453
 21
-85.197426431479585
 31
0.0
  0
LINE
  8
DETAIL
  6
CONTINUOUS
 62
     5
 10
-56.907991260352453
 20
-85.197426431479585
 30
0.0
 11
-56.907991260352453
 21
-85.197426431479585
 31
0.0
  0
LINE
  8
DETAIL
  6
CONTINUOUS
 62
     5
 10
-56.907991260352453
 20
-85.197426431479585
 30
0.0
 11
-56.707875875616537
 21
-85.010960378427853
 31
0.0
  0
LINE
  8
DETAIL
  6
CONTINUOUS
 62
     5
 10
-56.707875875616537
 20
-85.010960378427853
 30
0.0
 11
-56.507730035435543
 21
-84.824736404110354
 31
0.0
  0
LINE
  8
DETAIL
  6
CONTINUOUS
 62
     5
 10
-56.507730035435543
 20
-84.824736404110354
 30
0.0
 11
-56.507730035435543
 21
-84.824736404110354
 31
0.0
  0
LINE
  8
DETAIL
  6
CONTINUOUS
 62
     5
 10
-56.507730035435543
 20
-84.824736404110354
 30
0.0
 11
-56.307397666739689
 21
-84.638643703372964
 31
0.0
  0
LINE
  8
DETAIL
  6
CONTINUOUS
 62
     5
 10
-56.307397666739689
 20
-84.638643703372964
 30
0.0
 11
-56.106944329638957
 21
-84.452611620718358
 31
0.0
  0
LINE
  8
DETAIL
  6
CONTINUOUS
 62
     5
 10
-86.1389337641358
 20
-249.40226171243921
 30
0.0
 11
-86.1389337641358
 21
-245.39579967689821
 31
0.0
  0
LINE
  8
DETAIL
  6
CONTINUOUS
 62
     5
 10
-63.549721702295763
 20
-249.40226171243921
 30
0.0
 11
-63.549721702295763
 21
-245.39579967689821
 31
0.0
  0
LINE
  8
DETAIL
  6
CONTINUOUS
 62
     5
 10
-2.504038772213335
 20
-243.39256865912751
 30
0.0
 11
-2.504038772213335
 21
-245.39579967689821
 31
0.0
  0
LINE
  8
DETAIL
  6
CONTINUOUS
 62
     5
 10
2.504038772213335
 20
-243.39256865912751
 30
0.0
 11
2.504038772213335
 21
-245.39579967689821
 31
0.0
  0
CIRCLE
  8
DETAIL
  6
CONTINUOUS
 62
     5
 10
0.0
 20
-261.42164781906308
 30
0.0
 40
3.004846526655911
  0
LINE
  8
BASIS
  6
DASHDOT
 62
     6
 10
0.0
 20
-338.18388771262039
 30
0.0
 11
0.0
 21
55.371837009577582
 31
0.0
  0
LINE
  8
OUTLINE
  6
CONTINUOUS
 62
     3
 10
-306.99515347334409
 20
-3.0048465266557969
 30
0.0
 11
-308.49757673667199
 21
-3.0048465266557969
 31
0.0
  0
LINE
  8
OUTLINE
  6
CONTINUOUS
 62
     3
 10
-65.305331179321456
 20
-290.46849757673681
 30
0.0
 11
-89.644588045234286
 21
-290.46849757673681
 31
0.0
  0
ARC
  8
DETAIL
  6
CONTINUOUS
 62
     5
 10
-151.94895376030081
 20
-182.07460859664741
 30
0.0
 40
109.4462017059322
 50
178.0170605603779
 51
252.51171880518271
  0
ARC
  8
DETAIL
  6
CONTINUOUS
 62
     5
 10
-144.83485553832159
 20
-181.5370599488021
 30
0.0
 40
112.2922926756421
 50
178.34175089384891
 51
249.13007579264459
  0
ARC
  8
DETAIL
  6
CONTINUOUS
 62
     5
 10
-160.26678889411511
 20
-181.4457054167772
 30
0.0
 40
69.971173857954426
 50
177.4130795091456
 51
253.1156998562393
  0
ARC
  8
DETAIL
  6
CONTINUOUS
 62
     5
 10
-241.86149057409509
 20
-4.5764264435501332
 30
0.0
 40
6.244497197970114
 50
188.42955177210851
 51
240.5894683630622
  0
ARC
  8
DETAIL
  6
CONTINUOUS
 62
     5
 10
-255.60284915849871
 20
-7.7699640476007517
 30
0.0
 40
7.899928282569209
 50
16.760653996003789
 51
37.118451892307867
  0
ARC
  8
DETAIL
  6
CONTINUOUS
 62
     5
 10
-244.4684257845872
 20
-8.1114908990306844
 30
0.0
 40
6.4283783720011067
 50
196.7465979404173
 51
265.90090058278332
  0
ARC
  8
DETAIL
  6
CONTINUOUS
 62
     5
 10
-255.93972033575639
 20
-9.9932341174655335
 30
0.0
 40
5.31563524677793
 50
0.317694556911165
 51
66.778307114889529
  0
ARC
  8
DETAIL
  6
CONTINUOUS
 62
     5
 10
-294.09416813426043
 20
-8.1813820750461446
 30
0.0
 40
6.3553598456155607
 50
196.77996049170059
 51
266.29022727746502
  0
ARC
  8
DETAIL
  6
CONTINUOUS
 62
     5
 10
-306.25041425804648
 20
-10.502234461338499
 30
0.0
 40
6.0909206362946406
 50
4.5772954206632868
 51
62.322937849358688
  0
ARC
  8
DETAIL
  6
CONTINUOUS
 62
     5
 10
149.86443337809939
 20
-416.87224887538918
 30
0.0
 40
467.60860841591227
 50
134.6921170014333
 51
144.3632892329436
  0
ARC
  8
DETAIL
  6
CONTINUOUS
 62
     5
 10
-170.63021393162131
 20
-227.06188439997999
 30
0.0
 40
62.486863867086889
 50
117.0156681826689
 51
155.4667905159526
  0
ARC
  8
DETAIL
  6
CONTINUOUS
 62
     5
 10
-237.78120236979291
 20
-97.715813527959313
 30
0.0
 40
83.254417208406636
 50
297.75222105375138
 51
312.37367624671248
  0
ARC
  8
DETAIL
  6
CONTINUOUS
 62
     5
 10
30612.290715799401
 20
-54486.14210938631
 30
0.0
 40
62447.437049446213
 50
119.488915185276
 51
119.5457321135748
  0
ARC
  8
DETAIL
  6
CONTINUOUS
 62
     5
 10
-428.2403149853485
 20
499.44600141444948
 30
0.0
 40
696.31274440815719
 50
295.56715942319488
 51
300.20737476621662
  0
ARC
  8
DETAIL
  6
CONTINUOUS
 62
     5
 10
-175.27124171594161
 20
40.872816339493482
 30
0.0
 40
173.15612984138849
 50
304.21576497651353
 51
313.63321734721569
  0
ARC
  8
DETAIL
  6
CONTINUOUS
 62
     5
 10
952.67927102752219
 20
1615.4080519841939
 30
0.0
 40
1982.609179643601
 50
241.56094307449899
 51
243.08518251256021
  0
ARC
  8
DETAIL
  6
CONTINUOUS
 62
     5
 10
100.011344907648
 20
-98.466962391753555
 30
0.0
 40
68.44562413182814
 50
239.0362434679237
 51
249.69155610320871
  0
ARC
  8
DETAIL
  6
CONTINUOUS
 62
     5
 10
91.934401108487691
 20
-59.953604088884731
 30
0.0
 40
80.192578281847545
 50
216.23968932915389
 51
220.03396632235581
  0
ARC
  8
DETAIL
  6
CONTINUOUS
 62
     5
 10
23.187886223557829
 20
-107.6226297152958
 30
0.0
 40
4.0755420431997562
 50
3.6861215080889269
 51
92.1199324040996
  0
ARC
  8
DETAIL
  6
CONTINUOUS
 62
     5
 10
34.392630296188599
 20
-120.7860233255731
 30
0.0
 40
4.0550060096638996
 50
146.701668442787
 51
253.0350956085781
  0
ARC
  8
DETAIL
  6
CONTINUOUS
 62
     5
 10
27.664508978418549
 20
-115.2558219123965
 30
0.0
 40
4.6972773096058713
 50
315.30052676427789
 51
52.348236289834119
  0
ARC
  8
DETAIL
  6
CONTINUOUS
 62
     5
 10
-79.604559674246957
 20
-403.06444173501262
 30
0.0
 40
300.39308221583849
 50
56.305846407095679
 51
67.944808992145155
  0
ARC
  8
DETAIL
  6
CONTINUOUS
 62
     5
 10
58.963391476404922
 20
-104.9259545485681
 30
0.0
 40
1.5801548686696441
 50
69.180618585315401
 51
200.53741697953589
  0
ARC
  8
DETAIL
  6
CONTINUOUS
 62
     5
 10
101.3107865062229
 20
-64.639586289692545
 30
0.0
 40
59.906432208881277
 50
222.97990080587891
 51
255.43168669393279
  0
ARC
  8
DETAIL
  6
CONTINUOUS
 62
     5
 10
85.160119877074976
 20
-126.7821296613764
 30
0.0
 40
4.300574665725911
 50
293.03758447933888
 51
75.426010683924716
  0
ARC
  8
DETAIL
  6
CONTINUOUS
 62
     5
 10
90.29152712622863
 20
-136.4956381949703
 30
0.0
 40
6.7098640722057654
 50
120.92637932265291
 51
233.76126966849509
  0
ARC
  8
DETAIL
  6
CONTINUOUS
 62
     5
 10
79.247766303804838
 20
-147.99532359903969
 30
0.0
 40
9.3353079073787875
 50
326.60042472297931
 51
40.70187857925356
  0
ARC
  8
DETAIL
  6
CONTINUOUS
 62
     5
 10
83.529302746393114
 20
-169.5872866110868
 30
0.0
 40
10.04604054706439
 50
115.65912037878471
 51
205.71858840818959
  0
ARC
  8
DETAIL
  6
CONTINUOUS
 62
     5
 10
57.619988609647628
 20
-129.82815521732019
 30
0.0
 40
37.51694655535578
 50
305.07531886422731
 51
321.85443637441801
  0
ARC
  8
DETAIL
  6
CONTINUOUS
 62
     5
 10
58.82481027824133
 20
-172.1156027435957
 30
0.0
 40
15.760392434090059
 50
321.33965127253663
 51
353.16292371342269
  0
ARC
  8
DETAIL
  6
CONTINUOUS
 62
     5
 10
-123.3979755276041
 20
-28.516619082432442
 30
0.0
 40
247.7638990796861
 50
317.02911838808171
 51
321.73368220523139
  0
ARC
  8
DETAIL
  6
CONTINUOUS
 62
     5
 10
60.532255269185733
 20
-200.23439556902889
 30
0.0
 40
3.875004453771095
 50
132.97145852365901
 51
286.46641889753352
  0
ARC
  8
DETAIL
  6
CONTINUOUS
 62
     5
 10
11.68781384194472
 20
63.605964406083793
 30
0.0
 40
272.17775749972441
 50
280.57330747394639
 51
323.35588871121791
  0
ARC
  8
DETAIL
  6
CONTINUOUS
 62
     5
 10
491.4630256785149
 20
640.96497002087642
 30
0.0
 40
903.23443929025314
 50
246.0154421740848
 51
249.30516908834949
  0
ARC
  8
DETAIL
  6
CONTINUOUS
 62
     5
 10
10.03496175085229
 20
-412.89890961900568
 30
0.0
 40
267.19215368661162
 50
52.17867600012692
 51
61.610932372266127
  0
ARC
  8
DETAIL
  6
CONTINUOUS
 62
     5
 10
172.38004944745811
 20
-202.36083765521991
 30
0.0
 40
1.5865274457748499
 50
265.24487534709851
 51
19.292885885187971
  0
ARC
  8
DETAIL
  6
CONTINUOUS
 62
     5
 10
106967.2644862809
 20
229895.27266015421
 30
0.0
 40
253630.9853166301
 50
245.06957539310201
 51
245.07010719864761
  0
ARC
  8
DETAIL
  6
CONTINUOUS
 62
     5
 10
-1.488161759449895
 20
13070.13639143237
 30
0.0
 40
13172.72465049721
 50
270.10667482152019
 51
270.25609693671532
  0
ARC
  8
DETAIL
  6
CONTINUOUS
 62
     5
 10
151.94895376030081
 20
-182.07460859664741
 30
0.0
 40
109.4462017059322
 50
287.4882811948172
 51
1.982939439622091
  0
ARC
  8
DETAIL
  6
CONTINUOUS
 62
     5
 10
144.83485553832179
 20
-181.5370599488021
 30
0.0
 40
112.2922926756421
 50
290.86992420735533
 51
1.658249106151072
  0
ARC
  8
DETAIL
  6
CONTINUOUS
 62
     5
 10
160.26678889411511
 20
-181.4457054167772
 30
0.0
 40
69.971173857954426
 50
286.88430014376058
 51
2.586920490854403
  0
ARC
  8
DETAIL
  6
CONTINUOUS
 62
     5
 10
241.86149057409509
 20
-4.5764264435501332
 30
0.0
 40
6.244497197970114
 50
299.41053163693778
 51
351.57044822789152
  0
ARC
  8
DETAIL
  6
CONTINUOUS
 62
     5
 10
255.60284915849891
 20
-7.7699640476007517
 30
0.0
 40
7.899928282569209
 50
142.88154810769211
 51
163.23934600399619
  0
ARC
  8
DETAIL
  6
CONTINUOUS
 62
     5
 10
244.468425784587
 20
-8.1114908990306844
 30
0.0
 40
6.4283783720011067
 50
274.09909941721668
 51
343.25340205958258
  0
ARC
  8
DETAIL
  6
CONTINUOUS
 62
     5
 10
255.93972033575659
 20
-9.9932341174655335
 30
0.0
 40
5.31563524677793
 50
113.2216928851105
 51
179.68230544308889
  0
ARC
  8
DETAIL
  6
CONTINUOUS
 62
     5
 10
294.0941681342606
 20
-8.1813820750461446
 30
0.0
 40
6.3553598456155607
 50
273.70977272253498
 51
343.22003950829941
  0
ARC
  8
DETAIL
  6
CONTINUOUS
 62
     5
 10
306.25041425804648
 20
-10.502234461338499
 30
0.0
 40
6.0909206362946406
 50
117.67706215064131
 51
175.42270457933671
  0
ARC
  8
OUTLINE
  6
CONTINUOUS
 62
     3
 10
-151.9489537595241
 20
-182.07460859664829
 30
0.0
 40
109.4462017059322
 50
178.0170605603779
 51
252.51171880518271
  0
ARC
  8
OUTLINE
  6
CONTINUOUS
 62
     3
 10
-294.09416813348372
 20
-8.1813820750471677
 30
0.0
 40
6.3553598456155607
 50
196.77996049170369
 51
266.29022727746502
  0
ARC
  8
OUTLINE
  6
CONTINUOUS
 62
     3
 10
151.94895376107749
 20
-182.07460859664829
 30
0.0
 40
109.4462017059322
 50
287.4882811948172
 51
1.982939439622091
  0
ARC
  8
OUTLINE
  6
CONTINUOUS
 62
     3
 10
294.09416813503691
 20
-8.1813820750471677
 30
0.0
 40
6.3553598456155607
 50
273.70977272253498
 51
343.22003950829628
  0
TEXT
  8
ETC
  6
CONTINUOUS
 62
    61
 10
391.97604161986283
 20
268.90244632851733
 30
0.0
 40
40.0
  1
EWG-50ETA2
 41
0.9
  0
TEXT
  8
ETC
  6
CONTINUOUS
 62
    61
 10
391.97604161986283
 20
202.9024463285173
 30
0.0
 40
40.0
  1
EWG-50ETA2-PR
 41
0.9
  0
ENDSEC
  0
EOF
