  0
SECTION
  2
HEADER
  9
$ACADVER
  1
AC1009
  9
$DWGCODEPAGE
  3
dos932
  9
$INSBASE
 10
0.0
 20
0.0
 30
0.0
  9
$EXTMIN
 10
-641.71140924062638
 20
-383.23973431629202
 30
-0.0015258207003583
  9
$EXTMAX
 10
948.97156909453952
 20
688.93433430806544
 30
0.0000000349246037
  9
$LIMMIN
 10
-2970.0
 20
-2100.0
  9
$LIMMAX
 10
2970.0
 20
2100.0
  9
$ORTHOMODE
 70
     1
  9
$REGENMODE
 70
     1
  9
$FILLMODE
 70
     1
  9
$QTEXTMODE
 70
     0
  9
$MIRRTEXT
 70
     0
  9
$LTSCALE
 40
20.0
  9
$ATTMODE
 70
     1
  9
$TEXTSIZE
 40
64.0
  9
$TRACEWID
 40
0.05
  9
$TEXTSTYLE
  7
STANDARD
  9
$CLAYER
  8
SIZE
  9
$CELTYPE
  6
CONTINUOUS
  9
$CECOLOR
 62
     7
  9
$DIMSCALE
 40
1.0
  9
$DIMASZ
 40
12.0
  9
$DIMEXO
 40
20.0
  9
$DIMDLI
 40
200.0
  9
$DIMRND
 40
0.0
  9
$DIMDLE
 40
0.0
  9
$DIMEXE
 40
20.0
  9
$DIMTP
 40
0.0
  9
$DIMTM
 40
0.0
  9
$DIMTXT
 40
64.0
  9
$DIMCEN
 40
0.09
  9
$DIMTSZ
 40
0.0
  9
$DIMTOL
 70
     0
  9
$DIMLIM
 70
     0
  9
$DIMTIH
 70
     0
  9
$DIMTOH
 70
     0
  9
$DIMSE1
 70
     0
  9
$DIMSE2
 70
     0
  9
$DIMTAD
 70
     1
  9
$DIMZIN
 70
     8
  9
$DIMBLK
  1

  9
$DIMASO
 70
     1
  9
$DIMSHO
 70
     0
  9
$DIMPOST
  1

  9
$DIMAPOST
  1

  9
$DIMALT
 70
     0
  9
$DIMALTD
 70
     2
  9
$DIMALTF
 40
25.399999999999999
  9
$DIMLFAC
 40
1.0
  9
$DIMTOFL
 70
     1
  9
$DIMTVP
 40
0.0
  9
$DIMTIX
 70
     1
  9
$DIMSOXD
 70
     0
  9
$DIMSAH
 70
     0
  9
$DIMBLK1
  1

  9
$DIMBLK2
  1

  9
$DIMSTYLE
  2
STANDARD
  9
$DIMCLRD
 70
     7
  9
$DIMCLRE
 70
     7
  9
$DIMCLRT
 70
     7
  9
$DIMTFAC
 40
1.0
  9
$DIMGAP
 40
25.0
  9
$LUNITS
 70
     2
  9
$LUPREC
 70
     4
  9
$SKETCHINC
 40
0.1
  9
$FILLETRAD
 40
3.0
  9
$AUNITS
 70
     1
  9
$AUPREC
 70
     3
  9
$MENU
  1
ACAD
  9
$ELEVATION
 40
0.0
  9
$PELEVATION
 40
0.0
  9
$THICKNESS
 40
0.0
  9
$LIMCHECK
 70
     0
  9
$CHAMFERA
 40
0.0
  9
$CHAMFERB
 40
0.0
  9
$SKPOLY
 70
     0
  9
$TDCREATE
 40
2453019.62301037
  9
$TDUPDATE
 40
2458949.455321817
  9
$TDINDWG
 40
1.7134534838
  9
$TDUSRTIMER
 40
1.7134534838
  9
$USRTIMER
 70
     1
  9
$ANGBASE
 50
0.0
  9
$ANGDIR
 70
     0
  9
$PDMODE
 70
     3
  9
$PDSIZE
 40
-2.0
  9
$PLINEWID
 40
0.0
  9
$SPLFRAME
 70
     0
  9
$SPLINETYPE
 70
     6
  9
$SPLINESEGS
 70
     8
  9
$SURFTAB1
 70
     6
  9
$SURFTAB2
 70
     6
  9
$SURFTYPE
 70
     6
  9
$SURFU
 70
     6
  9
$SURFV
 70
     6
  9
$UCSNAME
  2

  9
$UCSORG
 10
0.0
 20
0.0
 30
0.0
  9
$UCSXDIR
 10
1.0
 20
0.0
 30
0.0
  9
$UCSYDIR
 10
0.0
 20
1.0
 30
0.0
  9
$PUCSNAME
  2

  9
$PUCSORG
 10
0.0
 20
0.0
 30
0.0
  9
$PUCSXDIR
 10
1.0
 20
0.0
 30
0.0
  9
$PUCSYDIR
 10
0.0
 20
1.0
 30
0.0
  9
$USERI1
 70
     0
  9
$USERI2
 70
     0
  9
$USERI3
 70
     0
  9
$USERI4
 70
     0
  9
$USERI5
 70
     0
  9
$USERR1
 40
20.0
  9
$USERR2
 40
0.0
  9
$USERR3
 40
0.0
  9
$USERR4
 40
0.0
  9
$USERR5
 40
0.0
  9
$WORLDVIEW
 70
     1
  9
$SHADEDGE
 70
     3
  9
$SHADEDIF
 70
    70
  9
$TILEMODE
 70
     1
  9
$MAXACTVP
 70
    48
  9
$PINSBASE
 10
0.0
 20
0.0
 30
0.0
  9
$PLIMCHECK
 70
     0
  9
$PEXTMIN
 10
-100000000000000000000.0
 20
-100000000000000000000.0
 30
-100000000000000000000.0
  9
$PEXTMAX
 10
100000000000000000000.0
 20
100000000000000000000.0
 30
100000000000000000000.0
  9
$PLIMMIN
 10
0.0
 20
0.0
  9
$PLIMMAX
 10
12.0
 20
9.0
  9
$UNITMODE
 70
     0
  9
$VISRETAIN
 70
     0
  9
$PLINEGEN
 70
     0
  9
$PSLTSCALE
 70
     0
  9
$TREEDEPTH
 70
  3020
  9
$ATTDIA
 70
     0
  9
$ATTREQ
 70
     1
  9
$BLIPMODE
 70
     1
  9
$COORDS
 70
     1
  9
$DRAGMODE
 70
     2
  9
$OSMODE
 70
     0
  9
$HANDLING
 70
     0
  9
$HANDSEED
  5
FA5F
  0
ENDSEC
  0
SECTION
  2
TABLES
  0
TABLE
  2
LTYPE
 70
     2
  0
LTYPE
  2
CONTINUOUS
 70
     0
  3
実線
 72
    65
 73
     0
 40
0.0
  0
LTYPE
  2
DASHDOT
 70
     0
  3
____ _ ____ _ ____ _ ____ _ ____ _ ____ _ ____
 72
    65
 73
     4
 40
5.5
 49
4.0
 49
-0.6
 49
0.3
 49
-0.6
  0
ENDTAB
  0
TABLE
  2
LAYER
 70
    12
  0
LAYER
  2
0
 70
     0
 62
     7
  6
CONTINUOUS
  0
LAYER
  2
BASIS
 70
     0
 62
     6
  6
DASHDOT
  0
LAYER
  2
DETAIL
 70
     0
 62
     5
  6
CONTINUOUS
  0
LAYER
  2
SIZE
 70
     0
 62
    30
  6
CONTINUOUS
  0
LAYER
  2
ARRANGE
 70
     0
 62
     1
  6
CONTINUOUS
  0
LAYER
  2
DEFPOINTS
 70
     0
 62
     7
  6
CONTINUOUS
  0
LAYER
  2
ETC
 70
     0
 62
    61
  6
CONTINUOUS
  0
LAYER
  2
FIX
 70
     0
 62
    11
  6
CONTINUOUS
  0
LAYER
  2
NOTE
 70
     0
 62
     4
  6
CONTINUOUS
  0
LAYER
  2
OUTLINE
 70
    64
 62
     3
  6
CONTINUOUS
  0
LAYER
  2
SERVICESPACE
 70
    64
 62
     2
  6
DASHDOT
  0
LAYER
  2
SYMBOLLINE
 70
    64
 62
    15
  6
CONTINUOUS
  0
ENDTAB
  0
TABLE
  2
STYLE
 70
     1
  0
STYLE
  2
STANDARD
 70
     0
 40
64.0
 41
0.9
 50
0.0
 71
     0
 42
64.0
  3
SIMPLEX.shx
  4
BIGFONT.shx
  0
ENDTAB
  0
TABLE
  2
APPID
 70
    19
  0
APPID
  2
ACAD
 70
     0
  0
APPID
  2
AUTOCAD_POSTSCRIPT_FIGURE
 70
     0
  0
APPID
  2
ACAD_EXEMPT_FROM_CAD_STANDARDS
 70
     0
  0
APPID
  2
ACAD_PSEXT
 70
     0
  0
APPID
  2
ACAUTHENVIRON
 70
     0
  0
APPID
  2
GENIUS_GENOENT_13
 70
     0
  0
APPID
  2
GENIUS_GENCFG_13
 70
     0
  0
APPID
  2
GENIUS_GENCFG0_13
 70
     0
  0
APPID
  2
GENIUS_GENCFG1_13
 70
     0
  0
APPID
  2
GENIUS_GENCFG2_13
 70
     0
  0
APPID
  2
GENIUS_GENCFG3_13
 70
     0
  0
APPID
  2
GENIUS_GENCFG4_13
 70
     0
  0
APPID
  2
GENIUS_GEVCFG0_13
 70
     0
  0
APPID
  2
CONTENTBLOCKICON
 70
     0
  0
APPID
  2
CONTENTBLOCKDESCRIPTION
 70
     0
  0
APPID
  2
ACAD_NAV_VCDISPLAY
 70
     0
  0
APPID
  2
ACAD_MLEADERVER
 70
     0
  0
APPID
  2
ACDBDYNAMICBLOCKTRUENAME
 70
     0
  0
APPID
  2
ACDBDYNAMICBLOCKGUID
 70
     0
  0
ENDTAB
  0
TABLE
  2
DIMSTYLE
 70
     1
  0
DIMSTYLE
  2
STANDARD
 70
     0
  3

  4

  5
_ORIGIN
  6

  7

 40
1.0
 41
12.0
 42
20.0
 43
200.0
 44
20.0
 45
0.0
 46
0.0
 47
0.0
 48
0.0
140
64.0
141
0.09
142
0.0
143
25.399999999999999
144
1.0
145
0.0
146
1.0
147
25.0
 71
     0
 72
     0
 73
     0
 74
     0
 75
     0
 76
     0
 77
     1
 78
     8
170
     0
171
     2
172
     1
173
     0
174
     1
175
     0
176
     7
177
     7
178
     7
  0
ENDTAB
  0
TABLE
  2
VIEW
 70
     1
  0
VIEW
  2
ALL
 70
     0
 40
4282.6198079999986
 10
0.0
 20
41.309904000000003
 41
5940.0
 11
0.0
 21
0.0
 31
1.0
 12
0.0
 22
0.0
 32
0.0
 42
50.0
 43
0.0
 44
0.0
 50
0.0
 71
     0
  0
ENDTAB
  0
TABLE
  2
UCS
 70
     0
  0
ENDTAB
  0
TABLE
  2
VPORT
 70
     1
  0
VPORT
  2
*ACTIVE
 70
     0
 10
0.0
 20
0.0
 11
1.0
 21
1.0
 12
153.63007992695651
 22
152.84729999588669
 13
0.0
 23
0.0
 14
1.0
 24
1.0
 15
0.0
 25
0.0
 16
0.0
 26
0.0
 36
1.0
 17
0.0
 27
0.0
 37
0.0
 40
1079.2824049909279
 41
1.747787610619469
 42
50.0
 43
0.0
 44
0.0
 50
0.0
 51
0.0
 71
     0
 72
  1000
 73
     1
 74
     3
 75
     0
 76
     0
 77
     0
 78
     0
  0
ENDTAB
  0
ENDSEC
  0
SECTION
  2
BLOCKS
  0
BLOCK
  8
0
  2
_ORIGIN
 70
     0
 10
0.0
 20
0.0
 30
0.0
  3
_ORIGIN
  1
_ORIGIN
  0
CIRCLE
  8
0
  6
CONTINUOUS
 62
     7
 10
0.0
 20
0.0
 30
0.0
 40
0.5
  0
LINE
  8
0
  6
CONTINUOUS
 62
     7
 10
0.0
 20
0.0
 30
0.0
 11
-1.0
 21
0.0
 31
0.0
  0
ENDBLK
  8
0
  0
ENDSEC
  0
SECTION
  2
ENTITIES
  0
CIRCLE
  8
ARRANGE
  6
CONTINUOUS
 62
     1
 10
0.0
 20
0.0
 30
0.0
 40
40.0
  0
POINT
  8
ARRANGE
  6
CONTINUOUS
 62
     1
 10
0.0
 20
0.0
 30
0.0
  0
TEXT
  8
ETC
  6
CONTINUOUS
 62
    61
 10
326.28785804585459
 20
624.70590174295683
 30
0.0
 40
64.0
  1
EWG-50ETA2_3
 41
0.9
  0
TEXT
  8
ETC
  6
CONTINUOUS
 62
    61
 10
322.1018640458542
 20
506.75059172812553
 30
0.0
 40
64.0
  1
産業扇
 41
0.9
  0
TEXT
  8
NOTE
  6
CONTINUOUS
 62
     4
 10
-634.56398072592901
 20
390.89763131369892
 30
0.0
 40
64.0
  1
4-φ14
 41
0.9
  0
LINE
  8
SIZE
  6
CONTINUOUS
 62
    30
 10
-310.00000000000028
 20
289.93537964458801
 30
0.0
 11
-310.00000000000028
 21
494.90249446868069
 31
0.0
  0
LINE
  8
SIZE
  6
CONTINUOUS
 62
    30
 10
309.99999999999949
 20
289.93537964458801
 30
0.0
 11
309.99999999999949
 21
494.90249446868069
 31
0.0
  0
LINE
  8
SIZE
  6
CONTINUOUS
 62
    30
 10
-298.00000000000028
 20
474.90249446868069
 30
0.0
 11
297.99999999999949
 21
474.90249446868069
 31
0.0
  0
CIRCLE
  8
SIZE
  6
CONTINUOUS
 62
    30
 10
-310.00000000000028
 20
474.90249446868069
 30
0.0
 40
6.0
  0
LINE
  8
SIZE
  6
CONTINUOUS
 62
    30
 10
-310.00000000000028
 20
474.90249446868069
 30
0.0
 11
-298.00000000000028
 21
474.90249446868069
 31
0.0
  0
CIRCLE
  8
SIZE
  6
CONTINUOUS
 62
    30
 10
309.99999999999949
 20
474.90249446868069
 30
0.0
 40
6.0
  0
LINE
  8
SIZE
  6
CONTINUOUS
 62
    30
 10
309.99999999999949
 20
474.90249446868069
 30
0.0
 11
297.99999999999949
 21
474.90249446868069
 31
0.0
  0
TEXT
  8
SIZE
  6
CONTINUOUS
 62
    30
 10
-72.174068952043768
 20
499.90249446868069
 30
0.0
 40
64.0
  1
620
 41
0.9
 72
     1
 11
1.883073905099081
 21
499.90249446868069
 31
0.0
  0
POINT
  8
DEFPOINTS
  6
CONTINUOUS
 62
    30
 10
-310.00000000000028
 20
269.93537964458801
 30
0.0
  0
POINT
  8
DEFPOINTS
  6
CONTINUOUS
 62
    30
 10
309.99999999999949
 20
269.93537964458801
 30
0.0
  0
POINT
  8
DEFPOINTS
  6
CONTINUOUS
 62
    30
 10
309.99999999999949
 20
474.90249446868069
 30
0.0
  0
LINE
  8
SIZE
  6
CONTINUOUS
 62
    30
 10
-280.45234248788398
 20
312.46365105008078
 30
0.0
 11
-280.45234248788398
 21
382.62244768570139
 31
0.0
  0
LINE
  8
SIZE
  6
CONTINUOUS
 62
    30
 10
280.45234248788358
 20
312.4636510500809
 30
0.0
 11
280.45234248788358
 21
382.62244768570139
 31
0.0
  0
LINE
  8
SIZE
  6
CONTINUOUS
 62
    30
 10
-268.45234248788398
 20
362.62244768570139
 30
0.0
 11
268.45234248788358
 21
362.62244768570139
 31
0.0
  0
CIRCLE
  8
SIZE
  6
CONTINUOUS
 62
    30
 10
-280.45234248788398
 20
362.62244768570139
 30
0.0
 40
6.0
  0
LINE
  8
SIZE
  6
CONTINUOUS
 62
    30
 10
-280.45234248788398
 20
362.62244768570139
 30
0.0
 11
-268.45234248788398
 21
362.62244768570139
 31
0.0
  0
CIRCLE
  8
SIZE
  6
CONTINUOUS
 62
    30
 10
280.45234248788358
 20
362.62244768570139
 30
0.0
 40
6.0
  0
LINE
  8
SIZE
  6
CONTINUOUS
 62
    30
 10
280.45234248788358
 20
362.62244768570139
 30
0.0
 11
268.45234248788358
 21
362.62244768570139
 31
0.0
  0
TEXT
  8
SIZE
  6
CONTINUOUS
 62
    30
 10
-73.613882513831783
 20
387.62244768570139
 30
0.0
 40
64.0
  1
560
 41
0.9
 72
     1
 11
0.4432603433110671
 21
387.62244768570139
 31
0.0
  0
POINT
  8
DEFPOINTS
  6
CONTINUOUS
 62
    30
 10
-280.45234248788398
 20
292.46365105008078
 30
0.0
  0
POINT
  8
DEFPOINTS
  6
CONTINUOUS
 62
    30
 10
280.45234248788358
 20
292.4636510500809
 30
0.0
  0
POINT
  8
DEFPOINTS
  6
CONTINUOUS
 62
    30
 10
280.45234248788358
 20
362.62244768570139
 30
0.0
  0
LINE
  8
SIZE
  6
CONTINUOUS
 62
    30
 10
-289.93537964458852
 20
310.0
 30
0.0
 11
-507.77332855358873
 21
310.0
 31
0.0
  0
LINE
  8
SIZE
  6
CONTINUOUS
 62
    30
 10
-289.93537964458852
 20
-310.0
 30
0.0
 11
-507.77332855358873
 21
-309.99999999999989
 31
0.0
  0
LINE
  8
SIZE
  6
CONTINUOUS
 62
    30
 10
-487.77332855358873
 20
298.0
 30
0.0
 11
-487.77332855358873
 21
-297.99999999999989
 31
0.0
  0
CIRCLE
  8
SIZE
  6
CONTINUOUS
 62
    30
 10
-487.77332855358873
 20
310.0
 30
0.0
 40
6.0
  0
LINE
  8
SIZE
  6
CONTINUOUS
 62
    30
 10
-487.77332855358873
 20
310.0
 30
0.0
 11
-487.77332855358873
 21
298.0
 31
0.0
  0
CIRCLE
  8
SIZE
  6
CONTINUOUS
 62
    30
 10
-487.77332855358873
 20
-309.99999999999989
 30
0.0
 40
6.0
  0
LINE
  8
SIZE
  6
CONTINUOUS
 62
    30
 10
-487.77332855358873
 20
-309.99999999999989
 30
0.0
 11
-487.77332855358873
 21
-297.99999999999989
 31
0.0
  0
TEXT
  8
SIZE
  6
CONTINUOUS
 62
    30
 10
-512.77332855358873
 20
-82.938012793663717
 30
0.0
 40
64.0
  1
620
 50
90.0
 41
0.9
 72
     1
 11
-512.77332855358873
 21
-8.8808699365208668
 31
0.0
  0
POINT
  8
DEFPOINTS
  6
CONTINUOUS
 62
    30
 10
-269.93537964458852
 20
310.0
 30
0.0
  0
POINT
  8
DEFPOINTS
  6
CONTINUOUS
 62
    30
 10
-269.93537964458852
 20
-310.0
 30
0.0
  0
POINT
  8
DEFPOINTS
  6
CONTINUOUS
 62
    30
 10
-487.77332855358873
 20
-309.99999999999989
 30
0.0
  0
LINE
  8
SIZE
  6
CONTINUOUS
 62
    30
 10
-312.46365105008118
 20
280.4523424878837
 30
0.0
 11
-386.5051563842589
 21
280.45234248788381
 31
0.0
  0
LINE
  8
SIZE
  6
CONTINUOUS
 62
    30
 10
-312.46365105008118
 20
-280.4523424878837
 30
0.0
 11
-386.50515638425901
 21
-280.45234248788358
 31
0.0
  0
LINE
  8
SIZE
  6
CONTINUOUS
 62
    30
 10
-366.5051563842589
 20
268.4523424878837
 30
0.0
 11
-366.50515638425901
 21
-268.4523424878837
 31
0.0
  0
CIRCLE
  8
SIZE
  6
CONTINUOUS
 62
    30
 10
-366.5051563842589
 20
280.4523424878837
 30
0.0
 40
6.0
  0
LINE
  8
SIZE
  6
CONTINUOUS
 62
    30
 10
-366.5051563842589
 20
280.4523424878837
 30
0.0
 11
-366.5051563842589
 21
268.4523424878837
 31
0.0
  0
CIRCLE
  8
SIZE
  6
CONTINUOUS
 62
    30
 10
-366.50515638425901
 20
-280.4523424878837
 30
0.0
 40
6.0
  0
LINE
  8
SIZE
  6
CONTINUOUS
 62
    30
 10
-366.50515638425901
 20
-280.4523424878837
 30
0.0
 11
-366.50515638425901
 21
-268.4523424878837
 31
0.0
  0
TEXT
  8
SIZE
  6
CONTINUOUS
 62
    30
 10
-391.50515638425901
 20
-73.873285525816215
 30
0.0
 40
64.0
  1
560
 50
90.0
 41
0.9
 72
     1
 11
-391.50515638425901
 21
0.1838573313266352
 31
0.0
  0
POINT
  8
DEFPOINTS
  6
CONTINUOUS
 62
    30
 10
-292.46365105008118
 20
280.4523424878837
 30
0.0
  0
POINT
  8
DEFPOINTS
  6
CONTINUOUS
 62
    30
 10
-292.46365105008118
 20
-280.4523424878837
 30
0.0
  0
POINT
  8
DEFPOINTS
  6
CONTINUOUS
 62
    30
 10
-366.50515638425901
 20
-280.4523424878837
 30
0.0
  0
CIRCLE
  8
FIX
  6
CONTINUOUS
 62
    11
 10
280.45234248788358
 20
-280.4523424878837
 30
0.0
 40
7.0
  0
CIRCLE
  8
FIX
  6
CONTINUOUS
 62
    11
 10
280.45234248788358
 20
280.4523424878837
 30
0.0
 40
7.0
  0
CIRCLE
  8
FIX
  6
CONTINUOUS
 62
    11
 10
-280.45234248788398
 20
280.16765190823168
 30
0.0
 40
7.0
  0
CIRCLE
  8
FIX
  6
CONTINUOUS
 62
    11
 10
-280.45234248788398
 20
-280.4523424878837
 30
0.0
 40
7.0
  0
LINE
  8
NOTE
  6
CONTINUOUS
 62
     4
 10
292.46365105008039
 20
-280.4523424878837
 30
0.0
 11
268.4410339256865
 21
-280.4523424878837
 31
0.0
  0
LINE
  8
NOTE
  6
CONTINUOUS
 62
     4
 10
280.45234248788358
 20
-268.44103392568661
 30
0.0
 11
280.45234248788358
 21
-292.46365105008101
 31
0.0
  0
LINE
  8
NOTE
  6
CONTINUOUS
 62
     4
 10
-268.44103392568701
 20
-280.4523424878837
 30
0.0
 11
-292.46365105008118
 21
-280.4523424878837
 31
0.0
  0
LINE
  8
NOTE
  6
CONTINUOUS
 62
     4
 10
-280.45234248788398
 20
-268.44103392568672
 30
0.0
 11
-280.45234248788398
 21
-292.46365105008078
 31
0.0
  0
LINE
  8
NOTE
  6
CONTINUOUS
 62
     4
 10
-268.44103392568701
 20
280.4523424878837
 30
0.0
 11
-292.46365105008118
 21
280.4523424878837
 31
0.0
  0
LINE
  8
NOTE
  6
CONTINUOUS
 62
     4
 10
-280.45234248788398
 20
292.46365105008078
 30
0.0
 11
-280.45234248788398
 21
268.44103392568661
 31
0.0
  0
LINE
  8
NOTE
  6
CONTINUOUS
 62
     4
 10
292.46365105008039
 20
280.4523424878837
 30
0.0
 11
268.4410339256865
 21
280.4523424878837
 31
0.0
  0
LINE
  8
NOTE
  6
CONTINUOUS
 62
     4
 10
280.45234248788358
 20
292.4636510500809
 30
0.0
 11
280.45234248788358
 21
268.4410339256865
 31
0.0
  0
LINE
  8
DETAIL
  6
CONTINUOUS
 62
     4
 10
-282.74601036975821
 20
285.9173265464367
 30
0.0
 11
-280.43908782977678
 21
280.14993478893268
 31
0.0
  0
LINE
  8
DETAIL
  6
CONTINUOUS
 62
     4
 10
-280.43908782977678
 20
280.14993478893268
 30
0.0
 11
-285.32064302125252
 21
283.99117393829277
 31
0.0
  0
LINE
  8
DETAIL
  6
CONTINUOUS
 62
     4
 10
-280.43908782977678
 20
280.14993478893268
 30
0.0
 11
-287.62756556123372
 21
289.75856569579668
 31
0.0
  0
LINE
  8
NOTE
  6
CONTINUOUS
 62
     4
 10
-287.62756556123372
 20
289.75856569579668
 30
0.0
 11
-343.81886908478072
 21
364.86786086278568
 31
0.0
  0
LINE
  8
NOTE
  6
CONTINUOUS
 62
     4
 10
-343.81886908478072
 20
364.86786086278568
 30
0.0
 11
-641.68743132981456
 21
365.02931571196609
 31
0.0
  0
LINE
  8
SIZE
  6
CONTINUOUS
 62
    30
 10
610.03985884535916
 20
210.66004404743401
 30
0.0
 11
253.2388943808655
 21
87.448903331937501
 31
0.0
  0
LINE
  8
SIZE
  6
CONTINUOUS
 62
    30
 10
-253.23889438086559
 20
-87.448903331937501
 30
0.0
 11
-264.58164156462959
 21
-91.365800870195528
 31
0.0
  0
TEXT
  8
SIZE
  6
CONTINUOUS
 62
    30
 10
409.20959145396472
 20
167.75759968637021
 30
0.0
 40
64.0
  1
φ511
 50
19.05090785134422
 41
0.9
 72
     1
 11
500.47009450962099
 21
199.2718381656118
 31
0.0
  0
LINE
  8
SIZE
  6
CONTINUOUS
 62
    30
 10
-241.8961471971015
 20
-83.532005793679502
 30
0.0
 11
241.8961471971015
 21
83.532005793679502
 31
0.0
  0
CIRCLE
  8
SIZE
  6
CONTINUOUS
 62
    30
 10
-241.8961471971015
 20
-83.532005793679502
 30
0.0
 40
6.0
  0
LINE
  8
SIZE
  6
CONTINUOUS
 62
    30
 10
-241.8961471971015
 20
-83.532005793679502
 30
0.0
 11
-253.23889438086559
 21
-87.448903331937501
 31
0.0
  0
CIRCLE
  8
SIZE
  6
CONTINUOUS
 62
    30
 10
241.8961471971015
 20
83.532005793679502
 30
0.0
 40
6.0
  0
LINE
  8
SIZE
  6
CONTINUOUS
 62
    30
 10
241.8961471971015
 20
83.532005793679502
 30
0.0
 11
253.2388943808655
 21
87.448903331937501
 31
0.0
  0
POINT
  8
DEFPOINTS
  6
CONTINUOUS
 62
    30
 10
241.8961471971015
 20
83.532005793679502
 30
0.0
  0
POINT
  8
DEFPOINTS
  6
CONTINUOUS
 62
    30
 10
-241.8961471971015
 20
-83.532005793679502
 30
0.0
  0
LINE
  8
DETAIL
  6
CONTINUOUS
 62
     5
 10
-252.7580134019864
 20
261.96882904927941
 30
0.0
 11
-261.96882904927958
 21
252.75801340198629
 31
0.0
  0
LINE
  8
DETAIL
  6
CONTINUOUS
 62
     5
 10
-245.83010046980041
 20
206.57081955594811
 30
0.0
 11
-206.5708195559483
 21
245.83010046902371
 31
0.0
  0
LINE
  8
DETAIL
  6
CONTINUOUS
 62
     5
 10
-261.3296162896396
 20
235.9494849124745
 30
0.0
 11
-266.33769383406622
 21
233.05806999428941
 31
0.0
  0
LINE
  8
DETAIL
  6
CONTINUOUS
 62
     5
 10
-261.3296162896396
 20
224.38382523895771
 30
0.0
 11
-256.32153874521322
 21
227.27524015791909
 31
0.0
  0
LINE
  8
DETAIL
  6
CONTINUOUS
 62
     5
 10
-261.96882904927958
 20
-252.7580134019862
 30
0.0
 11
-252.7580134019864
 21
-261.96882904927929
 31
0.0
  0
LINE
  8
DETAIL
  6
CONTINUOUS
 62
     5
 10
-310.00000000000028
 20
-269.93537964458801
 30
0.0
 11
-310.00000000000028
 21
269.93537964458801
 31
0.0
  0
LINE
  8
DETAIL
  6
CONTINUOUS
 62
     5
 10
-306.39418416801328
 20
227.8909065752465
 30
0.0
 11
-306.39418416801328
 21
-227.89090657602279
 31
0.0
  0
LINE
  8
DETAIL
  6
CONTINUOUS
 62
     5
 10
-235.17473262053099
 20
-264.22103120782458
 30
0.0
 11
-230.16665507610429
 21
-267.11244612600967
 31
0.0
  0
LINE
  8
DETAIL
  6
CONTINUOUS
 62
     5
 10
-225.15857753167799
 20
-258.4382013706778
 30
0.0
 11
-230.16665507610429
 21
-255.5467864524928
 31
0.0
  0
LINE
  8
DETAIL
  6
CONTINUOUS
 62
     5
 10
-296.37802907915989
 20
-171.07997595206069
 30
0.0
 11
-296.37802907915989
 21
171.07997595206069
 31
0.0
  0
LINE
  8
DETAIL
  6
CONTINUOUS
 62
     5
 10
-266.33769383406622
 20
233.05806999428941
 30
0.0
 11
-266.33769383406622
 21
227.27524015791909
 31
0.0
  0
LINE
  8
DETAIL
  6
CONTINUOUS
 62
     5
 10
-206.5708195559483
 20
-245.83010046979999
 30
0.0
 11
-245.83010046980041
 21
-206.57081955594791
 31
0.0
  0
LINE
  8
DETAIL
  6
CONTINUOUS
 62
     5
 10
-256.32153874521322
 20
227.27524015791909
 30
0.0
 11
-256.32153874521322
 21
233.05806999428941
 31
0.0
  0
LINE
  8
DETAIL
  6
CONTINUOUS
 62
     5
 10
-242.3141699039713
 20
291.97092084006482
 30
0.0
 11
-242.3141699039713
 21
287.18249766680458
 31
0.0
  0
LINE
  8
DETAIL
  6
CONTINUOUS
 62
     5
 10
-242.3141699039713
 20
-287.18249766680441
 30
0.0
 11
-242.3141699039713
 21
-291.97092084006471
 31
0.0
  0
LINE
  8
DETAIL
  6
CONTINUOUS
 62
     5
 10
-235.17473262053099
 20
-258.4382013706778
 30
0.0
 11
-235.17473262053099
 21
-264.22103120782458
 31
0.0
  0
LINE
  8
DETAIL
  6
CONTINUOUS
 62
     5
 10
269.93537964458801
 20
-309.99999999999989
 30
0.0
 11
-269.93537964458818
 21
-309.99999999999989
 31
0.0
  0
LINE
  8
DETAIL
  6
CONTINUOUS
 62
     5
 10
-227.8909065760231
 20
-306.39418416801288
 30
0.0
 11
227.89090657524639
 21
-306.39418416801288
 31
0.0
  0
LINE
  8
DETAIL
  6
CONTINUOUS
 62
     5
 10
171.07997595206049
 20
-296.37802907915989
 30
0.0
 11
-171.07997595206101
 21
-296.37802907915989
 31
0.0
  0
LINE
  8
DETAIL
  6
CONTINUOUS
 62
     5
 10
-225.15857753167799
 20
-264.22103120782458
 30
0.0
 11
-225.15857753167799
 21
-258.4382013706778
 31
0.0
  0
LINE
  8
DETAIL
  6
CONTINUOUS
 62
     5
 10
-200.52747191328879
 20
-266.93053311793221
 30
0.0
 11
-200.52747191328879
 21
-260.42003231017759
 31
0.0
  0
LINE
  8
DETAIL
  6
CONTINUOUS
 62
     5
 10
-200.52747191328879
 20
260.42003231017782
 30
0.0
 11
-200.52747191328879
 21
266.93053311793221
 31
0.0
  0
LINE
  8
DETAIL
  6
CONTINUOUS
 62
     5
 10
-291.97092084006482
 20
-242.31416990397111
 30
0.0
 11
-287.18249766680469
 21
-242.31416990397111
 31
0.0
  0
LINE
  8
DETAIL
  6
CONTINUOUS
 62
     5
 10
287.18249766680418
 20
-242.31416990397111
 30
0.0
 11
291.97092084006431
 21
-242.31416990397111
 31
0.0
  0
LINE
  8
DETAIL
  6
CONTINUOUS
 62
     5
 10
266.9305331179321
 20
-200.52747191328839
 30
0.0
 11
260.42003231017719
 21
-200.52747191328839
 31
0.0
  0
LINE
  8
DETAIL
  6
CONTINUOUS
 62
     5
 10
-260.42003231017787
 20
-200.52747191328839
 30
0.0
 11
-266.93053311793238
 21
-200.52747191328839
 31
0.0
  0
LINE
  8
DETAIL
  6
CONTINUOUS
 62
     5
 10
-122.0030236549073
 20
-111.9583955169753
 30
0.0
 11
-119.1700271809495
 21
-114.79139199093311
 31
0.0
  0
LINE
  8
DETAIL
  6
CONTINUOUS
 62
     5
 10
-105.3238177020703
 20
-126.72532884983281
 30
0.0
 11
-113.8998259206774
 21
-118.14932063122561
 31
0.0
  0
LINE
  8
DETAIL
  6
CONTINUOUS
 62
     5
 10
-118.14932063122571
 20
-113.8998259206772
 30
0.0
 11
-119.06378981330271
 21
-112.9853567386006
 31
0.0
  0
LINE
  8
DETAIL
  6
CONTINUOUS
 62
     5
 10
-119.6303891079388
 20
-112.4187574439644
 30
0.0
 11
-120.4802880498933
 21
-111.5688585020099
 31
0.0
  0
LINE
  8
DETAIL
  6
CONTINUOUS
 62
     5
 10
-118.9221399892554
 20
-111.7105083252808
 30
0.0
 11
-119.77203893120959
 21
-110.86060938332641
 31
0.0
  0
LINE
  8
DETAIL
  6
CONTINUOUS
 62
     5
 10
-118.70966525396079
 20
-109.7982357053011
 30
0.0
 11
-117.85976631123
 21
-110.6481346472555
 31
0.0
  0
LINE
  8
DETAIL
  6
CONTINUOUS
 62
     5
 10
-102.84494578745441
 20
-124.2464569352168
 30
0.0
 11
-111.42095400606151
 21
-115.6704487166096
 31
0.0
  0
LINE
  8
DETAIL
  6
CONTINUOUS
 62
     5
 10
-115.6704487166098
 20
-111.42095400606129
 30
0.0
 11
-116.5849178986864
 21
-110.50648482398459
 31
0.0
  0
LINE
  8
DETAIL
  6
CONTINUOUS
 62
     5
 10
-118.0014161352772
 20
-109.0899865866175
 30
0.0
 11
-117.1515171933227
 21
-109.9398855293483
 31
0.0
  0
LINE
  8
DETAIL
  6
CONTINUOUS
 62
     5
 10
-117.6118791203119
 20
-107.5672509823796
 30
0.0
 11
-114.77888264635411
 21
-110.4002474563374
 31
0.0
  0
LINE
  8
DETAIL
  6
CONTINUOUS
 62
     5
 10
-95.654281098546335
 20
-88.915490019436149
 30
0.0
 11
-95.654281098546335
 21
-59.327002137155333
 31
0.0
  0
LINE
  8
DETAIL
  6
CONTINUOUS
 62
     5
 10
-89.644588045234258
 20
-88.915490019436149
 30
0.0
 11
-89.644588045234258
 21
-58.712878447633678
 31
0.0
  0
LINE
  8
DETAIL
  6
CONTINUOUS
 62
     5
 10
-54.535182122328017
 20
62.052860909919787
 30
0.0
 11
-57.85588253492142
 21
60.135653633141828
 31
0.0
  0
LINE
  8
DETAIL
  6
CONTINUOUS
 62
     5
 10
-61.045682930082421
 20
-50.776342728531802
 30
0.0
 11
-61.045682930082421
 21
-58.294021516900159
 31
0.0
  0
LINE
  8
DETAIL
  6
CONTINUOUS
 62
     5
 10
-48.024681314573627
 20
-58.294021516900159
 30
0.0
 11
-48.024681314573627
 21
-52.132526201850851
 31
0.0
  0
LINE
  8
DETAIL
  6
CONTINUOUS
 62
     5
 10
-48.024681314573627
 20
-50.999327612578327
 30
0.0
 11
-48.024681314573627
 21
-50.776342728531802
 31
0.0
  0
LINE
  8
DETAIL
  6
CONTINUOUS
 62
     5
 10
-48.024681314573627
 20
56.59292979732254
 30
0.0
 11
-48.024681314573627
 21
58.294021516123792
 31
0.0
  0
LINE
  8
DETAIL
  6
CONTINUOUS
 62
     5
 10
-31.6655837650579
 20
-95.153473344103361
 30
0.0
 11
-40.064620355412217
 21
-95.153473344103361
 31
0.0
  0
LINE
  8
DETAIL
  6
CONTINUOUS
 62
     5
 10
-40.064620355412217
 20
-94.652665589660685
 30
0.0
 11
-31.55927172405541
 21
-94.652665589660685
 31
0.0
  0
LINE
  8
DETAIL
  6
CONTINUOUS
 62
     5
 10
-40.064620355412217
 20
-95.153473344103361
 30
0.0
 11
-40.064620355412217
 21
-94.652665589660685
 31
0.0
  0
LINE
  8
DETAIL
  6
CONTINUOUS
 62
     5
 10
-32.772759374585583
 20
-71.53013253033771
 30
0.0
 11
-28.072157012911699
 21
-60.181874558214581
 31
0.0
  0
LINE
  8
DETAIL
  6
CONTINUOUS
 62
     5
 10
-32.032461719753428
 20
-71.836773858861974
 30
0.0
 11
-27.036633297091161
 21
-59.775777125145453
 31
0.0
  0
LINE
  8
DETAIL
  6
CONTINUOUS
 62
     5
 10
-122.0030236549073
 20
-111.9583955169753
 30
0.0
 11
-117.6118791203119
 21
-107.5672509823796
 31
0.0
  0
LINE
  8
DETAIL
  6
CONTINUOUS
 62
     5
 10
-120.4802880498933
 20
-111.5688585020099
 30
0.0
 11
-118.0014161352772
 21
-109.0899865866175
 31
0.0
  0
LINE
  8
DETAIL
  6
CONTINUOUS
 62
     5
 10
-117.1515171933227
 20
-109.9398855293483
 30
0.0
 11
-119.6303891079388
 21
-112.4187574439644
 31
0.0
  0
LINE
  8
DETAIL
  6
CONTINUOUS
 62
     5
 10
-116.5849178986864
 20
-110.50648482398459
 30
0.0
 11
-119.06378981330271
 21
-112.9853567386006
 31
0.0
  0
LINE
  8
DETAIL
  6
CONTINUOUS
 62
     5
 10
-114.77888264635411
 20
-110.4002474563374
 30
0.0
 11
-115.7350189559556
 21
-111.356383765939
 31
0.0
  0
LINE
  8
DETAIL
  6
CONTINUOUS
 62
     5
 10
-118.2138908705717
 20
-113.83525568055499
 30
0.0
 11
-119.1700271809495
 21
-114.79139199093311
 31
0.0
  0
LINE
  8
DETAIL
  6
CONTINUOUS
 62
     5
 10
178.80972409708011
 20
183.05921880762921
 30
0.0
 11
172.6255667551811
 21
176.87506146650631
 31
0.0
  0
LINE
  8
DETAIL
  6
CONTINUOUS
 62
     5
 10
-183.05921880840589
 20
-178.80972409708079
 30
0.0
 11
-173.9679068733769
 21
-169.71841216205181
 31
0.0
  0
LINE
  8
DETAIL
  6
CONTINUOUS
 62
     5
 10
-168.39138502748889
 20
-164.14189031694019
 30
0.0
 11
-97.414479441309595
 21
-93.164984729984567
 31
0.0
  0
LINE
  8
DETAIL
  6
CONTINUOUS
 62
     5
 10
-57.651478244380542
 20
-53.543633357102529
 30
0.0
 11
-48.96589762011763
 21
-44.858052732839838
 31
0.0
  0
LINE
  8
DETAIL
  6
CONTINUOUS
 62
     5
 10
-57.084878948967798
 20
-54.110232651738841
 30
0.0
 11
-47.853791693905123
 21
-44.879145396676229
 31
0.0
  0
LINE
  8
DETAIL
  6
CONTINUOUS
 62
     5
 10
-44.879145396676449
 20
-47.853791693904903
 30
0.0
 11
-54.110232651739118
 21
-57.084878948967336
 31
0.0
  0
LINE
  8
DETAIL
  6
CONTINUOUS
 62
     5
 10
-44.858052732840413
 20
-48.965897620117403
 30
0.0
 11
-53.543633357102863
 21
-57.651478244380137
 31
0.0
  0
LINE
  8
DETAIL
  6
CONTINUOUS
 62
     5
 10
183.05921880762889
 20
178.8097240970809
 30
0.0
 11
176.79287258363681
 21
172.54337787308859
 31
0.0
  0
LINE
  8
DETAIL
  6
CONTINUOUS
 62
     5
 10
-178.8097240970811
 20
-183.0592188084056
 30
0.0
 11
-170.83841271455589
 21
-175.08790742510419
 31
0.0
  0
LINE
  8
DETAIL
  6
CONTINUOUS
 62
     5
 10
-160.6811482555261
 20
-164.9306429668508
 30
0.0
 11
-93.164984729985008
 21
-97.414479441309382
 31
0.0
  0
LINE
  8
DETAIL
  6
CONTINUOUS
 62
     5
 10
-61.260941237956096
 20
-46.163430382988281
 30
0.0
 11
-60.565668323051803
 21
-45.639504662433751
 31
0.0
  0
LINE
  8
DETAIL
  6
CONTINUOUS
 62
     5
 10
0.0
 20
10.98737669003526
 30
0.0
 11
-9.5153473344107624
 21
5.493688345017631
 31
0.0
  0
LINE
  8
DETAIL
  6
CONTINUOUS
 62
     5
 10
0.0
 20
-10.98737669003515
 30
0.0
 11
9.5153473344098529
 21
-5.4936883450175173
 31
0.0
  0
LINE
  8
DETAIL
  6
CONTINUOUS
 62
     5
 10
-68.999780284480039
 20
-30.85734050481517
 30
0.0
 11
-71.836773858862216
 21
-32.032461719752973
 31
0.0
  0
LINE
  8
DETAIL
  6
CONTINUOUS
 62
     5
 10
-67.95684670796868
 20
-31.29265592491004
 30
0.0
 11
-71.530132530338051
 21
-32.772759374585057
 31
0.0
  0
LINE
  8
DETAIL
  6
CONTINUOUS
 62
     5
 10
-61.045682930082421
 20
-58.294021516900159
 30
0.0
 11
-54.535182122328017
 21
-62.052860910696147
 31
0.0
  0
LINE
  8
DETAIL
  6
CONTINUOUS
 62
     5
 10
256.32153874443588
 20
-233.05806999506581
 30
0.0
 11
261.32961628886261
 21
-235.94948491325081
 31
0.0
  0
LINE
  8
DETAIL
  6
CONTINUOUS
 62
     5
 10
-48.024681314573627
 20
-50.776342728531802
 30
0.0
 11
-51.655014934015071
 21
-48.680368636785943
 31
0.0
  0
LINE
  8
DETAIL
  6
CONTINUOUS
 62
     5
 10
-52.373434052047287
 20
-48.265589165545862
 30
0.0
 11
-54.535182122328017
 21
-47.01750333473592
 31
0.0
  0
LINE
  8
DETAIL
  6
CONTINUOUS
 62
     5
 10
266.33769383328968
 20
-227.275240157919
 30
0.0
 11
261.32961628886261
 21
-224.38382523973391
 31
0.0
  0
LINE
  8
DETAIL
  6
CONTINUOUS
 62
     5
 10
-9.5153473344107624
 20
5.493688345017631
 30
0.0
 11
-9.5153473344107624
 21
-5.4936883450175173
 31
0.0
  0
LINE
  8
DETAIL
  6
CONTINUOUS
 62
     5
 10
-2.9046849757673949
 20
68.519578088840547
 30
0.0
 11
-2.9046849757673949
 21
78.626817447496009
 31
0.0
  0
LINE
  8
DETAIL
  6
CONTINUOUS
 62
     5
 10
-2.1033925686592738
 20
68.934439611025596
 30
0.0
 11
-2.1033925686592738
 21
78.626817447496009
 31
0.0
  0
LINE
  8
DETAIL
  6
CONTINUOUS
 62
     5
 10
2.1033925686588191
 20
78.626817447496009
 30
0.0
 11
2.1033925686588191
 21
71.298648838536792
 31
0.0
  0
LINE
  8
DETAIL
  6
CONTINUOUS
 62
     5
 10
2.9046849757669411
 20
78.626817447496009
 30
0.0
 11
2.9046849757669411
 21
71.79221904121431
 31
0.0
  0
LINE
  8
DETAIL
  6
CONTINUOUS
 62
     5
 10
9.5153473344098529
 20
-5.4936883450175173
 30
0.0
 11
9.5153473344098529
 21
5.493688345017631
 31
0.0
  0
LINE
  8
DETAIL
  6
CONTINUOUS
 62
     5
 10
-25.50428287811064
 20
-67.06921528391625
 30
0.0
 11
-28.145899033825572
 21
-73.44664083400329
 31
0.0
  0
LINE
  8
DETAIL
  6
CONTINUOUS
 62
     5
 10
-25.242098585491021
 20
-68.530124375724768
 30
0.0
 11
-27.405601379769909
 21
-73.753282162527626
 31
0.0
  0
LINE
  8
DETAIL
  6
CONTINUOUS
 62
     5
 10
-102.8448850002633
 20
-124.2465177224079
 30
0.0
 11
-105.3237569148791
 21
-126.72538963702389
 31
0.0
  0
LINE
  8
DETAIL
  6
CONTINUOUS
 62
     5
 10
-54.535182122328017
 20
-47.01750333473592
 30
0.0
 11
-61.045682930082421
 21
-50.776342728531802
 31
0.0
  0
LINE
  8
DETAIL
  6
CONTINUOUS
 62
     5
 10
-54.535182122328017
 20
-62.052860910696147
 30
0.0
 11
-48.024681314573627
 21
-58.294021516900159
 31
0.0
  0
LINE
  8
DETAIL
  6
CONTINUOUS
 62
     5
 10
-28.072157012911699
 20
60.181874557438277
 30
0.0
 11
-32.772759374585583
 21
71.530132529561342
 31
0.0
  0
LINE
  8
DETAIL
  6
CONTINUOUS
 62
     5
 10
-27.036633297091161
 20
59.775777125145623
 30
0.0
 11
-32.032461719753428
 21
71.836773858085735
 31
0.0
  0
LINE
  8
DETAIL
  6
CONTINUOUS
 62
     5
 10
-28.145899033825572
 20
73.446640834003389
 30
0.0
 11
-23.150070611163532
 21
61.385644101063292
 31
0.0
  0
LINE
  8
DETAIL
  6
CONTINUOUS
 62
     5
 10
-27.405601379769909
 20
73.753282162527796
 30
0.0
 11
-22.70499901809626
 21
62.405024190404653
 31
0.0
  0
LINE
  8
DETAIL
  6
CONTINUOUS
 62
     5
 10
78.626817447495796
 20
-2.904684975767339
 30
0.0
 11
66.343551531376761
 21
-2.904684975767339
 31
0.0
  0
LINE
  8
DETAIL
  6
CONTINUOUS
 62
     5
 10
78.626817447495796
 20
-2.1033925686591028
 30
0.0
 11
65.572088655796051
 21
-2.1033925686591028
 31
0.0
  0
LINE
  8
DETAIL
  6
CONTINUOUS
 62
     5
 10
72.845580276840337
 20
-12.84464122838784
 30
0.0
 11
83.843891088602504
 21
-14.78394016633467
 31
0.0
  0
LINE
  8
DETAIL
  6
CONTINUOUS
 62
     5
 10
71.530132529561129
 20
-32.772759374585057
 30
0.0
 11
61.01302905789521
 21
-28.41643247964328
 31
0.0
  0
LINE
  8
DETAIL
  6
CONTINUOUS
 62
     5
 10
71.836773858085522
 20
-32.032461719752973
 30
0.0
 11
61.08362037221832
 21
-27.578359707505179
 31
0.0
  0
LINE
  8
DETAIL
  6
CONTINUOUS
 62
     5
 10
61.5291377882304
 20
-23.20950764245902
 30
0.0
 11
73.446640834003119
 21
-28.145899033825469
 31
0.0
  0
LINE
  8
DETAIL
  6
CONTINUOUS
 62
     5
 10
62.405024190404447
 20
-22.704999018096149
 30
0.0
 11
73.753282162527739
 21
-27.405601379769731
 31
0.0
  0
LINE
  8
DETAIL
  6
CONTINUOUS
 62
     5
 10
-9.5153473344107624
 20
-5.4936883450175173
 30
0.0
 11
0.0
 21
-10.98737669003515
 31
0.0
  0
LINE
  8
DETAIL
  6
CONTINUOUS
 62
     5
 10
9.5153473344098529
 20
5.493688345017631
 30
0.0
 11
0.0
 21
10.98737669003526
 31
0.0
  0
LINE
  8
DETAIL
  6
CONTINUOUS
 62
     5
 10
-175.44312372671629
 20
171.19362901616759
 30
0.0
 11
-183.05921880840589
 21
178.8097240970809
 31
0.0
  0
LINE
  8
DETAIL
  6
CONTINUOUS
 62
     5
 10
125.6452796768979
 20
-129.894774388223
 30
0.0
 11
178.80972409708011
 21
-183.0592188084056
 31
0.0
  0
LINE
  8
DETAIL
  6
CONTINUOUS
 62
     5
 10
-171.151340326433
 20
175.40083503698131
 30
0.0
 11
-178.8097240970811
 21
183.05921880762921
 31
0.0
  0
LINE
  8
DETAIL
  6
CONTINUOUS
 62
     5
 10
124.6262178854365
 20
-120.3767231748882
 30
0.0
 11
183.05921880762889
 21
-178.80972409708079
 31
0.0
  0
LINE
  8
DETAIL
  6
CONTINUOUS
 62
     5
 10
72.845580276840337
 20
12.84464122838796
 30
0.0
 11
83.843891088602504
 21
14.78394016633484
 31
0.0
  0
LINE
  8
DETAIL
  6
CONTINUOUS
 62
     5
 10
65.572088655796051
 20
2.103392568659217
 30
0.0
 11
78.626817447495796
 21
2.103392568659217
 31
0.0
  0
LINE
  8
DETAIL
  6
CONTINUOUS
 62
     5
 10
66.343551531376761
 20
2.9046849757674522
 30
0.0
 11
78.626817447495796
 21
2.9046849757674522
 31
0.0
  0
LINE
  8
DETAIL
  6
CONTINUOUS
 62
     5
 10
-48.024681314573627
 20
58.294021516123792
 30
0.0
 11
-54.535182122328017
 21
62.052860909919787
 31
0.0
  0
LINE
  8
DETAIL
  6
CONTINUOUS
 62
     5
 10
89.644588045233817
 20
18.505578874585229
 30
0.0
 11
89.644588045233817
 21
-40.924123093561718
 31
0.0
  0
LINE
  8
DETAIL
  6
CONTINUOUS
 62
     5
 10
95.654281098546079
 20
19.406393236513029
 30
0.0
 11
95.654281098546079
 21
-48.258842850283607
 31
0.0
  0
LINE
  8
DETAIL
  6
CONTINUOUS
 62
     5
 10
-230.16665507610429
 20
-255.5467864524928
 30
0.0
 11
-235.17473262053099
 21
-258.4382013706778
 31
0.0
  0
LINE
  8
DETAIL
  6
CONTINUOUS
 62
     5
 10
-230.16665507610429
 20
-267.11244612600967
 30
0.0
 11
-225.15857753167799
 21
-264.22103120782458
 31
0.0
  0
LINE
  8
DETAIL
  6
CONTINUOUS
 62
     5
 10
-266.33769383406622
 20
227.27524015791909
 30
0.0
 11
-261.3296162896396
 21
224.38382523895771
 31
0.0
  0
LINE
  8
DETAIL
  6
CONTINUOUS
 62
     5
 10
-256.32153874521322
 20
233.05806999428941
 30
0.0
 11
-261.3296162896396
 21
235.9494849124745
 31
0.0
  0
LINE
  8
DETAIL
  6
CONTINUOUS
 62
     5
 10
200.52747191328811
 20
266.93053311793221
 30
0.0
 11
200.52747191328811
 21
260.42003231017782
 31
0.0
  0
LINE
  8
DETAIL
  6
CONTINUOUS
 62
     5
 10
200.52747191328811
 20
-260.42003231017759
 30
0.0
 11
200.52747191328811
 21
-266.93053311793221
 31
0.0
  0
LINE
  8
DETAIL
  6
CONTINUOUS
 62
     5
 10
242.3141699031944
 20
-291.97092084006471
 30
0.0
 11
242.3141699031944
 21
-287.18249766680441
 31
0.0
  0
LINE
  8
DETAIL
  6
CONTINUOUS
 62
     5
 10
242.3141699031944
 20
287.18249766680458
 30
0.0
 11
242.3141699031944
 21
291.97092084006482
 31
0.0
  0
LINE
  8
DETAIL
  6
CONTINUOUS
 62
     5
 10
256.32153874443588
 20
-227.275240157919
 30
0.0
 11
256.32153874443588
 21
-233.05806999506581
 31
0.0
  0
LINE
  8
DETAIL
  6
CONTINUOUS
 62
     5
 10
266.33769383328968
 20
-233.05806999506581
 30
0.0
 11
266.33769383328968
 21
-227.275240157919
 31
0.0
  0
LINE
  8
DETAIL
  6
CONTINUOUS
 62
     5
 10
-266.93053311793238
 20
200.52747191328839
 30
0.0
 11
-260.42003231017787
 21
200.52747191328839
 31
0.0
  0
LINE
  8
DETAIL
  6
CONTINUOUS
 62
     5
 10
260.42003231017719
 20
200.52747191328839
 30
0.0
 11
266.9305331179321
 21
200.52747191328839
 31
0.0
  0
LINE
  8
DETAIL
  6
CONTINUOUS
 62
     5
 10
296.37802907915972
 20
171.07997595206069
 30
0.0
 11
296.37802907915972
 21
-171.07997595206069
 31
0.0
  0
LINE
  8
DETAIL
  6
CONTINUOUS
 62
     5
 10
245.83010046979959
 20
-206.57081955594791
 30
0.0
 11
206.57081955594751
 21
-245.83010046979999
 31
0.0
  0
LINE
  8
DETAIL
  6
CONTINUOUS
 62
     5
 10
261.32961628886261
 20
-224.38382523973391
 30
0.0
 11
256.32153874443588
 21
-227.275240157919
 31
0.0
  0
LINE
  8
DETAIL
  6
CONTINUOUS
 62
     5
 10
291.97092084006431
 20
242.31416990319471
 30
0.0
 11
287.18249766680418
 21
242.31416990319471
 31
0.0
  0
LINE
  8
DETAIL
  6
CONTINUOUS
 62
     5
 10
-287.18249766680469
 20
242.31416990319471
 30
0.0
 11
-291.97092084006482
 21
242.31416990319471
 31
0.0
  0
LINE
  8
DETAIL
  6
CONTINUOUS
 62
     5
 10
306.39418416801283
 20
-227.89090657602279
 30
0.0
 11
306.39418416801283
 21
227.8909065752465
 31
0.0
  0
LINE
  8
DETAIL
  6
CONTINUOUS
 62
     5
 10
310.0
 20
269.93537964458801
 30
0.0
 11
310.0
 21
-269.93537964458801
 31
0.0
  0
LINE
  8
DETAIL
  6
CONTINUOUS
 62
     5
 10
261.32961628886261
 20
-235.94948491325081
 30
0.0
 11
266.33769383328968
 21
-233.05806999506581
 31
0.0
  0
LINE
  8
DETAIL
  6
CONTINUOUS
 62
     5
 10
252.75801340198589
 20
-261.96882904927929
 30
0.0
 11
261.96882904927912
 21
-252.7580134019862
 31
0.0
  0
LINE
  8
DETAIL
  6
CONTINUOUS
 62
     5
 10
-171.07997595206101
 20
296.37802907916011
 30
0.0
 11
171.07997595206049
 21
296.37802907916011
 31
0.0
  0
LINE
  8
DETAIL
  6
CONTINUOUS
 62
     5
 10
227.89090657524639
 20
306.39418416801288
 30
0.0
 11
-227.8909065760231
 21
306.39418416801288
 31
0.0
  0
LINE
  8
DETAIL
  6
CONTINUOUS
 62
     5
 10
-269.93537964458818
 20
310.0
 30
0.0
 11
269.93537964458801
 21
310.0
 31
0.0
  0
LINE
  8
DETAIL
  6
CONTINUOUS
 62
     5
 10
206.57081955594751
 20
245.83010046902371
 30
0.0
 11
245.83010046979959
 21
206.57081955594811
 31
0.0
  0
LINE
  8
DETAIL
  6
CONTINUOUS
 62
     5
 10
261.96882904927912
 20
252.75801340198629
 30
0.0
 11
252.75801340198589
 21
261.96882904927941
 31
0.0
  0
ARC
  8
DETAIL
  6
CONTINUOUS
 62
     5
 10
-269.93537964458818
 20
-269.93537964458801
 30
0.0
 40
40.064620355411932
 50
180.0
 51
270.0
  0
ARC
  8
DETAIL
  6
CONTINUOUS
 62
     5
 10
-277.97168202028797
 20
-287.18249766680441
 30
0.0
 40
35.657512116316653
 50
0.0
 51
45.000000000008058
  0
ARC
  8
DETAIL
  6
CONTINUOUS
 62
     5
 10
-287.18249766680469
 20
-277.97168202028769
 30
0.0
 40
35.65751211631656
 50
45.000000000008058
 51
90.0
  0
ARC
  8
DETAIL
  6
CONTINUOUS
 62
     5
 10
-260.42003231017787
 20
-221.16075139632559
 30
0.0
 40
20.63327948303715
 50
45.000000000008058
 51
90.0
  0
ARC
  8
DETAIL
  6
CONTINUOUS
 62
     5
 10
-291.97092084006482
 20
-227.89090657602279
 30
0.0
 40
14.423263327948231
 50
180.0
 51
270.0
  0
ARC
  8
DETAIL
  6
CONTINUOUS
 62
     5
 10
-227.8909065760231
 20
-291.97092084006471
 30
0.0
 40
14.423263327948231
 50
180.0
 51
270.0
  0
ARC
  8
DETAIL
  6
CONTINUOUS
 62
     5
 10
-221.16075139632599
 20
-260.42003231017759
 30
0.0
 40
20.633279483037089
 50
0.0
 51
45.000000000008058
  0
CIRCLE
  8
DETAIL
  6
CONTINUOUS
 62
     5
 10
-230.16665507610429
 20
-261.32961628963938
 30
0.0
 40
5.0080775444264409
  0
CIRCLE
  8
DETAIL
  6
CONTINUOUS
 62
     5
 10
-230.16665507610429
 20
-261.32961628963938
 30
0.0
 40
3.5056542810985998
  0
CIRCLE
  8
DETAIL
  6
CONTINUOUS
 62
     5
 10
-230.16665507610429
 20
-261.32961628963938
 30
0.0
 40
2.50403877221322
  0
ARC
  8
DETAIL
  6
CONTINUOUS
 62
     5
 10
-171.07997595206101
 20
-266.93053311793221
 30
0.0
 40
29.447495961227791
 50
180.0
 51
270.0
  0
ARC
  8
DETAIL
  6
CONTINUOUS
 62
     5
 10
0.0
 20
-205.83198707592891
 30
0.0
 40
300.48465266558969
 50
92.001252684504323
 51
106.08159200940069
  0
ARC
  8
DETAIL
  6
CONTINUOUS
 62
     5
 10
269.93537964458801
 20
-269.93537964458801
 30
0.0
 40
40.064620355411989
 50
270.0
 51
0.0
  0
ARC
  8
DETAIL
  6
CONTINUOUS
 62
     5
 10
287.18249766680418
 20
-277.97168202028769
 30
0.0
 40
35.657512116316653
 50
90.0
 51
134.99999999999179
  0
ARC
  8
DETAIL
  6
CONTINUOUS
 62
     5
 10
277.97168201951098
 20
-287.18249766680441
 30
0.0
 40
35.657512116316603
 50
134.99999999999179
 51
180.0
  0
ARC
  8
DETAIL
  6
CONTINUOUS
 62
     5
 10
171.07997595206049
 20
-266.93053311793221
 30
0.0
 40
29.447495961227791
 50
270.0
 51
0.0
  0
ARC
  8
DETAIL
  6
CONTINUOUS
 62
     5
 10
221.1607513963254
 20
-260.42003231017759
 30
0.0
 40
20.63327948303715
 50
134.99999999999179
 51
180.0
  0
ARC
  8
DETAIL
  6
CONTINUOUS
 62
     5
 10
227.89090657524639
 20
-291.97092084006471
 30
0.0
 40
14.423263327948289
 50
270.0
 51
0.0
  0
CIRCLE
  8
DETAIL
  6
CONTINUOUS
 62
     5
 10
261.32961628886261
 20
-230.16665507610429
 30
0.0
 40
5.0080775444264409
  0
CIRCLE
  8
DETAIL
  6
CONTINUOUS
 62
     5
 10
261.32961628886261
 20
-230.16665507610429
 30
0.0
 40
3.505654281098487
  0
CIRCLE
  8
DETAIL
  6
CONTINUOUS
 62
     5
 10
261.32961628886261
 20
-230.16665507610429
 30
0.0
 40
2.504038772213335
  0
ARC
  8
DETAIL
  6
CONTINUOUS
 62
     5
 10
260.42003231017719
 20
-221.16075139632559
 30
0.0
 40
20.633279483037171
 50
90.0
 51
134.99999999999179
  0
ARC
  8
DETAIL
  6
CONTINUOUS
 62
     5
 10
291.97092084006431
 20
-227.89090657602279
 30
0.0
 40
14.423263327948259
 50
270.0
 51
0.0
  0
ARC
  8
DETAIL
  6
CONTINUOUS
 62
     5
 10
-266.93053311793238
 20
-171.07997595206069
 30
0.0
 40
29.44749596122773
 50
180.0
 51
270.0
  0
ARC
  8
DETAIL
  6
CONTINUOUS
 62
     5
 10
-101.6639741518582
 20
-88.915490019436149
 30
0.0
 40
12.01938610662353
 50
314.99999999999181
 51
0.0
  0
ARC
  8
DETAIL
  6
CONTINUOUS
 62
     5
 10
-44.11825753803987
 20
-70.461732966474983
 30
0.0
 40
10.01615508885307
 50
57.94805201590485
 51
123.18710584660759
  0
ARC
  8
DETAIL
  6
CONTINUOUS
 62
     5
 10
-81.631663974151934
 20
-75.016697207799481
 30
0.0
 40
8.0129240710824661
 50
180.0
 51
253.79293060260039
  0
ARC
  8
DETAIL
  6
CONTINUOUS
 62
     5
 10
-42.535476561621408
 20
-66.127979370778007
 30
0.0
 40
6.5105008077544246
 50
122.3718150911952
 51
237.24967460320391
  0
ARC
  8
DETAIL
  6
CONTINUOUS
 62
     5
 10
-101.6639741518582
 20
-88.915490019436149
 30
0.0
 40
6.0096930533117821
 50
314.99999999999181
 51
0.0
  0
ARC
  8
DETAIL
  6
CONTINUOUS
 62
     5
 10
-30.089180377177851
 20
-72.64170734643271
 30
0.0
 40
2.904684975767446
 50
157.49999999999881
 51
337.49999999999858
  0
ARC
  8
DETAIL
  6
CONTINUOUS
 62
     5
 10
-30.089180377177851
 20
-72.64170734643271
 30
0.0
 40
2.1033925686590682
 50
157.49999999999119
 51
337.49999999999108
  0
ARC
  8
DETAIL
  6
CONTINUOUS
 62
     5
 10
-70.461732966475196
 20
-44.118257538039529
 30
0.0
 40
10.01615508885301
 50
326.81289415339751
 51
32.051947984093232
  0
ARC
  8
DETAIL
  6
CONTINUOUS
 62
     5
 10
-54.535182122328017
 20
-54.535182123104278
 30
0.0
 40
9.0145395799677424
 50
146.81289415339751
 51
303.18710584660721
  0
ARC
  8
DETAIL
  6
CONTINUOUS
 62
     5
 10
-66.083239323364978
 20
-39.764024681043402
 30
0.0
 40
8.0129240710823471
 50
211.03642988169719
 51
307.00000000000261
  0
ARC
  8
DETAIL
  6
CONTINUOUS
 62
     5
 10
-54.535182122328017
 20
-54.535182123104278
 30
0.0
 40
6.5105008077545499
 50
26.123772388499599
 51
63.916349684095437
  0
ARC
  8
DETAIL
  6
CONTINUOUS
 62
     5
 10
-54.535182122328017
 20
-54.535182123104278
 30
0.0
 40
6.510500807754446
 50
71.565842805600909
 51
18.42467767380251
  0
ARC
  8
DETAIL
  6
CONTINUOUS
 62
     5
 10
-54.535182122328017
 20
-54.535182123104278
 30
0.0
 40
4.7576736672051343
 50
18.68474861080405
 51
71.283411870595941
  0
ARC
  8
DETAIL
  6
CONTINUOUS
 62
     5
 10
-54.535182122328017
 20
-54.535182123104278
 30
0.0
 40
4.7576736672051956
 50
82.662727915699335
 51
7.329038867302085
  0
ARC
  8
DETAIL
  6
CONTINUOUS
 62
     5
 10
-54.535182122328017
 20
-54.535182123104278
 30
0.0
 40
4.2568659127625574
 50
88.063464731301735
 51
204.0223384728011
  0
ARC
  8
DETAIL
  6
CONTINUOUS
 62
     5
 10
-54.535182122328017
 20
-54.535182123104278
 30
0.0
 40
4.2568659127626036
 50
15.367114917901761
 51
74.632885082098198
  0
ARC
  8
DETAIL
  6
CONTINUOUS
 62
     5
 10
-54.535182122328017
 20
-54.535182123104278
 30
0.0
 40
4.2568659127624597
 50
245.97766152720311
 51
1.928048831898469
  0
ARC
  8
DETAIL
  6
CONTINUOUS
 62
     5
 10
-54.535182122328017
 20
-54.535182123104278
 30
0.0
 40
3.2552504038772372
 50
108.72951480629369
 51
161.31488110689739
  0
ARC
  8
DETAIL
  6
CONTINUOUS
 62
     5
 10
-54.535182122328017
 20
-54.535182123104278
 30
0.0
 40
3.255250403877302
 50
4.5848054954994533
 51
85.539923717699196
  0
ARC
  8
DETAIL
  6
CONTINUOUS
 62
     5
 10
-54.535182122328017
 20
-54.535182123104278
 30
0.0
 40
3.255250403877274
 50
288.72951480630701
 51
341.31488110689759
  0
ARC
  8
DETAIL
  6
CONTINUOUS
 62
     5
 10
-54.535182122328017
 20
-54.535182123104278
 30
0.0
 40
3.255250403877227
 50
194.10638677630169
 51
255.91640829389871
  0
ARC
  8
DETAIL
  6
CONTINUOUS
 62
     5
 10
-55.597555800353348
 20
-55.597555800353121
 30
0.0
 40
2.9046849757673039
 50
134.99999999999179
 51
314.99999999999181
  0
ARC
  8
DETAIL
  6
CONTINUOUS
 62
     5
 10
-72.641707346433122
 20
-30.08918037717746
 30
0.0
 40
2.9046849757673221
 50
154.04082777200099
 51
292.50000000000591
  0
ARC
  8
DETAIL
  6
CONTINUOUS
 62
     5
 10
-72.641707346433122
 20
-30.08918037717746
 30
0.0
 40
2.1033925686591548
 50
149.51277708659791
 51
292.50000000000591
  0
ARC
  8
DETAIL
  6
CONTINUOUS
 62
     5
 10
-55.597555800353348
 20
-55.597555800353121
 30
0.0
 40
2.103392568659153
 50
134.99999999999179
 51
314.99999999999181
  0
ARC
  8
DETAIL
  6
CONTINUOUS
 62
     5
 10
-54.535182122328017
 20
54.53518212232791
 30
0.0
 40
9.0145395799677033
 50
56.812894153392399
 51
110.0088862846975
  0
ARC
  8
DETAIL
  6
CONTINUOUS
 62
     5
 10
-54.535182122328017
 20
54.53518212232791
 30
0.0
 40
6.5105008077545978
 50
19.787209537502822
 51
120.63830825640559
  0
ARC
  8
DETAIL
  6
CONTINUOUS
 62
     5
 10
-54.535182122328017
 20
54.53518212232791
 30
0.0
 40
4.7576736672051796
 50
40.778393074293518
 51
99.450212192302445
  0
ARC
  8
DETAIL
  6
CONTINUOUS
 62
     5
 10
0.0
 20
0.0
 30
0.0
 40
85.137318255250449
 50
102.2496746032032
 51
122.7503253967961
  0
ARC
  8
DETAIL
  6
CONTINUOUS
 62
     5
 10
0.0
 20
0.0
 30
0.0
 40
85.13731825525042
 50
237.24967460320391
 51
252.48638090300889
  0
ARC
  8
DETAIL
  6
CONTINUOUS
 62
     5
 10
0.0
 20
0.0
 30
0.0
 40
85.13731825525042
 50
199.12282069719939
 51
211.03642988169719
  0
ARC
  8
DETAIL
  6
CONTINUOUS
 62
     5
 10
0.0
 20
0.0
 30
0.0
 40
85.137318255250378
 50
9.9999999999985363
 51
12.483449285600379
  0
ARC
  8
DETAIL
  6
CONTINUOUS
 62
     5
 10
0.0
 20
0.0
 30
0.0
 40
85.137318255250307
 50
328.96357011830281
 51
350.00000000000148
  0
ARC
  8
DETAIL
  6
CONTINUOUS
 62
     5
 10
0.0
 20
0.0
 30
0.0
 40
73.117932148626863
 50
102.56745181750649
 51
110.2232539203971
  0
ARC
  8
DETAIL
  6
CONTINUOUS
 62
     5
 10
0.0
 20
0.0
 30
0.0
 40
73.117932148626906
 50
110.8511473916018
 51
114.1485739371973
  0
ARC
  8
DETAIL
  6
CONTINUOUS
 62
     5
 10
0.0
 20
0.0
 30
0.0
 40
73.117932148626792
 50
114.77677356510461
 51
122.05194798409519
  0
ARC
  8
DETAIL
  6
CONTINUOUS
 62
     5
 10
0.0
 20
0.0
 30
0.0
 40
73.117932148626878
 50
206.31026008299949
 51
212.0519479840932
  0
ARC
  8
DETAIL
  6
CONTINUOUS
 62
     5
 10
0.0
 20
0.0
 30
0.0
 40
73.117932148626863
 50
237.94805201590441
 51
245.22287347950191
  0
ARC
  8
DETAIL
  6
CONTINUOUS
 62
     5
 10
0.0
 20
0.0
 30
0.0
 40
73.117932148626863
 50
245.85138565499599
 51
249.148461894809
  0
ARC
  8
DETAIL
  6
CONTINUOUS
 62
     5
 10
0.0
 20
0.0
 30
0.0
 40
73.117932148626736
 50
327.9480520159068
 51
335.22290294299739
  0
ARC
  8
DETAIL
  6
CONTINUOUS
 62
     5
 10
0.0
 20
0.0
 30
0.0
 40
73.117932148626792
 50
335.85149472160231
 51
339.14850513549851
  0
ARC
  8
DETAIL
  6
CONTINUOUS
 62
     5
 10
0.0
 20
0.0
 30
0.0
 40
73.117932148626792
 50
339.77709875529678
 51
347.05194798409832
  0
ARC
  8
DETAIL
  6
CONTINUOUS
 62
     5
 10
0.0
 20
0.0
 30
0.0
 40
66.407108239095294
 50
97.338202854198926
 51
109.99304993250129
  0
ARC
  8
DETAIL
  6
CONTINUOUS
 62
     5
 10
0.0
 20
0.0
 30
0.0
 40
66.407108239095393
 50
115.0069500675079
 51
126.3612439250024
  0
ARC
  8
DETAIL
  6
CONTINUOUS
 62
     5
 10
0.0
 20
0.0
 30
0.0
 40
66.407108239095479
 50
217.3474723361993
 51
222.4930499324937
  0
ARC
  8
DETAIL
  6
CONTINUOUS
 62
     5
 10
0.0
 20
0.0
 30
0.0
 40
66.407108239095393
 50
227.50695006749839
 51
244.99304993249211
  0
ARC
  8
DETAIL
  6
CONTINUOUS
 62
     5
 10
0.0
 20
0.0
 30
0.0
 40
66.407108239095294
 50
340.00695006750129
 51
357.49304993249848
  0
ARC
  8
DETAIL
  6
CONTINUOUS
 62
     5
 10
0.0
 20
0.0
 30
0.0
 40
66.10662358642972
 50
110.6760234317926
 51
114.3233554009915
  0
ARC
  8
DETAIL
  6
CONTINUOUS
 62
     5
 10
0.0
 20
0.0
 30
0.0
 40
66.106623586429791
 50
223.17612785870119
 51
226.8238409554971
  0
ARC
  8
DETAIL
  6
CONTINUOUS
 62
     5
 10
0.0
 20
0.0
 30
0.0
 40
66.106623586429691
 50
358.17641619749691
 51
1.823583802496376
  0
ARC
  8
DETAIL
  6
CONTINUOUS
 62
     5
 10
0.0
 20
0.0
 30
0.0
 40
65.605815831987158
 50
339.92356721920322
 51
358.16272122479569
  0
ARC
  8
DETAIL
  6
CONTINUOUS
 62
     5
 10
0.0
 20
0.0
 30
0.0
 40
65.605815831987044
 50
99.935582059798463
 51
110.6627212247937
  0
ARC
  8
DETAIL
  6
CONTINUOUS
 62
     5
 10
0.0
 20
0.0
 30
0.0
 40
65.605815831987115
 50
114.33727877519161
 51
125.8925866929067
  0
ARC
  8
DETAIL
  6
CONTINUOUS
 62
     5
 10
0.0
 20
0.0
 30
0.0
 40
65.605815831987215
 50
219.93211696649331
 51
223.1627212248053
  0
ARC
  8
DETAIL
  6
CONTINUOUS
 62
     5
 10
0.0
 20
0.0
 30
0.0
 40
65.605815831987186
 50
226.83727877521079
 51
245.66272122480839
  0
ARC
  8
DETAIL
  6
CONTINUOUS
 62
     5
 10
0.0
 20
0.0
 30
0.0
 40
65.305331179321499
 50
221.0653687147005
 51
245.71502889930329
  0
ARC
  8
DETAIL
  6
CONTINUOUS
 62
     5
 10
0.0
 20
0.0
 30
0.0
 40
65.305331179321499
 50
101.0747642218011
 51
125.7078118030075
  0
CIRCLE
  8
DETAIL
  6
CONTINUOUS
 62
     5
 10
0.0
 20
0.0
 30
0.0
 40
18.529886914378039
  0
CIRCLE
  8
DETAIL
  6
CONTINUOUS
 62
     5
 10
0.0
 20
0.0
 30
0.0
 40
14.022617124394181
  0
CIRCLE
  8
DETAIL
  6
CONTINUOUS
 62
     5
 10
0.0
 20
0.0
 30
0.0
 40
13.021002354685599
  0
CIRCLE
  8
DETAIL
  6
CONTINUOUS
 62
     5
 10
0.0
 20
0.0
 30
0.0
 40
12.01938610662364
  0
CIRCLE
  8
DETAIL
  6
CONTINUOUS
 62
     5
 10
0.0
 20
0.0
 30
0.0
 40
9.5153473344103059
  0
CIRCLE
  8
DETAIL
  6
CONTINUOUS
 62
     5
 10
0.0
 20
0.0
 30
0.0
 40
6.5301477389888323
  0
CIRCLE
  8
DETAIL
  6
CONTINUOUS
 62
     5
 10
0.0
 20
0.0
 30
0.0
 40
6.0096930533118211
  0
ARC
  8
DETAIL
  6
CONTINUOUS
 62
     5
 10
-266.93053311793238
 20
171.07997595206069
 30
0.0
 40
29.447495961227819
 50
90.0
 51
180.0
  0
ARC
  8
DETAIL
  6
CONTINUOUS
 62
     5
 10
-291.97092084006482
 20
227.8909065752465
 30
0.0
 40
14.42326332794835
 50
90.0
 51
180.0
  0
ARC
  8
DETAIL
  6
CONTINUOUS
 62
     5
 10
-260.42003231017787
 20
221.16075139632559
 30
0.0
 40
20.633279483037111
 50
270.0
 51
314.99999999999181
  0
CIRCLE
  8
DETAIL
  6
CONTINUOUS
 62
     5
 10
-261.3296162896396
 20
230.16665507610421
 30
0.0
 40
5.0080775444264409
  0
CIRCLE
  8
DETAIL
  6
CONTINUOUS
 62
     5
 10
-261.3296162896396
 20
230.16665507610421
 30
0.0
 40
3.5056542810985998
  0
CIRCLE
  8
DETAIL
  6
CONTINUOUS
 62
     5
 10
-261.3296162896396
 20
230.16665507610421
 30
0.0
 40
2.50403877221322
  0
ARC
  8
DETAIL
  6
CONTINUOUS
 62
     5
 10
-269.93537964458818
 20
269.93537964458801
 30
0.0
 40
40.064620355411932
 50
90.0
 51
180.0
  0
ARC
  8
DETAIL
  6
CONTINUOUS
 62
     5
 10
-287.18249766680469
 20
277.97168201951138
 30
0.0
 40
35.65751211631661
 50
270.0
 51
314.99999999999181
  0
ARC
  8
DETAIL
  6
CONTINUOUS
 62
     5
 10
-277.97168202028797
 20
287.18249766680458
 30
0.0
 40
35.657512116316603
 50
314.99999999999181
 51
0.0
  0
ARC
  8
DETAIL
  6
CONTINUOUS
 62
     5
 10
-171.07997595206101
 20
266.93053311793221
 30
0.0
 40
29.447495961227869
 50
90.0
 51
180.0
  0
ARC
  8
DETAIL
  6
CONTINUOUS
 62
     5
 10
-221.16075139632599
 20
260.42003231017782
 30
0.0
 40
20.63327948303715
 50
314.99999999999181
 51
0.0
  0
ARC
  8
DETAIL
  6
CONTINUOUS
 62
     5
 10
-227.8909065760231
 20
291.97092084006482
 30
0.0
 40
14.423263327948289
 50
90.0
 51
180.0
  0
ARC
  8
DETAIL
  6
CONTINUOUS
 62
     5
 10
-18.08904747139059
 20
81.142238214198983
 30
0.0
 40
10.016155088852919
 50
282.56745181750688
 51
347.47706103940322
  0
ARC
  8
DETAIL
  6
CONTINUOUS
 62
     5
 10
-44.11825753803987
 20
70.461732966475097
 30
0.0
 40
10.01615508885294
 50
236.81289415339239
 51
302.05194798409508
  0
ARC
  8
DETAIL
  6
CONTINUOUS
 62
     5
 10
0.0
 20
77.124394184168068
 30
0.0
 40
8.5137318255250403
 50
12.52293896059683
 51
167.4770610394032
  0
ARC
  8
DETAIL
  6
CONTINUOUS
 62
     5
 10
-42.535476561621408
 20
66.127979370001711
 30
0.0
 40
6.5105008077543474
 50
122.7503253967961
 51
237.62818490880471
  0
ARC
  8
DETAIL
  6
CONTINUOUS
 62
     5
 10
-16.682418721544082
 20
76.836666556185946
 30
0.0
 40
6.510500807754406
 50
338.69840126709528
 51
102.2496746032032
  0
ARC
  8
DETAIL
  6
CONTINUOUS
 62
     5
 10
-30.089180377177851
 20
72.641707345656343
 30
0.0
 40
2.9046849757674429
 50
22.500000000001201
 51
202.50000000000119
  0
ARC
  8
DETAIL
  6
CONTINUOUS
 62
     5
 10
0.0
 20
78.626817447496009
 30
0.0
 40
2.9046849757672821
 50
0.0
 51
180.0
  0
ARC
  8
DETAIL
  6
CONTINUOUS
 62
     5
 10
0.0
 20
78.626817447496009
 30
0.0
 40
2.1033925686591601
 50
0.0
 51
180.0
  0
ARC
  8
DETAIL
  6
CONTINUOUS
 62
     5
 10
-30.089180377177851
 20
72.641707345656343
 30
0.0
 40
2.103392568658963
 50
22.500000000008679
 51
202.5000000000087
  0
ARC
  8
DETAIL
  6
CONTINUOUS
 62
     5
 10
0.0000000000000568
 20
205.83198707592939
 30
0.0
 40
300.48465266558998
 50
253.79293060260039
 51
264.04793775110147
  0
ARC
  8
DETAIL
  6
CONTINUOUS
 62
     5
 10
266.9305331179321
 20
-171.07997595206069
 30
0.0
 40
29.447495961227791
 50
270.0
 51
0.0
  0
ARC
  8
DETAIL
  6
CONTINUOUS
 62
     5
 10
81.020288273459059
 20
18.627650114788821
 30
0.0
 40
10.016155088852919
 50
213.9619298122042
 51
258.18710584660391
  0
ARC
  8
DETAIL
  6
CONTINUOUS
 62
     5
 10
81.020288273459059
 20
-18.627650115565189
 30
0.0
 40
10.01615508885298
 50
101.8128941533962
 51
167.0519479840984
  0
ARC
  8
DETAIL
  6
CONTINUOUS
 62
     5
 10
77.124394184167627
 20
0.0
 30
0.0
 40
9.0145395799677583
 50
281.81289415339609
 51
78.187105846603799
  0
ARC
  8
DETAIL
  6
CONTINUOUS
 62
     5
 10
66.083239323364523
 20
-39.764024681043402
 30
0.0
 40
8.0129240710824927
 50
235.532412312692
 51
328.96357011830281
  0
ARC
  8
DETAIL
  6
CONTINUOUS
 62
     5
 10
77.124394184167627
 20
0.0
 30
0.0
 40
4.2568659127625574
 50
150.3671149179026
 51
209.63288508209749
  0
ARC
  8
DETAIL
  6
CONTINUOUS
 62
     5
 10
77.124394184167627
 20
0.0
 30
0.0
 40
4.2568659127626418
 50
20.977661527201281
 51
136.92804883190479
  0
ARC
  8
DETAIL
  6
CONTINUOUS
 62
     5
 10
77.124394184167627
 20
0.0
 30
0.0
 40
4.2568659127625086
 50
223.07195116809521
 51
339.02233847279871
  0
ARC
  8
DETAIL
  6
CONTINUOUS
 62
     5
 10
78.626817447495796
 20
0.0
 30
0.0
 40
2.9046849757673558
 50
270.0
 51
90.0
  0
ARC
  8
DETAIL
  6
CONTINUOUS
 62
     5
 10
72.641707346432199
 20
-30.08918037717746
 30
0.0
 40
2.9046849757673789
 50
247.4999999999942
 51
67.499999999994159
  0
ARC
  8
DETAIL
  6
CONTINUOUS
 62
     5
 10
78.626817447495796
 20
0.0
 30
0.0
 40
2.10339256865911
 50
270.0
 51
90.0
  0
ARC
  8
DETAIL
  6
CONTINUOUS
 62
     5
 10
72.641707346432199
 20
-30.08918037717746
 30
0.0
 40
2.103392568659082
 50
247.5000000000083
 51
67.500000000008299
  0
ARC
  8
DETAIL
  6
CONTINUOUS
 62
     5
 10
18.089047470613881
 20
81.142238214198983
 30
0.0
 40
10.01615508885298
 50
192.5229389605968
 51
208.2845200083012
  0
ARC
  8
DETAIL
  6
CONTINUOUS
 62
     5
 10
266.9305331179321
 20
171.07997595206069
 30
0.0
 40
29.44749596122756
 50
0.0
 51
90.0
  0
ARC
  8
DETAIL
  6
CONTINUOUS
 62
     5
 10
171.07997595206049
 20
266.93053311793221
 30
0.0
 40
29.447495961227791
 50
0.0
 51
90.0
  0
ARC
  8
DETAIL
  6
CONTINUOUS
 62
     5
 10
221.1607513963254
 20
260.42003231017782
 30
0.0
 40
20.633279483037089
 50
180.0
 51
225.0000000000081
  0
CIRCLE
  8
DETAIL
  6
CONTINUOUS
 62
     5
 10
230.16665507610421
 20
261.32961628886301
 30
0.0
 40
2.50403877221322
  0
ARC
  8
DETAIL
  6
CONTINUOUS
 62
     5
 10
227.89090657524639
 20
291.97092084006482
 30
0.0
 40
14.423263327948121
 50
0.0
 51
90.0
  0
ARC
  8
DETAIL
  6
CONTINUOUS
 62
     5
 10
260.42003231017719
 20
221.16075139632559
 30
0.0
 40
20.633279483036919
 50
225.0000000000081
 51
270.0
  0
ARC
  8
DETAIL
  6
CONTINUOUS
 62
     5
 10
291.97092084006431
 20
227.8909065752465
 30
0.0
 40
14.423263327948231
 50
0.0
 51
90.0
  0
ARC
  8
DETAIL
  6
CONTINUOUS
 62
     5
 10
269.93537964458801
 20
269.93537964458801
 30
0.0
 40
40.064620355411762
 50
0.0
 51
90.0
  0
ARC
  8
DETAIL
  6
CONTINUOUS
 62
     5
 10
277.97168201951098
 20
287.18249766680458
 30
0.0
 40
35.657512116316653
 50
180.0
 51
225.0000000000081
  0
ARC
  8
DETAIL
  6
CONTINUOUS
 62
     5
 10
287.18249766680418
 20
277.97168201951138
 30
0.0
 40
35.657512116316752
 50
225.0000000000081
 51
270.0
  0
LINE
  8
DETAIL
  6
CONTINUOUS
 62
     5
 10
98.199181155929637
 20
-53.060391654202931
 30
0.0
 11
98.62684144643616
 21
-53.67421743963321
 31
0.0
  0
LINE
  8
DETAIL
  6
CONTINUOUS
 62
     5
 10
98.62684144643616
 20
-53.67421743963321
 30
0.0
 11
98.62684144643616
 21
-53.67421743963321
 31
0.0
  0
LINE
  8
DETAIL
  6
CONTINUOUS
 62
     5
 10
98.62684144643616
 20
-53.67421743963321
 30
0.0
 11
99.051280397980463
 21
-54.290539710480289
 31
0.0
  0
LINE
  8
DETAIL
  6
CONTINUOUS
 62
     5
 10
-164.83323259520881
 20
-180.72032147629949
 30
0.0
 11
-172.85777036628249
 21
-188.71318287350189
 31
0.0
  0
LINE
  8
DETAIL
  6
CONTINUOUS
 62
     5
 10
4.3199297812182067
 20
72.701070899075276
 30
0.0
 11
4.3199297812182067
 21
72.701070899075276
 31
0.0
  0
LINE
  8
DETAIL
  6
CONTINUOUS
 62
     5
 10
4.3199297812182067
 20
72.701070899075276
 30
0.0
 11
4.45139424085869
 21
72.788418636585732
 31
0.0
  0
LINE
  8
DETAIL
  6
CONTINUOUS
 62
     5
 10
4.45139424085869
 20
72.788418636585732
 30
0.0
 11
4.5825898458688243
 21
72.876065705350527
 31
0.0
  0
LINE
  8
DETAIL
  6
CONTINUOUS
 62
     5
 10
4.5825898458688243
 20
72.876065705350527
 30
0.0
 11
4.5825898458688243
 21
72.876065705350527
 31
0.0
  0
LINE
  8
DETAIL
  6
CONTINUOUS
 62
     5
 10
4.5825898458688243
 20
72.876065705350527
 30
0.0
 11
4.7134878654746899
 21
72.96401535785337
 31
0.0
  0
LINE
  8
DETAIL
  6
CONTINUOUS
 62
     5
 10
4.7134878654746899
 20
72.96401535785337
 30
0.0
 11
4.8443278979434581
 21
73.052438181625234
 31
0.0
  0
LINE
  8
DETAIL
  6
CONTINUOUS
 62
     5
 10
4.8443278979434581
 20
73.052438181625234
 30
0.0
 11
4.8443278979434581
 21
73.052438181625234
 31
0.0
  0
LINE
  8
DETAIL
  6
CONTINUOUS
 62
     5
 10
4.8443278979434581
 20
73.052438181625234
 30
0.0
 11
4.9751730771190523
 21
73.14137966989108
 31
0.0
  0
LINE
  8
DETAIL
  6
CONTINUOUS
 62
     5
 10
4.9751730771190523
 20
73.14137966989108
 30
0.0
 11
5.1051123501056281
 21
73.230217603605624
 31
0.0
  0
LINE
  8
DETAIL
  6
CONTINUOUS
 62
     5
 10
5.1051123501056281
 20
73.230217603605624
 30
0.0
 11
5.1051123501056281
 21
73.230217603605624
 31
0.0
  0
LINE
  8
DETAIL
  6
CONTINUOUS
 62
     5
 10
5.1051123501056281
 20
73.230217603605624
 30
0.0
 11
5.2333750260440874
 21
73.318425097590534
 31
0.0
  0
LINE
  8
DETAIL
  6
CONTINUOUS
 62
     5
 10
5.2333750260440874
 20
73.318425097590534
 30
0.0
 11
5.3607260489700366
 21
73.406524314405885
 31
0.0
  0
LINE
  8
DETAIL
  6
CONTINUOUS
 62
     5
 10
5.3607260489700366
 20
73.406524314405885
 30
0.0
 11
5.3607260489700366
 21
73.406524314405885
 31
0.0
  0
LINE
  8
DETAIL
  6
CONTINUOUS
 62
     5
 10
5.3607260489700366
 20
73.406524314405885
 30
0.0
 11
5.488074241880895
 21
73.495136508322787
 31
0.0
  0
CIRCLE
  8
DETAIL
  6
CONTINUOUS
 62
     5
 10
-230.16665507610429
 20
-261.32961628963938
 30
0.0
 40
3.004846526655911
  0
CIRCLE
  8
DETAIL
  6
CONTINUOUS
 62
     5
 10
261.32961628886261
 20
-230.16665507610429
 30
0.0
 40
3.004846526655911
  0
CIRCLE
  8
DETAIL
  6
CONTINUOUS
 62
     5
 10
-261.3296162896396
 20
230.16665507610421
 30
0.0
 40
3.004846526655911
  0
CIRCLE
  8
DETAIL
  6
CONTINUOUS
 62
     5
 10
230.16665507610421
 20
261.32961628886301
 30
0.0
 40
3.004846526655911
  0
CIRCLE
  8
DETAIL
  6
CONTINUOUS
 62
     5
 10
-280.45234248788398
 20
-280.4523424878837
 30
0.0
 40
8.0129240710823524
  0
CIRCLE
  8
DETAIL
  6
CONTINUOUS
 62
     5
 10
-280.45234248788398
 20
-280.4523424878837
 30
0.0
 40
7.0113085621970876
  0
CIRCLE
  8
DETAIL
  6
CONTINUOUS
 62
     5
 10
280.45234248788358
 20
-280.4523424878837
 30
0.0
 40
8.0129240710823524
  0
CIRCLE
  8
DETAIL
  6
CONTINUOUS
 62
     5
 10
280.45234248788358
 20
-280.4523424878837
 30
0.0
 40
7.0113085621971996
  0
CIRCLE
  8
DETAIL
  6
CONTINUOUS
 62
     5
 10
-70.824911847390922
 20
-70.824911847390695
 30
0.0
 40
3.004846526655911
  0
CIRCLE
  8
DETAIL
  6
CONTINUOUS
 62
     5
 10
0.0
 20
0.0
 30
0.0
 40
255.9127625201937
  0
CIRCLE
  8
DETAIL
  6
CONTINUOUS
 62
     5
 10
-280.45234248788398
 20
280.4523424878837
 30
0.0
 40
8.0129240710823524
  0
CIRCLE
  8
DETAIL
  6
CONTINUOUS
 62
     5
 10
-280.45234248788398
 20
280.4523424878837
 30
0.0
 40
7.0113085621970876
  0
ARC
  8
DETAIL
  6
CONTINUOUS
 62
     5
 10
0.0
 20
77.124394184168068
 30
0.0
 40
2.5040387722132009
 50
212.79621814710171
 51
327.20378185289832
  0
ARC
  8
DETAIL
  6
CONTINUOUS
 62
     5
 10
0.0
 20
77.124394184168068
 30
0.0
 40
2.5040387722132009
 50
32.796218147101719
 51
147.20378185289829
  0
CIRCLE
  8
DETAIL
  6
CONTINUOUS
 62
     5
 10
230.16665507610421
 20
261.32961628886301
 30
0.0
 40
3.7560581583198882
  0
CIRCLE
  8
DETAIL
  6
CONTINUOUS
 62
     5
 10
280.45234248788358
 20
280.4523424878837
 30
0.0
 40
8.0129240710823524
  0
CIRCLE
  8
DETAIL
  6
CONTINUOUS
 62
     5
 10
280.45234248788358
 20
280.4523424878837
 30
0.0
 40
7.0113085621971996
  0
LINE
  8
BASIS
  6
DASHDOT
 62
     6
 10
344.11933774065972
 20
0.0
 30
0.0
 11
-374.07478813346631
 21
0.0
 31
0.0
  0
LINE
  8
BASIS
  6
DASHDOT
 62
     6
 10
0.0
 20
333.06695469651078
 30
0.0
 11
0.0
 21
-379.33528306572708
 31
0.0
  0
CIRCLE
  8
DETAIL
  6
CONTINUOUS
 62
     5
 10
0.0
 20
0.0
 30
0.0
 40
248.40064620355409
  0
LINE
  8
SIZE
  6
CONTINUOUS
 62
    30
 10
580.10361817389276
 20
-217.4616079457106
 30
0.0
 11
243.83139615490211
 21
-91.404304014525323
 31
0.0
  0
LINE
  8
SIZE
  6
CONTINUOUS
 62
    30
 10
-243.83139615490211
 20
91.404304014525323
 30
0.0
 11
-255.06783813965669
 21
95.616473470191366
 31
0.0
  0
TEXT
  8
SIZE
  6
CONTINUOUS
 62
    30
 10
364.62634262412678
 20
-109.987480450606
 30
0.0
 40
64.0
  1
φ500
 50
339.45064415192849
 41
0.9
 72
     1
 11
471.72568679881562
 21
-150.13547274803989
 31
0.0
  0
LINE
  8
SIZE
  6
CONTINUOUS
 62
    30
 10
-232.59495417014759
 20
87.192134558859323
 30
0.0
 11
232.59495417014759
 21
-87.192134558859323
 31
0.0
  0
CIRCLE
  8
SIZE
  6
CONTINUOUS
 62
    30
 10
-232.59495417014759
 20
87.192134558859323
 30
0.0
 40
6.0
  0
LINE
  8
SIZE
  6
CONTINUOUS
 62
    30
 10
-232.59495417014759
 20
87.192134558859323
 30
0.0
 11
-243.83139615490211
 21
91.404304014525323
 31
0.0
  0
CIRCLE
  8
SIZE
  6
CONTINUOUS
 62
    30
 10
232.59495417014759
 20
-87.192134558859323
 30
0.0
 40
6.0
  0
LINE
  8
SIZE
  6
CONTINUOUS
 62
    30
 10
232.59495417014759
 20
-87.192134558859323
 30
0.0
 11
243.83139615490211
 21
-91.404304014525323
 31
0.0
  0
POINT
  8
DEFPOINTS
  6
CONTINUOUS
 62
    30
 10
232.59495417014759
 20
-87.192134558859323
 30
0.0
  0
POINT
  8
DEFPOINTS
  6
CONTINUOUS
 62
    30
 10
-232.59495417014759
 20
87.192134558859323
 30
0.0
  0
ARC
  8
DETAIL
  6
CONTINUOUS
 62
     5
 10
-105.3606585370506
 20
113.277358152278
 30
0.0
 40
172.03077045919201
 50
214.3241290804142
 51
279.63064233095338
  0
ARC
  8
DETAIL
  6
CONTINUOUS
 62
     5
 10
-0.2553949199518684
 20
-4.402820224162042
 30
0.0
 40
248.04203940170359
 50
134.93324115891389
 51
175.21833674640101
  0
ARC
  8
DETAIL
  6
CONTINUOUS
 62
     5
 10
0.1693162809411035
 20
-3.0348933488441721
 30
0.0
 40
247.37685237549999
 50
104.8156566717818
 51
135.2266522078302
  0
ARC
  8
DETAIL
  6
CONTINUOUS
 62
     5
 10
-62.072632662777323
 20
231.0142133605043
 30
0.0
 40
5.2032562069896748
 50
330.39790485807572
 51
101.2462607955446
  0
ARC
  8
DETAIL
  6
CONTINUOUS
 62
     5
 10
-19.186635729214689
 20
189.0070223713283
 30
0.0
 40
55.01731470212205
 50
134.20833027243219
 51
181.2458944664773
  0
ARC
  8
DETAIL
  6
CONTINUOUS
 62
     5
 10
-104.8567852307915
 20
184.02578461756929
 30
0.0
 40
30.898542575343409
 50
322.33649585504588
 51
7.0362408827985989
  0
ARC
  8
DETAIL
  6
CONTINUOUS
 62
     5
 10
-107.6752942739349
 20
113.83424664415701
 30
0.0
 40
24.230891405118129
 50
325.40511998619832
 51
33.02821187255563
  0
ARC
  8
DETAIL
  6
CONTINUOUS
 62
     5
 10
-78.819234700396933
 20
93.224609165755965
 30
0.0
 40
11.239659747338941
 50
142.4370786483189
 51
246.8697724958424
  0
ARC
  8
DETAIL
  6
CONTINUOUS
 62
     5
 10
-40.463992389222767
 20
138.16046213865931
 30
0.0
 40
48.196223555691738
 50
145.95034436742341
 51
193.33859601078859
  0
ARC
  8
DETAIL
  6
CONTINUOUS
 62
     5
 10
-77.015839329593291
 20
-144.19752856657269
 30
0.0
 40
44.702619493294627
 50
99.082213408583954
 51
140.4092579545196
  0
ARC
  8
DETAIL
  6
CONTINUOUS
 62
     5
 10
-68.893059378378894
 20
-160.95372165259141
 30
0.0
 40
53.964473774062142
 50
95.280086667039441
 51
132.9909402748234
  0
ARC
  8
DETAIL
  6
CONTINUOUS
 62
     5
 10
-88.675522652885746
 20
-54.285802704766567
 30
0.0
 40
46.000457511118
 50
275.74325217272661
 51
311.15286368408698
  0
ARC
  8
DETAIL
  6
CONTINUOUS
 62
     5
 10
-85.477958967434461
 20
-59.624528674061587
 30
0.0
 40
48.991410063512348
 50
283.71903255689239
 51
320.29105277672443
  0
LINE
  8
DETAIL
  6
CONTINUOUS
 62
     5
 10
-242.9030739304383
 20
-382.2378209175252
 30
0.0
 11
-239.92497962325641
 21
-382.63789208942558
 31
0.0
  0
LINE
  8
DETAIL
  6
CONTINUOUS
 62
     5
 10
-246.77703185284761
 20
-353.86263845547637
 30
0.0
 11
-237.839332059177
 21
-352.07509849705389
 31
0.0
  0
LINE
  8
DETAIL
  6
CONTINUOUS
 62
     5
 10
-248.07206249178691
 20
-383.08712779138961
 30
0.0
 11
-250.78183920404101
 21
-381.78858521594282
 31
0.0
  0
ARC
  8
DETAIL
  6
CONTINUOUS
 62
     5
 10
-23.58231269713092
 20
-316.73649184750269
 30
0.0
 40
217.1517613694644
 50
178.22228250016551
 51
189.36579212158199
  0
ARC
  8
DETAIL
  6
CONTINUOUS
 62
     5
 10
-45.711961555367033
 20
-318.26337265886082
 30
0.0
 40
204.29237536571671
 50
177.6818245124885
 51
190.04098629133381
  0
LINE
  8
DETAIL
  6
CONTINUOUS
 62
     5
 10
-234.87434992450491
 20
-382.73250594702932
 30
0.0
 11
-231.92785548699089
 21
-382.14320705952662
 31
0.0
  0
ARC
  8
DETAIL
  6
CONTINUOUS
 62
     5
 10
-289.37737393205879
 20
-362.00353806479762
 30
0.0
 40
43.371227694345322
 50
332.85917539716831
 51
10.818750785068859
  0
ARC
  8
DETAIL
  6
CONTINUOUS
 62
     5
 10
-289.69672134928101
 20
-361.95669373720398
 30
0.0
 40
46.680911177064459
 50
333.08572732221569
 51
10.72032044742728
  0
ARC
  8
DETAIL
  6
CONTINUOUS
 62
     5
 10
-319.46850166044737
 20
-370.19241117775908
 30
0.0
 40
77.507139150389932
 50
351.05940543394991
 51
12.60864523802532
  0
ARC
  8
DETAIL
  6
CONTINUOUS
 62
     5
 10
-328.88131826474842
 20
-370.49453440603622
 30
0.0
 40
89.78135285417973
 50
352.22664680806179
 51
11.309932474044251
  0
ARC
  8
DETAIL
  6
CONTINUOUS
 62
     5
 10
27770.999709560161
 20
5233.9619885542761
 30
0.0
 40
28563.547379138279
 50
191.27940599773419
 51
191.34045895030579
  0
ARC
  8
DETAIL
  6
CONTINUOUS
 62
     5
 10
912.67873150200262
 20
-141.49510103662359
 30
0.0
 40
1169.6306040417239
 50
190.37207493496771
 51
191.87323711972931
  0
LINE
  8
DETAIL
  6
CONTINUOUS
 62
     5
 10
-108.2106061687697
 20
-123.83854038313331
 30
0.0
 11
-149.1427085915295
 21
-165.3452415006756
 31
0.0
  0
ARC
  8
DETAIL
  6
CONTINUOUS
 62
     5
 10
-88.501405184728412
 20
50.249872604768143
 30
0.0
 40
33.067220810927651
 50
24.390329287782428
 51
80.877314092657741
  0
ARC
  8
DETAIL
  6
CONTINUOUS
 62
     5
 10
-59.647590348366421
 20
62.37220712457146
 30
0.0
 40
1.9856460270337071
 50
290.61108241897739
 51
50.52834365810255
  0
ARC
  8
DETAIL
  6
CONTINUOUS
 62
     5
 10
-14056.958211898551
 20
-38885.433232724739
 30
0.0
 40
41385.155201496018
 50
70.198393010519737
 51
70.230473022034744
  0
ARC
  8
DETAIL
  6
CONTINUOUS
 62
     5
 10
-77.856124709560675
 20
-52.00364342908221
 30
0.0
 40
4.5047088975741811
 50
286.86681217330272
 51
44.838710522545142
  0
ARC
  8
DETAIL
  6
CONTINUOUS
 62
     5
 10
-27.297261729801772
 20
-10.22314076124905
 30
0.0
 40
61.103905663704111
 50
197.02328289389251
 51
219.18150518106779
  0
ARC
  8
DETAIL
  6
CONTINUOUS
 62
     5
 10
-87.217125811503351
 20
-84.668400715572574
 30
0.0
 40
56.576311105167846
 50
46.786875216863812
 51
88.486729731264191
  0
ARC
  8
DETAIL
  6
CONTINUOUS
 62
     5
 10
-41.931546151920273
 20
-33.112763531938008
 30
0.0
 40
12.22133760179157
 50
237.30165713764819
 51
260.79587306438958
  0
ARC
  8
DETAIL
  6
CONTINUOUS
 62
     5
 10
31.90444985636136
 20
50.152755026467062
 30
0.0
 40
121.8022907288706
 50
231.47998037362231
 51
239.9374545056061
  0
ARC
  8
DETAIL
  6
CONTINUOUS
 62
     5
 10
-32.129042207447952
 20
-59.475283289538837
 30
0.0
 40
5.1800946741667779
 50
11.264039219073981
 51
54.379888944873898
  0
ARC
  8
DETAIL
  6
CONTINUOUS
 62
     5
 10
-45.420740564935613
 20
-147.88368592868261
 30
0.0
 40
172.0307704591919
 50
334.32412908041641
 51
39.630642330952348
  0
ARC
  8
DETAIL
  6
CONTINUOUS
 62
     5
 10
3.9406516223962171
 20
1.9802316234051891
 30
0.0
 40
248.04203940170359
 50
254.93324115891321
 51
295.21833674639697
  0
ARC
  8
DETAIL
  6
CONTINUOUS
 62
     5
 10
2.5436365974051109
 20
1.664078874991219
 30
0.0
 40
247.37685237549999
 50
224.81565667178941
 51
255.22665220782619
  0
ARC
  8
DETAIL
  6
CONTINUOUS
 62
     5
 10
-169.02786107408659
 20
-169.263583445997
 30
0.0
 40
5.2032562069896739
 50
90.397904858072437
 51
221.24626079553661
  0
ARC
  8
DETAIL
  6
CONTINUOUS
 62
     5
 10
-154.09156500261659
 20
-111.1196251403223
 30
0.0
 40
55.017314702122043
 50
254.20833027242941
 51
301.24589446647002
  0
ARC
  8
DETAIL
  6
CONTINUOUS
 62
     5
 10
-106.94261181478301
 20
-182.821532077819
 30
0.0
 40
30.898542575343399
 50
82.336495855049066
 51
127.03624088279859
  0
ARC
  8
DETAIL
  6
CONTINUOUS
 62
     5
 10
-44.745702277536111
 20
-150.16666352327141
 30
0.0
 40
24.230891405118129
 50
85.405119986197604
 51
153.02821187255319
  0
ARC
  8
DETAIL
  6
CONTINUOUS
 62
     5
 10
-41.32526244522181
 20
-114.8717641402698
 30
0.0
 40
11.239659747338941
 50
262.43707864831521
 51
6.8697724958435158
  0
ARC
  8
DETAIL
  6
CONTINUOUS
 62
     5
 10
-99.418473816065699
 20
-104.1230764169368
 30
0.0
 40
48.196223555691731
 50
265.95034436742043
 51
313.33859601079348
  0
ARC
  8
DETAIL
  6
CONTINUOUS
 62
     5
 10
0.7330363797032078
 20
-101.76940146297871
 30
0.0
 40
33.067220810927637
 50
144.39032928779059
 51
200.87731409266061
  0
ARC
  8
DETAIL
  6
CONTINUOUS
 62
     5
 10
-24.19212068580055
 20
-82.842432078498618
 30
0.0
 40
1.985646027033706
 50
50.611082418981908
 51
170.52834365809451
  0
ARC
  8
DETAIL
  6
CONTINUOUS
 62
     5
 10
40704.25212265255
 20
7269.0337049219443
 30
0.0
 40
41385.155201496003
 50
190.19839301051289
 51
190.2304730220402
  0
ARC
  8
DETAIL
  6
CONTINUOUS
 62
     5
 10
83.964538653713134
 20
-41.423560124148032
 30
0.0
 40
4.5047088975741811
 50
46.866812173296083
 51
164.83871052255171
  0
ARC
  8
DETAIL
  6
CONTINUOUS
 62
     5
 10
22.50213047060674
 20
-18.528551731136758
 30
0.0
 40
61.103905663704097
 50
317.02328289389749
 51
339.18150518107927
  0
ARC
  8
DETAIL
  6
CONTINUOUS
 62
     5
 10
116.933548823238
 20
-33.198046240039282
 30
0.0
 40
56.576311105167846
 50
166.7868752168601
 51
208.48672973126861
  0
ARC
  8
DETAIL
  6
CONTINUOUS
 62
     5
 10
49.642267484125348
 20
-19.75740242155371
 30
0.0
 40
12.221337601791561
 50
357.30165713765069
 51
20.795873064385209
  0
ARC
  8
DETAIL
  6
CONTINUOUS
 62
     5
 10
-59.385784850878963
 20
2.5536865561421109
 30
0.0
 40
121.8022907288706
 50
351.47998037361992
 51
359.93745450560817
  0
ARC
  8
DETAIL
  6
CONTINUOUS
 62
     5
 10
67.571627329740522
 20
1.9130748938569011
 30
0.0
 40
5.180094674166777
 50
131.2640392190707
 51
174.37988894488049
  0
ARC
  8
DETAIL
  6
CONTINUOUS
 62
     5
 10
150.78139910198641
 20
34.606327776404669
 30
0.0
 40
172.03077045919201
 50
94.324129080421784
 51
159.6306423309517
  0
ARC
  8
DETAIL
  6
CONTINUOUS
 62
     5
 10
-3.6852567024442351
 20
2.4225886007568529
 30
0.0
 40
248.04203940170359
 50
14.93324115891672
 51
55.218336746402137
  0
ARC
  8
DETAIL
  6
CONTINUOUS
 62
     5
 10
-2.7129528783459591
 20
1.370814473852761
 30
0.0
 40
247.37685237549999
 50
344.81565667178262
 51
15.22665220783322
  0
ARC
  8
DETAIL
  6
CONTINUOUS
 62
     5
 10
231.100493736864
 20
-61.750629914507037
 30
0.0
 40
5.2032562069896748
 50
210.39790485807339
 51
341.24626079554349
  0
ARC
  8
DETAIL
  6
CONTINUOUS
 62
     5
 10
173.27820073183139
 20
-77.887397231005934
 30
0.0
 40
55.01731470212205
 50
14.208330272433709
 51
61.245894466483001
  0
ARC
  8
DETAIL
  6
CONTINUOUS
 62
     5
 10
211.7993970455743
 20
-1.2042525397500869
 30
0.0
 40
30.898542575343409
 50
202.3364958550429
 51
247.03624088279199
  0
ARC
  8
DETAIL
  6
CONTINUOUS
 62
     5
 10
152.42099655147101
 20
36.332416879114362
 30
0.0
 40
24.230891405118129
 50
205.40511998619999
 51
273.02821187254932
  0
ARC
  8
DETAIL
  6
CONTINUOUS
 62
     5
 10
120.1444971456189
 20
21.6471549745138
 30
0.0
 40
11.239659747338941
 50
22.437078648312259
 51
126.8697724958399
  0
ARC
  8
DETAIL
  6
CONTINUOUS
 62
     5
 10
139.88246620528861
 20
-34.037385721722323
 30
0.0
 40
48.196223555691738
 50
25.950344367424218
 51
73.338596010782226
  0
ARC
  8
DETAIL
  6
CONTINUOUS
 62
     5
 10
87.768368805025162
 20
51.519528858210613
 30
0.0
 40
33.067220810927651
 50
264.39032928777829
 51
320.87731409265751
  0
ARC
  8
DETAIL
  6
CONTINUOUS
 62
     5
 10
83.839711034166839
 20
20.4702249539273
 30
0.0
 40
1.9856460270337071
 50
170.61108241898259
 51
290.5283436580965
  0
ARC
  8
DETAIL
  6
CONTINUOUS
 62
     5
 10
-26647.293910754011
 20
31616.39952780278
 30
0.0
 40
41385.155201496018
 50
310.19839301051428
 51
310.23047302204031
  0
ARC
  8
DETAIL
  6
CONTINUOUS
 62
     5
 10
-6.1084139441525167
 20
93.427203553229901
 30
0.0
 40
4.5047088975741811
 50
166.8668121733065
 51
284.83871052255301
  0
ARC
  8
DETAIL
  6
CONTINUOUS
 62
     5
 10
4.7951312591951591
 20
28.7516924923857
 30
0.0
 40
61.103905663704111
 50
77.023282893895995
 51
99.181505181076943
  0
ARC
  8
DETAIL
  6
CONTINUOUS
 62
     5
 10
-29.716423011734609
 20
117.86644695561149
 30
0.0
 40
56.576311105167846
 50
286.78687521686248
 51
328.48672973126281
  0
ARC
  8
DETAIL
  6
CONTINUOUS
 62
     5
 10
-7.7107213322051393
 20
52.870165953491778
 30
0.0
 40
12.22133760179157
 50
117.3016571376492
 51
140.79587306438751
  0
ARC
  8
DETAIL
  6
CONTINUOUS
 62
     5
 10
27.48133499451751
 20
-52.706441582609159
 30
0.0
 40
121.8022907288706
 50
111.4799803736238
 51
119.9374545056105
  0
ARC
  8
DETAIL
  6
CONTINUOUS
 62
     5
 10
-35.442585122292712
 20
57.562208395681857
 30
0.0
 40
5.1800946741667779
 50
251.26403921906919
 51
294.37988894487529
  0
TEXT
  8
ETC
  6
CONTINUOUS
 62
    61
 10
374.19634938757832
 20
397.95915625896441
 30
0.0
 40
40.0
  1
EWG-50ETA2
 41
0.9
  0
TEXT
  8
ETC
  6
CONTINUOUS
 62
    61
 10
374.19634938757832
 20
331.95915625896441
 30
0.0
 40
40.0
  1
EWG-50ETA2-PR
 41
0.9
  0
ENDSEC
  0
EOF
