  0
SECTION
  2
HEADER
  9
$ACADVER
  1
AC1009
  9
$DWGCODEPAGE
  3
dos932
  9
$INSBASE
 10
0.0
 20
0.0
 30
0.0
  9
$EXTMIN
 10
-679.77903623806742
 20
-459.18272756876291
 30
-0.0015258207003583
  9
$EXTMAX
 10
1074.50410097896
 20
558.83789860973775
 30
0.0000000349246037
  9
$LIMMIN
 10
-2970.0
 20
-2100.0
  9
$LIMMAX
 10
2970.0
 20
2100.0
  9
$ORTHOMODE
 70
     1
  9
$REGENMODE
 70
     1
  9
$FILLMODE
 70
     1
  9
$QTEXTMODE
 70
     0
  9
$MIRRTEXT
 70
     0
  9
$LTSCALE
 40
20.0
  9
$ATTMODE
 70
     1
  9
$TEXTSIZE
 40
64.0
  9
$TRACEWID
 40
0.05
  9
$TEXTSTYLE
  7
STANDARD
  9
$CLAYER
  8
SIZE
  9
$CELTYPE
  6
CONTINUOUS
  9
$CECOLOR
 62
     7
  9
$DIMSCALE
 40
1.0
  9
$DIMASZ
 40
12.0
  9
$DIMEXO
 40
20.0
  9
$DIMDLI
 40
200.0
  9
$DIMRND
 40
0.0
  9
$DIMDLE
 40
0.0
  9
$DIMEXE
 40
20.0
  9
$DIMTP
 40
0.0
  9
$DIMTM
 40
0.0
  9
$DIMTXT
 40
64.0
  9
$DIMCEN
 40
0.09
  9
$DIMTSZ
 40
0.0
  9
$DIMTOL
 70
     0
  9
$DIMLIM
 70
     0
  9
$DIMTIH
 70
     0
  9
$DIMTOH
 70
     0
  9
$DIMSE1
 70
     0
  9
$DIMSE2
 70
     0
  9
$DIMTAD
 70
     1
  9
$DIMZIN
 70
     8
  9
$DIMBLK
  1

  9
$DIMASO
 70
     1
  9
$DIMSHO
 70
     0
  9
$DIMPOST
  1

  9
$DIMAPOST
  1

  9
$DIMALT
 70
     0
  9
$DIMALTD
 70
     2
  9
$DIMALTF
 40
25.399999999999999
  9
$DIMLFAC
 40
1.0
  9
$DIMTOFL
 70
     1
  9
$DIMTVP
 40
0.0
  9
$DIMTIX
 70
     1
  9
$DIMSOXD
 70
     0
  9
$DIMSAH
 70
     0
  9
$DIMBLK1
  1

  9
$DIMBLK2
  1

  9
$DIMSTYLE
  2
STANDARD
  9
$DIMCLRD
 70
     7
  9
$DIMCLRE
 70
     7
  9
$DIMCLRT
 70
     7
  9
$DIMTFAC
 40
1.0
  9
$DIMGAP
 40
25.0
  9
$LUNITS
 70
     2
  9
$LUPREC
 70
     4
  9
$SKETCHINC
 40
0.1
  9
$FILLETRAD
 40
3.0
  9
$AUNITS
 70
     1
  9
$AUPREC
 70
     3
  9
$MENU
  1
ACAD
  9
$ELEVATION
 40
0.0
  9
$PELEVATION
 40
0.0
  9
$THICKNESS
 40
0.0
  9
$LIMCHECK
 70
     0
  9
$CHAMFERA
 40
0.0
  9
$CHAMFERB
 40
0.0
  9
$SKPOLY
 70
     0
  9
$TDCREATE
 40
2453019.62301037
  9
$TDUPDATE
 40
2458949.456338727
  9
$TDINDWG
 40
1.712701169
  9
$TDUSRTIMER
 40
1.712701169
  9
$USRTIMER
 70
     1
  9
$ANGBASE
 50
0.0
  9
$ANGDIR
 70
     0
  9
$PDMODE
 70
     3
  9
$PDSIZE
 40
-2.0
  9
$PLINEWID
 40
0.0
  9
$SPLFRAME
 70
     0
  9
$SPLINETYPE
 70
     6
  9
$SPLINESEGS
 70
     8
  9
$SURFTAB1
 70
     6
  9
$SURFTAB2
 70
     6
  9
$SURFTYPE
 70
     6
  9
$SURFU
 70
     6
  9
$SURFV
 70
     6
  9
$UCSNAME
  2

  9
$UCSORG
 10
0.0
 20
0.0
 30
0.0
  9
$UCSXDIR
 10
1.0
 20
0.0
 30
0.0
  9
$UCSYDIR
 10
0.0
 20
1.0
 30
0.0
  9
$PUCSNAME
  2

  9
$PUCSORG
 10
0.0
 20
0.0
 30
0.0
  9
$PUCSXDIR
 10
1.0
 20
0.0
 30
0.0
  9
$PUCSYDIR
 10
0.0
 20
1.0
 30
0.0
  9
$USERI1
 70
     0
  9
$USERI2
 70
     0
  9
$USERI3
 70
     0
  9
$USERI4
 70
     0
  9
$USERI5
 70
     0
  9
$USERR1
 40
20.0
  9
$USERR2
 40
0.0
  9
$USERR3
 40
0.0
  9
$USERR4
 40
0.0
  9
$USERR5
 40
0.0
  9
$WORLDVIEW
 70
     1
  9
$SHADEDGE
 70
     3
  9
$SHADEDIF
 70
    70
  9
$TILEMODE
 70
     1
  9
$MAXACTVP
 70
    48
  9
$PINSBASE
 10
0.0
 20
0.0
 30
0.0
  9
$PLIMCHECK
 70
     0
  9
$PEXTMIN
 10
-100000000000000000000.0
 20
-100000000000000000000.0
 30
-100000000000000000000.0
  9
$PEXTMAX
 10
100000000000000000000.0
 20
100000000000000000000.0
 30
100000000000000000000.0
  9
$PLIMMIN
 10
0.0
 20
0.0
  9
$PLIMMAX
 10
12.0
 20
9.0
  9
$UNITMODE
 70
     0
  9
$VISRETAIN
 70
     0
  9
$PLINEGEN
 70
     0
  9
$PSLTSCALE
 70
     0
  9
$TREEDEPTH
 70
  3020
  9
$ATTDIA
 70
     0
  9
$ATTREQ
 70
     1
  9
$BLIPMODE
 70
     1
  9
$COORDS
 70
     1
  9
$DRAGMODE
 70
     2
  9
$OSMODE
 70
     0
  9
$HANDLING
 70
     0
  9
$HANDSEED
  5
EDB7
  0
ENDSEC
  0
SECTION
  2
TABLES
  0
TABLE
  2
LTYPE
 70
     2
  0
LTYPE
  2
CONTINUOUS
 70
     0
  3
実線
 72
    65
 73
     0
 40
0.0
  0
LTYPE
  2
DASHDOT
 70
     0
  3
____ _ ____ _ ____ _ ____ _ ____ _ ____ _ ____
 72
    65
 73
     4
 40
5.5
 49
4.0
 49
-0.6
 49
0.3
 49
-0.6
  0
ENDTAB
  0
TABLE
  2
LAYER
 70
    12
  0
LAYER
  2
0
 70
     0
 62
     7
  6
CONTINUOUS
  0
LAYER
  2
BASIS
 70
     0
 62
     6
  6
DASHDOT
  0
LAYER
  2
OUTLINE
 70
     0
 62
     3
  6
CONTINUOUS
  0
LAYER
  2
DETAIL
 70
     0
 62
     5
  6
CONTINUOUS
  0
LAYER
  2
SIZE
 70
     0
 62
    30
  6
CONTINUOUS
  0
LAYER
  2
ARRANGE
 70
     0
 62
     1
  6
CONTINUOUS
  0
LAYER
  2
DEFPOINTS
 70
     0
 62
     7
  6
CONTINUOUS
  0
LAYER
  2
ETC
 70
     0
 62
    61
  6
CONTINUOUS
  0
LAYER
  2
FIX
 70
     0
 62
    11
  6
CONTINUOUS
  0
LAYER
  2
NOTE
 70
     0
 62
     4
  6
CONTINUOUS
  0
LAYER
  2
SERVICESPACE
 70
    64
 62
     2
  6
DASHDOT
  0
LAYER
  2
SYMBOLLINE
 70
    64
 62
    15
  6
CONTINUOUS
  0
ENDTAB
  0
TABLE
  2
STYLE
 70
     1
  0
STYLE
  2
STANDARD
 70
     0
 40
64.0
 41
0.9
 50
0.0
 71
     0
 42
64.0
  3
SIMPLEX.shx
  4
BIGFONT.shx
  0
ENDTAB
  0
TABLE
  2
APPID
 70
    19
  0
APPID
  2
ACAD
 70
     0
  0
APPID
  2
AUTOCAD_POSTSCRIPT_FIGURE
 70
     0
  0
APPID
  2
ACAD_EXEMPT_FROM_CAD_STANDARDS
 70
     0
  0
APPID
  2
ACAD_PSEXT
 70
     0
  0
APPID
  2
ACAUTHENVIRON
 70
     0
  0
APPID
  2
GENIUS_GENOENT_13
 70
     0
  0
APPID
  2
GENIUS_GENCFG_13
 70
     0
  0
APPID
  2
GENIUS_GENCFG0_13
 70
     0
  0
APPID
  2
GENIUS_GENCFG1_13
 70
     0
  0
APPID
  2
GENIUS_GENCFG2_13
 70
     0
  0
APPID
  2
GENIUS_GENCFG3_13
 70
     0
  0
APPID
  2
GENIUS_GENCFG4_13
 70
     0
  0
APPID
  2
GENIUS_GEVCFG0_13
 70
     0
  0
APPID
  2
CONTENTBLOCKICON
 70
     0
  0
APPID
  2
CONTENTBLOCKDESCRIPTION
 70
     0
  0
APPID
  2
ACAD_NAV_VCDISPLAY
 70
     0
  0
APPID
  2
ACAD_MLEADERVER
 70
     0
  0
APPID
  2
ACDBDYNAMICBLOCKTRUENAME
 70
     0
  0
APPID
  2
ACDBDYNAMICBLOCKGUID
 70
     0
  0
ENDTAB
  0
TABLE
  2
DIMSTYLE
 70
     1
  0
DIMSTYLE
  2
STANDARD
 70
     0
  3

  4

  5
_ORIGIN
  6

  7

 40
1.0
 41
12.0
 42
20.0
 43
200.0
 44
20.0
 45
0.0
 46
0.0
 47
0.0
 48
0.0
140
64.0
141
0.09
142
0.0
143
25.399999999999999
144
1.0
145
0.0
146
1.0
147
25.0
 71
     0
 72
     0
 73
     0
 74
     0
 75
     0
 76
     0
 77
     1
 78
     8
170
     0
171
     2
172
     1
173
     0
174
     1
175
     0
176
     7
177
     7
178
     7
  0
ENDTAB
  0
TABLE
  2
VIEW
 70
     1
  0
VIEW
  2
ALL
 70
     0
 40
4282.6198079999986
 10
0.0
 20
41.309904000000003
 41
5940.0
 11
0.0
 21
0.0
 31
1.0
 12
0.0
 22
0.0
 32
0.0
 42
50.0
 43
0.0
 44
0.0
 50
0.0
 71
     0
  0
ENDTAB
  0
TABLE
  2
UCS
 70
     0
  0
ENDTAB
  0
TABLE
  2
VPORT
 70
     1
  0
VPORT
  2
*ACTIVE
 70
     0
 10
0.0
 20
0.0
 11
1.0
 21
1.0
 12
197.36253237044619
 22
49.827585520487503
 13
0.0
 23
0.0
 14
1.0
 24
1.0
 15
0.0
 25
0.0
 16
0.0
 26
0.0
 36
1.0
 17
0.0
 27
0.0
 37
0.0
 40
1024.7699341973639
 41
1.747787610619469
 42
50.0
 43
0.0
 44
0.0
 50
0.0
 51
0.0
 71
     0
 72
  1000
 73
     1
 74
     3
 75
     0
 76
     0
 77
     0
 78
     0
  0
ENDTAB
  0
ENDSEC
  0
SECTION
  2
BLOCKS
  0
BLOCK
  8
0
  2
_ORIGIN
 70
     0
 10
0.0
 20
0.0
 30
0.0
  3
_ORIGIN
  1
_ORIGIN
  0
CIRCLE
  8
0
  6
CONTINUOUS
 62
     7
 10
0.0
 20
0.0
 30
0.0
 40
0.5
  0
LINE
  8
0
  6
CONTINUOUS
 62
     7
 10
0.0
 20
0.0
 30
0.0
 11
-1.0
 21
0.0
 31
0.0
  0
ENDBLK
  8
0
  0
ENDSEC
  0
SECTION
  2
ENTITIES
  0
POINT
  8
ARRANGE
  6
CONTINUOUS
 62
     1
 10
0.0
 20
0.0
 30
0.0
  0
CIRCLE
  8
ARRANGE
  6
CONTINUOUS
 62
     1
 10
0.0
 20
0.0
 30
0.0
 40
40.0
  0
TEXT
  8
ETC
  6
CONTINUOUS
 62
    61
 10
344.87539504366367
 20
494.56101113953292
 30
0.0
 40
64.0
  1
EWG-60ETA2-Q_1
 41
0.9
  0
TEXT
  8
ETC
  6
CONTINUOUS
 62
    61
 10
340.68940104366362
 20
376.60570112470168
 30
0.0
 40
64.0
  1
産業扇
 41
0.9
  0
TEXT
  8
ETC
  6
CONTINUOUS
 62
    61
 10
391.39079929221953
 20
268.45692823847639
 30
0.0
 40
40.0
  1
EWG-60ETA2-Q
 41
0.9
  0
LINE
  8
SIZE
  6
CONTINUOUS
 62
    30
 10
-354.99999996909628
 20
18.497576736672041
 30
0.0
 11
-354.99999996909628
 21
264.96668498765212
 31
0.0
  0
LINE
  8
SIZE
  6
CONTINUOUS
 62
    30
 10
354.99999999970402
 20
18.497884344146431
 30
0.0
 11
354.99999999970402
 21
264.96668498765212
 31
0.0
  0
LINE
  8
SIZE
  6
CONTINUOUS
 62
    30
 10
-342.99999996909628
 20
244.9666849876522
 30
0.0
 11
342.99999999970402
 21
244.9666849876522
 31
0.0
  0
CIRCLE
  8
SIZE
  6
CONTINUOUS
 62
    30
 10
-354.99999996909628
 20
244.9666849876522
 30
0.0
 40
6.0
  0
LINE
  8
SIZE
  6
CONTINUOUS
 62
    30
 10
-354.99999996909628
 20
244.9666849876522
 30
0.0
 11
-342.99999996909628
 21
244.9666849876522
 31
0.0
  0
CIRCLE
  8
SIZE
  6
CONTINUOUS
 62
    30
 10
354.99999999970402
 20
244.9666849876522
 30
0.0
 40
6.0
  0
LINE
  8
SIZE
  6
CONTINUOUS
 62
    30
 10
354.99999999970402
 20
244.9666849876522
 30
0.0
 11
342.99999999970402
 21
244.9666849876522
 31
0.0
  0
TEXT
  8
SIZE
  6
CONTINUOUS
 62
    30
 10
-69.348778645907842
 20
269.96668498765212
 30
0.0
 40
64.0
  1
710
 41
0.9
 72
     1
 11
-0.7773500744792727
 21
269.96668498765212
 31
0.0
  0
POINT
  8
DEFPOINTS
  6
CONTINUOUS
 62
    30
 10
-354.99999996909628
 20
-1.5024232633279551
 30
0.0
  0
POINT
  8
DEFPOINTS
  6
CONTINUOUS
 62
    30
 10
354.99999999970402
 20
-1.502115655853572
 30
0.0
  0
POINT
  8
DEFPOINTS
  6
CONTINUOUS
 62
    30
 10
354.99999999970402
 20
244.9666849876522
 30
0.0
  0
LINE
  8
SIZE
  6
CONTINUOUS
 62
    30
 10
-325.45839210095869
 20
36.335668001699673
 30
0.0
 11
-325.45839210095869
 21
151.39419561661629
 31
0.0
  0
LINE
  8
SIZE
  6
CONTINUOUS
 62
    30
 10
325.45839210095892
 20
36.335668001699453
 30
0.0
 11
325.45839210095892
 21
151.39419561661629
 31
0.0
  0
LINE
  8
SIZE
  6
CONTINUOUS
 62
    30
 10
-313.45839210095869
 20
131.39419561661629
 30
0.0
 11
313.45839210095892
 21
131.39419561661629
 31
0.0
  0
CIRCLE
  8
SIZE
  6
CONTINUOUS
 62
    30
 10
-325.45839210095869
 20
131.39419561661629
 30
0.0
 40
6.0
  0
LINE
  8
SIZE
  6
CONTINUOUS
 62
    30
 10
-325.45839210095869
 20
131.39419561661629
 30
0.0
 11
-313.45839210095869
 21
131.39419561661629
 31
0.0
  0
CIRCLE
  8
SIZE
  6
CONTINUOUS
 62
    30
 10
325.45839210095892
 20
131.39419561661629
 30
0.0
 40
6.0
  0
LINE
  8
SIZE
  6
CONTINUOUS
 62
    30
 10
325.45839210095892
 20
131.39419561661629
 30
0.0
 11
313.45839210095892
 21
131.39419561661629
 31
0.0
  0
TEXT
  8
SIZE
  6
CONTINUOUS
 62
    30
 10
-74.05714285714285
 20
156.39419561661629
 30
0.0
 40
64.0
  1
650
 41
0.9
 72
     1
 11
0.0
 21
156.39419561661629
 31
0.0
  0
POINT
  8
DEFPOINTS
  6
CONTINUOUS
 62
    30
 10
-325.45839210095869
 20
16.33566800169967
 30
0.0
  0
POINT
  8
DEFPOINTS
  6
CONTINUOUS
 62
    30
 10
325.45839210095892
 20
16.33566800169945
 30
0.0
  0
POINT
  8
DEFPOINTS
  6
CONTINUOUS
 62
    30
 10
325.45839210095892
 20
131.39419561661629
 30
0.0
  0
CIRCLE
  8
FIX
  6
CONTINUOUS
 62
    11
 10
-325.41691326098498
 20
0.0000000000000568
 30
0.0
 40
7.0
  0
CIRCLE
  8
FIX
  6
CONTINUOUS
 62
    11
 10
325.45839210095892
 20
0.0
 30
0.0
 40
7.0
  0
LINE
  8
SIZE
  6
CONTINUOUS
 62
    30
 10
373.4978843438505
 20
-0.0000000000001137
 30
0.0
 11
514.65450365862307
 21
-0.0000000000001705
 31
0.0
  0
LINE
  8
SIZE
  6
CONTINUOUS
 62
    30
 10
368.39069111394929
 20
-10.014104372651669
 30
0.0
 11
514.65450365862307
 21
-10.01410437265173
 31
0.0
  0
LINE
  8
SIZE
  6
CONTINUOUS
 62
    30
 10
494.65450365862313
 20
-22.01410437265173
 30
0.0
 11
494.65450365862313
 21
-34.01410437265173
 31
0.0
  0
LINE
  8
SIZE
  6
CONTINUOUS
 62
    30
 10
494.65450365862313
 20
11.999999999999829
 30
0.0
 11
494.65450365862313
 21
157.2996127395696
 31
0.0
  0
LINE
  8
SIZE
  6
CONTINUOUS
 62
    30
 10
494.65450365862313
 20
-10.01410437265173
 30
0.0
 11
494.65450365862313
 21
-0.0000000000001705
 31
0.0
  0
CIRCLE
  8
SIZE
  6
CONTINUOUS
 62
    30
 10
494.65450365862313
 20
-10.01410437265173
 30
0.0
 40
6.0
  0
LINE
  8
SIZE
  6
CONTINUOUS
 62
    30
 10
494.65450365862313
 20
-10.01410437265173
 30
0.0
 11
494.65450365862313
 21
-22.01410437265173
 31
0.0
  0
CIRCLE
  8
SIZE
  6
CONTINUOUS
 62
    30
 10
494.65450365862313
 20
-0.0000000000001705
 30
0.0
 40
6.0
  0
LINE
  8
SIZE
  6
CONTINUOUS
 62
    30
 10
494.65450365862313
 20
-0.0000000000001705
 30
0.0
 11
494.65450365862313
 21
11.999999999999829
 31
0.0
  0
TEXT
  8
SIZE
  6
CONTINUOUS
 62
    30
 10
469.65450365862313
 20
50.013898453855383
 30
0.0
 40
64.0
  1
10
 50
90.0
 41
0.9
 72
     1
 11
469.65450365862313
 21
91.156755596712514
 31
0.0
  0
POINT
  8
DEFPOINTS
  6
CONTINUOUS
 62
    30
 10
353.49788434385073
 20
-0.0000000000001137
 30
0.0
  0
POINT
  8
DEFPOINTS
  6
CONTINUOUS
 62
    30
 10
348.39069111394929
 20
-10.014104372651669
 30
0.0
  0
POINT
  8
DEFPOINTS
  6
CONTINUOUS
 62
    30
 10
494.65450365862313
 20
-10.01410437265173
 30
0.0
  0
LINE
  8
SIZE
  6
CONTINUOUS
 62
    30
 10
368.39069111394929
 20
-10.014104372651669
 30
0.0
 11
514.65450365862307
 21
-10.01410437265173
 31
0.0
  0
LINE
  8
SIZE
  6
CONTINUOUS
 62
    30
 10
358.37658674129761
 20
-20.02820874530369
 30
0.0
 11
514.65450365862307
 21
-20.02820874530374
 31
0.0
  0
LINE
  8
SIZE
  6
CONTINUOUS
 62
    30
 10
494.65450365862313
 20
1.98589562734827
 30
0.0
 11
494.65450365862313
 21
13.98589562734827
 31
0.0
  0
LINE
  8
SIZE
  6
CONTINUOUS
 62
    30
 10
494.65450365862313
 20
-32.028208745303743
 30
0.0
 11
494.65450365862313
 21
-176.31392303101799
 31
0.0
  0
LINE
  8
SIZE
  6
CONTINUOUS
 62
    30
 10
494.65450365862313
 20
-10.01410437265173
 30
0.0
 11
494.65450365862313
 21
-20.02820874530374
 31
0.0
  0
CIRCLE
  8
SIZE
  6
CONTINUOUS
 62
    30
 10
494.65450365862313
 20
-10.01410437265173
 30
0.0
 40
6.0
  0
LINE
  8
SIZE
  6
CONTINUOUS
 62
    30
 10
494.65450365862313
 20
-10.01410437265173
 30
0.0
 11
494.65450365862313
 21
1.98589562734827
 31
0.0
  0
CIRCLE
  8
SIZE
  6
CONTINUOUS
 62
    30
 10
494.65450365862313
 20
-20.02820874530374
 30
0.0
 40
6.0
  0
LINE
  8
SIZE
  6
CONTINUOUS
 62
    30
 10
494.65450365862313
 20
-20.02820874530374
 30
0.0
 11
494.65450365862313
 21
-32.028208745303743
 31
0.0
  0
TEXT
  8
SIZE
  6
CONTINUOUS
 62
    30
 10
469.65450365862313
 20
-151.31392303101791
 30
0.0
 40
64.0
  1
10
 50
90.0
 41
0.9
 72
     1
 11
469.65450365862313
 21
-110.1710658881608
 31
0.0
  0
POINT
  8
DEFPOINTS
  6
CONTINUOUS
 62
    30
 10
348.39069111394929
 20
-10.014104372651669
 30
0.0
  0
POINT
  8
DEFPOINTS
  6
CONTINUOUS
 62
    30
 10
338.37658674129761
 20
-20.02820874530369
 30
0.0
  0
POINT
  8
DEFPOINTS
  6
CONTINUOUS
 62
    30
 10
494.65450365862313
 20
-20.02820874530374
 30
0.0
  0
LINE
  8
SIZE
  6
CONTINUOUS
 62
    30
 10
373.4978843438505
 20
-0.0000000000001137
 30
0.0
 11
656.21331117497175
 21
-0.0000000000002274
 31
0.0
  0
LINE
  8
SIZE
  6
CONTINUOUS
 62
    30
 10
295.18300022625817
 20
-175.24682651651639
 30
0.0
 11
656.21331117497175
 21
-175.24682651651651
 31
0.0
  0
LINE
  8
SIZE
  6
CONTINUOUS
 62
    30
 10
636.21331117497175
 20
-12.000000000000171
 30
0.0
 11
636.21331117497175
 21
-163.24682651651651
 31
0.0
  0
LINE
  8
SIZE
  6
CONTINUOUS
 62
    30
 10
636.21331117497175
 20
-175.24682651651651
 30
0.0
 11
636.21331117497175
 21
-374.38968365937359
 31
0.0
  0
CIRCLE
  8
SIZE
  6
CONTINUOUS
 62
    30
 10
636.21331117497175
 20
-0.0000000000001705
 30
0.0
 40
6.0
  0
LINE
  8
SIZE
  6
CONTINUOUS
 62
    30
 10
636.21331117497175
 20
-0.0000000000001705
 30
0.0
 11
636.21331117497175
 21
-12.000000000000171
 31
0.0
  0
CIRCLE
  8
SIZE
  6
CONTINUOUS
 62
    30
 10
636.21331117497175
 20
-175.24682651651651
 30
0.0
 40
6.0
  0
LINE
  8
SIZE
  6
CONTINUOUS
 62
    30
 10
636.21331117497175
 20
-175.24682651651651
 30
0.0
 11
636.21331117497175
 21
-163.24682651651651
 31
0.0
  0
TEXT
  8
SIZE
  6
CONTINUOUS
 62
    30
 10
611.21331117497175
 20
-349.38968365937347
 30
0.0
 40
64.0
  1
175
 50
90.0
 41
0.9
 72
     1
 11
611.21331117497175
 21
-280.81825508794498
 31
0.0
  0
POINT
  8
DEFPOINTS
  6
CONTINUOUS
 62
    30
 10
353.49788434385073
 20
-0.0000000000001137
 30
0.0
  0
POINT
  8
DEFPOINTS
  6
CONTINUOUS
 62
    30
 10
275.18300022625817
 20
-175.24682651651639
 30
0.0
  0
POINT
  8
DEFPOINTS
  6
CONTINUOUS
 62
    30
 10
636.21331117497175
 20
-175.24682651651651
 30
0.0
  0
TEXT
  8
NOTE
  6
CONTINUOUS
 62
     4
 10
-672.20697365316425
 20
89.566182407517999
 30
0.0
 40
64.0
  1
4-φ14
 41
0.9
  0
LINE
  8
SIZE
  6
CONTINUOUS
 62
    30
 10
-373.49788434473908
 20
0.0
 30
0.0
 11
-384.5966677755473
 21
0.0
 31
0.0
  0
LINE
  8
SIZE
  6
CONTINUOUS
 62
    30
 10
-20.00000000001819
 20
-317.10558988362908
 30
0.0
 11
-384.5966677755473
 21
-317.10558988362891
 31
0.0
  0
LINE
  8
SIZE
  6
CONTINUOUS
 62
    30
 10
-364.5966677755473
 20
-12.0
 30
0.0
 11
-364.5966677755473
 21
-305.10558988362891
 31
0.0
  0
CIRCLE
  8
SIZE
  6
CONTINUOUS
 62
    30
 10
-364.5966677755473
 20
0.0
 30
0.0
 40
6.0
  0
LINE
  8
SIZE
  6
CONTINUOUS
 62
    30
 10
-364.5966677755473
 20
0.0
 30
0.0
 11
-364.5966677755473
 21
-12.0
 31
0.0
  0
CIRCLE
  8
SIZE
  6
CONTINUOUS
 62
    30
 10
-364.5966677755473
 20
-317.10558988362891
 30
0.0
 40
6.0
  0
LINE
  8
SIZE
  6
CONTINUOUS
 62
    30
 10
-364.5966677755473
 20
-317.10558988362891
 30
0.0
 11
-364.5966677755473
 21
-305.10558988362891
 31
0.0
  0
TEXT
  8
SIZE
  6
CONTINUOUS
 62
    30
 10
-389.5966677755473
 20
-227.12422351324309
 30
0.0
 40
64.0
  1
317
 50
90.0
 41
0.9
 72
     1
 11
-389.5966677755473
 21
-158.5527949418146
 31
0.0
  0
POINT
  8
DEFPOINTS
  6
CONTINUOUS
 62
    30
 10
-353.49788434473908
 20
0.0
 30
0.0
  0
POINT
  8
DEFPOINTS
  6
CONTINUOUS
 62
    30
 10
-0.0000000000181899
 20
-317.10558988362908
 30
0.0
  0
POINT
  8
DEFPOINTS
  6
CONTINUOUS
 62
    30
 10
-364.5966677755473
 20
-317.10558988362891
 30
0.0
  0
LINE
  8
DETAIL
  6
CONTINUOUS
 62
     4
 10
-328.2217907405909
 20
5.5631220774380381
 30
0.0
 11
-325.45839210095869
 21
0.0
 31
0.0
  0
LINE
  8
DETAIL
  6
CONTINUOUS
 62
     4
 10
-325.45839210095869
 20
0.0
 30
0.0
 11
-330.6331317403949
 21
3.436097925561739
 31
0.0
  0
LINE
  8
DETAIL
  6
CONTINUOUS
 62
     4
 10
-325.45839210095869
 20
0.0
 30
0.0
 11
-333.39653038002689
 21
8.9992200029997775
 31
0.0
  0
LINE
  8
NOTE
  6
CONTINUOUS
 62
     4
 10
-333.39653038002689
 20
8.9992200029997775
 30
0.0
 11
-381.56198498046018
 21
63.602894977615513
 31
0.0
  0
LINE
  8
NOTE
  6
CONTINUOUS
 62
     4
 10
-381.56198498046018
 20
63.602894977615513
 30
0.0
 11
-679.43054722549414
 21
63.764349826795858
 31
0.0
  0
LINE
  8
SIZE
  6
CONTINUOUS
 62
    30
 10
-65.291960508053307
 20
-327.13258110043762
 30
0.0
 11
-65.291960508053307
 21
-459.08713494128818
 31
0.0
  0
LINE
  8
SIZE
  6
CONTINUOUS
 62
    30
 10
65.291960507164276
 20
-327.13258110043762
 30
0.0
 11
65.291960507164276
 21
-459.08713494128818
 31
0.0
  0
LINE
  8
SIZE
  6
CONTINUOUS
 62
    30
 10
-53.291960508053307
 20
-439.08713494128818
 30
0.0
 11
53.291960507164283
 21
-439.08713494128818
 31
0.0
  0
LINE
  8
SIZE
  6
CONTINUOUS
 62
    30
 10
65.291960507164276
 20
-439.08713494128818
 30
0.0
 11
300.10533117932141
 21
-439.08713494128818
 31
0.0
  0
CIRCLE
  8
SIZE
  6
CONTINUOUS
 62
    30
 10
-65.291960508053307
 20
-439.08713494128818
 30
0.0
 40
6.0
  0
LINE
  8
SIZE
  6
CONTINUOUS
 62
    30
 10
-65.291960508053307
 20
-439.08713494128818
 30
0.0
 11
-53.291960508053307
 21
-439.08713494128818
 31
0.0
  0
CIRCLE
  8
SIZE
  6
CONTINUOUS
 62
    30
 10
65.291960507164276
 20
-439.08713494128818
 30
0.0
 40
6.0
  0
LINE
  8
SIZE
  6
CONTINUOUS
 62
    30
 10
65.291960507164276
 20
-439.08713494128818
 30
0.0
 11
53.291960507164283
 21
-439.08713494128818
 31
0.0
  0
TEXT
  8
SIZE
  6
CONTINUOUS
 62
    30
 10
92.156759750749899
 20
-403.42046827462173
 30
0.0
 40
64.0
  1
φ131
 41
0.9
 72
     1
 11
188.70533117932129
 21
-403.42046827462173
 31
0.0
  0
POINT
  8
DEFPOINTS
  6
CONTINUOUS
 62
    30
 10
-65.291960508053307
 20
-307.13258110043762
 30
0.0
  0
POINT
  8
DEFPOINTS
  6
CONTINUOUS
 62
    30
 10
65.291960507164276
 20
-307.13258110043762
 30
0.0
  0
POINT
  8
DEFPOINTS
  6
CONTINUOUS
 62
    30
 10
65.291960507164276
 20
-439.08713494128818
 30
0.0
  0
LINE
  8
NOTE
  6
CONTINUOUS
 62
     4
 10
-325.45839210095869
 20
-39.208952782375832
 30
0.0
 11
-325.45839210095869
 21
16.33566800169967
 31
0.0
  0
LINE
  8
NOTE
  6
CONTINUOUS
 62
     4
 10
325.45839210095892
 20
-39.208952782376173
 30
0.0
 11
325.45839210095892
 21
16.33566800169945
 31
0.0
  0
LINE
  8
OUTLINE
  6
CONTINUOUS
 62
     3
 10
-353.49788434473908
 20
-3.0042313117064618
 30
0.0
 11
-351.99576868888539
 21
-3.0042313117064618
 31
0.0
  0
LINE
  8
OUTLINE
  6
CONTINUOUS
 62
     3
 10
-306.33958110673029
 20
-171.2411847672777
 30
0.0
 11
-306.33958110672938
 21
-59.024038073012207
 31
0.0
  0
LINE
  8
OUTLINE
  6
CONTINUOUS
 62
     3
 10
-65.291960508053307
 20
-292.41184767307482
 30
0.0
 11
-89.626234132877244
 21
-292.41184767307482
 31
0.0
  0
LINE
  8
OUTLINE
  6
CONTINUOUS
 62
     3
 10
306.33958110672938
 20
-175.24682651651639
 30
0.0
 11
306.33958110672938
 21
-180.25387870239771
 31
0.0
  0
ARC
  8
OUTLINE
  6
CONTINUOUS
 62
     3
 10
353.49788434385118
 20
-1.502115655853459
 30
0.0
 40
1.5021156558532309
 50
270.0
 51
90.0
  0
ARC
  8
OUTLINE
  6
CONTINUOUS
 62
     3
 10
338.37658674129852
 20
-16.42313117125536
 30
0.0
 40
3.6050775740477552
 50
270.0
 51
0.0
  0
ARC
  8
OUTLINE
  6
CONTINUOUS
 62
     3
 10
348.39069111394929
 20
-6.4090267986036906
 30
0.0
 40
3.6050775740477552
 50
270.0
 51
0.0
  0
ARC
  8
OUTLINE
  6
CONTINUOUS
 62
     3
 10
310.43723554242678
 20
-173.24400564234159
 30
0.0
 40
2.002820874174859
 50
270.0
 51
90.0
  0
ARC
  8
OUTLINE
  6
CONTINUOUS
 62
     3
 10
57.881523271918923
 20
-307.13258110043762
 30
0.0
 40
7.4104372352464916
 50
270.0
 51
0.0
  0
ARC
  8
OUTLINE
  6
CONTINUOUS
 62
     3
 10
-353.49788434473908
 20
-1.502115655853459
 30
0.0
 40
1.5021156558536859
 50
90.0
 51
270.0
  0
ARC
  8
OUTLINE
  6
CONTINUOUS
 62
     3
 10
-348.39069111483877
 20
-6.4090267986036906
 30
0.0
 40
3.6050775740477552
 50
180.0
 51
270.0
  0
ARC
  8
OUTLINE
  6
CONTINUOUS
 62
     3
 10
-338.37658674218619
 20
-16.42313117125536
 30
0.0
 40
3.6050775740477552
 50
180.0
 51
270.0
  0
ARC
  8
OUTLINE
  6
CONTINUOUS
 62
     3
 10
-310.43723554331382
 20
-173.24400564234159
 30
0.0
 40
2.0028208741746312
 50
90.0
 51
270.0
  0
ARC
  8
OUTLINE
  6
CONTINUOUS
 62
     3
 10
-57.881523272806589
 20
-307.13258110043762
 30
0.0
 40
7.410437235246718
 50
180.0
 51
270.0
  0
LINE
  8
OUTLINE
  6
CONTINUOUS
 62
     3
 10
353.49788434385118
 20
0.0
 30
0.0
 11
-353.49788434473908
 21
0.0
 31
0.0
  0
LINE
  8
OUTLINE
  6
CONTINUOUS
 62
     3
 10
353.49788434385118
 20
-3.0042313117064618
 30
0.0
 11
351.99576868799733
 21
-3.0042313117064618
 31
0.0
  0
LINE
  8
OUTLINE
  6
CONTINUOUS
 62
     3
 10
-345.18093089976668
 20
-10.0141043726519
 30
0.0
 11
-348.39069111483877
 21
-10.0141043726519
 31
0.0
  0
LINE
  8
OUTLINE
  6
CONTINUOUS
 62
     3
 10
348.39069111394929
 20
-10.0141043726519
 30
0.0
 11
345.18093089887952
 21
-10.0141043726519
 31
0.0
  0
LINE
  8
OUTLINE
  6
CONTINUOUS
 62
     3
 10
-333.97038081889701
 20
-20.028208745303349
 30
0.0
 11
-338.37658674218619
 21
-20.028208745303349
 31
0.0
  0
LINE
  8
OUTLINE
  6
CONTINUOUS
 62
     3
 10
338.37658674129852
 20
-20.028208745303349
 30
0.0
 11
333.97038081838878
 21
-20.028208745303349
 31
0.0
  0
LINE
  8
OUTLINE
  6
CONTINUOUS
 62
     3
 10
351.99576868799733
 20
-3.0042313117064618
 30
0.0
 11
351.99576868799733
 21
-6.4090267986036906
 31
0.0
  0
LINE
  8
OUTLINE
  6
CONTINUOUS
 62
     3
 10
341.98166431534628
 20
-13.887196766385159
 30
0.0
 11
341.98166431534628
 21
-16.42313117125536
 31
0.0
  0
LINE
  8
OUTLINE
  6
CONTINUOUS
 62
     3
 10
306.33958110672938
 20
-59.024038072985377
 30
0.0
 11
306.33958110672938
 21
-171.2411847672777
 31
0.0
  0
LINE
  8
OUTLINE
  6
CONTINUOUS
 62
     3
 10
306.33958110672938
 20
-171.2411847672777
 30
0.0
 11
310.43723554242678
 21
-171.2411847672777
 31
0.0
  0
LINE
  8
OUTLINE
  6
CONTINUOUS
 62
     3
 10
-310.43723554331382
 20
-171.2411847672777
 30
0.0
 11
-306.33958110672938
 21
-171.2411847672777
 31
0.0
  0
LINE
  8
OUTLINE
  6
CONTINUOUS
 62
     3
 10
306.33958110672938
 20
-175.24682651651639
 30
0.0
 11
310.43723554242678
 21
-175.24682651651639
 31
0.0
  0
LINE
  8
OUTLINE
  6
CONTINUOUS
 62
     3
 10
-310.43723554331382
 20
-175.24682651651639
 30
0.0
 11
-306.33958110672938
 21
-175.24682651651639
 31
0.0
  0
LINE
  8
OUTLINE
  6
CONTINUOUS
 62
     3
 10
89.626234131988895
 20
-288.40620592383652
 30
0.0
 11
225.60990565770109
 21
-288.40620592343453
 31
0.0
  0
LINE
  8
OUTLINE
  6
CONTINUOUS
 62
     3
 10
-225.60990565777911
 20
-288.40620592343453
 30
0.0
 11
-89.626234132877244
 21
-288.40620592383652
 31
0.0
  0
LINE
  8
OUTLINE
  6
CONTINUOUS
 62
     3
 10
89.626234131988895
 20
-292.41184767307482
 30
0.0
 11
65.291960507165641
 21
-292.41184767307482
 31
0.0
  0
LINE
  8
OUTLINE
  6
CONTINUOUS
 62
     3
 10
89.626234131988895
 20
-292.41184767307482
 30
0.0
 11
89.626234131988895
 21
-288.40620592383652
 31
0.0
  0
LINE
  8
OUTLINE
  6
CONTINUOUS
 62
     3
 10
65.291960507165641
 20
-307.13258110043762
 30
0.0
 11
65.291960507165641
 21
-292.41184767307482
 31
0.0
  0
LINE
  8
OUTLINE
  6
CONTINUOUS
 62
     3
 10
57.881523271918923
 20
-314.54301833568388
 30
0.0
 11
-57.881523272806589
 21
-314.54301833568388
 31
0.0
  0
LINE
  8
OUTLINE
  6
CONTINUOUS
 62
     3
 10
-65.291960508053307
 20
-307.13258110043762
 30
0.0
 11
-65.291960508053307
 21
-292.41184767307482
 31
0.0
  0
LINE
  8
OUTLINE
  6
CONTINUOUS
 62
     3
 10
-89.626234132877244
 20
-292.41184767307482
 30
0.0
 11
-89.626234132877244
 21
-288.40620592383652
 31
0.0
  0
LINE
  8
OUTLINE
  6
CONTINUOUS
 62
     3
 10
-306.33958110672938
 20
-180.25387870239771
 30
0.0
 11
-306.33958110673029
 21
-175.24682651651639
 31
0.0
  0
LINE
  8
OUTLINE
  6
CONTINUOUS
 62
     3
 10
-341.98166431623389
 20
-16.42313117125536
 30
0.0
 11
-341.98166431623389
 21
-13.887196766385159
 31
0.0
  0
LINE
  8
OUTLINE
  6
CONTINUOUS
 62
     3
 10
-351.99576868888539
 20
-6.4090267986036906
 30
0.0
 11
-351.99576868888539
 21
-3.0042313117064618
 31
0.0
  0
LINE
  8
DETAIL
  6
CONTINUOUS
 62
     5
 10
-351.99576868888607
 20
-6.4090267986036906
 30
0.0
 11
-351.99576868888607
 21
-3.0042313117064618
 31
0.0
  0
LINE
  8
DETAIL
  6
CONTINUOUS
 62
     5
 10
-348.82582776264621
 20
-3.0042313117064618
 30
0.0
 11
-348.82582776264621
 21
-5.1071932299009859
 31
0.0
  0
LINE
  8
DETAIL
  6
CONTINUOUS
 62
     5
 10
-341.98166431623417
 20
-16.42313117125536
 30
0.0
 11
-341.98166431623417
 21
-13.887196766385159
 31
0.0
  0
LINE
  8
DETAIL
  6
CONTINUOUS
 62
     5
 10
-306.33958110673012
 20
-180.25387870239771
 30
0.0
 11
-306.33958110673012
 21
-14.52045134021137
 31
0.0
  0
LINE
  8
DETAIL
  6
CONTINUOUS
 62
     5
 10
-302.09095644104968
 20
-14.52045134021137
 30
0.0
 11
-302.09095644104968
 21
-180.25387870239771
 31
0.0
  0
LINE
  8
DETAIL
  6
CONTINUOUS
 62
     5
 10
-299.25853999785522
 20
-5.1071932299009859
 30
0.0
 11
-299.25853999785522
 21
-3.0042313117064618
 31
0.0
  0
LINE
  8
DETAIL
  6
CONTINUOUS
 62
     5
 10
-287.92887422329977
 20
-3.0042313117064618
 30
0.0
 11
-287.92887422329977
 21
-6.4090267986036906
 31
0.0
  0
LINE
  8
DETAIL
  6
CONTINUOUS
 62
     5
 10
-280.19005241302881
 20
-14.52045134021137
 30
0.0
 11
-280.19005241302881
 21
-18.526093089449891
 31
0.0
  0
LINE
  8
DETAIL
  6
CONTINUOUS
 62
     5
 10
-275.18300022625863
 20
-14.52045134021137
 30
0.0
 11
-275.18300022625863
 21
-18.078881226308109
 31
0.0
  0
LINE
  8
DETAIL
  6
CONTINUOUS
 62
     5
 10
-275.18300022625863
 20
-18.526093089449891
 30
0.0
 11
-275.18300022625863
 21
-180.25387870239771
 31
0.0
  0
LINE
  8
DETAIL
  6
CONTINUOUS
 62
     5
 10
-270.17594804037708
 20
-18.526093089449891
 30
0.0
 11
-270.17594804037708
 21
-14.52045134021137
 31
0.0
  0
LINE
  8
DETAIL
  6
CONTINUOUS
 62
     5
 10
-258.18850156442522
 20
-14.52045134021137
 30
0.0
 11
-258.18850156442522
 21
-10.0141043726519
 31
0.0
  0
LINE
  8
DETAIL
  6
CONTINUOUS
 62
     5
 10
-246.15073167907141
 20
-13.01833568435814
 30
0.0
 11
-246.15073167907141
 21
-16.42313117125536
 31
0.0
  0
LINE
  8
DETAIL
  6
CONTINUOUS
 62
     5
 10
-89.626234132877471
 20
-292.41184767307482
 30
0.0
 11
-89.626234132877471
 21
-250.35260930918159
 31
0.0
  0
LINE
  8
DETAIL
  6
CONTINUOUS
 62
     5
 10
-80.004326662359063
 20
-247.34837799747541
 30
0.0
 11
-80.004326662359063
 21
-207.29196050775749
 31
0.0
  0
LINE
  8
DETAIL
  6
CONTINUOUS
 62
     5
 10
-68.266514586520771
 20
-247.34837799747541
 30
0.0
 11
-68.266514586520771
 21
-207.29196050775749
 31
0.0
  0
LINE
  8
DETAIL
  6
CONTINUOUS
 62
     5
 10
-65.291960508053762
 20
-307.13258110043762
 30
0.0
 11
-65.291960508053762
 21
-292.41184767307482
 31
0.0
  0
LINE
  8
DETAIL
  6
CONTINUOUS
 62
     5
 10
-65.291960508053762
 20
-207.29196050775749
 30
0.0
 11
-65.291960508053762
 21
-175.24682651651639
 31
0.0
  0
LINE
  8
DETAIL
  6
CONTINUOUS
 62
     5
 10
-61.033184383004709
 20
-247.34837799747541
 30
0.0
 11
-61.033184383004709
 21
-240.8392101557406
 31
0.0
  0
LINE
  8
DETAIL
  6
CONTINUOUS
 62
     5
 10
-57.778600462581842
 20
-237.63469675599441
 30
0.0
 11
-57.778600462581842
 21
-240.8392101557406
 31
0.0
  0
LINE
  8
DETAIL
  6
CONTINUOUS
 62
     5
 10
-54.52401654126993
 20
-247.34837799747541
 30
0.0
 11
-54.52401654126993
 21
-241.42058557809131
 31
0.0
  0
LINE
  8
DETAIL
  6
CONTINUOUS
 62
     5
 10
-53.537926915482331
 20
-237.63469675599441
 30
0.0
 11
-53.537926915482331
 21
-207.29196050775749
 31
0.0
  0
LINE
  8
DETAIL
  6
CONTINUOUS
 62
     5
 10
-51.269432619958252
 20
-237.63469675599441
 30
0.0
 11
-51.269432619958252
 21
-240.8392101557406
 31
0.0
  0
LINE
  8
DETAIL
  6
CONTINUOUS
 62
     5
 10
-48.01484869953515
 20
-247.34837799747541
 30
0.0
 11
-48.01484869953515
 21
-240.8392101557406
 31
0.0
  0
LINE
  8
DETAIL
  6
CONTINUOUS
 62
     5
 10
-46.577865920660997
 20
-247.34837799747541
 30
0.0
 11
-46.577865920660997
 21
-207.29196050775749
 31
0.0
  0
LINE
  8
DETAIL
  6
CONTINUOUS
 62
     5
 10
-34.43629313285237
 20
-247.34837799747541
 30
0.0
 11
-34.43629313285237
 21
-207.29196050775749
 31
0.0
  0
LINE
  8
DETAIL
  6
CONTINUOUS
 62
     5
 10
-18.240280815057758
 20
-247.34837799747541
 30
0.0
 11
-18.240280815057758
 21
-207.29196050775749
 31
0.0
  0
LINE
  8
DETAIL
  6
CONTINUOUS
 62
     5
 10
-10.09204588671037
 20
-247.34837799747541
 30
0.0
 11
-10.09204588671037
 21
-207.29196050775749
 31
0.0
  0
LINE
  8
DETAIL
  6
CONTINUOUS
 62
     5
 10
-4.7066290555997057
 20
-315.04372355489409
 30
0.0
 11
-4.7066290555997057
 21
-314.54301833568388
 31
0.0
  0
LINE
  8
DETAIL
  6
CONTINUOUS
 62
     5
 10
4.7066290547104472
 20
-315.04372355489409
 30
0.0
 11
4.7066290547104472
 21
-314.54301833568388
 31
0.0
  0
LINE
  8
DETAIL
  6
CONTINUOUS
 62
     5
 10
10.09204588582134
 20
-247.34837799747541
 30
0.0
 11
10.09204588582134
 21
-207.29196050775749
 31
0.0
  0
LINE
  8
DETAIL
  6
CONTINUOUS
 62
     5
 10
18.240280814168731
 20
-247.34837799747541
 30
0.0
 11
18.240280814168731
 21
-207.29196050775749
 31
0.0
  0
LINE
  8
DETAIL
  6
CONTINUOUS
 62
     5
 10
34.436293131963339
 20
-247.34837799747541
 30
0.0
 11
34.436293131963339
 21
-207.29196050775749
 31
0.0
  0
LINE
  8
DETAIL
  6
CONTINUOUS
 62
     5
 10
46.577865919771739
 20
-247.34837799747541
 30
0.0
 11
46.577865919771739
 21
-207.29196050775749
 31
0.0
  0
LINE
  8
DETAIL
  6
CONTINUOUS
 62
     5
 10
48.014848698646347
 20
-247.34837799747541
 30
0.0
 11
48.014848698646347
 21
-240.8392101557406
 31
0.0
  0
LINE
  8
DETAIL
  6
CONTINUOUS
 62
     5
 10
51.269432619958017
 20
-237.63469675599441
 30
0.0
 11
51.269432619958017
 21
-240.8392101557406
 31
0.0
  0
LINE
  8
DETAIL
  6
CONTINUOUS
 62
     5
 10
53.537926914593299
 20
-237.63469675599441
 30
0.0
 11
53.537926914593299
 21
-207.29196050775749
 31
0.0
  0
LINE
  8
DETAIL
  6
CONTINUOUS
 62
     5
 10
54.524016540380899
 20
-247.34837799747541
 30
0.0
 11
54.524016540380899
 21
-241.42058557809131
 31
0.0
  0
LINE
  8
DETAIL
  6
CONTINUOUS
 62
     5
 10
-4.7066290555997057
 20
-315.04372355489409
 30
0.0
 11
4.7066290547104472
 21
-315.04372355489409
 31
0.0
  0
LINE
  8
DETAIL
  6
CONTINUOUS
 62
     5
 10
57.881523271918013
 20
-314.54301833568388
 30
0.0
 11
-57.881523272807037
 21
-314.54301833568388
 31
0.0
  0
LINE
  8
DETAIL
  6
CONTINUOUS
 62
     5
 10
57.778600461692797
 20
-237.63469675599441
 30
0.0
 11
57.778600461692797
 21
-240.8392101557406
 31
0.0
  0
LINE
  8
DETAIL
  6
CONTINUOUS
 62
     5
 10
61.033184383004482
 20
-247.34837799747541
 30
0.0
 11
61.033184383004482
 21
-240.8392101557406
 31
0.0
  0
LINE
  8
DETAIL
  6
CONTINUOUS
 62
     5
 10
63.536710475500968
 20
-251.3540197467137
 30
0.0
 11
63.536710475500968
 21
-247.34837799747541
 31
0.0
  0
LINE
  8
DETAIL
  6
CONTINUOUS
 62
     5
 10
65.291960507164731
 20
-307.13258110043762
 30
0.0
 11
65.291960507164731
 21
-292.41184767307482
 31
0.0
  0
LINE
  8
DETAIL
  6
CONTINUOUS
 62
     5
 10
65.291960507164731
 20
-207.29196050775749
 30
0.0
 11
65.291960507164731
 21
-175.24682651651639
 31
0.0
  0
LINE
  8
DETAIL
  6
CONTINUOUS
 62
     5
 10
68.266514585631739
 20
-247.34837799747541
 30
0.0
 11
68.266514585631739
 21
-207.29196050775749
 31
0.0
  0
LINE
  8
DETAIL
  6
CONTINUOUS
 62
     5
 10
80.004326661469804
 20
-247.34837799747541
 30
0.0
 11
80.004326661469804
 21
-207.29196050775749
 31
0.0
  0
LINE
  8
DETAIL
  6
CONTINUOUS
 62
     5
 10
86.121297601960123
 20
-251.3540197467137
 30
0.0
 11
86.121297601960123
 21
-247.34837799747541
 31
0.0
  0
LINE
  8
DETAIL
  6
CONTINUOUS
 62
     5
 10
89.62623413198844
 20
-292.41184767307482
 30
0.0
 11
89.62623413198844
 21
-250.35260930918159
 31
0.0
  0
LINE
  8
DETAIL
  6
CONTINUOUS
 62
     5
 10
89.62623413198844
 20
-292.41184767307482
 30
0.0
 11
-89.626234132877471
 21
-292.41184767307482
 31
0.0
  0
LINE
  8
DETAIL
  6
CONTINUOUS
 62
     5
 10
-225.60990565770109
 20
-288.40620592343453
 30
0.0
 11
-89.626234132877471
 21
-288.40620592383652
 31
0.0
  0
LINE
  8
DETAIL
  6
CONTINUOUS
 62
     5
 10
89.62623413198844
 20
-288.40620592383652
 30
0.0
 11
225.60990565770109
 21
-288.40620592343453
 31
0.0
  0
LINE
  8
DETAIL
  6
CONTINUOUS
 62
     5
 10
-1.4458654002596629
 20
-266.00307934958408
 30
0.0
 11
1.44574345513297
 21
-266.00307934958408
 31
0.0
  0
LINE
  8
DETAIL
  6
CONTINUOUS
 62
     5
 10
-2.3808532114237551
 20
-265.20195100009158
 30
0.0
 11
2.3808671037713789
 21
-265.20195100009158
 31
0.0
  0
LINE
  8
DETAIL
  6
CONTINUOUS
 62
     5
 10
83.617771508575061
 20
-251.3540197467137
 30
0.0
 11
-83.617771509464092
 21
-251.3540197467137
 31
0.0
  0
LINE
  8
DETAIL
  6
CONTINUOUS
 62
     5
 10
-86.121297602849154
 20
-251.3540197467137
 30
0.0
 11
-83.826724816109163
 21
-251.3540197467137
 31
0.0
  0
LINE
  8
DETAIL
  6
CONTINUOUS
 62
     5
 10
83.826724815220132
 20
-251.3540197467137
 30
0.0
 11
86.121297601960123
 21
-251.3540197467137
 31
0.0
  0
LINE
  8
DETAIL
  6
CONTINUOUS
 62
     5
 10
-225.6157124623567
 20
-250.35260930918159
 30
0.0
 11
-89.626234132877471
 21
-250.35260930918159
 31
0.0
  0
LINE
  8
DETAIL
  6
CONTINUOUS
 62
     5
 10
89.62623413198844
 20
-250.35260930918159
 30
0.0
 11
225.61571246146741
 21
-250.35260930918159
 31
0.0
  0
LINE
  8
DETAIL
  6
CONTINUOUS
 62
     5
 10
-86.121297602849154
 20
-247.34837799747541
 30
0.0
 11
86.121297601960123
 21
-247.34837799747541
 31
0.0
  0
LINE
  8
DETAIL
  6
CONTINUOUS
 62
     5
 10
-61.033184383004709
 20
-240.8392101557406
 30
0.0
 11
-48.01484869953515
 21
-240.8392101557406
 31
0.0
  0
LINE
  8
DETAIL
  6
CONTINUOUS
 62
     5
 10
48.014848698646347
 20
-240.8392101557406
 30
0.0
 11
61.033184383004482
 21
-240.8392101557406
 31
0.0
  0
LINE
  8
DETAIL
  6
CONTINUOUS
 62
     5
 10
57.778600461692797
 20
-237.63469675599441
 30
0.0
 11
51.269432619958017
 21
-237.63469675599441
 31
0.0
  0
LINE
  8
DETAIL
  6
CONTINUOUS
 62
     5
 10
-51.269432619958252
 20
-237.63469675599441
 30
0.0
 11
-57.778600462581842
 21
-237.63469675599441
 31
0.0
  0
LINE
  8
DETAIL
  6
CONTINUOUS
 62
     5
 10
-80.004158473401958
 20
-207.29196050775749
 30
0.0
 11
80.004158472513154
 21
-207.29196050775749
 31
0.0
  0
LINE
  8
DETAIL
  6
CONTINUOUS
 62
     5
 10
-310.43723554331473
 20
-175.24682651651639
 30
0.0
 11
-306.33958110673012
 21
-175.24682651651639
 31
0.0
  0
LINE
  8
DETAIL
  6
CONTINUOUS
 62
     5
 10
-275.18300022625863
 20
-175.24682651651639
 30
0.0
 11
275.18300022625817
 21
-175.24682651651639
 31
0.0
  0
LINE
  8
DETAIL
  6
CONTINUOUS
 62
     5
 10
306.33958110673012
 20
-175.24682651651639
 30
0.0
 11
310.4372355424257
 21
-175.24682651651639
 31
0.0
  0
LINE
  8
DETAIL
  6
CONTINUOUS
 62
     5
 10
-310.43723554331473
 20
-171.2411847672777
 30
0.0
 11
-306.33958110673012
 21
-171.2411847672777
 31
0.0
  0
LINE
  8
DETAIL
  6
CONTINUOUS
 62
     5
 10
-275.18300022625863
 20
-171.2411847672777
 30
0.0
 11
275.18300022625817
 21
-171.2411847672777
 31
0.0
  0
LINE
  8
DETAIL
  6
CONTINUOUS
 62
     5
 10
306.33958110673012
 20
-171.2411847672777
 30
0.0
 11
310.4372355424257
 21
-171.2411847672777
 31
0.0
  0
LINE
  8
DETAIL
  6
CONTINUOUS
 62
     5
 10
246.15073167818241
 20
-16.42313117125536
 30
0.0
 11
246.15073167818241
 21
-13.01833568435814
 31
0.0
  0
LINE
  8
DETAIL
  6
CONTINUOUS
 62
     5
 10
258.18850156353619
 20
-14.52045134021137
 30
0.0
 11
258.18850156353619
 21
-10.0141043726519
 31
0.0
  0
LINE
  8
DETAIL
  6
CONTINUOUS
 62
     5
 10
275.18300022625817
 20
-180.25387870239771
 30
0.0
 11
275.18300022625817
 21
-14.52045134021137
 31
0.0
  0
LINE
  8
DETAIL
  6
CONTINUOUS
 62
     5
 10
287.92887422241103
 20
-6.4090267986036906
 30
0.0
 11
287.92887422241103
 21
-3.0042313117064618
 31
0.0
  0
LINE
  8
DETAIL
  6
CONTINUOUS
 62
     5
 10
306.99634219246201
 20
-96.385754584217011
 30
0.0
 11
306.33958110673012
 21
-96.385754584217011
 31
0.0
  0
LINE
  8
DETAIL
  6
CONTINUOUS
 62
     5
 10
306.99634219246201
 20
-92.880818054189149
 30
0.0
 11
306.33958110673012
 21
-92.880818054189149
 31
0.0
  0
LINE
  8
DETAIL
  6
CONTINUOUS
 62
     5
 10
299.25853999696619
 20
-5.1071932299009859
 30
0.0
 11
299.25853999696619
 21
-3.0042313117064618
 31
0.0
  0
LINE
  8
DETAIL
  6
CONTINUOUS
 62
     5
 10
302.09095644104917
 20
-180.25387870239771
 30
0.0
 11
302.09095644104917
 21
-14.52045134021137
 31
0.0
  0
LINE
  8
DETAIL
  6
CONTINUOUS
 62
     5
 10
306.33958110673012
 20
-14.52045134021137
 30
0.0
 11
306.33958110673012
 21
-180.25387870239771
 31
0.0
  0
LINE
  8
DETAIL
  6
CONTINUOUS
 62
     5
 10
306.99635025588992
 20
-92.880818054189149
 30
0.0
 11
306.99635025588992
 21
-96.385754584217011
 31
0.0
  0
LINE
  8
DETAIL
  6
CONTINUOUS
 62
     5
 10
311.34663329261139
 20
-18.526093089449891
 30
0.0
 11
311.34663329261139
 21
-14.52045134021137
 31
0.0
  0
LINE
  8
DETAIL
  6
CONTINUOUS
 62
     5
 10
341.98166431534543
 20
-13.887196766385159
 30
0.0
 11
341.98166431534543
 21
-16.42313117125536
 31
0.0
  0
LINE
  8
DETAIL
  6
CONTINUOUS
 62
     5
 10
348.82582776175718
 20
-5.1071932299009859
 30
0.0
 11
348.82582776175718
 21
-3.0042313117064618
 31
0.0
  0
LINE
  8
DETAIL
  6
CONTINUOUS
 62
     5
 10
351.99576868799699
 20
-3.0042313117064618
 30
0.0
 11
351.99576868799699
 21
-6.4090267986036906
 31
0.0
  0
LINE
  8
DETAIL
  6
CONTINUOUS
 62
     5
 10
338.37658674129722
 20
-20.028208745303349
 30
0.0
 11
306.33958110673012
 21
-20.028208745303349
 31
0.0
  0
LINE
  8
DETAIL
  6
CONTINUOUS
 62
     5
 10
275.18300022625817
 20
-20.028208745303349
 30
0.0
 11
-275.18300022625863
 21
-20.028208745303349
 31
0.0
  0
LINE
  8
DETAIL
  6
CONTINUOUS
 62
     5
 10
-306.33958110673012
 20
-20.028208745303349
 30
0.0
 11
-338.37658674218659
 21
-20.028208745303349
 31
0.0
  0
LINE
  8
DETAIL
  6
CONTINUOUS
 62
     5
 10
311.34663329261139
 20
-18.526093089449891
 30
0.0
 11
306.33958110673012
 21
-18.526093089449891
 31
0.0
  0
LINE
  8
DETAIL
  6
CONTINUOUS
 62
     5
 10
-270.17594804037708
 20
-18.526093089449891
 30
0.0
 11
-280.19005241302881
 21
-18.526093089449891
 31
0.0
  0
LINE
  8
DETAIL
  6
CONTINUOUS
 62
     5
 10
339.50854830187518
 20
-14.52045134021137
 30
0.0
 11
258.18850156353619
 21
-14.52045134021137
 31
0.0
  0
LINE
  8
DETAIL
  6
CONTINUOUS
 62
     5
 10
-258.18850156442522
 20
-14.52045134021137
 30
0.0
 11
-339.50854830276421
 21
-14.52045134021137
 31
0.0
  0
LINE
  8
DETAIL
  6
CONTINUOUS
 62
     5
 10
348.39069111394878
 20
-10.0141043726519
 30
0.0
 11
345.18093089887822
 21
-10.0141043726519
 31
0.0
  0
LINE
  8
DETAIL
  6
CONTINUOUS
 62
     5
 10
284.32379664836299
 20
-10.0141043726519
 30
0.0
 11
-284.32379664925179
 21
-10.0141043726519
 31
0.0
  0
LINE
  8
DETAIL
  6
CONTINUOUS
 62
     5
 10
-284.32379664925179
 20
-10.0141043726519
 30
0.0
 11
-289.94126053797322
 21
-10.0141043726519
 31
0.0
  0
LINE
  8
DETAIL
  6
CONTINUOUS
 62
     5
 10
-345.18093089976719
 20
-10.0141043726519
 30
0.0
 11
-348.39069111483792
 21
-10.0141043726519
 31
0.0
  0
LINE
  8
DETAIL
  6
CONTINUOUS
 62
     5
 10
284.32379664836299
 20
-10.0141043726519
 30
0.0
 11
289.94126053797322
 21
-10.0141043726519
 31
0.0
  0
LINE
  8
DETAIL
  6
CONTINUOUS
 62
     5
 10
348.82582776175718
 20
-5.1071932299009859
 30
0.0
 11
298.72543798367911
 21
-5.1071932299026912
 31
0.0
  0
LINE
  8
DETAIL
  6
CONTINUOUS
 62
     5
 10
-348.82582776264621
 20
-5.1071932299009859
 30
0.0
 11
-298.72543798367911
 21
-5.1071932299026912
 31
0.0
  0
LINE
  8
DETAIL
  6
CONTINUOUS
 62
     5
 10
353.49788434385027
 20
-3.0042313117064618
 30
0.0
 11
-353.49788434473908
 21
-3.0042313117064618
 31
0.0
  0
LINE
  8
DETAIL
  6
CONTINUOUS
 62
     5
 10
353.49788434385027
 20
0.0
 30
0.0
 11
-353.49788434473908
 21
0.0
 31
0.0
  0
ARC
  8
DETAIL
  6
CONTINUOUS
 62
     5
 10
-57.881523272807037
 20
-307.13258110043762
 30
0.0
 40
7.410437235246774
 50
180.0
 51
270.0
  0
ARC
  8
DETAIL
  6
CONTINUOUS
 62
     5
 10
-83.617771509464092
 20
-257.36248237012722
 30
0.0
 40
6.0084626234129246
 50
90.0
 51
180.0
  0
ARC
  8
DETAIL
  6
CONTINUOUS
 62
     5
 10
-310.43723554331473
 20
-173.24400564234159
 30
0.0
 40
2.0028208741746312
 50
90.0
 51
270.0
  0
ARC
  8
DETAIL
  6
CONTINUOUS
 62
     5
 10
-284.32379664925179
 20
-6.4090267986036906
 30
0.0
 40
3.605077574047983
 50
180.0
 51
270.0
  0
ARC
  8
DETAIL
  6
CONTINUOUS
 62
     5
 10
-242.54565410502349
 20
-16.42313117125536
 30
0.0
 40
3.605077574047983
 50
180.0
 51
270.0
  0
ARC
  8
DETAIL
  6
CONTINUOUS
 62
     5
 10
-338.37658674218659
 20
-16.42313117125536
 30
0.0
 40
3.605077574047868
 50
180.0
 51
270.0
  0
ARC
  8
DETAIL
  6
CONTINUOUS
 62
     5
 10
-348.39069111483792
 20
-6.4090267986036906
 30
0.0
 40
3.6050775740480958
 50
180.0
 51
270.0
  0
ARC
  8
DETAIL
  6
CONTINUOUS
 62
     5
 10
-249.1549629907781
 20
-13.01833568435814
 30
0.0
 40
3.004231311706576
 50
0.0
 51
90.0
  0
ARC
  8
DETAIL
  6
CONTINUOUS
 62
     5
 10
-353.49788434473908
 20
-1.502115655853459
 30
0.0
 40
1.5021156558536859
 50
90.0
 51
270.0
  0
ARC
  8
DETAIL
  6
CONTINUOUS
 62
     5
 10
57.881523271918013
 20
-307.13258110043762
 30
0.0
 40
7.4104372352464916
 50
270.0
 51
0.0
  0
ARC
  8
DETAIL
  6
CONTINUOUS
 62
     5
 10
0.0
 20
-310.51484485249688
 30
0.0
 40
6.5316995765724304
 50
223.8973981670878
 51
316.10260183290978
  0
ARC
  8
DETAIL
  6
CONTINUOUS
 62
     5
 10
83.617771508575061
 20
-257.36248237012722
 30
0.0
 40
6.0084626234132674
 50
0.0
 51
90.0
  0
ARC
  8
DETAIL
  6
CONTINUOUS
 62
     5
 10
310.4372355424257
 20
-173.24400564234159
 30
0.0
 40
2.002820874174859
 50
270.0
 51
90.0
  0
ARC
  8
DETAIL
  6
CONTINUOUS
 62
     5
 10
348.39069111394878
 20
-6.4090267986036906
 30
0.0
 40
3.6050775740477552
 50
270.0
 51
0.0
  0
ARC
  8
DETAIL
  6
CONTINUOUS
 62
     5
 10
242.5456541041344
 20
-16.42313117125536
 30
0.0
 40
3.6050775740477552
 50
270.0
 51
0.0
  0
ARC
  8
DETAIL
  6
CONTINUOUS
 62
     5
 10
338.37658674129722
 20
-16.42313117125536
 30
0.0
 40
3.6050775740477552
 50
270.0
 51
0.0
  0
ARC
  8
DETAIL
  6
CONTINUOUS
 62
     5
 10
284.32379664836299
 20
-6.4090267986036906
 30
0.0
 40
3.6050775740477552
 50
270.0
 51
0.0
  0
ARC
  8
DETAIL
  6
CONTINUOUS
 62
     5
 10
249.1549629898889
 20
-13.01833568435814
 30
0.0
 40
3.004231311706461
 50
90.0
 51
180.0
  0
ARC
  8
DETAIL
  6
CONTINUOUS
 62
     5
 10
353.49788434385027
 20
-1.502115655853459
 30
0.0
 40
1.5021156558532309
 50
270.0
 51
90.0
  0
LINE
  8
DETAIL
  6
CONTINUOUS
 62
     5
 10
-339.50854830276421
 20
-14.52045134021137
 30
0.0
 11
-339.62324426889359
 21
-14.518673318630819
 31
0.0
  0
LINE
  8
DETAIL
  6
CONTINUOUS
 62
     5
 10
-86.121297602849154
 20
-251.3540197467137
 30
0.0
 11
-86.121297602849154
 21
-247.34837799747541
 31
0.0
  0
LINE
  8
DETAIL
  6
CONTINUOUS
 62
     5
 10
-63.536710476389999
 20
-251.3540197467137
 30
0.0
 11
-63.536710476389999
 21
-247.34837799747541
 31
0.0
  0
LINE
  8
DETAIL
  6
CONTINUOUS
 62
     5
 10
-2.5035260933850618
 20
-239.3370944998876
 30
0.0
 11
-2.5035260933850618
 21
-247.34837799747541
 31
0.0
  0
LINE
  8
DETAIL
  6
CONTINUOUS
 62
     5
 10
2.503526092496259
 20
-239.3370944998876
 30
0.0
 11
2.503526092496259
 21
-247.34837799747541
 31
0.0
  0
LINE
  8
DETAIL
  6
CONTINUOUS
 62
     5
 10
2.503526092496259
 20
-239.3370944998876
 30
0.0
 11
-2.5035260933850618
 21
-239.3370944998876
 31
0.0
  0
CIRCLE
  8
DETAIL
  6
CONTINUOUS
 62
     5
 10
0.0
 20
-263.37094499354038
 30
0.0
 40
3.004231311706635
  0
LINE
  8
BASIS
  6
DASHDOT
 62
     6
 10
0.0
 20
-331.9755789266876
 30
0.0
 11
0.0
 21
68.401477413706743
 31
0.0
  0
ARC
  8
DETAIL
  6
CONTINUOUS
 62
     5
 10
-198.6372747765495
 20
-184.06638062597349
 30
0.0
 40
107.7697636619833
 50
177.9726608800201
 51
255.50591031903591
  0
ARC
  8
DETAIL
  6
CONTINUOUS
 62
     5
 10
-191.05313569584951
 20
-182.85067255838919
 30
0.0
 40
111.0681816461201
 50
178.66029240313409
 51
251.87258854701449
  0
ARC
  8
DETAIL
  6
CONTINUOUS
 62
     5
 10
-205.63273584986061
 20
-183.6484630833834
 30
0.0
 40
69.633055928675773
 50
177.20574552809509
 51
253.32303383672519
  0
ARC
  8
DETAIL
  6
CONTINUOUS
 62
     5
 10
-289.49261466682668
 20
-7.1002690974300444
 30
0.0
 40
2.931219635758056
 50
199.0740411815936
 51
263.75679371551229
  0
ARC
  8
DETAIL
  6
CONTINUOUS
 62
     5
 10
-302.56441624688517
 20
-9.2989664462575092
 30
0.0
 40
10.37597213100309
 50
6.8681202039732412
 51
37.348721660154162
  0
ARC
  8
DETAIL
  6
CONTINUOUS
 62
     5
 10
-289.54220946485162
 20
-8.1483459172261519
 30
0.0
 40
6.3777881209362297
 50
193.43887784115719
 51
267.58113224477972
  0
ARC
  8
DETAIL
  6
CONTINUOUS
 62
     5
 10
-301.32313712040059
 20
-10.06194669379556
 30
0.0
 40
5.5944278253350124
 50
4.4221178543406356
 51
62.3326857882589
  0
ARC
  8
DETAIL
  6
CONTINUOUS
 62
     5
 10
-339.26063795031968
 20
-8.3688460630663712
 30
0.0
 40
6.1527375182774531
 50
195.00412963048501
 51
268.90079280999339
  0
ARC
  8
DETAIL
  6
CONTINUOUS
 62
     5
 10
-351.42337276569287
 20
-10.379120324925401
 30
0.0
 40
6.2337514023928327
 50
3.8392900830627341
 51
57.553922023250429
  0
ARC
  8
DETAIL
  6
CONTINUOUS
 62
     5
 10
-335.95996064647528
 20
-41.813261283919637
 30
0.0
 40
21.875715805444681
 50
28.892706775503921
 51
84.781781222206746
  0
ARC
  8
DETAIL
  6
CONTINUOUS
 62
     5
 10
-378.00452366244122
 20
-70.164885630096705
 30
0.0
 40
72.525736644336831
 50
8.8363249445017829
 51
32.456252278519727
  0
ARC
  8
DETAIL
  6
CONTINUOUS
 62
     5
 10
198.6372747765495
 20
-184.06638062597349
 30
0.0
 40
107.7697636619833
 50
284.49408968096412
 51
2.0273391199799069
  0
ARC
  8
DETAIL
  6
CONTINUOUS
 62
     5
 10
191.05313569584951
 20
-182.85067255838919
 30
0.0
 40
111.0681816461201
 50
288.12741145298548
 51
1.3397075968658789
  0
ARC
  8
DETAIL
  6
CONTINUOUS
 62
     5
 10
205.63273584986061
 20
-183.6484630833834
 30
0.0
 40
69.633055928675773
 50
286.67696616327481
 51
2.7942544719048601
  0
ARC
  8
DETAIL
  6
CONTINUOUS
 62
     5
 10
289.49261466682668
 20
-7.1002690974300444
 30
0.0
 40
2.931219635758056
 50
276.24320628448771
 51
340.92595881840629
  0
ARC
  8
DETAIL
  6
CONTINUOUS
 62
     5
 10
302.58306664363982
 20
-9.3037866222002208
 30
0.0
 40
10.395065425252691
 50
142.698155184755
 51
173.11779548937611
  0
ARC
  8
DETAIL
  6
CONTINUOUS
 62
     5
 10
289.54220946485162
 20
-8.1483459172261519
 30
0.0
 40
6.3777881209362297
 50
272.41886775522028
 51
346.56112215884269
  0
ARC
  8
DETAIL
  6
CONTINUOUS
 62
     5
 10
301.32313712040059
 20
-10.06194669379556
 30
0.0
 40
5.5944278253350124
 50
117.6673142117411
 51
175.5778821456594
  0
ARC
  8
DETAIL
  6
CONTINUOUS
 62
     5
 10
339.26063795031968
 20
-8.3688460630663712
 30
0.0
 40
6.1527375182774531
 50
271.09920719000661
 51
344.99587036951499
  0
ARC
  8
DETAIL
  6
CONTINUOUS
 62
     5
 10
351.42337276569287
 20
-10.379120324925401
 30
0.0
 40
6.2337514023928327
 50
122.44607797674961
 51
176.16070991693729
  0
ARC
  8
DETAIL
  6
CONTINUOUS
 62
     5
 10
335.95996064647528
 20
-41.813261283919637
 30
0.0
 40
21.875715805444681
 50
95.218218777793254
 51
151.10729322449609
  0
ARC
  8
DETAIL
  6
CONTINUOUS
 62
     5
 10
378.00452366244122
 20
-70.164885630096705
 30
0.0
 40
72.525736644336831
 50
147.54374772148029
 51
171.1636750554982
  0
ARC
  8
OUTLINE
  6
CONTINUOUS
 62
     3
 10
-198.6372747765497
 20
-184.06638062628841
 30
0.0
 40
107.7697636619833
 50
177.9726608800201
 51
255.50591031903591
  0
ARC
  8
OUTLINE
  6
CONTINUOUS
 62
     3
 10
-339.26063795031968
 20
-8.3688460633812838
 30
0.0
 40
6.1527375182774531
 50
195.00412963048501
 51
268.90079280999339
  0
ARC
  8
OUTLINE
  6
CONTINUOUS
 62
     3
 10
-335.95996064647562
 20
-41.813261284234613
 30
0.0
 40
21.875715805444681
 50
28.892706775501079
 51
84.781781222206746
  0
ARC
  8
OUTLINE
  6
CONTINUOUS
 62
     3
 10
-378.00452366244139
 20
-70.164885630411618
 30
0.0
 40
72.525736644336831
 50
8.8363249445017829
 51
32.456252278516978
  0
ARC
  8
OUTLINE
  6
CONTINUOUS
 62
     3
 10
198.63727477654919
 20
-184.06638062628841
 30
0.0
 40
107.7697636619833
 50
284.49408968096412
 51
2.0273391199799069
  0
ARC
  8
OUTLINE
  6
CONTINUOUS
 62
     3
 10
339.26063795031951
 20
-8.3688460633812838
 30
0.0
 40
6.1527375182774531
 50
271.09920719000661
 51
344.99587036951499
  0
ARC
  8
OUTLINE
  6
CONTINUOUS
 62
     3
 10
335.95996064647511
 20
-41.813261284234613
 30
0.0
 40
21.875715805444681
 50
95.218218777793254
 51
151.10729322449899
  0
ARC
  8
OUTLINE
  6
CONTINUOUS
 62
     3
 10
378.00452366244122
 20
-70.164885630411618
 30
0.0
 40
72.525736644336831
 50
147.54374772148299
 51
171.1636750554982
  0
ENDSEC
  0
EOF
