  0
SECTION
  2
HEADER
  9
$ACADVER
  1
AC1009
  9
$DWGCODEPAGE
  3
dos932
  9
$INSBASE
 10
0.0
 20
0.0
 30
0.0
  9
$EXTMIN
 10
-687.03001280900935
 20
-431.30491991912089
 30
-133.0389826771667
  9
$EXTMAX
 10
1245.3552364317641
 20
702.71302084754279
 30
0.0000005086054671
  9
$LIMMIN
 10
-2970.0
 20
-2100.0
  9
$LIMMAX
 10
2970.0
 20
2100.0
  9
$ORTHOMODE
 70
     1
  9
$REGENMODE
 70
     1
  9
$FILLMODE
 70
     1
  9
$QTEXTMODE
 70
     0
  9
$MIRRTEXT
 70
     0
  9
$LTSCALE
 40
20.0
  9
$ATTMODE
 70
     1
  9
$TEXTSIZE
 40
64.0
  9
$TRACEWID
 40
0.05
  9
$TEXTSTYLE
  7
STANDARD
  9
$CLAYER
  8
SIZE
  9
$CELTYPE
  6
CONTINUOUS
  9
$CECOLOR
 62
     7
  9
$DIMSCALE
 40
1.0
  9
$DIMASZ
 40
12.0
  9
$DIMEXO
 40
20.0
  9
$DIMDLI
 40
200.0
  9
$DIMRND
 40
0.0
  9
$DIMDLE
 40
0.0
  9
$DIMEXE
 40
20.0
  9
$DIMTP
 40
0.0
  9
$DIMTM
 40
0.0
  9
$DIMTXT
 40
64.0
  9
$DIMCEN
 40
0.09
  9
$DIMTSZ
 40
0.0
  9
$DIMTOL
 70
     0
  9
$DIMLIM
 70
     0
  9
$DIMTIH
 70
     0
  9
$DIMTOH
 70
     0
  9
$DIMSE1
 70
     0
  9
$DIMSE2
 70
     0
  9
$DIMTAD
 70
     1
  9
$DIMZIN
 70
     8
  9
$DIMBLK
  1

  9
$DIMASO
 70
     1
  9
$DIMSHO
 70
     0
  9
$DIMPOST
  1

  9
$DIMAPOST
  1

  9
$DIMALT
 70
     0
  9
$DIMALTD
 70
     2
  9
$DIMALTF
 40
25.399999999999999
  9
$DIMLFAC
 40
1.0
  9
$DIMTOFL
 70
     1
  9
$DIMTVP
 40
0.0
  9
$DIMTIX
 70
     1
  9
$DIMSOXD
 70
     0
  9
$DIMSAH
 70
     0
  9
$DIMBLK1
  1

  9
$DIMBLK2
  1

  9
$DIMSTYLE
  2
STANDARD
  9
$DIMCLRD
 70
     7
  9
$DIMCLRE
 70
     7
  9
$DIMCLRT
 70
     7
  9
$DIMTFAC
 40
1.0
  9
$DIMGAP
 40
25.0
  9
$LUNITS
 70
     2
  9
$LUPREC
 70
     4
  9
$SKETCHINC
 40
0.1
  9
$FILLETRAD
 40
3.0
  9
$AUNITS
 70
     1
  9
$AUPREC
 70
     3
  9
$MENU
  1
ACAD
  9
$ELEVATION
 40
0.0
  9
$PELEVATION
 40
0.0
  9
$THICKNESS
 40
0.0
  9
$LIMCHECK
 70
     0
  9
$CHAMFERA
 40
0.0
  9
$CHAMFERB
 40
0.0
  9
$SKPOLY
 70
     0
  9
$TDCREATE
 40
2453019.62301037
  9
$TDUPDATE
 40
2458949.456467106
  9
$TDINDWG
 40
1.7133840394
  9
$TDUSRTIMER
 40
1.7133840394
  9
$USRTIMER
 70
     1
  9
$ANGBASE
 50
0.0
  9
$ANGDIR
 70
     0
  9
$PDMODE
 70
     3
  9
$PDSIZE
 40
-2.0
  9
$PLINEWID
 40
0.0
  9
$SPLFRAME
 70
     0
  9
$SPLINETYPE
 70
     6
  9
$SPLINESEGS
 70
     8
  9
$SURFTAB1
 70
     6
  9
$SURFTAB2
 70
     6
  9
$SURFTYPE
 70
     6
  9
$SURFU
 70
     6
  9
$SURFV
 70
     6
  9
$UCSNAME
  2

  9
$UCSORG
 10
0.0
 20
0.0
 30
0.0
  9
$UCSXDIR
 10
1.0
 20
0.0
 30
0.0
  9
$UCSYDIR
 10
0.0
 20
1.0
 30
0.0
  9
$PUCSNAME
  2

  9
$PUCSORG
 10
0.0
 20
0.0
 30
0.0
  9
$PUCSXDIR
 10
1.0
 20
0.0
 30
0.0
  9
$PUCSYDIR
 10
0.0
 20
1.0
 30
0.0
  9
$USERI1
 70
     0
  9
$USERI2
 70
     0
  9
$USERI3
 70
     0
  9
$USERI4
 70
     0
  9
$USERI5
 70
     0
  9
$USERR1
 40
20.0
  9
$USERR2
 40
0.0
  9
$USERR3
 40
0.0
  9
$USERR4
 40
0.0
  9
$USERR5
 40
0.0
  9
$WORLDVIEW
 70
     1
  9
$SHADEDGE
 70
     3
  9
$SHADEDIF
 70
    70
  9
$TILEMODE
 70
     1
  9
$MAXACTVP
 70
    48
  9
$PINSBASE
 10
0.0
 20
0.0
 30
0.0
  9
$PLIMCHECK
 70
     0
  9
$PEXTMIN
 10
-100000000000000000000.0
 20
-100000000000000000000.0
 30
-100000000000000000000.0
  9
$PEXTMAX
 10
100000000000000000000.0
 20
100000000000000000000.0
 30
100000000000000000000.0
  9
$PLIMMIN
 10
0.0
 20
0.0
  9
$PLIMMAX
 10
12.0
 20
9.0
  9
$UNITMODE
 70
     0
  9
$VISRETAIN
 70
     0
  9
$PLINEGEN
 70
     0
  9
$PSLTSCALE
 70
     0
  9
$TREEDEPTH
 70
  3020
  9
$ATTDIA
 70
     0
  9
$ATTREQ
 70
     1
  9
$BLIPMODE
 70
     1
  9
$COORDS
 70
     1
  9
$DRAGMODE
 70
     2
  9
$OSMODE
 70
     0
  9
$HANDLING
 70
     0
  9
$HANDSEED
  5
F7EB
  0
ENDSEC
  0
SECTION
  2
TABLES
  0
TABLE
  2
LTYPE
 70
     2
  0
LTYPE
  2
CONTINUOUS
 70
     0
  3
実線
 72
    65
 73
     0
 40
0.0
  0
LTYPE
  2
DASHDOT
 70
     0
  3
____ _ ____ _ ____ _ ____ _ ____ _ ____ _ ____
 72
    65
 73
     4
 40
5.5
 49
4.0
 49
-0.6
 49
0.3
 49
-0.6
  0
ENDTAB
  0
TABLE
  2
LAYER
 70
    12
  0
LAYER
  2
0
 70
     0
 62
     7
  6
CONTINUOUS
  0
LAYER
  2
BASIS
 70
     0
 62
     6
  6
DASHDOT
  0
LAYER
  2
OUTLINE
 70
     0
 62
     3
  6
CONTINUOUS
  0
LAYER
  2
DETAIL
 70
     0
 62
     5
  6
CONTINUOUS
  0
LAYER
  2
SIZE
 70
     0
 62
    30
  6
CONTINUOUS
  0
LAYER
  2
ARRANGE
 70
     0
 62
     1
  6
CONTINUOUS
  0
LAYER
  2
DEFPOINTS
 70
     0
 62
     7
  6
CONTINUOUS
  0
LAYER
  2
ETC
 70
     0
 62
    61
  6
CONTINUOUS
  0
LAYER
  2
FIX
 70
     0
 62
    11
  6
CONTINUOUS
  0
LAYER
  2
NOTE
 70
     0
 62
     4
  6
CONTINUOUS
  0
LAYER
  2
SERVICESPACE
 70
    64
 62
     2
  6
DASHDOT
  0
LAYER
  2
SYMBOLLINE
 70
    64
 62
    15
  6
CONTINUOUS
  0
ENDTAB
  0
TABLE
  2
STYLE
 70
     1
  0
STYLE
  2
STANDARD
 70
     0
 40
64.0
 41
0.9
 50
0.0
 71
     0
 42
64.0
  3
SIMPLEX.shx
  4
BIGFONT.shx
  0
ENDTAB
  0
TABLE
  2
APPID
 70
    19
  0
APPID
  2
ACAD
 70
     0
  0
APPID
  2
AUTOCAD_POSTSCRIPT_FIGURE
 70
     0
  0
APPID
  2
ACAD_EXEMPT_FROM_CAD_STANDARDS
 70
     0
  0
APPID
  2
ACAD_PSEXT
 70
     0
  0
APPID
  2
ACAUTHENVIRON
 70
     0
  0
APPID
  2
GENIUS_GENOENT_13
 70
     0
  0
APPID
  2
GENIUS_GENCFG_13
 70
     0
  0
APPID
  2
GENIUS_GENCFG0_13
 70
     0
  0
APPID
  2
GENIUS_GENCFG1_13
 70
     0
  0
APPID
  2
GENIUS_GENCFG2_13
 70
     0
  0
APPID
  2
GENIUS_GENCFG3_13
 70
     0
  0
APPID
  2
GENIUS_GENCFG4_13
 70
     0
  0
APPID
  2
GENIUS_GEVCFG0_13
 70
     0
  0
APPID
  2
CONTENTBLOCKICON
 70
     0
  0
APPID
  2
CONTENTBLOCKDESCRIPTION
 70
     0
  0
APPID
  2
ACAD_NAV_VCDISPLAY
 70
     0
  0
APPID
  2
ACAD_MLEADERVER
 70
     0
  0
APPID
  2
ACDBDYNAMICBLOCKTRUENAME
 70
     0
  0
APPID
  2
ACDBDYNAMICBLOCKGUID
 70
     0
  0
ENDTAB
  0
TABLE
  2
DIMSTYLE
 70
     1
  0
DIMSTYLE
  2
STANDARD
 70
     0
  3

  4

  5
_ORIGIN
  6

  7

 40
1.0
 41
12.0
 42
20.0
 43
200.0
 44
20.0
 45
0.0
 46
0.0
 47
0.0
 48
0.0
140
64.0
141
0.09
142
0.0
143
25.399999999999999
144
1.0
145
0.0
146
1.0
147
25.0
 71
     0
 72
     0
 73
     0
 74
     0
 75
     0
 76
     0
 77
     1
 78
     8
170
     0
171
     2
172
     1
173
     0
174
     1
175
     0
176
     7
177
     7
178
     7
  0
ENDTAB
  0
TABLE
  2
VIEW
 70
     1
  0
VIEW
  2
ALL
 70
     0
 40
4282.6198079999986
 10
0.0
 20
41.309904000000003
 41
5940.0
 11
0.0
 21
0.0
 31
1.0
 12
0.0
 22
0.0
 32
0.0
 42
50.0
 43
0.0
 44
0.0
 50
0.0
 71
     0
  0
ENDTAB
  0
TABLE
  2
UCS
 70
     0
  0
ENDTAB
  0
TABLE
  2
VPORT
 70
     1
  0
VPORT
  2
*ACTIVE
 70
     0
 10
0.0
 20
0.0
 11
1.0
 21
1.0
 12
279.16261181137719
 22
135.70405046421089
 13
0.0
 23
0.0
 14
1.0
 24
1.0
 15
0.0
 25
0.0
 16
0.0
 26
0.0
 36
1.0
 17
0.0
 27
0.0
 37
0.0
 40
1141.536291755172
 41
1.747787610619469
 42
50.0
 43
0.0
 44
0.0
 50
0.0
 51
0.0
 71
     0
 72
  1000
 73
     1
 74
     3
 75
     0
 76
     0
 77
     0
 78
     0
  0
ENDTAB
  0
ENDSEC
  0
SECTION
  2
BLOCKS
  0
BLOCK
  8
0
  2
_ORIGIN
 70
     0
 10
0.0
 20
0.0
 30
0.0
  3
_ORIGIN
  1
_ORIGIN
  0
CIRCLE
  8
0
  6
CONTINUOUS
 62
     7
 10
0.0
 20
0.0
 30
0.0
 40
0.5
  0
LINE
  8
0
  6
CONTINUOUS
 62
     7
 10
0.0
 20
0.0
 30
0.0
 11
-1.0
 21
0.0
 31
0.0
  0
ENDBLK
  8
0
  0
ENDSEC
  0
SECTION
  2
ENTITIES
  0
POINT
  8
ARRANGE
  6
CONTINUOUS
 62
     1
 10
0.0
 20
0.0
 30
0.0
  0
CIRCLE
  8
ARRANGE
  6
CONTINUOUS
 62
     1
 10
0.0
 20
0.0
 30
0.0
 40
40.0
  0
TEXT
  8
ETC
  6
CONTINUOUS
 62
    61
 10
490.82711019085042
 20
638.41439949234177
 30
0.0
 40
64.0
  1
EWG-60ETA2-Q_3
 41
0.9
  0
TEXT
  8
ETC
  6
CONTINUOUS
 62
    61
 10
486.64111619085003
 20
520.45908947751036
 30
0.0
 40
64.0
  1
産業扇
 41
0.9
  0
TEXT
  8
ETC
  6
CONTINUOUS
 62
    61
 10
537.34251443940593
 20
412.31031659128519
 30
0.0
 40
40.0
  1
EWG-60ETA2-Q
 41
0.9
  0
TEXT
  8
NOTE
  6
CONTINUOUS
 62
     4
 10
-679.58328499800007
 20
436.20608862661402
 30
0.0
 40
64.0
  1
4-φ14
 41
0.9
  0
LINE
  8
SIZE
  6
CONTINUOUS
 62
    30
 10
-355.00000000059288
 20
334.94358251087482
 30
0.0
 11
-355.00000000059288
 21
541.65918210801829
 31
0.0
  0
LINE
  8
SIZE
  6
CONTINUOUS
 62
    30
 10
354.9999999997035
 20
334.94358251087482
 30
0.0
 11
354.9999999997035
 21
541.65918210801829
 31
0.0
  0
LINE
  8
SIZE
  6
CONTINUOUS
 62
    30
 10
-343.00000000059288
 20
521.65918210801829
 30
0.0
 11
342.9999999997035
 21
521.65918210801829
 31
0.0
  0
CIRCLE
  8
SIZE
  6
CONTINUOUS
 62
    30
 10
-355.00000000059288
 20
521.65918210801829
 30
0.0
 40
6.0
  0
LINE
  8
SIZE
  6
CONTINUOUS
 62
    30
 10
-355.00000000059288
 20
521.65918210801829
 30
0.0
 11
-343.00000000059288
 21
521.65918210801829
 31
0.0
  0
CIRCLE
  8
SIZE
  6
CONTINUOUS
 62
    30
 10
354.9999999997035
 20
521.65918210801829
 30
0.0
 40
6.0
  0
LINE
  8
SIZE
  6
CONTINUOUS
 62
    30
 10
354.9999999997035
 20
521.65918210801829
 30
0.0
 11
342.9999999997035
 21
521.65918210801829
 31
0.0
  0
TEXT
  8
SIZE
  6
CONTINUOUS
 62
    30
 10
-66.688354666329488
 20
546.65918210801829
 30
0.0
 40
64.0
  1
710
 41
0.9
 72
     1
 11
1.883073905099081
 21
546.65918210801829
 31
0.0
  0
POINT
  8
DEFPOINTS
  6
CONTINUOUS
 62
    30
 10
-355.00000000059288
 20
314.94358251087482
 30
0.0
  0
POINT
  8
DEFPOINTS
  6
CONTINUOUS
 62
    30
 10
354.9999999997035
 20
314.94358251087482
 30
0.0
  0
POINT
  8
DEFPOINTS
  6
CONTINUOUS
 62
    30
 10
354.9999999997035
 20
521.65918210801829
 30
0.0
  0
LINE
  8
SIZE
  6
CONTINUOUS
 62
    30
 10
-325.45839210184789
 20
386.10179255653861
 30
0.0
 11
-325.45839210184789
 21
435.20192287299142
 31
0.0
  0
LINE
  8
SIZE
  6
CONTINUOUS
 62
    30
 10
325.45839210095892
 20
386.10179255653861
 30
0.0
 11
325.45839210095892
 21
435.20192287299142
 31
0.0
  0
LINE
  8
SIZE
  6
CONTINUOUS
 62
    30
 10
-313.45839210184789
 20
415.20192287299142
 30
0.0
 11
313.45839210095892
 21
415.20192287299142
 31
0.0
  0
CIRCLE
  8
SIZE
  6
CONTINUOUS
 62
    30
 10
-325.45839210184789
 20
415.20192287299142
 30
0.0
 40
6.0
  0
LINE
  8
SIZE
  6
CONTINUOUS
 62
    30
 10
-325.45839210184789
 20
415.20192287299142
 30
0.0
 11
-313.45839210184789
 21
415.20192287299142
 31
0.0
  0
CIRCLE
  8
SIZE
  6
CONTINUOUS
 62
    30
 10
325.45839210095892
 20
415.20192287299142
 30
0.0
 40
6.0
  0
LINE
  8
SIZE
  6
CONTINUOUS
 62
    30
 10
325.45839210095892
 20
415.20192287299142
 30
0.0
 11
313.45839210095892
 21
415.20192287299142
 31
0.0
  0
TEXT
  8
SIZE
  6
CONTINUOUS
 62
    30
 10
-73.613882513831783
 20
440.20192287299142
 30
0.0
 40
64.0
  1
650
 41
0.9
 72
     1
 11
0.4432603433110671
 21
440.20192287299142
 31
0.0
  0
POINT
  8
DEFPOINTS
  6
CONTINUOUS
 62
    30
 10
-325.45839210184789
 20
366.10179255653861
 30
0.0
  0
POINT
  8
DEFPOINTS
  6
CONTINUOUS
 62
    30
 10
325.45839210095892
 20
366.10179255653861
 30
0.0
  0
POINT
  8
DEFPOINTS
  6
CONTINUOUS
 62
    30
 10
325.45839210095892
 20
415.20192287299142
 30
0.0
  0
LINE
  8
SIZE
  6
CONTINUOUS
 62
    30
 10
-334.94358251087368
 20
355.00000000059248
 30
0.0
 11
-541.34400420571433
 21
355.00000000059248
 31
0.0
  0
LINE
  8
SIZE
  6
CONTINUOUS
 62
    30
 10
-334.94358251087368
 20
-354.99999999970368
 30
0.0
 11
-541.34400420571467
 21
-354.99999999970368
 31
0.0
  0
LINE
  8
SIZE
  6
CONTINUOUS
 62
    30
 10
-521.34400420571433
 20
343.00000000059248
 30
0.0
 11
-521.34400420571467
 21
-342.99999999970368
 31
0.0
  0
CIRCLE
  8
SIZE
  6
CONTINUOUS
 62
    30
 10
-521.34400420571433
 20
355.00000000059248
 30
0.0
 40
6.0
  0
LINE
  8
SIZE
  6
CONTINUOUS
 62
    30
 10
-521.34400420571433
 20
355.00000000059248
 30
0.0
 11
-521.34400420571433
 21
343.00000000059248
 31
0.0
  0
CIRCLE
  8
SIZE
  6
CONTINUOUS
 62
    30
 10
-521.34400420571467
 20
-354.99999999970368
 30
0.0
 40
6.0
  0
LINE
  8
SIZE
  6
CONTINUOUS
 62
    30
 10
-521.34400420571467
 20
-354.99999999970368
 30
0.0
 11
-521.34400420571467
 21
-342.99999999970368
 31
0.0
  0
TEXT
  8
SIZE
  6
CONTINUOUS
 62
    30
 10
-546.34400420571455
 20
-77.452298507949493
 30
0.0
 40
64.0
  1
710
 50
90.0
 41
0.9
 72
     1
 11
-546.34400420571455
 21
-8.8808699365209236
 31
0.0
  0
POINT
  8
DEFPOINTS
  6
CONTINUOUS
 62
    30
 10
-314.94358251087368
 20
355.00000000059248
 30
0.0
  0
POINT
  8
DEFPOINTS
  6
CONTINUOUS
 62
    30
 10
-314.94358251087368
 20
-354.99999999970368
 30
0.0
  0
POINT
  8
DEFPOINTS
  6
CONTINUOUS
 62
    30
 10
-521.34400420571467
 20
-354.99999999970368
 30
0.0
  0
LINE
  8
SIZE
  6
CONTINUOUS
 62
    30
 10
-386.10179255653838
 20
325.45839210184789
 30
0.0
 11
-429.23739127644518
 21
325.45839210184789
 31
0.0
  0
LINE
  8
SIZE
  6
CONTINUOUS
 62
    30
 10
-386.10179255653838
 20
-325.45839210095892
 30
0.0
 11
-429.23739127644518
 21
-325.45839210095892
 31
0.0
  0
LINE
  8
SIZE
  6
CONTINUOUS
 62
    30
 10
-409.23739127644518
 20
313.45839210184789
 30
0.0
 11
-409.23739127644518
 21
-313.45839210095892
 31
0.0
  0
CIRCLE
  8
SIZE
  6
CONTINUOUS
 62
    30
 10
-409.23739127644518
 20
325.45839210184789
 30
0.0
 40
6.0
  0
LINE
  8
SIZE
  6
CONTINUOUS
 62
    30
 10
-409.23739127644518
 20
325.45839210184789
 30
0.0
 11
-409.23739127644518
 21
313.45839210184789
 31
0.0
  0
CIRCLE
  8
SIZE
  6
CONTINUOUS
 62
    30
 10
-409.23739127644518
 20
-325.45839210095892
 30
0.0
 40
6.0
  0
LINE
  8
SIZE
  6
CONTINUOUS
 62
    30
 10
-409.23739127644518
 20
-325.45839210095892
 30
0.0
 11
-409.23739127644518
 21
-313.45839210095892
 31
0.0
  0
TEXT
  8
SIZE
  6
CONTINUOUS
 62
    30
 10
-434.23739127644518
 20
-73.873285525816272
 30
0.0
 40
64.0
  1
650
 50
90.0
 41
0.9
 72
     1
 11
-434.23739127644518
 21
0.1838573313265783
 31
0.0
  0
POINT
  8
DEFPOINTS
  6
CONTINUOUS
 62
    30
 10
-366.10179255653838
 20
325.45839210184789
 30
0.0
  0
POINT
  8
DEFPOINTS
  6
CONTINUOUS
 62
    30
 10
-366.10179255653838
 20
-325.45839210095892
 30
0.0
  0
POINT
  8
DEFPOINTS
  6
CONTINUOUS
 62
    30
 10
-409.23739127644518
 20
-325.45839210095892
 30
0.0
  0
CIRCLE
  8
FIX
  6
CONTINUOUS
 62
    11
 10
325.45839210095892
 20
-325.45839210095892
 30
0.0
 40
7.0
  0
CIRCLE
  8
FIX
  6
CONTINUOUS
 62
    11
 10
325.45839210095892
 20
325.45839210184789
 30
0.0
 40
7.0
  0
CIRCLE
  8
FIX
  6
CONTINUOUS
 62
    11
 10
-325.47164675995492
 20
325.47610922114711
 30
0.0
 40
7.0
  0
CIRCLE
  8
FIX
  6
CONTINUOUS
 62
    11
 10
-325.45839210184789
 20
-325.45839210095892
 30
0.0
 40
7.0
  0
LINE
  8
DETAIL
  6
CONTINUOUS
 62
     4
 10
-327.76531464182932
 20
331.22578385935202
 30
0.0
 11
-325.45839210184789
 21
325.45839210184789
 31
0.0
  0
LINE
  8
DETAIL
  6
CONTINUOUS
 62
     4
 10
-325.45839210184789
 20
325.45839210184789
 30
0.0
 11
-330.33994729332358
 21
329.29963125120798
 31
0.0
  0
LINE
  8
DETAIL
  6
CONTINUOUS
 62
     4
 10
-325.45839210184789
 20
325.45839210184789
 30
0.0
 11
-332.646869833305
 21
335.06702300871211
 31
0.0
  0
LINE
  8
NOTE
  6
CONTINUOUS
 62
     4
 10
-332.64686983330512
 20
335.06702300871211
 30
0.0
 11
-388.83817335685188
 21
410.17631817570083
 31
0.0
  0
LINE
  8
NOTE
  6
CONTINUOUS
 62
     4
 10
-388.83817335685188
 20
410.17631817570083
 30
0.0
 11
-686.70673560188561
 21
410.33777302488119
 31
0.0
  0
LINE
  8
NOTE
  6
CONTINUOUS
 62
     4
 10
-284.81499164715711
 20
-325.45839210095892
 30
0.0
 11
-366.10179255653838
 21
-325.45839210095892
 31
0.0
  0
LINE
  8
NOTE
  6
CONTINUOUS
 62
     4
 10
-325.45839210184789
 20
-284.81499164626842
 30
0.0
 11
-325.45839210184789
 21
-366.10179255653861
 31
0.0
  0
LINE
  8
NOTE
  6
CONTINUOUS
 62
     4
 10
284.81499164626848
 20
-325.45839210095892
 30
0.0
 11
366.10179255564969
 21
-325.45839210095892
 31
0.0
  0
LINE
  8
NOTE
  6
CONTINUOUS
 62
     4
 10
325.45839210095892
 20
-284.81499164626842
 30
0.0
 11
325.45839210095892
 21
-366.10179255653861
 31
0.0
  0
LINE
  8
NOTE
  6
CONTINUOUS
 62
     4
 10
-284.81499164715711
 20
325.45839210184789
 30
0.0
 11
-366.10179255653838
 21
325.45839210184789
 31
0.0
  0
LINE
  8
NOTE
  6
CONTINUOUS
 62
     4
 10
-325.45839210184789
 20
284.814991647157
 30
0.0
 11
-325.45839210184789
 21
366.10179255653861
 31
0.0
  0
LINE
  8
NOTE
  6
CONTINUOUS
 62
     4
 10
325.45839210095892
 20
284.814991647157
 30
0.0
 11
325.45839210095892
 21
366.10179255653861
 31
0.0
  0
LINE
  8
NOTE
  6
CONTINUOUS
 62
     4
 10
284.81499164626848
 20
325.45839210184789
 30
0.0
 11
366.10179255564969
 21
325.45839210184789
 31
0.0
  0
LINE
  8
SIZE
  6
CONTINUOUS
 62
    30
 10
636.62498500683364
 20
190.22555597228029
 30
0.0
 11
302.70373739086398
 21
90.448832666292589
 31
0.0
  0
LINE
  8
SIZE
  6
CONTINUOUS
 62
    30
 10
-302.70373739086398
 20
-90.448832666292802
 30
0.0
 11
-314.20143329084249
 21
-93.884380510759129
 31
0.0
  0
TEXT
  8
SIZE
  6
CONTINUOUS
 62
    30
 10
400.00095896705261
 20
145.61373399750809
 30
0.0
 40
64.0
  1
φ607
 50
16.636311605789111
 41
0.9
 72
     1
 11
509.59042617370511
 21
178.35941288076421
 31
0.0
  0
LINE
  8
SIZE
  6
CONTINUOUS
 62
    30
 10
-291.20604149088553
 20
-87.01328482182646
 30
0.0
 11
291.20604149088558
 21
87.013284821826403
 31
0.0
  0
CIRCLE
  8
SIZE
  6
CONTINUOUS
 62
    30
 10
-291.20604149088553
 20
-87.01328482182646
 30
0.0
 40
6.0
  0
LINE
  8
SIZE
  6
CONTINUOUS
 62
    30
 10
-291.20604149088553
 20
-87.01328482182646
 30
0.0
 11
-302.70373739086409
 21
-90.448832666292802
 31
0.0
  0
CIRCLE
  8
SIZE
  6
CONTINUOUS
 62
    30
 10
291.20604149088558
 20
87.013284821826403
 30
0.0
 40
6.0
  0
LINE
  8
SIZE
  6
CONTINUOUS
 62
    30
 10
291.20604149088558
 20
87.013284821826403
 30
0.0
 11
302.70373739086398
 21
90.448832666292589
 31
0.0
  0
POINT
  8
DEFPOINTS
  6
CONTINUOUS
 62
    30
 10
291.20604149088558
 20
87.013284821826403
 30
0.0
  0
POINT
  8
DEFPOINTS
  6
CONTINUOUS
 62
    30
 10
-291.20604149088553
 20
-87.01328482182646
 30
0.0
  0
LINE
  8
SIZE
  6
CONTINUOUS
 62
    30
 10
603.61725965158348
 20
-230.4230604457575
 30
0.0
 11
290.60257607897609
 21
-110.9337645384592
 31
0.0
  0
LINE
  8
SIZE
  6
CONTINUOUS
 62
    30
 10
-290.60257607897609
 20
110.9337645384591
 30
0.0
 11
-301.81349985676519
 21
115.2133892940424
 31
0.0
  0
TEXT
  8
SIZE
  6
CONTINUOUS
 62
    30
 10
388.7897986300386
 20
-121.65584870333809
 30
0.0
 40
64.0
  1
φ600
 50
339.10629262326609
 41
0.9
 72
     1
 11
495.64591783776609
 21
-162.44678637369819
 31
0.0
  0
LINE
  8
SIZE
  6
CONTINUOUS
 62
    30
 10
-279.39165230118692
 20
106.6541397828758
 30
0.0
 11
279.39165230118692
 21
-106.654139782876
 31
0.0
  0
CIRCLE
  8
SIZE
  6
CONTINUOUS
 62
    30
 10
-279.39165230118692
 20
106.6541397828758
 30
0.0
 40
6.0
  0
LINE
  8
SIZE
  6
CONTINUOUS
 62
    30
 10
-279.39165230118692
 20
106.6541397828758
 30
0.0
 11
-290.60257607897609
 21
110.9337645384592
 31
0.0
  0
CIRCLE
  8
SIZE
  6
CONTINUOUS
 62
    30
 10
279.39165230118692
 20
-106.654139782876
 30
0.0
 40
6.0
  0
LINE
  8
SIZE
  6
CONTINUOUS
 62
    30
 10
279.39165230118692
 20
-106.654139782876
 30
0.0
 11
290.60257607897609
 21
-110.9337645384593
 31
0.0
  0
POINT
  8
DEFPOINTS
  6
CONTINUOUS
 62
    30
 10
279.39165230118692
 20
-106.654139782876
 30
0.0
  0
POINT
  8
DEFPOINTS
  6
CONTINUOUS
 62
    30
 10
-279.39165230118692
 20
106.6541397828758
 30
0.0
  0
ARC
  8
OUTLINE
  6
CONTINUOUS
 62
     3
 10
314.94358251087311
 20
314.94358251087442
 30
0.0
 40
40.0564174897181
 50
0.0
 51
90.0
  0
ARC
  8
OUTLINE
  6
CONTINUOUS
 62
     3
 10
314.94358251087311
 20
-314.94358251087448
 30
0.0
 40
40.056417489717937
 50
270.0
 51
0.0
  0
ARC
  8
OUTLINE
  6
CONTINUOUS
 62
     3
 10
-314.94358251087669
 20
314.94358251087442
 30
0.0
 40
40.056417489717937
 50
90.0
 51
180.0
  0
ARC
  8
OUTLINE
  6
CONTINUOUS
 62
     3
 10
-314.94358251087669
 20
-314.94358251087448
 30
0.0
 40
40.056417489717212
 50
180.0
 51
270.0
  0
LINE
  8
OUTLINE
  6
CONTINUOUS
 62
     3
 10
-314.94358251087669
 20
354.99999999970368
 30
0.0
 11
314.94358251087311
 21
354.99999999970368
 31
0.0
  0
LINE
  8
OUTLINE
  6
CONTINUOUS
 62
     3
 10
354.9999999997026
 20
314.94358251087442
 30
0.0
 11
354.9999999997026
 21
-314.94358251087448
 31
0.0
  0
LINE
  8
OUTLINE
  6
CONTINUOUS
 62
     3
 10
314.94358251087311
 20
-354.99999999970368
 30
0.0
 11
-314.94358251087669
 21
-354.99999999970368
 31
0.0
  0
LINE
  8
OUTLINE
  6
CONTINUOUS
 62
     3
 10
-354.99999999970532
 20
-314.94358251087448
 30
0.0
 11
-354.99999999970532
 21
314.94358251087442
 31
0.0
  0
LINE
  8
DETAIL
  6
CONTINUOUS
 62
     5
 10
-297.76973317737293
 20
306.97866299336482
 30
0.0
 11
-306.97866299425368
 21
297.76973317737247
 31
0.0
  0
LINE
  8
DETAIL
  6
CONTINUOUS
 62
     5
 10
-290.84323867231569
 20
251.59199573836801
 30
0.0
 11
-251.5919957383683
 21
290.84323867142638
 31
0.0
  0
LINE
  8
DETAIL
  6
CONTINUOUS
 62
     5
 10
-306.33958110673012
 20
280.96464608144618
 30
0.0
 11
-311.34663329261139
 21
278.07382315340777
 31
0.0
  0
LINE
  8
DETAIL
  6
CONTINUOUS
 62
     5
 10
-306.33958110673012
 20
269.40135437107
 30
0.0
 11
-301.33252892084852
 21
272.29217729821988
 31
0.0
  0
LINE
  8
DETAIL
  6
CONTINUOUS
 62
     5
 10
-280.19005241213972
 20
-309.23040403476853
 30
0.0
 11
-275.1830002262584
 21
-312.12122696191818
 31
0.0
  0
LINE
  8
DETAIL
  6
CONTINUOUS
 62
     5
 10
-306.97866299425368
 20
-297.76973317737293
 30
0.0
 11
-297.76973317737293
 21
-306.97866299425408
 31
0.0
  0
LINE
  8
DETAIL
  6
CONTINUOUS
 62
     5
 10
-354.99999999970368
 20
-314.94358251087448
 30
0.0
 11
-354.99999999970368
 21
314.94358251087442
 31
0.0
  0
LINE
  8
DETAIL
  6
CONTINUOUS
 62
     5
 10
-351.39492242565569
 20
272.90771766387769
 30
0.0
 11
-351.39492242565569
 21
-272.90771766476689
 31
0.0
  0
LINE
  8
DETAIL
  6
CONTINUOUS
 62
     5
 10
-341.38081805389311
 20
-216.1084185611162
 30
0.0
 11
-341.38081805389311
 21
216.10841856111611
 31
0.0
  0
LINE
  8
DETAIL
  6
CONTINUOUS
 62
     5
 10
-270.17594804037691
 20
-303.44875817958052
 30
0.0
 11
-275.1830002262584
 21
-300.55793525154178
 31
0.0
  0
LINE
  8
DETAIL
  6
CONTINUOUS
 62
     5
 10
-251.5919957383683
 20
-290.84323867231552
 30
0.0
 11
-290.84323867231569
 21
-251.59199573836841
 31
0.0
  0
LINE
  8
DETAIL
  6
CONTINUOUS
 62
     5
 10
-311.34663329261139
 20
278.07382315340777
 30
0.0
 11
-311.34663329261139
 21
272.29217729821988
 31
0.0
  0
LINE
  8
DETAIL
  6
CONTINUOUS
 62
     5
 10
314.94358251087442
 20
-354.99999999970368
 30
0.0
 11
-314.94358251087448
 21
-354.99999999970368
 31
0.0
  0
LINE
  8
DETAIL
  6
CONTINUOUS
 62
     5
 10
-272.90771766476661
 20
-351.39492242565569
 30
0.0
 11
272.90771766387797
 21
-351.39492242565569
 31
0.0
  0
LINE
  8
DETAIL
  6
CONTINUOUS
 62
     5
 10
216.10841856111639
 20
-341.38081805389322
 30
0.0
 11
-216.1084185611162
 21
-341.38081805389322
 31
0.0
  0
LINE
  8
DETAIL
  6
CONTINUOUS
 62
     5
 10
-301.33252892084852
 20
272.29217729821988
 30
0.0
 11
-301.33252892084852
 21
278.07382315340777
 31
0.0
  0
LINE
  8
DETAIL
  6
CONTINUOUS
 62
     5
 10
-287.32802796095848
 20
336.97461212946382
 30
0.0
 11
-287.32802796095848
 21
332.18716934223937
 31
0.0
  0
LINE
  8
DETAIL
  6
CONTINUOUS
 62
     5
 10
-287.32802796095848
 20
-332.18716934312857
 30
0.0
 11
-287.32802796095848
 21
-336.97461212946399
 31
0.0
  0
LINE
  8
DETAIL
  6
CONTINUOUS
 62
     5
 10
-280.19005241213972
 20
-303.44875817958052
 30
0.0
 11
-280.19005241213972
 21
-309.23040403476853
 31
0.0
  0
LINE
  8
DETAIL
  6
CONTINUOUS
 62
     5
 10
-270.17594804037691
 20
-309.23040403476853
 30
0.0
 11
-270.17594804037691
 21
-303.44875817958052
 31
0.0
  0
LINE
  8
DETAIL
  6
CONTINUOUS
 62
     5
 10
-336.97461212946428
 20
-287.32802796095848
 30
0.0
 11
-332.18716934312852
 21
-287.32802796095848
 31
0.0
  0
LINE
  8
DETAIL
  6
CONTINUOUS
 62
     5
 10
332.18716934223988
 20
-287.32802796095848
 30
0.0
 11
336.97461212946399
 21
-287.32802796095848
 31
0.0
  0
LINE
  8
DETAIL
  6
CONTINUOUS
 62
     5
 10
-245.54988541584109
 20
-311.93935119916819
 30
0.0
 11
-245.54988541584109
 21
-305.43018335654438
 31
0.0
  0
LINE
  8
DETAIL
  6
CONTINUOUS
 62
     5
 10
-245.54988541584109
 20
305.43018335654409
 30
0.0
 11
-245.54988541584109
 21
311.93935119916779
 31
0.0
  0
LINE
  8
DETAIL
  6
CONTINUOUS
 62
     5
 10
311.93935119916802
 20
-245.54988541584129
 30
0.0
 11
305.4301833565446
 21
-245.54988541584129
 31
0.0
  0
LINE
  8
DETAIL
  6
CONTINUOUS
 62
     5
 10
-305.4301833565446
 20
-245.54988541584129
 30
0.0
 11
-311.93935119916802
 21
-245.54988541584129
 31
0.0
  0
LINE
  8
DETAIL
  6
CONTINUOUS
 62
     5
 10
275.1830002262584
 20
312.12122696191813
 30
0.0
 11
270.17594803948799
 21
309.23040403387938
 31
0.0
  0
LINE
  8
DETAIL
  6
CONTINUOUS
 62
     5
 10
275.1830002262584
 20
300.55793525154172
 30
0.0
 11
280.19005241213989
 21
303.44875817869132
 31
0.0
  0
LINE
  8
DETAIL
  6
CONTINUOUS
 62
     5
 10
-149.61697271490399
 20
-140.97637573544719
 30
0.0
 11
-147.42098655801581
 21
-143.17236189233549
 31
0.0
  0
LINE
  8
DETAIL
  6
CONTINUOUS
 62
     5
 10
-132.23301739742189
 20
-156.44844995288389
 30
0.0
 11
-142.21642134275729
 21
-146.46504600754889
 31
0.0
  0
LINE
  8
DETAIL
  6
CONTINUOUS
 62
     5
 10
-146.46504600754909
 20
-142.21642134275729
 30
0.0
 11
-146.67834065420081
 21
-142.00312669610511
 31
0.0
  0
LINE
  8
DETAIL
  6
CONTINUOUS
 62
     5
 10
-147.2448239428395
 20
-141.43664340746651
 30
0.0
 11
-148.09454887668701
 21
-140.586918474508
 31
0.0
  0
LINE
  8
DETAIL
  6
CONTINUOUS
 62
     5
 10
-146.5367198320412
 20
-140.72853929666761
 30
0.0
 11
-147.3864447649994
 21
-139.87881436282049
 31
0.0
  0
LINE
  8
DETAIL
  6
CONTINUOUS
 62
     5
 10
-146.32428859880179
 20
-138.81665819662251
 30
0.0
 11
-145.47456366584311
 21
-139.66638312958099
 31
0.0
  0
LINE
  8
DETAIL
  6
CONTINUOUS
 62
     5
 10
-129.75465300962699
 20
-153.97008556419999
 30
0.0
 11
-139.7380569540733
 21
-143.9866816197538
 31
0.0
  0
LINE
  8
DETAIL
  6
CONTINUOUS
 62
     5
 10
-143.98668161975371
 20
-139.7380569540733
 30
0.0
 11
-144.19997626640591
 21
-139.52476230742101
 31
0.0
  0
LINE
  8
DETAIL
  6
CONTINUOUS
 62
     5
 10
-145.616184488003
 20
-138.10855408582401
 30
0.0
 11
-144.766459555045
 21
-138.95827901878241
 31
0.0
  0
LINE
  8
DETAIL
  6
CONTINUOUS
 62
     5
 10
-145.2267272270642
 20
-136.58613024760689
 30
0.0
 11
-143.03074107017571
 21
-138.78211640449521
 31
0.0
  0
LINE
  8
DETAIL
  6
CONTINUOUS
 62
     5
 10
-95.634696756290396
 20
-72.871395444563234
 30
0.0
 11
-95.634696756290396
 21
42.53071755429751
 31
0.0
  0
LINE
  8
DETAIL
  6
CONTINUOUS
 62
     5
 10
-89.626234132877258
 20
-67.45077259111514
 30
0.0
 11
-89.626234132877258
 21
36.932940002106207
 31
0.0
  0
LINE
  8
DETAIL
  6
CONTINUOUS
 62
     5
 10
54.524016540381133
 20
62.040156152214372
 30
0.0
 11
49.627080701292897
 21
59.212908927618003
 31
0.0
  0
LINE
  8
DETAIL
  6
CONTINUOUS
 62
     5
 10
-0.0000000000002274
 20
10.985127124235021
 30
0.0
 11
-9.5133991534416964
 21
5.492563562117482
 31
0.0
  0
LINE
  8
DETAIL
  6
CONTINUOUS
 62
     5
 10
40.056417489717887
 20
-95.133991537080476
 30
0.0
 11
13.295172426030939
 21
-95.133991537080476
 31
0.0
  0
LINE
  8
DETAIL
  6
CONTINUOUS
 62
     5
 10
13.543666971651851
 20
-94.633286318759062
 30
0.0
 11
40.056417489717887
 21
-94.633286318759076
 31
0.0
  0
LINE
  8
DETAIL
  6
CONTINUOUS
 62
     5
 10
301.33252891995988
 20
-278.07382315429692
 30
0.0
 11
306.33958110673052
 21
-280.96464608144652
 31
0.0
  0
LINE
  8
DETAIL
  6
CONTINUOUS
 62
     5
 10
311.34663329261161
 20
-272.29217729910869
 30
0.0
 11
306.33958110673052
 21
-269.40135437107028
 31
0.0
  0
LINE
  8
DETAIL
  6
CONTINUOUS
 62
     5
 10
41.259112842811419
 20
66.975850425413626
 30
0.0
 11
39.401352659646363
 21
64.195515828648411
 31
0.0
  0
LINE
  8
DETAIL
  6
CONTINUOUS
 62
     5
 10
41.925226721017218
 20
66.530767361468349
 30
0.0
 11
40.12040481596749
 21
63.829660497733983
 31
0.0
  0
LINE
  8
DETAIL
  6
CONTINUOUS
 62
     5
 10
43.806858076438857
 20
61.776364792010497
 30
0.0
 11
45.42232458315334
 21
64.194081275310452
 31
0.0
  0
LINE
  8
DETAIL
  6
CONTINUOUS
 62
     5
 10
44.492462446574343
 20
61.360451311097172
 30
0.0
 11
46.088438461359146
 21
63.748998211365183
 31
0.0
  0
LINE
  8
DETAIL
  6
CONTINUOUS
 62
     5
 10
-149.61697271490399
 20
-140.97637573544719
 30
0.0
 11
-145.2267272270642
 21
-136.58613024760689
 31
0.0
  0
LINE
  8
DETAIL
  6
CONTINUOUS
 62
     5
 10
-148.09454887668701
 20
-140.586918474508
 30
0.0
 11
-145.616184488003
 21
-138.10855408582401
 31
0.0
  0
LINE
  8
DETAIL
  6
CONTINUOUS
 62
     5
 10
-144.766459555045
 20
-138.95827901878241
 30
0.0
 11
-147.2448239428395
 21
-141.43664340746651
 31
0.0
  0
LINE
  8
DETAIL
  6
CONTINUOUS
 62
     5
 10
-144.19997626640591
 20
-139.52476230742101
 30
0.0
 11
-146.67834065420081
 21
-142.00312669610511
 31
0.0
  0
LINE
  8
DETAIL
  6
CONTINUOUS
 62
     5
 10
212.77239544144209
 20
217.02102010712221
 30
0.0
 11
209.17817140050991
 21
213.42679606619009
 31
0.0
  0
LINE
  8
DETAIL
  6
CONTINUOUS
 62
     5
 10
138.13799789117959
 20
142.38662255597089
 30
0.0
 11
93.145910048343239
 21
97.394534714023308
 31
0.0
  0
LINE
  8
DETAIL
  6
CONTINUOUS
 62
     5
 10
-217.02102010712221
 20
-212.77239544233089
 30
0.0
 11
-117.3429973804443
 21
-113.0943727147402
 31
0.0
  0
LINE
  8
DETAIL
  6
CONTINUOUS
 62
     5
 10
217.02102010712221
 20
212.7723954414418
 30
0.0
 11
213.41691293534109
 21
209.16828826966039
 31
0.0
  0
LINE
  8
DETAIL
  6
CONTINUOUS
 62
     5
 10
133.64455909674831
 20
129.39593443106779
 30
0.0
 11
97.394534714023393
 21
93.145910048342955
 31
0.0
  0
LINE
  8
DETAIL
  6
CONTINUOUS
 62
     5
 10
-212.77239544233089
 20
-217.02102010712261
 30
0.0
 11
-121.8130621329163
 21
-126.0616867986174
 31
0.0
  0
LINE
  8
DETAIL
  6
CONTINUOUS
 62
     5
 10
-129.75465240344761
 20
-153.9700861703794
 30
0.0
 11
-132.23301679124279
 21
-156.4484505590631
 31
0.0
  0
LINE
  8
DETAIL
  6
CONTINUOUS
 62
     5
 10
-0.0000000000002274
 20
-10.985127125124389
 30
0.0
 11
9.5133991534412417
 21
-5.492563562117823
 31
0.0
  0
LINE
  8
DETAIL
  6
CONTINUOUS
 62
     5
 10
-9.5133991534416964
 20
5.492563562117482
 30
0.0
 11
-9.5133991534416964
 21
-5.492563562117823
 31
0.0
  0
LINE
  8
DETAIL
  6
CONTINUOUS
 62
     5
 10
9.5133991534412417
 20
-5.492563562117823
 30
0.0
 11
9.5133991534412417
 21
5.492563562117482
 31
0.0
  0
LINE
  8
DETAIL
  6
CONTINUOUS
 62
     5
 10
12.48790155913002
 20
77.66679629920867
 30
0.0
 11
11.79531366665719
 21
74.18492183794973
 31
0.0
  0
LINE
  8
DETAIL
  6
CONTINUOUS
 62
     5
 10
13.27363645225387
 20
77.510503911689
 30
0.0
 11
12.583563316484289
 21
74.041271987293328
 31
0.0
  0
LINE
  8
DETAIL
  6
CONTINUOUS
 62
     5
 10
16.708754091970601
 20
73.221152140692936
 30
0.0
 11
17.398744640709769
 21
76.689968875877128
 31
0.0
  0
LINE
  8
DETAIL
  6
CONTINUOUS
 62
     5
 10
17.48837020585302
 20
73.034098569278228
 30
0.0
 11
18.184479534722868
 21
76.533676488357457
 31
0.0
  0
LINE
  8
DETAIL
  6
CONTINUOUS
 62
     5
 10
-76.5336764883575
 20
-18.184479534722929
 30
0.0
 11
-73.038359936292423
 21
-17.489217844384768
 31
0.0
  0
LINE
  8
DETAIL
  6
CONTINUOUS
 62
     5
 10
-76.689968875877412
 20
-17.398744641598849
 30
0.0
 11
-73.215445634425791
 21
-16.70761899738801
 31
0.0
  0
LINE
  8
DETAIL
  6
CONTINUOUS
 62
     5
 10
-74.036795341329935
 20
-12.582672856991
 30
0.0
 11
-77.510503911689057
 21
-13.273636452253919
 31
0.0
  0
LINE
  8
DETAIL
  6
CONTINUOUS
 62
     5
 10
-74.167181466304086
 20
-11.791784887670079
 30
0.0
 11
-77.666796299208713
 21
-12.48790155913008
 31
0.0
  0
LINE
  8
DETAIL
  6
CONTINUOUS
 62
     5
 10
-83.82672481610939
 20
-14.780913289506829
 30
0.0
 11
-79.70509102738626
 21
-14.054158047675459
 31
0.0
  0
LINE
  8
DETAIL
  6
CONTINUOUS
 62
     5
 10
-78.595749958905103
 20
-13.858551286615301
 30
0.0
 11
-73.961177449979473
 21
-13.041351109325721
 31
0.0
  0
LINE
  8
DETAIL
  6
CONTINUOUS
 62
     5
 10
-83.82672481610939
 20
14.78091328950671
 30
0.0
 11
-79.70509102738626
 21
14.05415804767512
 31
0.0
  0
LINE
  8
DETAIL
  6
CONTINUOUS
 62
     5
 10
-78.595749958905103
 20
13.85855128661473
 30
0.0
 11
-76.117379276476839
 21
13.421547666887619
 31
0.0
  0
LINE
  8
DETAIL
  6
CONTINUOUS
 62
     5
 10
-77.666796299208713
 20
12.48790155912951
 30
0.0
 11
-75.349027934948936
 21
12.0268687662803
 31
0.0
  0
LINE
  8
DETAIL
  6
CONTINUOUS
 62
     5
 10
-77.510503911689057
 20
13.27363645225358
 30
0.0
 11
-75.891534097820653
 21
12.95160333317199
 31
0.0
  0
LINE
  8
DETAIL
  6
CONTINUOUS
 62
     5
 10
48.014848698646347
 20
-58.282086346742346
 30
0.0
 11
54.524016540381133
 21
-62.040156152214713
 31
0.0
  0
LINE
  8
DETAIL
  6
CONTINUOUS
 62
     5
 10
61.033184383004709
 20
-50.765946734909051
 30
0.0
 11
57.26220022617531
 21
-48.588768017075672
 31
0.0
  0
LINE
  8
DETAIL
  6
CONTINUOUS
 62
     5
 10
-9.5133991534416964
 20
-5.492563562117823
 30
0.0
 11
-0.0000000000002274
 21
-10.985127125124389
 31
0.0
  0
LINE
  8
DETAIL
  6
CONTINUOUS
 62
     5
 10
61.20029722065442
 20
-44.385450905087787
 30
0.0
 11
63.748998211365688
 21
-46.088438461359203
 31
0.0
  0
LINE
  8
DETAIL
  6
CONTINUOUS
 62
     5
 10
61.822973593831421
 20
-43.838001082135243
 30
0.0
 11
64.194081275310737
 21
-45.422324583153397
 31
0.0
  0
LINE
  8
DETAIL
  6
CONTINUOUS
 62
     5
 10
-213.46334441818641
 20
209.21471975250569
 30
0.0
 11
-217.02102010712221
 21
212.7723954414418
 31
0.0
  0
LINE
  8
DETAIL
  6
CONTINUOUS
 62
     5
 10
93.145910048343239
 20
-97.394534714023436
 30
0.0
 11
212.77239544144209
 21
-217.02102010712261
 31
0.0
  0
LINE
  8
DETAIL
  6
CONTINUOUS
 62
     5
 10
39.280355009948153
 20
-64.014430050742533
 30
0.0
 11
41.259112842811419
 21
-66.975850425413739
 31
0.0
  0
LINE
  8
DETAIL
  6
CONTINUOUS
 62
     5
 10
39.958103252097089
 20
-63.586759042179708
 30
0.0
 11
41.925226721017218
 21
-66.530767361468463
 31
0.0
  0
LINE
  8
DETAIL
  6
CONTINUOUS
 62
     5
 10
45.42232458315334
 20
-64.194081275310793
 30
0.0
 11
43.455006572478851
 21
-61.249781804233237
 31
0.0
  0
LINE
  8
DETAIL
  6
CONTINUOUS
 62
     5
 10
46.088438461359146
 20
-63.748998211365532
 30
0.0
 11
44.107291923293808
 21
-60.784002885871637
 31
0.0
  0
LINE
  8
DETAIL
  6
CONTINUOUS
 62
     5
 10
40.056417489717887
 20
-95.133991537080476
 30
0.0
 11
40.056417489717887
 21
-94.633286318759076
 31
0.0
  0
LINE
  8
DETAIL
  6
CONTINUOUS
 62
     5
 10
48.014848698646347
 20
-57.747819800068598
 30
0.0
 11
48.014848698646347
 21
-58.282086346742346
 31
0.0
  0
LINE
  8
DETAIL
  6
CONTINUOUS
 62
     5
 10
54.524016540381133
 20
-62.040156152214713
 30
0.0
 11
61.033184383004709
 21
-58.282086346742346
 31
0.0
  0
LINE
  8
DETAIL
  6
CONTINUOUS
 62
     5
 10
9.5133991534412417
 20
5.492563562117482
 30
0.0
 11
-0.0000000000002274
 21
10.985127124235021
 31
0.0
  0
LINE
  8
DETAIL
  6
CONTINUOUS
 62
     5
 10
66.530767361468634
 20
-41.925226721017282
 30
0.0
 11
65.475021169853562
 21
-41.219799669185988
 31
0.0
  0
LINE
  8
DETAIL
  6
CONTINUOUS
 62
     5
 10
-209.22713328606011
 20
213.47575795085129
 30
0.0
 11
-212.77239544233089
 21
217.02102010712221
 31
0.0
  0
LINE
  8
DETAIL
  6
CONTINUOUS
 62
     5
 10
97.394534714023393
 20
-93.145910048343083
 30
0.0
 11
217.02102010712221
 21
-212.77239544233089
 31
0.0
  0
LINE
  8
DETAIL
  6
CONTINUOUS
 62
     5
 10
61.033184383004709
 20
-58.282086346742346
 30
0.0
 11
61.033184383004709
 21
-50.765946734909051
 31
0.0
  0
LINE
  8
DETAIL
  6
CONTINUOUS
 62
     5
 10
89.626234132877244
 20
88.897285382662346
 30
0.0
 11
89.626234132877244
 21
66.462881422913995
 31
0.0
  0
LINE
  8
DETAIL
  6
CONTINUOUS
 62
     5
 10
89.626234132877244
 20
-24.998451668810329
 30
0.0
 11
89.626234132877244
 21
-88.897285382662702
 31
0.0
  0
LINE
  8
DETAIL
  6
CONTINUOUS
 62
     5
 10
-275.1830002262584
 20
-300.55793525154178
 30
0.0
 11
-280.19005241213972
 21
-303.44875817958052
 31
0.0
  0
LINE
  8
DETAIL
  6
CONTINUOUS
 62
     5
 10
-275.1830002262584
 20
-312.12122696191818
 30
0.0
 11
-270.17594804037691
 21
-309.23040403476853
 31
0.0
  0
LINE
  8
DETAIL
  6
CONTINUOUS
 62
     5
 10
95.63469675629085
 20
88.897285382662346
 30
0.0
 11
95.63469675629085
 21
72.329921693642916
 31
0.0
  0
LINE
  8
DETAIL
  6
CONTINUOUS
 62
     5
 10
95.63469675629085
 20
-23.401382555574681
 30
0.0
 11
95.63469675629085
 21
-88.897285382662702
 31
0.0
  0
LINE
  8
DETAIL
  6
CONTINUOUS
 62
     5
 10
-311.34663329261139
 20
272.29217729821988
 30
0.0
 11
-306.33958110673012
 21
269.40135437107
 31
0.0
  0
LINE
  8
DETAIL
  6
CONTINUOUS
 62
     5
 10
60.275498143547573
 20
58.719536700628339
 30
0.0
 11
54.524016540381133
 21
62.040156152214372
 31
0.0
  0
LINE
  8
DETAIL
  6
CONTINUOUS
 62
     5
 10
-301.33252892084852
 20
278.07382315340777
 30
0.0
 11
-306.33958110673012
 21
280.96464608144618
 31
0.0
  0
LINE
  8
DETAIL
  6
CONTINUOUS
 62
     5
 10
245.5498854158416
 20
311.93935119916779
 30
0.0
 11
245.5498854158416
 21
305.43018335654409
 31
0.0
  0
LINE
  8
DETAIL
  6
CONTINUOUS
 62
     5
 10
245.5498854158416
 20
-305.43018335654438
 30
0.0
 11
245.5498854158416
 21
-311.93935119916819
 31
0.0
  0
LINE
  8
DETAIL
  6
CONTINUOUS
 62
     5
 10
270.17594803948799
 20
309.23040403387938
 30
0.0
 11
270.17594803948799
 21
303.44875817869132
 31
0.0
  0
LINE
  8
DETAIL
  6
CONTINUOUS
 62
     5
 10
-311.93935119916802
 20
245.54988541584109
 30
0.0
 11
-305.4301833565446
 21
245.54988541584109
 31
0.0
  0
LINE
  8
DETAIL
  6
CONTINUOUS
 62
     5
 10
305.4301833565446
 20
245.54988541584109
 30
0.0
 11
311.93935119916802
 21
245.54988541584109
 31
0.0
  0
LINE
  8
DETAIL
  6
CONTINUOUS
 62
     5
 10
280.19005241213989
 20
303.44875817869132
 30
0.0
 11
280.19005241213989
 21
309.23040403387938
 31
0.0
  0
LINE
  8
DETAIL
  6
CONTINUOUS
 62
     5
 10
287.32802796006968
 20
-336.97461212946399
 30
0.0
 11
287.32802796006968
 21
-332.18716934312857
 31
0.0
  0
LINE
  8
DETAIL
  6
CONTINUOUS
 62
     5
 10
287.32802796006968
 20
332.18716934223937
 30
0.0
 11
287.32802796006968
 21
336.97461212946382
 31
0.0
  0
LINE
  8
DETAIL
  6
CONTINUOUS
 62
     5
 10
301.33252891995988
 20
-272.29217729910869
 30
0.0
 11
301.33252891995988
 21
-278.07382315429692
 31
0.0
  0
LINE
  8
DETAIL
  6
CONTINUOUS
 62
     5
 10
336.97461212946399
 20
287.32802796006939
 30
0.0
 11
332.18716934223988
 21
287.32802796006939
 31
0.0
  0
LINE
  8
DETAIL
  6
CONTINUOUS
 62
     5
 10
-332.18716934312852
 20
287.32802796006939
 30
0.0
 11
-336.97461212946428
 21
287.32802796006939
 31
0.0
  0
LINE
  8
DETAIL
  6
CONTINUOUS
 62
     5
 10
311.34663329261161
 20
-278.07382315429692
 30
0.0
 11
311.34663329261161
 21
-272.29217729910869
 31
0.0
  0
LINE
  8
DETAIL
  6
CONTINUOUS
 62
     5
 10
341.38081805389282
 20
216.10841856111611
 30
0.0
 11
341.38081805389282
 21
-216.1084185611162
 31
0.0
  0
LINE
  8
DETAIL
  6
CONTINUOUS
 62
     5
 10
306.33958110673052
 20
-269.40135437107028
 30
0.0
 11
301.33252891995988
 21
-272.29217729910869
 31
0.0
  0
LINE
  8
DETAIL
  6
CONTINUOUS
 62
     5
 10
351.39492242565598
 20
-272.90771766476689
 30
0.0
 11
351.39492242565598
 21
272.90771766387769
 31
0.0
  0
LINE
  8
DETAIL
  6
CONTINUOUS
 62
     5
 10
354.99999999970368
 20
314.94358251087442
 30
0.0
 11
354.99999999970368
 21
-314.94358251087448
 31
0.0
  0
LINE
  8
DETAIL
  6
CONTINUOUS
 62
     5
 10
290.84323867142689
 20
-251.59199573836841
 30
0.0
 11
251.59199573836801
 21
-290.84323867231552
 31
0.0
  0
LINE
  8
DETAIL
  6
CONTINUOUS
 62
     5
 10
306.33958110673052
 20
-280.96464608144652
 30
0.0
 11
311.34663329261161
 21
-278.07382315429692
 31
0.0
  0
LINE
  8
DETAIL
  6
CONTINUOUS
 62
     5
 10
-216.1084185611162
 20
341.38081805389282
 30
0.0
 11
216.10841856111639
 21
341.38081805389282
 31
0.0
  0
LINE
  8
DETAIL
  6
CONTINUOUS
 62
     5
 10
272.90771766387797
 20
351.39492242565552
 30
0.0
 11
-272.90771766476661
 21
351.39492242565552
 31
0.0
  0
LINE
  8
DETAIL
  6
CONTINUOUS
 62
     5
 10
-314.94358251087448
 20
354.99999999970368
 30
0.0
 11
314.94358251087442
 21
354.99999999970368
 31
0.0
  0
LINE
  8
DETAIL
  6
CONTINUOUS
 62
     5
 10
297.76973317737247
 20
-306.97866299425408
 30
0.0
 11
306.97866299336522
 21
-297.76973317737293
 31
0.0
  0
LINE
  8
DETAIL
  6
CONTINUOUS
 62
     5
 10
251.59199573836801
 20
290.84323867142638
 30
0.0
 11
290.84323867142689
 21
251.59199573836801
 31
0.0
  0
LINE
  8
DETAIL
  6
CONTINUOUS
 62
     5
 10
270.17594803948799
 20
303.44875817869132
 30
0.0
 11
275.1830002262584
 21
300.55793525154172
 31
0.0
  0
LINE
  8
DETAIL
  6
CONTINUOUS
 62
     5
 10
280.19005241213989
 20
309.23040403387938
 30
0.0
 11
275.1830002262584
 21
312.12122696191813
 31
0.0
  0
LINE
  8
DETAIL
  6
CONTINUOUS
 62
     5
 10
306.97866299336522
 20
297.76973317737247
 30
0.0
 11
297.76973317737247
 21
306.97866299336482
 31
0.0
  0
ARC
  8
DETAIL
  6
CONTINUOUS
 62
     5
 10
-332.18716934312852
 20
-322.97823952624748
 30
0.0
 40
35.650211565289013
 50
44.999999999997343
 51
90.0
  0
ARC
  8
DETAIL
  6
CONTINUOUS
 62
     5
 10
-322.97823952624782
 20
-332.18716934312857
 30
0.0
 40
35.650211565288942
 50
0.0
 51
44.999999999997343
  0
ARC
  8
DETAIL
  6
CONTINUOUS
 62
     5
 10
-336.97461212946428
 20
-272.90771766476689
 30
0.0
 40
14.420310296191699
 50
180.0
 51
270.0
  0
ARC
  8
DETAIL
  6
CONTINUOUS
 62
     5
 10
-272.90771766476661
 20
-336.97461212946399
 30
0.0
 40
14.420310296191699
 50
180.0
 51
270.0
  0
ARC
  8
DETAIL
  6
CONTINUOUS
 62
     5
 10
-314.94358251087448
 20
-314.94358251087448
 30
0.0
 40
40.056417489718001
 50
180.0
 51
270.0
  0
ARC
  8
DETAIL
  6
CONTINUOUS
 62
     5
 10
-266.17894042348598
 20
-305.43018335654438
 30
0.0
 40
20.629055006755831
 50
0.0
 51
44.999999999997343
  0
CIRCLE
  8
DETAIL
  6
CONTINUOUS
 62
     5
 10
-275.1830002262584
 20
-306.33958110673012
 30
0.0
 40
5.0070521858814354
  0
CIRCLE
  8
DETAIL
  6
CONTINUOUS
 62
     5
 10
-275.1830002262584
 20
-306.33958110673012
 30
0.0
 40
3.5049365300280901
  0
CIRCLE
  8
DETAIL
  6
CONTINUOUS
 62
     5
 10
-275.1830002262584
 20
-306.33958110673012
 30
0.0
 40
2.503526093385176
  0
ARC
  8
DETAIL
  6
CONTINUOUS
 62
     5
 10
-216.1084185611162
 20
-311.93935119916819
 30
0.0
 40
29.441466854724919
 50
180.0
 51
270.0
  0
ARC
  8
DETAIL
  6
CONTINUOUS
 62
     5
 10
-311.93935119916802
 20
-216.1084185611162
 30
0.0
 40
29.441466854725039
 50
180.0
 51
270.0
  0
ARC
  8
DETAIL
  6
CONTINUOUS
 62
     5
 10
-305.4301833565446
 20
-266.17894042348598
 30
0.0
 40
20.629055006755951
 50
44.999999999997343
 51
90.0
  0
ARC
  8
DETAIL
  6
CONTINUOUS
 62
     5
 10
-81.003700108403123
 20
-18.623836273362091
 30
0.0
 40
10.01410437265174
 50
47.646430203197177
 51
78.187105846603757
  0
ARC
  8
DETAIL
  6
CONTINUOUS
 62
     5
 10
-81.003700108403123
 20
18.62383627336175
 30
0.0
 40
10.01410437265171
 50
281.81289415339609
 51
305.077922261602
  0
ARC
  8
DETAIL
  6
CONTINUOUS
 62
     5
 10
-77.108603666840295
 20
-0.0000000000000568
 30
0.0
 40
9.0126939351198381
 50
101.8128941533962
 51
258.18710584660369
  0
ARC
  8
DETAIL
  6
CONTINUOUS
 62
     5
 10
-66.06970938196126
 20
-39.755883359311227
 30
0.0
 40
8.0112834975882681
 50
211.03642988170299
 51
268.29420333684828
  0
ARC
  8
DETAIL
  6
CONTINUOUS
 62
     5
 10
-77.108603666840295
 20
-0.0000000000000568
 30
0.0
 40
4.2559943579547408
 50
64.949186475201699
 51
299.60809194309809
  0
ARC
  8
DETAIL
  6
CONTINUOUS
 62
     5
 10
-77.100236393782993
 20
15.336190546481649
 30
0.0
 40
2.9040902676868421
 50
116.0313149200402
 51
258.7499999999892
  0
ARC
  8
DETAIL
  6
CONTINUOUS
 62
     5
 10
-77.100236393783021
 20
-15.336190546481991
 30
0.0
 40
2.9040902676868159
 50
101.2500000000107
 51
281.24999999999739
  0
ARC
  8
DETAIL
  6
CONTINUOUS
 62
     5
 10
-77.100236393783021
 20
-15.336190546481991
 30
0.0
 40
2.1029619181947008
 50
101.2499999999975
 51
281.24999999999739
  0
ARC
  8
DETAIL
  6
CONTINUOUS
 62
     5
 10
-77.100236393783021
 20
15.336190546481649
 30
0.0
 40
2.102961918194604
 50
115.5992468410018
 51
258.7500000000025
  0
ARC
  8
DETAIL
  6
CONTINUOUS
 62
     5
 10
-336.97461212946428
 20
272.90771766387769
 30
0.0
 40
14.42031029619176
 50
90.0
 51
180.0
  0
ARC
  8
DETAIL
  6
CONTINUOUS
 62
     5
 10
-311.93935119916802
 20
216.10841856111611
 30
0.0
 40
29.441466854724919
 50
90.0
 51
180.0
  0
ARC
  8
DETAIL
  6
CONTINUOUS
 62
     5
 10
-305.4301833565446
 20
266.1789404234857
 30
0.0
 40
20.629055006756001
 50
270.0
 51
315.00000000000261
  0
CIRCLE
  8
DETAIL
  6
CONTINUOUS
 62
     5
 10
-306.33958110673012
 20
275.18300022625812
 30
0.0
 40
5.0070521858814354
  0
CIRCLE
  8
DETAIL
  6
CONTINUOUS
 62
     5
 10
-306.33958110673012
 20
275.18300022625812
 30
0.0
 40
3.5049365300280901
  0
CIRCLE
  8
DETAIL
  6
CONTINUOUS
 62
     5
 10
-306.33958110673012
 20
275.18300022625812
 30
0.0
 40
2.503526093385176
  0
ARC
  8
DETAIL
  6
CONTINUOUS
 62
     5
 10
-314.94358251087448
 20
314.94358251087442
 30
0.0
 40
40.056417489717937
 50
90.0
 51
180.0
  0
ARC
  8
DETAIL
  6
CONTINUOUS
 62
     5
 10
-322.97823952624782
 20
332.18716934223937
 30
0.0
 40
35.650211565289048
 50
315.00000000000261
 51
0.0
  0
ARC
  8
DETAIL
  6
CONTINUOUS
 62
     5
 10
-332.18716934312852
 20
322.97823952624731
 30
0.0
 40
35.650211565289048
 50
270.0
 51
315.00000000000261
  0
ARC
  8
DETAIL
  6
CONTINUOUS
 62
     5
 10
-272.90771766476661
 20
336.97461212946382
 30
0.0
 40
14.42031029619176
 50
90.0
 51
180.0
  0
ARC
  8
DETAIL
  6
CONTINUOUS
 62
     5
 10
-216.1084185611162
 20
311.93935119916779
 30
0.0
 40
29.441466854724979
 50
90.0
 51
180.0
  0
ARC
  8
DETAIL
  6
CONTINUOUS
 62
     5
 10
-266.17894042348598
 20
305.43018335654409
 30
0.0
 40
20.629055006756001
 50
315.00000000000261
 51
0.0
  0
ARC
  8
DETAIL
  6
CONTINUOUS
 62
     5
 10
-0.0000000000002274
 20
-205.78984485190429
 30
0.0
 40
300.42313117066288
 50
73.792930602600379
 51
95.083666736897783
  0
ARC
  8
DETAIL
  6
CONTINUOUS
 62
     5
 10
-0.0000000000002274
 20
-0.0000000000000568
 30
0.0
 40
85.119887165317522
 50
57.249674603203822
 51
77.750325396796853
  0
ARC
  8
DETAIL
  6
CONTINUOUS
 62
     5
 10
-0.0000000000002274
 20
-0.0000000000000568
 30
0.0
 40
85.119887165317451
 50
283.61419388009881
 51
302.75032539679609
  0
ARC
  8
DETAIL
  6
CONTINUOUS
 62
     5
 10
-0.0000000000000568
 20
-0.0000000000001563
 30
0.0
 40
85.119887165317152
 50
328.96357011829679
 51
339.78060359212009
  0
ARC
  8
DETAIL
  6
CONTINUOUS
 62
     5
 10
-0.0000000000002274
 20
-0.0000000000000568
 30
0.0
 40
85.119887165317323
 50
190.0000000000052
 51
211.03642988170299
  0
ARC
  8
DETAIL
  6
CONTINUOUS
 62
     5
 10
-0.0000000000002274
 20
-0.0000000000000568
 30
0.0
 40
85.119887165317323
 50
163.61092328900449
 51
169.9999999999948
  0
ARC
  8
DETAIL
  6
CONTINUOUS
 62
     5
 10
-0.0000000000002274
 20
-0.0000000000000568
 30
0.0
 40
75.105782792665735
 50
52.198212874697163
 51
139.8367457094981
  0
ARC
  8
DETAIL
  6
CONTINUOUS
 62
     5
 10
-0.0000000000001421
 20
0.0000000000000568
 30
0.0
 40
75.105782792665735
 50
139.8367457094981
 51
292.19821744749981
  0
ARC
  8
DETAIL
  6
CONTINUOUS
 62
     5
 10
-0.0000000000002274
 20
-0.0000000000000568
 30
0.0
 40
75.10578279266565
 50
292.19821744749981
 51
19.836745722394781
  0
ARC
  8
DETAIL
  6
CONTINUOUS
 62
     5
 10
0.0236063928193744
 20
0.0148214160621478
 30
0.0
 40
75.078316228369971
 50
19.832219253793031
 51
52.172990124396897
  0
CIRCLE
  8
DETAIL
  6
CONTINUOUS
 62
     5
 10
-0.0000000000002274
 20
-0.0000000000000568
 30
0.0
 40
23.032440056121231
  0
CIRCLE
  8
DETAIL
  6
CONTINUOUS
 62
     5
 10
-0.0000000000002274
 20
-0.0000000000000568
 30
0.0
 40
19.026798307771511
  0
CIRCLE
  8
DETAIL
  6
CONTINUOUS
 62
     5
 10
-0.0000000000002274
 20
-0.0000000000000568
 30
0.0
 40
18.02539015096681
  0
CIRCLE
  8
DETAIL
  6
CONTINUOUS
 62
     5
 10
-0.0000000000002274
 20
-0.0000000000000568
 30
0.0
 40
12.01692524682653
  0
CIRCLE
  8
DETAIL
  6
CONTINUOUS
 62
     5
 10
-0.0000000000002274
 20
-0.0000000000000568
 30
0.0
 40
9.5133991534414672
  0
CIRCLE
  8
DETAIL
  6
CONTINUOUS
 62
     5
 10
-0.0000000000002274
 20
-0.0000000000000568
 30
0.0
 40
6.5288107504068176
  0
CIRCLE
  8
DETAIL
  6
CONTINUOUS
 62
     5
 10
-0.0000000000002274
 20
-0.0000000000000568
 30
0.0
 40
6.0084626234131528
  0
ARC
  8
DETAIL
  6
CONTINUOUS
 62
     5
 10
-0.0000000000002274
 20
77.108603666840452
 30
0.0
 40
8.511988716798438
 50
12.522938960603479
 51
152.08134045985989
  0
ARC
  8
DETAIL
  6
CONTINUOUS
 62
     5
 10
18.085343902930159
 20
81.125625079868939
 30
0.0
 40
10.0141043726516
 50
192.52293896060351
 51
222.01926535469511
  0
ARC
  8
DETAIL
  6
CONTINUOUS
 62
     5
 10
16.679003147516141
 20
76.820934949040463
 30
0.0
 40
6.5091678417347367
 50
77.750325396796853
 51
201.3015987328954
  0
ARC
  8
DETAIL
  6
CONTINUOUS
 62
     5
 10
15.33619054648125
 20
77.100236393783177
 30
0.0
 40
2.904090267686779
 50
348.7500000000025
 51
168.7500000000025
  0
ARC
  8
DETAIL
  6
CONTINUOUS
 62
     5
 10
15.33619054648125
 20
77.100236393783177
 30
0.0
 40
2.1029619181949371
 50
348.7500000000025
 51
168.7500000000025
  0
ARC
  8
DETAIL
  6
CONTINUOUS
 62
     5
 10
101.6431593797038
 20
-88.897285382662702
 30
0.0
 40
12.01692524682653
 50
180.0
 51
224.9999999999973
  0
ARC
  8
DETAIL
  6
CONTINUOUS
 62
     5
 10
70.447306568014483
 20
-44.10922472661747
 30
0.0
 40
10.014104372651939
 50
185.41664571360661
 51
213.18710584660661
  0
ARC
  8
DETAIL
  6
CONTINUOUS
 62
     5
 10
44.109224726617413
 20
-70.447306568902889
 30
0.0
 40
10.01410437265163
 50
56.812894153408031
 51
87.352772710897355
  0
ARC
  8
DETAIL
  6
CONTINUOUS
 62
     5
 10
54.524016540381133
 20
-54.524016541269987
 30
0.0
 40
9.0126939351199198
 50
236.812894153408
 51
33.18710584660667
  0
ARC
  8
DETAIL
  6
CONTINUOUS
 62
     5
 10
81.614950634400202
 20
-75.001338222844936
 30
0.0
 40
8.0112834975881135
 50
286.20706939739961
 51
0.0
  0
ARC
  8
DETAIL
  6
CONTINUOUS
 62
     5
 10
66.069709381961275
 20
-39.755883359311213
 30
0.0
 40
8.011283497587991
 50
226.32540682363921
 51
328.96357011829679
  0
ARC
  8
DETAIL
  6
CONTINUOUS
 62
     5
 10
54.524016540381133
 20
-54.524016541269987
 30
0.0
 40
6.5091678417346976
 50
204.68352742919231
 51
65.348518744309914
  0
ARC
  8
DETAIL
  6
CONTINUOUS
 62
     5
 10
42.526767810509227
 20
-66.114440269009776
 30
0.0
 40
6.5091678417347598
 50
302.75032539679609
 51
57.628184908804933
  0
ARC
  8
DETAIL
  6
CONTINUOUS
 62
     5
 10
101.6431593797038
 20
-88.897285382662702
 30
0.0
 40
6.0084626234129246
 50
180.0
 51
224.9999999999973
  0
ARC
  8
DETAIL
  6
CONTINUOUS
 62
     5
 10
54.524016540381133
 20
-54.524016541269987
 30
0.0
 40
4.7566995771648726
 50
198.33064615020351
 51
71.637454889211156
  0
ARC
  8
DETAIL
  6
CONTINUOUS
 62
     5
 10
54.524016540381133
 20
-54.524016541269987
 30
0.0
 40
4.2559943579547763
 50
195.4223555722036
 51
74.590630717806192
  0
ARC
  8
DETAIL
  6
CONTINUOUS
 62
     5
 10
54.524016540381133
 20
-54.524016541269987
 30
0.0
 40
3.2545839213114558
 50
185.77401764700701
 51
84.32878892150714
  0
ARC
  8
DETAIL
  6
CONTINUOUS
 62
     5
 10
65.36242431794517
 20
-43.673775652085233
 30
0.0
 40
2.9040902676868439
 50
236.25000000000139
 51
78.255186955173073
  0
ARC
  8
DETAIL
  6
CONTINUOUS
 62
     5
 10
43.673775652085403
 20
-65.362424318834258
 30
0.0
 40
2.9040902676866249
 50
213.75000000000341
 51
33.750000000000419
  0
ARC
  8
DETAIL
  6
CONTINUOUS
 62
     5
 10
65.36242431794517
 20
-43.673775652085233
 30
0.0
 40
2.102961918194771
 50
236.25000000000139
 51
56.250000000001421
  0
ARC
  8
DETAIL
  6
CONTINUOUS
 62
     5
 10
43.673775652085403
 20
-65.362424318834258
 30
0.0
 40
2.102961918194588
 50
213.75000000000341
 51
33.750000000000419
  0
ARC
  8
DETAIL
  6
CONTINUOUS
 62
     5
 10
44.109224726617413
 20
70.447306568013744
 30
0.0
 40
10.014104372651669
 50
279.43346682619278
 51
303.18710584659198
  0
ARC
  8
DETAIL
  6
CONTINUOUS
 62
     5
 10
54.524016540381133
 20
54.524016540380842
 30
0.0
 40
9.012693935120069
 50
27.56143766469533
 51
123.187105846592
  0
ARC
  8
DETAIL
  6
CONTINUOUS
 62
     5
 10
81.614950634400202
 20
75.001338221956019
 30
0.0
 40
8.0112834975880123
 50
0.0
 51
73.792930602600379
  0
ARC
  8
DETAIL
  6
CONTINUOUS
 62
     5
 10
54.524016540381133
 20
54.524016540380813
 30
0.0
 40
6.5091678417348273
 50
40.257954030103058
 51
134.2475882397803
  0
ARC
  8
DETAIL
  6
CONTINUOUS
 62
     5
 10
42.526767810509227
 20
66.114440269009435
 30
0.0
 40
6.5091678417347216
 50
302.37181509119529
 51
57.249674603203822
  0
ARC
  8
DETAIL
  6
CONTINUOUS
 62
     5
 10
54.524016540381133
 20
54.524016540380842
 30
0.0
 40
4.7566995771650644
 50
61.452355723796998
 51
109.89147761994251
  0
ARC
  8
DETAIL
  6
CONTINUOUS
 62
     5
 10
43.673775652085403
 20
65.362424317944885
 30
0.0
 40
2.9040902676868199
 50
326.2499999999996
 51
146.2499999999967
  0
ARC
  8
DETAIL
  6
CONTINUOUS
 62
     5
 10
43.673775652085403
 20
65.362424317944885
 30
0.0
 40
2.1029619181946049
 50
326.2499999999996
 51
146.2499999999967
  0
ARC
  8
DETAIL
  6
CONTINUOUS
 62
     5
 10
314.94358251087442
 20
-314.94358251087448
 30
0.0
 40
40.056417489717937
 50
270.0
 51
0.0
  0
ARC
  8
DETAIL
  6
CONTINUOUS
 62
     5
 10
322.97823952624731
 20
-332.18716934312857
 30
0.0
 40
35.650211565288878
 50
135.0000000000027
 51
180.0
  0
ARC
  8
DETAIL
  6
CONTINUOUS
 62
     5
 10
216.10841856111639
 20
-311.93935119916819
 30
0.0
 40
29.441466854724919
 50
270.0
 51
0.0
  0
ARC
  8
DETAIL
  6
CONTINUOUS
 62
     5
 10
266.17894042348559
 20
-305.43018335654438
 30
0.0
 40
20.629055006755859
 50
135.0000000000027
 51
180.0
  0
ARC
  8
DETAIL
  6
CONTINUOUS
 62
     5
 10
272.90771766387797
 20
-336.97461212946399
 30
0.0
 40
14.420310296191809
 50
270.0
 51
0.0
  0
ARC
  8
DETAIL
  6
CONTINUOUS
 62
     5
 10
305.4301833565446
 20
-266.17894042348598
 30
0.0
 40
20.62905500675592
 50
90.0
 51
135.0000000000027
  0
CIRCLE
  8
DETAIL
  6
CONTINUOUS
 62
     5
 10
306.33958110673052
 20
-275.18300022625851
 30
0.0
 40
5.0070521858815482
  0
CIRCLE
  8
DETAIL
  6
CONTINUOUS
 62
     5
 10
306.33958110673052
 20
-275.18300022625851
 30
0.0
 40
3.5049365300280901
  0
CIRCLE
  8
DETAIL
  6
CONTINUOUS
 62
     5
 10
306.33958110673052
 20
-275.18300022625851
 30
0.0
 40
2.5035260933850609
  0
ARC
  8
DETAIL
  6
CONTINUOUS
 62
     5
 10
311.93935119916802
 20
-216.1084185611162
 30
0.0
 40
29.441466854724919
 50
270.0
 51
0.0
  0
ARC
  8
DETAIL
  6
CONTINUOUS
 62
     5
 10
332.18716934223988
 20
-322.97823952624748
 30
0.0
 40
35.650211565289091
 50
90.0
 51
135.0000000000027
  0
ARC
  8
DETAIL
  6
CONTINUOUS
 62
     5
 10
336.97461212946399
 20
-272.90771766476689
 30
0.0
 40
14.420310296191809
 50
270.0
 51
0.0
  0
ARC
  8
DETAIL
  6
CONTINUOUS
 62
     5
 10
-0.0000000000009095
 20
205.78984485190841
 30
0.0
 40
300.4231311706672
 50
272.613673383464
 51
286.20706939739961
  0
ARC
  8
DETAIL
  6
CONTINUOUS
 62
     5
 10
101.6431593797038
 20
88.897285382662346
 30
0.0
 40
12.01692524682651
 50
135.0000000000027
 51
180.0
  0
ARC
  8
DETAIL
  6
CONTINUOUS
 62
     5
 10
101.6431593797038
 20
88.897285382662346
 30
0.0
 40
6.0084626234131431
 50
135.0000000000027
 51
180.0
  0
ARC
  8
DETAIL
  6
CONTINUOUS
 62
     5
 10
216.10841856111639
 20
311.93935119916779
 30
0.0
 40
29.441466854724919
 50
0.0
 51
90.0
  0
ARC
  8
DETAIL
  6
CONTINUOUS
 62
     5
 10
266.17894042348559
 20
305.43018335654409
 30
0.0
 40
20.629055006755831
 50
180.0
 51
224.9999999999973
  0
CIRCLE
  8
DETAIL
  6
CONTINUOUS
 62
     5
 10
275.1830002262584
 20
306.33958110672972
 30
0.0
 40
5.0070521858815482
  0
CIRCLE
  8
DETAIL
  6
CONTINUOUS
 62
     5
 10
275.1830002262584
 20
306.33958110672972
 30
0.0
 40
3.5049365300280901
  0
CIRCLE
  8
DETAIL
  6
CONTINUOUS
 62
     5
 10
275.1830002262584
 20
306.33958110672972
 30
0.0
 40
2.5035260933850609
  0
ARC
  8
DETAIL
  6
CONTINUOUS
 62
     5
 10
311.93935119916802
 20
216.10841856111611
 30
0.0
 40
29.441466854724919
 50
0.0
 51
90.0
  0
ARC
  8
DETAIL
  6
CONTINUOUS
 62
     5
 10
305.4301833565446
 20
266.1789404234857
 30
0.0
 40
20.629055006756079
 50
224.9999999999973
 51
270.0
  0
ARC
  8
DETAIL
  6
CONTINUOUS
 62
     5
 10
336.97461212946399
 20
272.90771766387769
 30
0.0
 40
14.420310296192151
 50
0.0
 51
90.0
  0
ARC
  8
DETAIL
  6
CONTINUOUS
 62
     5
 10
314.94358251087442
 20
314.94358251087442
 30
0.0
 40
40.056417489718328
 50
0.0
 51
90.0
  0
ARC
  8
DETAIL
  6
CONTINUOUS
 62
     5
 10
332.18716934223988
 20
322.97823952624731
 30
0.0
 40
35.650211565289013
 50
224.9999999999973
 51
270.0
  0
ARC
  8
DETAIL
  6
CONTINUOUS
 62
     5
 10
322.97823952624731
 20
332.18716934223937
 30
0.0
 40
35.650211565288828
 50
180.0
 51
224.9999999999973
  0
ARC
  8
DETAIL
  6
CONTINUOUS
 62
     5
 10
272.90771766387797
 20
336.97461212946382
 30
0.0
 40
14.42031029619193
 50
0.0
 51
90.0
  0
ARC
  8
DETAIL
  6
CONTINUOUS
 62
     5
 10
23094.6625582286
 20
-23278.156673446181
 30
0.0
 40
32779.256803662829
 50
135.13000390630239
 51
135.30405318010051
  0
LINE
  8
DETAIL
  6
CONTINUOUS
 62
     5
 10
-75.112329149712423
 20
0.4386549251591418
 30
0.0
 11
-75.105782792665423
 21
-0.0000000000000568
 31
0.0
  0
CIRCLE
  8
DETAIL
  6
CONTINUOUS
 62
     5
 10
-325.45839210184772
 20
-325.45839210184789
 30
0.0
 40
8.0112834975881242
  0
CIRCLE
  8
DETAIL
  6
CONTINUOUS
 62
     5
 10
-325.45839210184772
 20
-325.45839210184789
 30
0.0
 40
7.0098730609450968
  0
ARC
  8
DETAIL
  6
CONTINUOUS
 62
     5
 10
-70.810411092304321
 20
-70.810411092304605
 30
0.0
 40
3.0042313117066022
 50
7.2828765548045151
 51
308.29239901969692
  0
CIRCLE
  8
DETAIL
  6
CONTINUOUS
 62
     5
 10
-325.45839210184772
 20
325.45839210184738
 30
0.0
 40
8.0112834975881242
  0
CIRCLE
  8
DETAIL
  6
CONTINUOUS
 62
     5
 10
-325.45839210184772
 20
325.45839210184738
 30
0.0
 40
7.0098730609450968
  0
CIRCLE
  8
DETAIL
  6
CONTINUOUS
 62
     5
 10
-0.0000000000002274
 20
-0.0000000000000568
 30
0.0
 40
303.92806770069092
  0
ARC
  8
DETAIL
  6
CONTINUOUS
 62
     5
 10
-0.0000000000002274
 20
77.108603666840452
 30
0.0
 40
2.5035260933852959
 50
11.72039670879499
 51
108.0128723405074
  0
CIRCLE
  8
DETAIL
  6
CONTINUOUS
 62
     5
 10
70.810411092304321
 20
-70.810411092304605
 30
0.0
 40
3.0042313117066901
  0
CIRCLE
  8
DETAIL
  6
CONTINUOUS
 62
     5
 10
325.45839210184772
 20
-325.45839210184789
 30
0.0
 40
8.0112834975880123
  0
CIRCLE
  8
DETAIL
  6
CONTINUOUS
 62
     5
 10
325.45839210184772
 20
-325.45839210184789
 30
0.0
 40
7.0098730609449831
  0
CIRCLE
  8
DETAIL
  6
CONTINUOUS
 62
     5
 10
325.45839210184772
 20
325.45839210184738
 30
0.0
 40
8.0112834975880123
  0
CIRCLE
  8
DETAIL
  6
CONTINUOUS
 62
     5
 10
325.45839210184772
 20
325.45839210184738
 30
0.0
 40
7.0098730609449831
  0
CIRCLE
  8
DETAIL
  6
CONTINUOUS
 62
     5
 10
-275.1830002262584
 20
-306.33958110673012
 30
0.0
 40
3.004231311706576
  0
CIRCLE
  8
DETAIL
  6
CONTINUOUS
 62
     5
 10
-306.33958110673012
 20
275.18300022625812
 30
0.0
 40
3.004231311706576
  0
CIRCLE
  8
DETAIL
  6
CONTINUOUS
 62
     5
 10
306.33958110673052
 20
-275.18300022625851
 30
0.0
 40
3.0042313117066901
  0
CIRCLE
  8
DETAIL
  6
CONTINUOUS
 62
     5
 10
275.1830002262584
 20
306.33958110672972
 30
0.0
 40
3.0042313117066901
  0
LINE
  8
BASIS
  6
DASHDOT
 62
     6
 10
0.0
 20
-388.23912335901048
 30
0.0
 11
0.0
 21
388.23912335901031
 31
0.0
  0
LINE
  8
BASIS
  6
DASHDOT
 62
     6
 10
-367.93834135919587
 20
-0.0000000000000568
 30
0.0
 11
367.93834135919218
 21
-0.0000000000000568
 31
0.0
  0
CIRCLE
  8
DETAIL
  6
CONTINUOUS
 62
     5
 10
0.0
 20
-0.0000000000000568
 30
0.0
 40
299.42172073313122
  0
ARC
  8
DETAIL
  6
CONTINUOUS
 62
     5
 10
129.76250278295629
 20
129.329102619927
 30
0.0
 40
176.45889045418559
 50
262.50593872065548
 51
337.27644266477017
  0
ARC
  8
DETAIL
  6
CONTINUOUS
 62
     5
 10
6.3006319434789484
 20
2.9129420410663438
 30
0.0
 40
291.87818289147162
 50
11.536095696496091
 51
46.108177239824023
  0
ARC
  8
DETAIL
  6
CONTINUOUS
 62
     5
 10
-0.1648267260025023
 20
3.678227248595249
 30
0.0
 40
295.85470032980089
 50
45.103038951861762
 51
69.268687849005431
  0
ARC
  8
DETAIL
  6
CONTINUOUS
 62
     5
 10
102.23537039295481
 20
275.40282688384218
 30
0.0
 40
5.4916797990085211
 50
64.915428601583869
 51
201.2778884452151
  0
ARC
  8
DETAIL
  6
CONTINUOUS
 62
     5
 10
-71.980933174112579
 20
144.63861163646271
 30
0.0
 40
212.54769352591089
 50
4.6435682494353649
 51
37.289798412094321
  0
ARC
  8
DETAIL
  6
CONTINUOUS
 62
     5
 10
104.8052331436302
 20
155.22502344459741
 30
-133.03769399999999
 40
35.683458014744673
 50
332.09804680580379
 51
10.69273728655082
  0
ARC
  8
DETAIL
  6
CONTINUOUS
 62
     5
 10
161.79542406371911
 20
125.7510165533586
 30
0.0
 40
28.481040856615
 50
153.34839222794761
 51
181.05648839289231
  0
ARC
  8
DETAIL
  6
CONTINUOUS
 62
     5
 10
118.50513837189651
 20
124.7221746108453
 30
0.0
 40
14.822647456419659
 50
310.98794097911917
 51
1.9474034300655809
  0
ARC
  8
DETAIL
  6
CONTINUOUS
 62
     5
 10
106.9139796552554
 20
-40.740155546618091
 30
0.0
 40
4.8852044818046316
 50
164.04761053202779
 51
268.05446282123859
  0
ARC
  8
DETAIL
  6
CONTINUOUS
 62
     5
 10
39.545676323046791
 20
-12.04537704306267
 30
0.0
 40
68.379981995964528
 50
336.42169034748991
 51
350.56653600165191
  0
ARC
  8
DETAIL
  6
CONTINUOUS
 62
     5
 10
101.8992182110815
 20
-63.562498147935457
 30
0.0
 40
40.631057656643648
 50
82.786797500315046
 51
142.23861105495121
  0
ARC
  8
DETAIL
  6
CONTINUOUS
 62
     5
 10
150.52892420821439
 20
92.949765994783547
 30
0.0
 40
30.348723738845859
 50
137.2941230439796
 51
160.79917583196161
  0
ARC
  8
DETAIL
  6
CONTINUOUS
 62
     5
 10
106.8720185322163
 20
105.4906815753229
 30
0.0
 40
15.21333767200364
 50
298.66652081543219
 51
350.31324072180672
  0
ARC
  8
DETAIL
  6
CONTINUOUS
 62
     5
 10
123.69797008939349
 20
71.06264892276522
 30
0.0
 40
23.132764703761801
 50
114.3230557940075
 51
154.76347157117809
  0
ARC
  8
DETAIL
  6
CONTINUOUS
 62
     5
 10
0.0676250993783469
 20
161.44451737839611
 30
0.0
 40
130.50569463006249
 50
310.68845001110861
 51
321.90425199169403
  0
LINE
  8
DETAIL
  6
CONTINUOUS
 62
     5
 10
-125.7628464745376
 20
-141.70235513576321
 30
0.0
 11
-133.76140076573211
 21
-149.90020297514209
 31
0.0
  0
LINE
  8
DETAIL
  6
CONTINUOUS
 62
     5
 10
-287.89316408832832
 20
-430.41266892577062
 30
0.0
 11
-284.91506978114643
 21
-430.81274009767122
 31
0.0
  0
LINE
  8
DETAIL
  6
CONTINUOUS
 62
     5
 10
-291.76712201073758
 20
-402.03748646372208
 30
0.0
 11
-282.82942221706708
 21
-400.24994650529948
 31
0.0
  0
LINE
  8
DETAIL
  6
CONTINUOUS
 62
     5
 10
-293.06215264967688
 20
-431.26197579963508
 30
0.0
 11
-295.77192936193109
 21
-429.96343322418818
 31
0.0
  0
ARC
  8
DETAIL
  6
CONTINUOUS
 62
     5
 10
43.00841512971013
 20
-339.78893354558409
 30
0.0
 40
331.39980436774073
 50
182.6307686544572
 51
190.51199135255129
  0
ARC
  8
DETAIL
  6
CONTINUOUS
 62
     5
 10
41.596735774628137
 20
-339.98208441494512
 30
0.0
 40
339.19060457027689
 50
182.53764270109619
 51
190.54509408581001
  0
LINE
  8
DETAIL
  6
CONTINUOUS
 62
     5
 10
-279.86444008239499
 20
-430.90735395527491
 30
0.0
 11
-276.91794564488089
 21
-430.31805506777232
 31
0.0
  0
ARC
  8
DETAIL
  6
CONTINUOUS
 62
     5
 10
-334.3674640899489
 20
-410.17838607304321
 30
0.0
 40
43.371227694345322
 50
332.85917539715803
 51
10.818750785025779
  0
ARC
  8
DETAIL
  6
CONTINUOUS
 62
     5
 10
-334.68681150717111
 20
-410.13154174544962
 30
0.0
 40
46.680911177064459
 50
333.08572732215032
 51
10.72032044739416
  0
ARC
  8
DETAIL
  6
CONTINUOUS
 62
     5
 10
-364.45859181833742
 20
-418.36725918600467
 30
0.0
 40
77.507139150389932
 50
351.05940543397958
 51
12.608645238015299
  0
ARC
  8
DETAIL
  6
CONTINUOUS
 62
     5
 10
-373.87140842263852
 20
-418.66938241428193
 30
0.0
 40
89.78135285417973
 50
352.22664680807833
 51
11.30993247401104
  0
ARC
  8
DETAIL
  6
CONTINUOUS
 62
     5
 10
27726.009619402281
 20
5185.7871405460301
 30
0.0
 40
28563.547379138279
 50
191.2794059977243
 51
191.34045895031571
  0
ARC
  8
DETAIL
  6
CONTINUOUS
 62
     5
 10
867.68864134411251
 20
-189.6699490448693
 30
0.0
 40
1169.6306040417239
 50
190.37207493496101
 51
191.8732371197226
  0
ARC
  8
DETAIL
  6
CONTINUOUS
 62
     5
 10
86.754725457437729
 20
60.97860063860071
 30
0.0
 40
2.200999241386993
 50
136.06031808529741
 51
209.63462384338959
  0
ARC
  8
DETAIL
  6
CONTINUOUS
 62
     5
 10
63.632275370855503
 20
246.81345298833369
 30
0.0
 40
188.1225919702598
 50
265.20031486576579
 51
276.47341408492878
  0
ARC
  8
DETAIL
  6
CONTINUOUS
 62
     5
 10
87.290221596744232
 20
-74.314476381601935
 30
0.0
 40
39.704290950446783
 50
116.17255763481811
 51
143.8874402773086
  0
ARC
  8
DETAIL
  6
CONTINUOUS
 62
     5
 10
-0.6287632497405866
 20
0.6618836687605381
 30
0.0
 40
76.016735163602462
 50
300.44213741744142
 51
317.27515442856497
  0
ARC
  8
DETAIL
  6
CONTINUOUS
 62
     5
 10
-25.152935136349701
 20
27.899216717685249
 30
0.0
 40
112.1653932655889
 50
297.92586599476368
 51
304.19574614155891
  0
ARC
  8
DETAIL
  6
CONTINUOUS
 62
     5
 10
47.121036926022498
 20
-177.04217517865251
 30
0.0
 40
176.45889045418551
 50
142.5059387206901
 51
217.2764426646998
  0
ARC
  8
DETAIL
  6
CONTINUOUS
 62
     5
 10
-0.3528062287120264
 20
-1.2555465880561061
 30
0.0
 40
297.55614953106192
 50
251.7997359861935
 51
288.29796472731368
  0
ARC
  8
DETAIL
  6
CONTINUOUS
 62
     5
 10
3.2678516011728789
 20
-1.6963694923601911
 30
0.0
 40
295.85470032980089
 50
285.10303895194897
 51
309.26868784892167
  0
ARC
  8
DETAIL
  6
CONTINUOUS
 62
     5
 10
187.3881591589743
 20
-226.2398413675314
 30
0.0
 40
5.4916797990085202
 50
304.91542860164662
 51
81.277888445156776
  0
ARC
  8
DETAIL
  6
CONTINUOUS
 62
     5
 10
161.25117863234121
 20
-9.9819891013398774
 30
0.0
 40
212.54769352591089
 50
244.6435682493875
 51
277.28979841215721
  0
ARC
  8
DETAIL
  6
CONTINUOUS
 62
     5
 10
82.026197034239885
 20
-168.37650607423481
 30
-133.03769399999999
 40
35.683458014744673
 50
212.0980468056531
 51
250.69273728648841
  0
ARC
  8
DETAIL
  6
CONTINUOUS
 62
     5
 10
28.005862855061409
 20
-202.9944557319393
 30
0.0
 40
28.481040856615
 50
33.348392227914857
 51
61.056488392985642
  0
ARC
  8
DETAIL
  6
CONTINUOUS
 62
     5
 10
48.76000244227906
 20
-164.9895476144784
 30
0.0
 40
14.822647456419659
 50
190.98794097915521
 51
241.94740343006541
  0
ARC
  8
DETAIL
  6
CONTINUOUS
 62
     5
 10
-88.73899948512917
 20
-72.220144627835012
 30
0.0
 40
4.8852044818046299
 50
44.047610532157449
 51
148.05446282119661
  0
ARC
  8
DETAIL
  6
CONTINUOUS
 62
     5
 10
-30.20444067897915
 20
-28.224871784064131
 30
0.0
 40
68.379981995964513
 50
216.42169034752339
 51
230.56653600173519
  0
ARC
  8
DETAIL
  6
CONTINUOUS
 62
     5
 10
-105.9963472296549
 20
-56.466062522603814
 30
0.0
 40
40.631057656643641
 50
322.78679750035428
 51
22.238611054867231
  0
ARC
  8
DETAIL
  6
CONTINUOUS
 62
     5
 10
5.23239652319171
 20
-176.83675536604801
 30
0.0
 40
30.348723738845859
 50
17.29412304398377
 51
40.799175831944027
  0
ARC
  8
DETAIL
  6
CONTINUOUS
 62
     5
 10
37.921600840654719
 20
-145.29922379028221
 30
0.0
 40
15.21333767200364
 50
178.6665208154098
 51
230.31324072187371
  0
ARC
  8
DETAIL
  6
CONTINUOUS
 62
     5
 10
-0.3069258173709386
 20
-142.65690895536821
 30
0.0
 40
23.13276470376179
 50
354.32305579402458
 51
34.76347157121279
  0
ARC
  8
DETAIL
  6
CONTINUOUS
 62
     5
 10
139.78124080171619
 20
-80.780823743194091
 30
0.0
 40
130.50569463006249
 50
190.68845001111481
 51
201.9042519916226
  0
ARC
  8
DETAIL
  6
CONTINUOUS
 62
     5
 10
9.4316545117326314
 20
-105.6210964636594
 30
0.0
 40
2.2009992411595989
 50
16.060318083428239
 51
90.365376757064595
  0
ARC
  8
DETAIL
  6
CONTINUOUS
 62
     5
 10
181.9305825982228
 20
-178.5138934659353
 30
0.0
 40
188.1225919702598
 50
145.20031486573021
 51
156.47341408501109
  0
ARC
  8
DETAIL
  6
CONTINUOUS
 62
     5
 10
-108.00333521377981
 20
-38.438311213955103
 30
0.0
 40
39.704290950446762
 50
356.17255763480478
 51
23.887440277375681
  0
ARC
  8
DETAIL
  6
CONTINUOUS
 62
     5
 10
0.8875896963618288
 20
0.2135831128580321
 30
0.0
 40
76.016735163602462
 50
180.44213741741851
 51
197.2751544285816
  0
ARC
  8
DETAIL
  6
CONTINUOUS
 62
     5
 10
36.737897991373757
 20
7.8334724489757264
 30
0.0
 40
112.1653932655889
 50
177.92586599476721
 51
184.19574614155081
  0
ARC
  8
DETAIL
  6
CONTINUOUS
 62
     5
 10
-176.8835397089824
 20
47.713072558725571
 30
0.0
 40
176.45889045418559
 50
22.505938720642821
 51
97.276442664859616
  0
ARC
  8
DETAIL
  6
CONTINUOUS
 62
     5
 10
-5.672997779056459
 20
4.0000363024162198
 30
0.0
 40
291.87818289147162
 50
131.53609569659631
 51
166.10817723986159
  0
ARC
  8
DETAIL
  6
CONTINUOUS
 62
     5
 10
-3.103024875177653
 20
-1.9818577562352859
 30
0.0
 40
295.85470032980089
 50
165.10303895191609
 51
189.26868784900611
  0
ARC
  8
DETAIL
  6
CONTINUOUS
 62
     5
 10
-289.62352955193637
 20
-49.162985516310741
 30
0.0
 40
5.4916797990085211
 50
184.91542860159561
 51
321.27788844513071
  0
ARC
  8
DETAIL
  6
CONTINUOUS
 62
     5
 10
-89.270245458232225
 20
-134.65662253512301
 30
0.0
 40
212.54769352591089
 50
124.6435682494685
 51
157.28979841210261
  0
ARC
  8
DETAIL
  6
CONTINUOUS
 62
     5
 10
-186.8314301778737
 20
13.15148262963748
 30
-133.03769399999999
 40
35.683458014744673
 50
92.098046805738306
 51
130.69273728653559
  0
ARC
  8
DETAIL
  6
CONTINUOUS
 62
     5
 10
-189.80128691878781
 20
77.243439178580502
 30
0.0
 40
28.481040856615
 50
273.34839222795318
 51
301.05648839300272
  0
ARC
  8
DETAIL
  6
CONTINUOUS
 62
     5
 10
-167.26514081418281
 20
40.267373003632883
 30
0.0
 40
14.822647456419659
 50
70.987940979191237
 51
121.94740343011399
  0
ARC
  8
DETAIL
  6
CONTINUOUS
 62
     5
 10
-18.17498017012986
 20
112.9603001744526
 30
0.0
 40
4.8852044818046316
 50
284.04761053209199
 51
28.054462821266561
  0
ARC
  8
DETAIL
  6
CONTINUOUS
 62
     5
 10
-9.3412356440712756
 20
40.270248827126579
 30
0.0
 40
68.379981995964528
 50
96.421690347533584
 51
110.5665360016261
  0
ARC
  8
DETAIL
  6
CONTINUOUS
 62
     5
 10
4.0971290185698308
 20
120.02856067053879
 30
0.0
 40
40.631057656643648
 50
202.78679750039481
 51
262.23861105487708
  0
ARC
  8
DETAIL
  6
CONTINUOUS
 62
     5
 10
-155.7613207314098
 20
83.886989371264235
 30
0.0
 40
30.348723738845859
 50
257.29412304400188
 51
280.79917583182589
  0
ARC
  8
DETAIL
  6
CONTINUOUS
 62
     5
 10
-144.7936193728747
 20
39.808542214959289
 30
0.0
 40
15.21333767200364
 50
58.666520815501499
 51
110.31324072171169
  0
ARC
  8
DETAIL
  6
CONTINUOUS
 62
     5
 10
-123.3910442720298
 20
71.594260032602961
 30
0.0
 40
23.132764703761801
 50
234.32305579388981
 51
274.76347157123303
  0
ARC
  8
DETAIL
  6
CONTINUOUS
 62
     5
 10
-139.84886590110179
 20
-80.663693635201994
 30
0.0
 40
130.50569463006249
 50
70.688450011119471
 51
81.904251991603005
  0
ARC
  8
DETAIL
  6
CONTINUOUS
 62
     5
 10
-96.186379968985293
 20
44.642495825439433
 30
0.0
 40
2.2009992416303228
 50
256.0603180871326
 51
329.63462383667081
  0
ARC
  8
DETAIL
  6
CONTINUOUS
 62
     5
 10
-245.56285796908199
 20
-68.299559522398354
 30
0.0
 40
188.1225919702598
 50
25.200314865871519
 51
36.473414084893612
  0
ARC
  8
DETAIL
  6
CONTINUOUS
 62
     5
 10
20.713113617031919
 20
112.7527875955568
 30
0.0
 40
39.704290950446783
 50
236.17255763491869
 51
263.88744027732241
  0
ARC
  8
DETAIL
  6
CONTINUOUS
 62
     5
 10
-0.2588264466285182
 20
-0.8754667816187975
 30
0.0
 40
76.016735163602462
 50
60.442137417513337
 51
77.275154428570104
  0
ARC
  8
DETAIL
  6
CONTINUOUS
 62
     5
 10
-11.584962855031341
 20
-35.732689166661203
 30
0.0
 40
112.1653932655889
 50
57.925865994751987
 51
64.195746141623601
  0
ENDSEC
  0
EOF
